999
DXF file: _cgs_temp_output.dxf
999
Pro/ENGINEER 2016360 by Parametric Technology Corporation
  0
SECTION
  2
HEADER
  9
$ACADVER
  1
AC1021
  9
$DWGCODEPAGE
  3
ANSI_1252
  9
$EXTMAX
 10
22.0
 20
17.0
 30
0.0
  9
$EXTMIN
 10
0.0
 20
0.0
 30
0.0
  9
$LIMMIN
 10
0.0
 20
0.0
  9
$LIMMAX
 10
22.0
 20
17.0
  9
$VIEWCTR
 10
11.0
 20
8.5
  9
$VIEWSIZE
 40
17.0
  9
$CLAYER
  8
0
  9
$LTSCALE
 40
1.21
  9
$CELTYPE
  6
BYLAYER
  9
$DIMSCALE
 40
1.0
  9
$DIMASZ
 40
0.1875
  9
$DIMEXO
 40
0.0625
  9
$DIMDLI
 40
0.836
  9
$DIMEXE
 40
0.125
  9
$DIMCEN
 40
0.198
  9
$DIMLFAC
 40
1.0
  9
$DIMBLK
  1
_CLOSED
  9
$DIMALT
 70
0
  9
$DIMALTF
 40
25.4
  9
$DIMTXT
 40
0.15625
  9
$DIMTOL
 70
0
  9
$DIMLIM
 70
0
  9
$DIMTFAC
 40
1.0
  9
$DIMGAP
 40
0.09
  9
$DIMDSEP
 70
46
  9
$AUNITS
 70
0
  9
$PDMODE
 70
3
  9
$PDSIZE
 40
0.3125
  9
$HANDSEED
  5
306
  9
$TILEMODE
 70
1
  9
$MEASUREMENT
 70
0
  9
$INSUNITS
 70
1
  0
ENDSEC
  0
SECTION
  2
CLASSES
  0
CLASS
  1
ACDBDICTIONARYWDFLT
  2
AcDbDictionaryWithDefault
  3
AutoCAD 2000
 90
0
 91
1
280
0
281
0
  0
CLASS
  1
ACDBPLACEHOLDER
  2
AcDbPlaceHolder
  3
AutoCAD 2000
 90
0
 91
1
280
0
281
0
  0
CLASS
  1
LAYOUT
  2
AcDbLayout
  3
AutoCAD 2000
 90
0
 91
0
280
0
281
0
  0
ENDSEC
  0
SECTION
  2
TABLES
  0
TABLE
  2
VPORT
  5
8
100
AcDbSymbolTable
 70
2
  0
VPORT
  5
1F4
100
AcDbSymbolTableRecord
100
AcDbViewportTableRecord
  2
*ACTIVE
 70
0
 10
0.0
 20
0.0
 11
1.0
 21
1.0
 12
11.0
 22
8.5
 13
0.0
 23
0.0
 14
1.0
 24
1.0
 15
0.0
 25
0.0
 16
0.0
 26
0.0
 36
1.0
 17
0.0
 27
0.0
 37
0.0
 40
17.0
 41
1.2941176471
 42
50.0
 43
0.0
 44
0.0
 50
0.0
 51
0.0
 71
0
 72
100
 73
1
 74
1
 75
0
 76
0
 77
0
 78
0
  0
ENDTAB
  0
TABLE
  2
LTYPE
  5
5
100
AcDbSymbolTable
 70
6
  0
LTYPE
  5
14
100
AcDbSymbolTableRecord
100
AcDbLinetypeTableRecord
  2
BYBLOCK
 70
0
  3

 72
65
 73
0
 40
0.0
  0
LTYPE
  5
15
100
AcDbSymbolTableRecord
100
AcDbLinetypeTableRecord
  2
BYLAYER
 70
0
  3

 72
65
 73
0
 40
0.0
  0
LTYPE
  5
16
100
AcDbSymbolTableRecord
100
AcDbLinetypeTableRecord
  2
CONTINUOUS
 70
64
  3
Solid line
 72
65
 73
0
 40
0.0
  0
LTYPE
  5
1F5
100
AcDbSymbolTableRecord
100
AcDbLinetypeTableRecord
  2
CENTER
 70
64
  3
____ _ ____ _ ____ _ ____ _ ____ _ ____ _ ____
 72
65
 73
4
 40
0.6
 49
0.375
 74
0
 49
-0.075
 74
0
 49
0.075
 74
0
 49
-0.075
 74
0
  0
LTYPE
  5
1F6
100
AcDbSymbolTableRecord
100
AcDbLinetypeTableRecord
  2
HIDDEN
 70
64
  3
- - - - - - - - - - - - - - - - - - - -
 72
65
 73
2
 40
0.2
 49
0.1
 74
0
 49
-0.1
 74
0
  0
LTYPE
  5
1F7
100
AcDbSymbolTableRecord
100
AcDbLinetypeTableRecord
  2
PHANTOM
 70
64
  3
_____ _ _ _____ _ _ _____ _ _ _____
 72
65
 73
6
 40
0.8
 49
0.45
 74
0
 49
-0.05
 74
0
 49
0.1
 74
0
 49
-0.05
 74
0
 49
0.1
 74
0
 49
-0.05
 74
0
  0
LTYPE
  5
1F8
100
AcDbSymbolTableRecord
100
AcDbLinetypeTableRecord
  2
DOT
 70
64
  3
. . . . . . . . . . . . . . . . . . . .
 72
65
 73
2
 40
0.2
 49
0.1
 74
0
 49
-0.1
 74
0
  0
LTYPE
  5
1F9
100
AcDbSymbolTableRecord
100
AcDbLinetypeTableRecord
  2
DASHED
 70
64
  3
- - - - - - - - - - - - - - - - - - - -
 72
65
 73
2
 40
0.2
 49
0.1
 74
0
 49
-0.1
 74
0
  0
ENDTAB
  0
TABLE
  2
LAYER
  5
2
100
AcDbSymbolTable
 70
36
  0
LAYER
  5
10
100
AcDbSymbolTableRecord
100
AcDbLayerTableRecord
  2
0
 70
0
 62
7
  6
CONTINUOUS
370
-3
390
F
  0
LAYER
  5
1FA
100
AcDbSymbolTableRecord
100
AcDbLayerTableRecord
  2
DEFAULT_1
 70
0
 62
7
  6
CENTER
370
-3
390
F
  0
LAYER
  5
1FB
100
AcDbSymbolTableRecord
100
AcDbLayerTableRecord
  2
DEFAULT_2
 70
0
 62
8
  6
HIDDEN
370
-3
390
F
  0
LAYER
  5
1FC
100
AcDbSymbolTableRecord
100
AcDbLayerTableRecord
  2
DEFAULT_3
 70
0
 62
7
  6
PHANTOM
370
-3
390
F
  0
LAYER
  5
1FD
100
AcDbSymbolTableRecord
100
AcDbLayerTableRecord
  2
01_ALL_DTM_PLN
 70
0
 62
7
  6
CONTINUOUS
370
-3
390
F
  0
LAYER
  5
1FE
100
AcDbSymbolTableRecord
100
AcDbLayerTableRecord
  2
01__ASM_ALL_DTM_PLN
 70
0
 62
7
  6
CONTINUOUS
370
-3
390
F
  0
LAYER
  5
1FF
100
AcDbSymbolTableRecord
100
AcDbLayerTableRecord
  2
01__ASM_DEF_DTM_PLN
 70
0
 62
7
  6
CONTINUOUS
370
-3
390
F
  0
LAYER
  5
200
100
AcDbSymbolTableRecord
100
AcDbLayerTableRecord
  2
01___PRT_ALL_DTM_PLN
 70
0
 62
7
  6
CONTINUOUS
370
-3
390
F
  0
LAYER
  5
201
100
AcDbSymbolTableRecord
100
AcDbLayerTableRecord
  2
01___PRT_DEF_DTM_PLN
 70
0
 62
7
  6
CONTINUOUS
370
-3
390
F
  0
LAYER
  5
202
100
AcDbSymbolTableRecord
100
AcDbLayerTableRecord
  2
02_ALL_AXES
 70
0
 62
7
  6
CONTINUOUS
370
-3
390
F
  0
LAYER
  5
203
100
AcDbSymbolTableRecord
100
AcDbLayerTableRecord
  2
02__ASM_ALL_AXES
 70
0
 62
7
  6
CONTINUOUS
370
-3
390
F
  0
LAYER
  5
204
100
AcDbSymbolTableRecord
100
AcDbLayerTableRecord
  2
02___PRT_ALL_AXES
 70
0
 62
7
  6
CONTINUOUS
370
-3
390
F
  0
LAYER
  5
205
100
AcDbSymbolTableRecord
100
AcDbLayerTableRecord
  2
03_ALL_CURVES
 70
0
 62
7
  6
CONTINUOUS
370
-3
390
F
  0
LAYER
  5
206
100
AcDbSymbolTableRecord
100
AcDbLayerTableRecord
  2
03__ASM_ALL_CURVES
 70
0
 62
7
  6
CONTINUOUS
370
-3
390
F
  0
LAYER
  5
207
100
AcDbSymbolTableRecord
100
AcDbLayerTableRecord
  2
03___PRT_ALL_CURVES
 70
0
 62
7
  6
CONTINUOUS
370
-3
390
F
  0
LAYER
  5
208
100
AcDbSymbolTableRecord
100
AcDbLayerTableRecord
  2
04_ALL_DTM_PNT
 70
0
 62
7
  6
CONTINUOUS
370
-3
390
F
  0
LAYER
  5
209
100
AcDbSymbolTableRecord
100
AcDbLayerTableRecord
  2
04__ASM_ALL_DTM_PNT
 70
0
 62
7
  6
CONTINUOUS
370
-3
390
F
  0
LAYER
  5
20A
100
AcDbSymbolTableRecord
100
AcDbLayerTableRecord
  2
04___PRT_ALL_DTM_PNT
 70
0
 62
7
  6
CONTINUOUS
370
-3
390
F
  0
LAYER
  5
20B
100
AcDbSymbolTableRecord
100
AcDbLayerTableRecord
  2
05_ALL_DTM_CSYS
 70
0
 62
7
  6
CONTINUOUS
370
-3
390
F
  0
LAYER
  5
20C
100
AcDbSymbolTableRecord
100
AcDbLayerTableRecord
  2
05__ASM_ALL_DTM_CSYS
 70
0
 62
7
  6
CONTINUOUS
370
-3
390
F
  0
LAYER
  5
20D
100
AcDbSymbolTableRecord
100
AcDbLayerTableRecord
  2
05__ASM_DEF_DTM_CSYS
 70
0
 62
7
  6
CONTINUOUS
370
-3
390
F
  0
LAYER
  5
20E
100
AcDbSymbolTableRecord
100
AcDbLayerTableRecord
  2
05___PRT_ALL_DTM_CSYS
 70
0
 62
7
  6
CONTINUOUS
370
-3
390
F
  0
LAYER
  5
20F
100
AcDbSymbolTableRecord
100
AcDbLayerTableRecord
  2
05___PRT_DEF_DTM_CSYS
 70
0
 62
7
  6
CONTINUOUS
370
-3
390
F
  0
LAYER
  5
210
100
AcDbSymbolTableRecord
100
AcDbLayerTableRecord
  2
06_ALL_SURFS
 70
0
 62
7
  6
CONTINUOUS
370
-3
390
F
  0
LAYER
  5
211
100
AcDbSymbolTableRecord
100
AcDbLayerTableRecord
  2
06__ASM_ALL_SURFS
 70
0
 62
7
  6
CONTINUOUS
370
-3
390
F
  0
LAYER
  5
212
100
AcDbSymbolTableRecord
100
AcDbLayerTableRecord
  2
06___PRT_ALL_SURFS
 70
0
 62
7
  6
CONTINUOUS
370
-3
390
F
  0
LAYER
  5
213
100
AcDbSymbolTableRecord
100
AcDbLayerTableRecord
  2
07__ASM_ALL_SKELETONS
 70
0
 62
7
  6
CONTINUOUS
370
-3
390
F
  0
ENDTAB
  0
TABLE
  2
STYLE
  5
3
100
AcDbSymbolTable
 70
1
  0
STYLE
  5
11
100
AcDbSymbolTableRecord
100
AcDbTextStyleTableRecord
  2
STANDARD
 70
0
 40
0.0
 41
0.8
 50
0.0
 71
0
 42
0.2
  3
txt
  4

  0
STYLE
  5
214
100
AcDbSymbolTableRecord
100
AcDbTextStyleTableRecord
  2
TEXTSTYLE_1
 70
0
 40
0.0
 41
0.8
 50
0.0
 71
0
 42
0.2
  3
gdt
  4

  0
ENDTAB
  0
TABLE
  2
VIEW
  5
6
100
AcDbSymbolTable
 70
0
  0
ENDTAB
  0
TABLE
  2
UCS
  5
7
100
AcDbSymbolTable
 70
0
  0
ENDTAB
  0
TABLE
  2
APPID
  5
9
100
AcDbSymbolTable
 70
1
  0
APPID
  5
215
100
AcDbSymbolTableRecord
100
AcDbRegAppTableRecord
  2
ACAD
 70
0
  0
ENDTAB
  0
TABLE
  2
BLOCK_RECORD
  5
1
100
AcDbSymbolTable
 70
0
  0
BLOCK_RECORD
  5
216
100
AcDbSymbolTableRecord
100
AcDbBlockTableRecord
  2
*Model_Space
  0
BLOCK_RECORD
  5
217
100
AcDbSymbolTableRecord
100
AcDbBlockTableRecord
  2
*Paper_Space
  0
ENDTAB
  0
TABLE
  2
DIMSTYLE
  5
A
100
AcDbSymbolTable
 70
1
100
AcDbDimStyleTable
 71
0
  0
DIMSTYLE
105
218
100
AcDbSymbolTableRecord
100
AcDbDimStyleTableRecord
  2
STANDARD
 70
0
  3

  4

 40
1.0
 41
0.1875
 42
0.0625
 43
0.38
 44
0.125
 45
0.0
 46
0.0
 47
0.0001
 48
0.0001
140
0.15625
141
0.09
142
0.0
143
25.4
144
1.0
145
0.0
146
1.0
147
0.09
 71
0.0
 72
0.0
 73
1
 74
1
 75
0
 76
0
 77
0
 78
4
 79
1
170
0
171
3
172
0
173
0
174
0
175
0
176
0
177
0
178
0
270
2
179
4
271
4
272
4
273
2
274
2
275
0
280
0
281
0
282
0
283
1
284
4
285
0
286
0
287
3
288
0
340
11
278
46
  0
ENDTAB
  0
ENDSEC
  0
SECTION
  2
BLOCKS
  0
BLOCK
  5
20
100
AcDbEntity
  8
0
100
AcDbBlockBegin
  2
*Model_Space
 70
0
 10
0.0
 20
0.0
 30
0.0
  3
*Model_Space
  1

  0
ENDBLK
  5
21
100
AcDbEntity
  8
0
100
AcDbBlockEnd
  0
BLOCK
  5
1C
100
AcDbEntity
  8
0
100
AcDbBlockBegin
  2
*Paper_Space
 70
0
 10
0.0
 20
0.0
 30
0.0
  3
*Paper_Space
  1

  0
ENDBLK
  5
1D
100
AcDbEntity
  8
0
100
AcDbBlockEnd
  0
ENDSEC
  0
SECTION
  2
ENTITIES
  0
MTEXT
  5
219
100
AcDbEntity
  8
0
100
AcDbMText
 62
7
  6
CONTINUOUS
  7
STANDARD
 71
1
 72
1
 10
15.9560215477
 20
0.9479130325
 30
0.0
 11
1.0
 21
0.0
 31
0.0
 44
0.9
  1
SCALE: 1:1.000
 40
0.3
 41
3.36
  0
LINE
  5
21A
100
AcDbEntity
  8
0
100
AcDbLine
 62
7
  6
CONTINUOUS
 10
0.0
 20
0.0
 11
0.0
 21
17.0
  0
LINE
  5
21B
100
AcDbEntity
  8
0
100
AcDbLine
 62
7
  6
CONTINUOUS
 10
0.0
 20
0.0
 11
22.0
 21
0.0
  0
LINE
  5
21C
100
AcDbEntity
  8
0
100
AcDbLine
 62
7
  6
CONTINUOUS
 10
0.0
 20
17.0
 11
22.0
 21
17.0
  0
LINE
  5
21D
100
AcDbEntity
  8
0
100
AcDbLine
 62
7
  6
CONTINUOUS
 10
22.0
 20
0.0
 11
22.0
 21
17.0
  0
LINE
  5
21E
100
AcDbEntity
  8
0
100
AcDbLine
 62
7
  6
CONTINUOUS
 10
5.4203672762
 20
5.7901198968
 11
5.4203672762
 21
5.6798983528
  0
LINE
  5
21F
100
AcDbEntity
  8
0
100
AcDbLine
 62
7
  6
CONTINUOUS
 10
5.5259696649
 20
5.2440718494
 11
5.4233377035
 21
5.6557061633
  0
LINE
  5
220
100
AcDbEntity
  8
0
100
AcDbLine
 62
7
  6
CONTINUOUS
 10
5.5502270581
 20
5.2251198968
 11
6.7105074942
 21
5.2251198968
  0
LINE
  5
221
100
AcDbEntity
  8
0
100
AcDbLine
 62
7
  6
CONTINUOUS
 10
5.5011925509
 20
5.4217865634
 11
6.7595420015
 21
5.4217865634
  0
LINE
  5
222
100
AcDbEntity
  8
0
100
AcDbLine
 62
7
  6
CONTINUOUS
 10
6.8153672762
 20
5.8151198968
 11
5.4453672762
 21
5.8151198968
  0
LINE
  5
223
100
AcDbEntity
  8
0
100
AcDbLine
 62
7
  6
CONTINUOUS
 10
6.7347648874
 20
5.2440718494
 11
6.8373968488
 21
5.6557061633
  0
LINE
  5
224
100
AcDbEntity
  8
0
100
AcDbLine
 62
7
  6
CONTINUOUS
 10
6.8403672762
 20
5.6798983528
 11
6.8403672762
 21
5.7901198968
  0
LINE
  5
225
100
AcDbEntity
  8
0
100
AcDbLine
 62
7
  6
CONTINUOUS
 10
6.7808720839
 20
10.6000477814
 11
5.3608720839
 21
10.6000477814
  0
LINE
  5
226
100
AcDbEntity
  8
0
100
AcDbLine
 62
7
  6
CONTINUOUS
 10
5.3608720839
 20
10.6000477814
 11
5.3608720839
 21
14.6000477814
  0
LINE
  5
227
100
AcDbEntity
  8
0
100
AcDbLine
 62
7
  6
CONTINUOUS
 10
6.7808720839
 20
10.6000477814
 11
6.7808720839
 21
14.6000477814
  0
LINE
  5
228
100
AcDbEntity
  8
0
100
AcDbLine
 62
7
  6
CONTINUOUS
 10
5.3608720839
 20
14.6000477814
 11
6.7808720839
 21
14.6000477814
  0
LINE
  5
229
100
AcDbEntity
  8
0
100
AcDbLine
 62
7
  6
CONTINUOUS
 10
13.5603552569
 20
5.3622913711
 11
13.5603552569
 21
5.7556247044
  0
LINE
  5
22A
100
AcDbEntity
  8
0
100
AcDbLine
 62
7
  6
CONTINUOUS
 10
13.6714508138
 20
5.324184798
 11
13.6992597001
 21
5.2037312776
  0
LINE
  5
22B
100
AcDbEntity
  8
0
100
AcDbLine
 62
7
  6
CONTINUOUS
 10
13.9214508138
 20
5.2037312776
 11
13.9492597001
 21
5.324184798
  0
LINE
  5
22C
100
AcDbEntity
  8
0
100
AcDbLine
 62
7
  6
CONTINUOUS
 10
14.1714508138
 20
5.324184798
 11
14.1992597001
 21
5.2037312776
  0
LINE
  5
22D
100
AcDbEntity
  8
0
100
AcDbLine
 62
7
  6
CONTINUOUS
 10
14.4214508138
 20
5.2037312776
 11
14.4492597001
 21
5.324184798
  0
LINE
  5
22E
100
AcDbEntity
  8
0
100
AcDbLine
 62
7
  6
CONTINUOUS
 10
14.6714508138
 20
5.324184798
 11
14.6992597001
 21
5.2037312776
  0
LINE
  5
22F
100
AcDbEntity
  8
0
100
AcDbLine
 62
7
  6
CONTINUOUS
 10
14.9214508138
 20
5.2037312776
 11
14.9492597001
 21
5.324184798
  0
LINE
  5
230
100
AcDbEntity
  8
0
100
AcDbLine
 62
7
  6
CONTINUOUS
 10
15.1714508138
 20
5.324184798
 11
15.1992597001
 21
5.2037312776
  0
LINE
  5
231
100
AcDbEntity
  8
0
100
AcDbLine
 62
7
  6
CONTINUOUS
 10
13.7471662283
 20
5.1656247044
 11
13.8735442856
 21
5.1656247044
  0
LINE
  5
232
100
AcDbEntity
  8
0
100
AcDbLine
 62
7
  6
CONTINUOUS
 10
14.2471662283
 20
5.1656247044
 11
14.3735442856
 21
5.1656247044
  0
LINE
  5
233
100
AcDbEntity
  8
0
100
AcDbLine
 62
7
  6
CONTINUOUS
 10
14.7471662283
 20
5.1656247044
 11
14.8735442856
 21
5.1656247044
  0
LINE
  5
234
100
AcDbEntity
  8
0
100
AcDbLine
 62
7
  6
CONTINUOUS
 10
15.2471662283
 20
5.1656247044
 11
15.3735442856
 21
5.1656247044
  0
LINE
  5
235
100
AcDbEntity
  8
0
100
AcDbLine
 62
7
  6
CONTINUOUS
 10
15.7471662283
 20
5.1656247044
 11
15.8735442856
 21
5.1656247044
  0
LINE
  5
236
100
AcDbEntity
  8
0
100
AcDbLine
 62
7
  6
CONTINUOUS
 10
16.2471662283
 20
5.1656247044
 11
16.3735442856
 21
5.1656247044
  0
LINE
  5
237
100
AcDbEntity
  8
0
100
AcDbLine
 62
7
  6
CONTINUOUS
 10
16.7471662283
 20
5.1656247044
 11
16.8735442856
 21
5.1656247044
  0
LINE
  5
238
100
AcDbEntity
  8
0
100
AcDbLine
 62
7
  6
CONTINUOUS
 10
17.2471662283
 20
5.1656247044
 11
17.3735442856
 21
5.1656247044
  0
LINE
  5
239
100
AcDbEntity
  8
0
100
AcDbLine
 62
7
  6
CONTINUOUS
 10
15.4214508138
 20
5.2037312776
 11
15.4492597001
 21
5.324184798
  0
LINE
  5
23A
100
AcDbEntity
  8
0
100
AcDbLine
 62
7
  6
CONTINUOUS
 10
13.5603552569
 20
5.3622913711
 11
13.6235442856
 21
5.3622913711
  0
LINE
  5
23B
100
AcDbEntity
  8
0
100
AcDbLine
 62
7
  6
CONTINUOUS
 10
13.9971662283
 20
5.3622913711
 11
14.1235442856
 21
5.3622913711
  0
LINE
  5
23C
100
AcDbEntity
  8
0
100
AcDbLine
 62
7
  6
CONTINUOUS
 10
14.4971662283
 20
5.3622913711
 11
14.6235442856
 21
5.3622913711
  0
LINE
  5
23D
100
AcDbEntity
  8
0
100
AcDbLine
 62
7
  6
CONTINUOUS
 10
14.9971662283
 20
5.3622913711
 11
15.1235442856
 21
5.3622913711
  0
LINE
  5
23E
100
AcDbEntity
  8
0
100
AcDbLine
 62
7
  6
CONTINUOUS
 10
15.4971662283
 20
5.3622913711
 11
15.6235442856
 21
5.3622913711
  0
LINE
  5
23F
100
AcDbEntity
  8
0
100
AcDbLine
 62
7
  6
CONTINUOUS
 10
15.9971662283
 20
5.3622913711
 11
16.1235442856
 21
5.3622913711
  0
LINE
  5
240
100
AcDbEntity
  8
0
100
AcDbLine
 62
7
  6
CONTINUOUS
 10
16.4971662283
 20
5.3622913711
 11
16.6235442856
 21
5.3622913711
  0
LINE
  5
241
100
AcDbEntity
  8
0
100
AcDbLine
 62
7
  6
CONTINUOUS
 10
16.9971662283
 20
5.3622913711
 11
17.1235442856
 21
5.3622913711
  0
LINE
  5
242
100
AcDbEntity
  8
0
100
AcDbLine
 62
7
  6
CONTINUOUS
 10
17.4971662283
 20
5.3622913711
 11
17.5603552569
 21
5.3622913711
  0
LINE
  5
243
100
AcDbEntity
  8
0
100
AcDbLine
 62
7
  6
CONTINUOUS
 10
15.6714508138
 20
5.324184798
 11
15.6992597001
 21
5.2037312776
  0
LINE
  5
244
100
AcDbEntity
  8
0
100
AcDbLine
 62
7
  6
CONTINUOUS
 10
15.9214508138
 20
5.2037312776
 11
15.9492597001
 21
5.324184798
  0
LINE
  5
245
100
AcDbEntity
  8
0
100
AcDbLine
 62
7
  6
CONTINUOUS
 10
13.5603552569
 20
5.7556247044
 11
17.5603552569
 21
5.7556247044
  0
LINE
  5
246
100
AcDbEntity
  8
0
100
AcDbLine
 62
7
  6
CONTINUOUS
 10
16.1714508138
 20
5.324184798
 11
16.1992597001
 21
5.2037312776
  0
LINE
  5
247
100
AcDbEntity
  8
0
100
AcDbLine
 62
7
  6
CONTINUOUS
 10
16.4214508138
 20
5.2037312776
 11
16.4492597001
 21
5.324184798
  0
LINE
  5
248
100
AcDbEntity
  8
0
100
AcDbLine
 62
7
  6
CONTINUOUS
 10
16.6714508138
 20
5.324184798
 11
16.6992597001
 21
5.2037312776
  0
LINE
  5
249
100
AcDbEntity
  8
0
100
AcDbLine
 62
7
  6
CONTINUOUS
 10
16.9214508138
 20
5.2037312776
 11
16.9492597001
 21
5.324184798
  0
LINE
  5
24A
100
AcDbEntity
  8
0
100
AcDbLine
 62
7
  6
CONTINUOUS
 10
17.1714508138
 20
5.324184798
 11
17.1992597001
 21
5.2037312776
  0
LINE
  5
24B
100
AcDbEntity
  8
0
100
AcDbLine
 62
7
  6
CONTINUOUS
 10
17.5603552569
 20
5.3622913711
 11
17.5603552569
 21
5.7556247044
  0
LINE
  5
24C
100
AcDbEntity
  8
0
100
AcDbLine
 62
7
  6
CONTINUOUS
 10
17.4214508138
 20
5.2037312776
 11
17.4492597001
 21
5.324184798
  0
LINE
  5
24D
100
AcDbEntity
  8
0
100
AcDbLine
 62
7
  6
CONTINUOUS
 10
14.3501423112
 20
10.9673079683
 11
14.465082968
 21
10.8336819359
  0
LWPOLYLINE
  5
24E
100
AcDbEntity
  8
0
100
AcDbPolyline
 62
7
  6
CONTINUOUS
 90
5
 70
0
 10
15.699374508
 20
10.8273811491
 10
15.7078679637
 20
10.828799463
 10
15.7155069683
 20
10.8329008895
 10
15.7212038207
 20
10.8386891628
 10
15.7249858214
 20
10.8449585433
  0
LINE
  5
24F
100
AcDbEntity
  8
0
100
AcDbLine
 62
7
  6
CONTINUOUS
 10
14.4932066457
 20
10.8219012132
 11
15.6522232414
 21
10.8219012132
  0
LINE
  5
250
100
AcDbEntity
  8
0
100
AcDbLine
 62
7
  6
CONTINUOUS
 10
15.6666784064
 20
10.8273811371
 11
15.6993738938
 21
10.8273811371
  0
LINE
  5
251
100
AcDbEntity
  8
0
100
AcDbLine
 62
7
  6
CONTINUOUS
 10
14.3064045503
 20
11.0508608849
 11
14.3400267358
 21
10.9823460745
  0
LINE
  5
252
100
AcDbEntity
  8
0
100
AcDbLine
 62
7
  6
CONTINUOUS
 10
15.5836585902
 20
11.0664011341
 11
14.3218050285
 21
11.0664011341
  0
LWPOLYLINE
  5
253
100
AcDbEntity
  8
0
100
AcDbPolyline
 62
7
  6
CONTINUOUS
 90
5
 70
0
 10
15.8204076697
 20
11.2190446039
 10
15.8289011254
 20
11.2204629178
 10
15.83654013
 20
11.2245643443
 10
15.8422369824
 20
11.2303526177
 10
15.8460189831
 20
11.2366219981
  0
LINE
  5
254
100
AcDbEntity
  8
0
100
AcDbLine
 62
7
  6
CONTINUOUS
 10
15.7886879604
 20
11.2190445919
 11
15.8204070555
 21
11.2190445919
  0
LWPOLYLINE
  5
255
100
AcDbEntity
  8
0
100
AcDbPolyline
 62
7
  6
CONTINUOUS
 90
5
 70
0
 10
15.9414408314
 20
11.6107080587
 10
15.9499342871
 20
11.6121263727
 10
15.9575732917
 20
11.6162277992
 10
15.9632701441
 20
11.6220160725
 10
15.9670521448
 20
11.6282854529
  0
LINE
  5
256
100
AcDbEntity
  8
0
100
AcDbLine
 62
7
  6
CONTINUOUS
 10
15.9097211221
 20
11.6107080467
 11
15.9414402172
 21
11.6107080467
  0
LINE
  5
257
100
AcDbEntity
  8
0
100
AcDbLine
 62
7
  6
CONTINUOUS
 10
14.305545554
 20
11.0582420692
 11
15.2738108476
 21
14.1915497077
  0
LWPOLYLINE
  5
258
100
AcDbEntity
  8
0
100
AcDbPolyline
 62
7
  6
CONTINUOUS
 90
5
 70
0
 10
16.0624739931
 20
12.0023715135
 10
16.0709674488
 20
12.0037898275
 10
16.0786064534
 20
12.007891254
 10
16.0843033058
 20
12.0136795273
 10
16.0880853065
 20
12.0199489077
  0
LINE
  5
259
100
AcDbEntity
  8
0
100
AcDbLine
 62
7
  6
CONTINUOUS
 10
16.0307542838
 20
12.0023715016
 11
16.0624733789
 21
12.0023715016
  0
LINE
  5
25A
100
AcDbEntity
  8
0
100
AcDbLine
 62
7
  6
CONTINUOUS
 10
15.6479333472
 20
10.9823460745
 11
15.6143111618
 21
11.0508608849
  0
LWPOLYLINE
  5
25B
100
AcDbEntity
  8
0
100
AcDbPolyline
 62
7
  6
CONTINUOUS
 90
5
 70
0
 10
16.1835071548
 20
12.3940349683
 10
16.1920006105
 20
12.3954532823
 10
16.1996396151
 20
12.3995547088
 10
16.2053364675
 20
12.4053429821
 10
16.2091184682
 20
12.4116123625
  0
LINE
  5
25C
100
AcDbEntity
  8
0
100
AcDbLine
 62
7
  6
CONTINUOUS
 10
16.1517874455
 20
12.3940349564
 11
16.1835065406
 21
12.3940349564
  0
LINE
  5
25D
100
AcDbEntity
  8
0
100
AcDbLine
 62
7
  6
CONTINUOUS
 10
15.6687846411
 20
10.8336819359
 11
15.6525770331
 21
10.9673079683
  0
LWPOLYLINE
  5
25E
100
AcDbEntity
  8
0
100
AcDbPolyline
 62
7
  6
CONTINUOUS
 90
5
 70
0
 10
16.3045403165
 20
12.7856984231
 10
16.3130337722
 20
12.7871167371
 10
16.3206727768
 20
12.7912181636
 10
16.3263696292
 20
12.7970064369
 10
16.3301516299
 20
12.8032758173
  0
LINE
  5
25F
100
AcDbEntity
  8
0
100
AcDbLine
 62
7
  6
CONTINUOUS
 10
15.7645179381
 20
10.9912167306
 11
15.7621678714
 21
11.0878752881
  0
LWPOLYLINE
  5
260
100
AcDbEntity
  8
0
100
AcDbPolyline
 62
7
  6
CONTINUOUS
 90
7
 70
0
 10
15.762166781
 20
11.0878993175
 10
15.7621596554
 20
11.095445013
 10
15.7630453522
 20
11.111724458
 10
15.7651316709
 20
11.1299473243
 10
15.7682484264
 20
11.148188827
 10
15.7720093512
 20
11.1644929971
 10
15.774214779
 20
11.1722131863
  0
LINE
  5
261
100
AcDbEntity
  8
0
100
AcDbLine
 62
7
  6
CONTINUOUS
 10
16.2728206072
 20
12.7856984112
 11
16.3045397023
 21
12.7856984112
  0
LINE
  5
262
100
AcDbEntity
  8
0
100
AcDbLine
 62
7
  6
CONTINUOUS
 10
15.8855510998
 20
11.3828801854
 11
15.8832010331
 21
11.4795387429
  0
LWPOLYLINE
  5
263
100
AcDbEntity
  8
0
100
AcDbPolyline
 62
7
  6
CONTINUOUS
 90
7
 70
0
 10
15.8831999427
 20
11.4795627723
 10
15.8831928171
 20
11.4871084678
 10
15.8840785139
 20
11.5033879128
 10
15.8861648326
 20
11.5216107791
 10
15.8892815881
 20
11.5398522818
 10
15.8930425129
 20
11.5561564519
 10
15.8952479407
 20
11.5638766411
  0
LINE
  5
264
100
AcDbEntity
  8
0
100
AcDbLine
 62
7
  6
CONTINUOUS
 10
15.7644035303
 20
10.9839307418
 11
15.764516316
 21
10.9912763921
  0
LINE
  5
265
100
AcDbEntity
  8
0
100
AcDbLine
 62
7
  6
CONTINUOUS
 10
15.6684805334
 20
10.8300609498
 11
15.6687846411
 21
10.8336819359
  0
LINE
  5
266
100
AcDbEntity
  8
0
100
AcDbLine
 62
7
  6
CONTINUOUS
 10
16.0065842615
 20
11.7745436402
 11
16.0042341948
 21
11.8712021977
  0
LWPOLYLINE
  5
267
100
AcDbEntity
  8
0
100
AcDbPolyline
 62
7
  6
CONTINUOUS
 90
7
 70
0
 10
16.0042331044
 20
11.8712262271
 10
16.0042259788
 20
11.8787719226
 10
16.0051116756
 20
11.8950513676
 10
16.0071979943
 20
11.9132742339
 10
16.0103147498
 20
11.9315157366
 10
16.0140756746
 20
11.9478199067
 10
16.0162811024
 20
11.9555400959
  0
LINE
  5
268
100
AcDbEntity
  8
0
100
AcDbLine
 62
7
  6
CONTINUOUS
 10
15.885436692
 20
11.3755941966
 11
15.8855494777
 21
11.382939847
  0
LINE
  5
269
100
AcDbEntity
  8
0
100
AcDbLine
 62
7
  6
CONTINUOUS
 10
16.0064698537
 20
11.7672576514
 11
16.0065826394
 21
11.7746033018
  0
LWPOLYLINE
  5
26A
100
AcDbEntity
  8
0
100
AcDbPolyline
 62
7
  6
CONTINUOUS
 90
3
 70
0
 10
16.5344717925
 20
13.6310694475
 10
16.5366135539
 20
13.6357956123
 10
16.5373877154
 20
13.637178609
  0
LWPOLYLINE
  5
26B
100
AcDbEntity
  8
0
100
AcDbPolyline
 62
7
  6
CONTINUOUS
 90
3
 70
0
 10
16.4134386308
 20
13.2394059926
 10
16.4155803922
 20
13.2441321574
 10
16.4163545537
 20
13.2455151542
  0
LWPOLYLINE
  5
26C
100
AcDbEntity
  8
0
100
AcDbPolyline
 62
7
  6
CONTINUOUS
 90
5
 70
0
 10
16.4255734782
 20
13.1773618779
 10
16.4340669339
 20
13.1787801919
 10
16.4417059385
 20
13.1828816184
 10
16.4474027909
 20
13.1886698917
 10
16.4511847916
 20
13.1949392722
  0
LINE
  5
26D
100
AcDbEntity
  8
0
100
AcDbLine
 62
7
  6
CONTINUOUS
 10
16.1276174232
 20
12.166207095
 11
16.1252673565
 21
12.2628656525
  0
LWPOLYLINE
  5
26E
100
AcDbEntity
  8
0
100
AcDbPolyline
 62
7
  6
CONTINUOUS
 90
7
 70
0
 10
16.1252662661
 20
12.2628896819
 10
16.1252591405
 20
12.2704353775
 10
16.1261448373
 20
12.2867148224
 10
16.128231156
 20
12.3049376887
 10
16.1313479115
 20
12.3231791915
 10
16.1351088363
 20
12.3394833615
 10
16.1373142641
 20
12.3472035507
  0
LINE
  5
26F
100
AcDbEntity
  8
0
100
AcDbLine
 62
7
  6
CONTINUOUS
 10
16.1275030154
 20
12.1589211062
 11
16.1276158011
 21
12.1662667566
  0
LWPOLYLINE
  5
270
100
AcDbEntity
  8
0
100
AcDbPolyline
 62
7
  6
CONTINUOUS
 90
3
 70
0
 10
15.7608285519
 20
10.95937995
 10
15.7631575675
 20
10.9715214087
 10
15.7644035303
 20
10.9839307418
  0
LWPOLYLINE
  5
271
100
AcDbEntity
  8
0
100
AcDbPolyline
 62
7
  6
CONTINUOUS
 90
3
 70
0
 10
15.8818617136
 20
11.3510434048
 10
15.8841907292
 20
11.3631848635
 10
15.885436692
 20
11.3755941966
  0
LWPOLYLINE
  5
272
100
AcDbEntity
  8
0
100
AcDbPolyline
 62
7
  6
CONTINUOUS
 90
3
 70
0
 10
16.0028948753
 20
11.7427068596
 10
16.0052238909
 20
11.7548483183
 10
16.0064698537
 20
11.7672576514
  0
LINE
  5
273
100
AcDbEntity
  8
0
100
AcDbLine
 62
7
  6
CONTINUOUS
 10
15.7591124215
 20
10.9531056617
 11
15.7608285519
 21
10.95937995
  0
LINE
  5
274
100
AcDbEntity
  8
0
100
AcDbLine
 62
7
  6
CONTINUOUS
 10
15.8801455832
 20
11.3447691165
 11
15.8818617136
 21
11.3510434048
  0
LINE
  5
275
100
AcDbEntity
  8
0
100
AcDbLine
 62
7
  6
CONTINUOUS
 10
15.6695306521
 20
10.833451401
 11
15.6837786526
 21
10.8795579475
  0
LINE
  5
276
100
AcDbEntity
  8
0
100
AcDbLine
 62
7
  6
CONTINUOUS
 10
15.7742199417
 20
11.1722260664
 11
15.8048118143
 21
11.2712214023
  0
LINE
  5
277
100
AcDbEntity
  8
0
100
AcDbLine
 62
7
  6
CONTINUOUS
 10
15.8952531034
 20
11.5638895212
 11
15.925844976
 21
11.6628848571
  0
LINE
  5
278
100
AcDbEntity
  8
0
100
AcDbLine
 62
7
  6
CONTINUOUS
 10
16.0162862652
 20
11.9555529761
 11
16.0468781377
 21
12.0545483119
  0
LINE
  5
279
100
AcDbEntity
  8
0
100
AcDbLine
 62
7
  6
CONTINUOUS
 10
16.1373194269
 20
12.3472164309
 11
16.1679112994
 21
12.4462117667
  0
LINE
  5
27A
100
AcDbEntity
  8
0
100
AcDbLine
 62
7
  6
CONTINUOUS
 10
16.2583525886
 20
12.7388798857
 11
16.2889444611
 21
12.8378752216
  0
LINE
  5
27B
100
AcDbEntity
  8
0
100
AcDbLine
 62
7
  6
CONTINUOUS
 10
16.3793857503
 20
13.1305433405
 11
16.4099776228
 21
13.2295386764
  0
LINE
  5
27C
100
AcDbEntity
  8
0
100
AcDbLine
 62
7
  6
CONTINUOUS
 10
16.500418912
 20
13.5222067953
 11
16.5310107845
 21
13.6212021312
  0
LINE
  5
27D
100
AcDbEntity
  8
0
100
AcDbLine
 62
7
  6
CONTINUOUS
 10
16.6214520737
 20
13.9138702501
 11
16.6367480095
 21
13.9633679167
  0
LINE
  5
27E
100
AcDbEntity
  8
0
100
AcDbLine
 62
7
  6
CONTINUOUS
 10
16.5310107303
 20
13.6212050034
 11
16.5318768519
 21
13.6239207438
  0
LINE
  5
27F
100
AcDbEntity
  8
0
100
AcDbLine
 62
7
  6
CONTINUOUS
 10
16.4099775686
 20
13.2295415486
 11
16.4108436902
 21
13.232257289
  0
LINE
  5
280
100
AcDbEntity
  8
0
100
AcDbLine
 62
7
  6
CONTINUOUS
 10
16.2889444069
 20
12.8378780938
 11
16.2898105285
 21
12.8405938342
  0
LINE
  5
281
100
AcDbEntity
  8
0
100
AcDbLine
 62
7
  6
CONTINUOUS
 10
16.1679112452
 20
12.446214639
 11
16.1687773668
 21
12.4489303794
  0
LINE
  5
282
100
AcDbEntity
  8
0
100
AcDbLine
 62
7
  6
CONTINUOUS
 10
16.0468780835
 20
12.0545511842
 11
16.0477442051
 21
12.0572669246
  0
LINE
  5
283
100
AcDbEntity
  8
0
100
AcDbLine
 62
7
  6
CONTINUOUS
 10
15.9258449218
 20
11.6628877294
 11
15.9267110434
 21
11.6656034698
  0
LINE
  5
284
100
AcDbEntity
  8
0
100
AcDbLine
 62
7
  6
CONTINUOUS
 10
15.8048117601
 20
11.2712242746
 11
15.8056778817
 21
11.273940015
  0
LINE
  5
285
100
AcDbEntity
  8
0
100
AcDbLine
 62
7
  6
CONTINUOUS
 10
15.6837785984
 20
10.8795608197
 11
15.68464472
 21
10.8822765601
  0
LINE
  5
286
100
AcDbEntity
  8
0
100
AcDbLine
 62
7
  6
CONTINUOUS
 10
16.5318768519
 20
13.6239207438
 11
16.5344717925
 21
13.6310694475
  0
LINE
  5
287
100
AcDbEntity
  8
0
100
AcDbLine
 62
7
  6
CONTINUOUS
 10
16.4108436902
 20
13.232257289
 11
16.4134386308
 21
13.2394059926
  0
LINE
  5
288
100
AcDbEntity
  8
0
100
AcDbLine
 62
7
  6
CONTINUOUS
 10
16.2898105285
 20
12.8405938342
 11
16.2924054691
 21
12.8477425378
  0
LINE
  5
289
100
AcDbEntity
  8
0
100
AcDbLine
 62
7
  6
CONTINUOUS
 10
16.1687773668
 20
12.4489303794
 11
16.1713723074
 21
12.456079083
  0
LINE
  5
28A
100
AcDbEntity
  8
0
100
AcDbLine
 62
7
  6
CONTINUOUS
 10
16.0477442051
 20
12.0572669246
 11
16.0503391457
 21
12.0644156282
  0
LINE
  5
28B
100
AcDbEntity
  8
0
100
AcDbLine
 62
7
  6
CONTINUOUS
 10
16.5722179534
 20
13.586602727
 11
16.574869999
 21
13.5930639375
  0
LINE
  5
28C
100
AcDbEntity
  8
0
100
AcDbLine
 62
7
  6
CONTINUOUS
 10
16.4511847916
 20
13.1949392722
 11
16.4538368373
 21
13.2014004827
  0
LINE
  5
28D
100
AcDbEntity
  8
0
100
AcDbLine
 62
7
  6
CONTINUOUS
 10
16.3301516299
 20
12.8032758173
 11
16.3328036756
 21
12.8097370279
  0
LWPOLYLINE
  5
28E
100
AcDbEntity
  8
0
100
AcDbPolyline
 62
7
  6
CONTINUOUS
 90
3
 70
0
 10
16.2924054691
 20
12.8477425378
 10
16.2945472305
 20
12.8524687026
 10
16.295321392
 20
12.8538516994
  0
LWPOLYLINE
  5
28F
100
AcDbEntity
  8
0
100
AcDbPolyline
 62
7
  6
CONTINUOUS
 90
3
 70
0
 10
16.1713723074
 20
12.456079083
 10
16.1735140688
 20
12.4608052478
 10
16.1742882303
 20
12.4621882446
  0
LINE
  5
290
100
AcDbEntity
  8
0
100
AcDbLine
 62
7
  6
CONTINUOUS
 10
16.3938537689
 20
13.177361866
 11
16.425572864
 21
13.177361866
  0
LINE
  5
291
100
AcDbEntity
  8
0
100
AcDbLine
 62
7
  6
CONTINUOUS
 10
16.2486505849
 20
12.5578705498
 11
16.2463005182
 21
12.6545291074
  0
LWPOLYLINE
  5
292
100
AcDbEntity
  8
0
100
AcDbPolyline
 62
7
  6
CONTINUOUS
 90
7
 70
0
 10
16.2462994278
 20
12.6545531367
 10
16.2462923022
 20
12.6620988323
 10
16.247177999
 20
12.6783782772
 10
16.2492643177
 20
12.6966011435
 10
16.2523810732
 20
12.7148426463
 10
16.256141998
 20
12.7311468163
 10
16.2583474258
 20
12.7388670056
  0
LINE
  5
293
100
AcDbEntity
  8
0
100
AcDbLine
 62
7
  6
CONTINUOUS
 10
16.2485361772
 20
12.550584561
 11
16.2486489628
 21
12.5579302114
  0
LWPOLYLINE
  5
294
100
AcDbEntity
  8
0
100
AcDbPolyline
 62
7
  6
CONTINUOUS
 90
3
 70
0
 10
16.123928037
 20
12.1343703144
 10
16.1262570526
 20
12.1465117731
 10
16.1275030154
 20
12.1589211062
  0
LWPOLYLINE
  5
295
100
AcDbEntity
  8
0
100
AcDbPolyline
 62
7
  6
CONTINUOUS
 90
3
 70
0
 10
16.2449611987
 20
12.5260337692
 10
16.2472902143
 20
12.538175228
 10
16.2485361772
 20
12.550584561
  0
LWPOLYLINE
  5
296
100
AcDbEntity
  8
0
100
AcDbPolyline
 62
7
  6
CONTINUOUS
 90
3
 70
0
 10
16.3659943604
 20
12.9176972241
 10
16.368323376
 20
12.9298386828
 10
16.3695693389
 20
12.9422480158
  0
LINE
  5
297
100
AcDbEntity
  8
0
100
AcDbLine
 62
7
  6
CONTINUOUS
 10
16.0011787449
 20
11.7364325713
 11
16.0028948753
 21
11.7427068596
  0
LINE
  5
298
100
AcDbEntity
  8
0
100
AcDbLine
 62
7
  6
CONTINUOUS
 10
16.1222119066
 20
12.1280960261
 11
16.123928037
 21
12.1343703144
  0
LINE
  5
299
100
AcDbEntity
  8
0
100
AcDbLine
 62
7
  6
CONTINUOUS
 10
16.2432450683
 20
12.5197594809
 11
16.2449611987
 21
12.5260337692
  0
LINE
  5
29A
100
AcDbEntity
  8
0
100
AcDbLine
 62
7
  6
CONTINUOUS
 10
16.36427823
 20
12.9114229358
 11
16.3659943604
 21
12.9176972241
  0
LINE
  5
29B
100
AcDbEntity
  8
0
100
AcDbLine
 62
7
  6
CONTINUOUS
 10
16.4853113917
 20
13.3030863906
 11
16.4870275221
 21
13.3093606789
  0
LINE
  5
29C
100
AcDbEntity
  8
0
100
AcDbLine
 62
7
  6
CONTINUOUS
 10
16.6063445534
 20
13.6947498454
 11
16.6080606838
 21
13.7010241337
  0
LINE
  5
29D
100
AcDbEntity
  8
0
100
AcDbLine
 62
7
  6
CONTINUOUS
 10
15.728531156
 20
10.8541443786
 11
15.7591230277
 21
10.9531397117
  0
LINE
  5
29E
100
AcDbEntity
  8
0
100
AcDbLine
 62
7
  6
CONTINUOUS
 10
15.8495643177
 20
11.2458078334
 11
15.8801561894
 21
11.3448031666
  0
LINE
  5
29F
100
AcDbEntity
  8
0
100
AcDbLine
 62
7
  6
CONTINUOUS
 10
15.9705974794
 20
11.6374712882
 11
16.0011893512
 21
11.7364666214
  0
LINE
  5
2A0
100
AcDbEntity
  8
0
100
AcDbLine
 62
7
  6
CONTINUOUS
 10
16.0916306411
 20
12.029134743
 11
16.1222225129
 21
12.1281300762
  0
LINE
  5
2A1
100
AcDbEntity
  8
0
100
AcDbLine
 62
7
  6
CONTINUOUS
 10
16.2126638028
 20
12.4207981979
 11
16.2432556746
 21
12.519793531
  0
LINE
  5
2A2
100
AcDbEntity
  8
0
100
AcDbLine
 62
7
  6
CONTINUOUS
 10
16.3336969645
 20
12.8124616527
 11
16.3642888363
 21
12.9114569858
  0
LINE
  5
2A3
100
AcDbEntity
  8
0
100
AcDbLine
 62
7
  6
CONTINUOUS
 10
16.4547301263
 20
13.2041251075
 11
16.485321998
 21
13.3031204406
  0
LINE
  5
2A4
100
AcDbEntity
  8
0
100
AcDbLine
 62
7
  6
CONTINUOUS
 10
16.575763288
 20
13.5957885623
 11
16.6063551597
 21
13.6947838954
  0
LINE
  5
2A5
100
AcDbEntity
  8
0
100
AcDbLine
 62
7
  6
CONTINUOUS
 10
16.6063551597
 20
13.6947838954
 11
16.606344556
 21
13.6947498447
  0
LINE
  5
2A6
100
AcDbEntity
  8
0
100
AcDbLine
 62
7
  6
CONTINUOUS
 10
16.485321998
 20
13.3031204406
 11
16.4853113943
 21
13.3030863899
  0
LINE
  5
2A7
100
AcDbEntity
  8
0
100
AcDbLine
 62
7
  6
CONTINUOUS
 10
16.3642888363
 20
12.9114569858
 11
16.3642782326
 21
12.9114229351
  0
LINE
  5
2A8
100
AcDbEntity
  8
0
100
AcDbLine
 62
7
  6
CONTINUOUS
 10
16.2432556746
 20
12.519793531
 11
16.2432450709
 21
12.5197594802
  0
LINE
  5
2A9
100
AcDbEntity
  8
0
100
AcDbLine
 62
7
  6
CONTINUOUS
 10
16.1222225129
 20
12.1281300762
 11
16.1222119092
 21
12.1280960254
  0
LINE
  5
2AA
100
AcDbEntity
  8
0
100
AcDbLine
 62
7
  6
CONTINUOUS
 10
16.0011893512
 20
11.7364666214
 11
16.0011787475
 21
11.7364325706
  0
LINE
  5
2AB
100
AcDbEntity
  8
0
100
AcDbLine
 62
7
  6
CONTINUOUS
 10
15.8801561894
 20
11.3448031666
 11
15.8801455857
 21
11.3447691158
  0
LINE
  5
2AC
100
AcDbEntity
  8
0
100
AcDbLine
 62
7
  6
CONTINUOUS
 10
15.7591230277
 20
10.9531397117
 11
15.759112424
 21
10.953105661
  0
LINE
  5
2AD
100
AcDbEntity
  8
0
100
AcDbLine
 62
7
  6
CONTINUOUS
 10
16.574869999
 20
13.5930639375
 11
16.5757703045
 21
13.5958113865
  0
LINE
  5
2AE
100
AcDbEntity
  8
0
100
AcDbLine
 62
7
  6
CONTINUOUS
 10
16.4538368373
 20
13.2014004827
 11
16.4547371428
 21
13.2041479317
  0
LINE
  5
2AF
100
AcDbEntity
  8
0
100
AcDbLine
 62
7
  6
CONTINUOUS
 10
16.3328036756
 20
12.8097370279
 11
16.3337039811
 21
12.8124844769
  0
LINE
  5
2B0
100
AcDbEntity
  8
0
100
AcDbLine
 62
7
  6
CONTINUOUS
 10
16.2117705139
 20
12.4180735731
 11
16.2126708194
 21
12.4208210221
  0
LINE
  5
2B1
100
AcDbEntity
  8
0
100
AcDbLine
 62
7
  6
CONTINUOUS
 10
16.0907373522
 20
12.0264101182
 11
16.0916376577
 21
12.0291575673
  0
LINE
  5
2B2
100
AcDbEntity
  8
0
100
AcDbLine
 62
7
  6
CONTINUOUS
 10
15.9697041905
 20
11.6347466634
 11
15.970604496
 21
11.6374941125
  0
LINE
  5
2B3
100
AcDbEntity
  8
0
100
AcDbLine
 62
7
  6
CONTINUOUS
 10
15.8486710288
 20
11.2430832086
 11
15.8495713343
 21
11.2458306577
  0
LINE
  5
2B4
100
AcDbEntity
  8
0
100
AcDbLine
 62
7
  6
CONTINUOUS
 10
15.7276378671
 20
10.8514197538
 11
15.7285381726
 21
10.8541672028
  0
LINE
  5
2B5
100
AcDbEntity
  8
0
100
AcDbLine
 62
7
  6
CONTINUOUS
 10
15.9267110434
 20
11.6656034698
 11
15.929305984
 21
11.6727521734
  0
LINE
  5
2B6
100
AcDbEntity
  8
0
100
AcDbLine
 62
7
  6
CONTINUOUS
 10
15.8056778817
 20
11.273940015
 11
15.8082728223
 21
11.2810887186
  0
LINE
  5
2B7
100
AcDbEntity
  8
0
100
AcDbLine
 62
7
  6
CONTINUOUS
 10
15.68464472
 20
10.8822765601
 11
15.6872396606
 21
10.8894252638
  0
LINE
  5
2B8
100
AcDbEntity
  8
0
100
AcDbLine
 62
7
  6
CONTINUOUS
 10
16.2091184682
 20
12.4116123625
 11
16.2117705139
 21
12.4180735731
  0
LINE
  5
2B9
100
AcDbEntity
  8
0
100
AcDbLine
 62
7
  6
CONTINUOUS
 10
16.0880853065
 20
12.0199489077
 11
16.0907373522
 21
12.0264101182
  0
LINE
  5
2BA
100
AcDbEntity
  8
0
100
AcDbLine
 62
7
  6
CONTINUOUS
 10
15.9670521448
 20
11.6282854529
 11
15.9697041905
 21
11.6347466634
  0
LINE
  5
2BB
100
AcDbEntity
  8
0
100
AcDbLine
 62
7
  6
CONTINUOUS
 10
15.8460189831
 20
11.2366219981
 11
15.8486710288
 21
11.2430832086
  0
LWPOLYLINE
  5
2BC
100
AcDbEntity
  8
0
100
AcDbPolyline
 62
7
  6
CONTINUOUS
 90
3
 70
0
 10
16.0503391457
 20
12.0644156282
 10
16.0524809071
 20
12.069141793
 10
16.0532550686
 20
12.0705247898
  0
LWPOLYLINE
  5
2BD
100
AcDbEntity
  8
0
100
AcDbPolyline
 62
7
  6
CONTINUOUS
 90
3
 70
0
 10
15.929305984
 20
11.6727521734
 10
15.9314477454
 20
11.6774783382
 10
15.9322219068
 20
11.678861335
  0
LWPOLYLINE
  5
2BE
100
AcDbEntity
  8
0
100
AcDbPolyline
 62
7
  6
CONTINUOUS
 90
3
 70
0
 10
15.8082728223
 20
11.2810887186
 10
15.8104145837
 20
11.2858148834
 10
15.8111887451
 20
11.2871978801
  0
LINE
  5
2BF
100
AcDbEntity
  8
0
100
AcDbLine
 62
7
  6
CONTINUOUS
 10
16.3696837466
 20
12.9495340047
 11
16.3673336799
 21
13.0461925622
  0
LWPOLYLINE
  5
2C0
100
AcDbEntity
  8
0
100
AcDbPolyline
 62
7
  6
CONTINUOUS
 90
7
 70
0
 10
16.3673325895
 20
13.0462165915
 10
16.3673254639
 20
13.0537622871
 10
16.3682111607
 20
13.0700417321
 10
16.3702974794
 20
13.0882645984
 10
16.3734142349
 20
13.1065061011
 10
16.3771751597
 20
13.1228102711
 10
16.3793805875
 20
13.1305304604
  0
LINE
  5
2C1
100
AcDbEntity
  8
0
100
AcDbLine
 62
7
  6
CONTINUOUS
 10
16.3695693389
 20
12.9422480158
 11
16.3696821245
 21
12.9495936662
  0
LWPOLYLINE
  5
2C2
100
AcDbEntity
  8
0
100
AcDbPolyline
 62
7
  6
CONTINUOUS
 90
3
 70
0
 10
16.4870275221
 20
13.3093606789
 10
16.4893565377
 20
13.3215021376
 10
16.4906025006
 20
13.3339114707
  0
LWPOLYLINE
  5
2C3
100
AcDbEntity
  8
0
100
AcDbPolyline
 62
7
  6
CONTINUOUS
 90
3
 70
0
 10
16.6080606838
 20
13.7010241337
 10
16.6103896994
 20
13.7131655924
 10
16.6116356623
 20
13.7255749255
  0
LINE
  5
2C4
100
AcDbEntity
  8
0
100
AcDbLine
 62
7
  6
CONTINUOUS
 10
15.7249858214
 20
10.8449585433
 11
15.7276378671
 21
10.8514197538
  0
LWPOLYLINE
  5
2C5
100
AcDbEntity
  8
0
100
AcDbPolyline
 62
7
  6
CONTINUOUS
 90
3
 70
0
 10
15.6872396606
 20
10.8894252638
 10
15.689381422
 20
10.8941514286
 10
15.6901555834
 20
10.8955344253
  0
LWPOLYLINE
  5
2C6
100
AcDbEntity
  8
0
100
AcDbPolyline
 62
7
  6
CONTINUOUS
 90
5
 70
0
 10
16.5466066399
 20
13.5690253327
 10
16.5551000956
 20
13.5704436467
 10
16.5627391002
 20
13.5745450732
 10
16.5684359526
 20
13.5803333465
 10
16.5722179534
 20
13.586602727
  0
LINE
  5
2C7
100
AcDbEntity
  8
0
100
AcDbLine
 62
7
  6
CONTINUOUS
 10
16.4907169083
 20
13.3411974595
 11
16.4883668416
 21
13.437856017
  0
LWPOLYLINE
  5
2C8
100
AcDbEntity
  8
0
100
AcDbPolyline
 62
7
  6
CONTINUOUS
 90
7
 70
0
 10
16.4883657512
 20
13.4378800463
 10
16.4883586257
 20
13.4454257419
 10
16.4892443224
 20
13.4617051869
 10
16.4913306411
 20
13.4799280532
 10
16.4944473966
 20
13.4981695559
 10
16.4982083214
 20
13.514473726
 10
16.5004137492
 20
13.5221939152
  0
LINE
  5
2C9
100
AcDbEntity
  8
0
100
AcDbLine
 62
7
  6
CONTINUOUS
 10
16.4906025006
 20
13.3339114707
 11
16.4907152862
 21
13.341257121
  0
LINE
  5
2CA
100
AcDbEntity
  8
0
100
AcDbLine
 62
7
  6
CONTINUOUS
 10
16.6370499347
 20
13.9669895744
 11
16.6367458271
 21
13.9633685883
  0
LINE
  5
2CB
100
AcDbEntity
  8
0
100
AcDbLine
 62
7
  6
CONTINUOUS
 10
16.5148869306
 20
13.5690253208
 11
16.5466060257
 21
13.5690253208
  0
LINE
  5
2CC
100
AcDbEntity
  8
0
100
AcDbLine
 62
7
  6
CONTINUOUS
 10
16.6117500701
 20
13.7328609143
 11
16.6094000033
 21
13.8295194718
  0
LWPOLYLINE
  5
2CD
100
AcDbEntity
  8
0
100
AcDbPolyline
 62
7
  6
CONTINUOUS
 90
7
 70
0
 10
16.6093989129
 20
13.8295435012
 10
16.6093917874
 20
13.8370891967
 10
16.6102774841
 20
13.8533686417
 10
16.6123638028
 20
13.871591508
 10
16.6154805583
 20
13.8898330107
 10
16.6192414831
 20
13.9061371808
 10
16.6214469109
 20
13.91385737
  0
LINE
  5
2CE
100
AcDbEntity
  8
0
100
AcDbLine
 62
7
  6
CONTINUOUS
 10
16.6116356623
 20
13.7255749255
 11
16.611748448
 21
13.7329205758
  0
LINE
  5
2CF
100
AcDbEntity
  8
0
100
AcDbLine
 62
7
  6
CONTINUOUS
 10
16.6370499347
 20
13.9669895744
 11
16.6208423267
 21
14.1006156068
  0
LINE
  5
2D0
100
AcDbEntity
  8
0
100
AcDbLine
 62
7
  6
CONTINUOUS
 10
16.5519238839
 20
14.1997087726
 11
15.2900703221
 21
14.1997087726
  0
LINE
  5
2D1
100
AcDbEntity
  8
0
100
AcDbLine
 62
7
  6
CONTINUOUS
 10
16.6161986409
 20
14.115653713
 11
16.5825764554
 21
14.1841685234
  0
ARC
  5
2D2
100
AcDbEntity
  8
0
100
AcDbCircle
 62
7
  6
CONTINUOUS
 10
5.5011925509
 20
5.4467865634
 40
0.025
100
AcDbArc
 50
194.0
 51
270.0
  0
ARC
  5
2D3
100
AcDbEntity
  8
0
100
AcDbCircle
 62
7
  6
CONTINUOUS
 10
5.5502270574
 20
5.2501198996
 40
0.025
100
AcDbArc
 50
194.0000067933
 51
270.0000016435
  0
ARC
  5
2D4
100
AcDbEntity
  8
0
100
AcDbCircle
 62
7
  6
CONTINUOUS
 10
5.5203672762
 20
5.6798983528
 40
0.1
100
AcDbArc
 50
180.0
 51
194.0
  0
ARC
  5
2D5
100
AcDbEntity
  8
0
100
AcDbCircle
 62
7
  6
CONTINUOUS
 10
5.4453672762
 20
5.7901198968
 40
0.025
100
AcDbArc
 50
90.0
 51
180.0
  0
ARC
  5
2D6
100
AcDbEntity
  8
0
100
AcDbCircle
 62
7
  6
CONTINUOUS
 10
6.7105074942
 20
5.2501198968
 40
0.025
100
AcDbArc
 50
270.0
 51
346.0
  0
ARC
  5
2D7
100
AcDbEntity
  8
0
100
AcDbCircle
 62
7
  6
CONTINUOUS
 10
6.7595420015
 20
5.4467865634
 40
0.025
100
AcDbArc
 50
270.0
 51
346.0
  0
ARC
  5
2D8
100
AcDbEntity
  8
0
100
AcDbCircle
 62
7
  6
CONTINUOUS
 10
6.7403672762
 20
5.6798983528
 40
0.1
100
AcDbArc
 50
346.0
 51
360.0
  0
ARC
  5
2D9
100
AcDbEntity
  8
0
100
AcDbCircle
 62
7
  6
CONTINUOUS
 10
6.8153672762
 20
5.7901198968
 40
0.025
100
AcDbArc
 50
0.0
 51
90.0
  0
ARC
  5
2DA
100
AcDbEntity
  8
0
100
AcDbCircle
 62
7
  6
CONTINUOUS
 10
13.7471662283
 20
5.2147913711
 40
0.0491666667
100
AcDbArc
 50
193.0
 51
270.0
  0
ARC
  5
2DB
100
AcDbEntity
  8
0
100
AcDbCircle
 62
7
  6
CONTINUOUS
 10
13.8735442856
 20
5.2147913711
 40
0.0491666667
100
AcDbArc
 50
270.0
 51
347.0
  0
ARC
  5
2DC
100
AcDbEntity
  8
0
100
AcDbCircle
 62
7
  6
CONTINUOUS
 10
14.2471662283
 20
5.2147913711
 40
0.0491666667
100
AcDbArc
 50
193.0
 51
270.0
  0
ARC
  5
2DD
100
AcDbEntity
  8
0
100
AcDbCircle
 62
7
  6
CONTINUOUS
 10
14.3735442856
 20
5.2147913711
 40
0.0491666667
100
AcDbArc
 50
270.0
 51
347.0
  0
ARC
  5
2DE
100
AcDbEntity
  8
0
100
AcDbCircle
 62
7
  6
CONTINUOUS
 10
14.7471662283
 20
5.2147913711
 40
0.0491666667
100
AcDbArc
 50
193.0
 51
270.0
  0
ARC
  5
2DF
100
AcDbEntity
  8
0
100
AcDbCircle
 62
7
  6
CONTINUOUS
 10
14.8735442856
 20
5.2147913711
 40
0.0491666667
100
AcDbArc
 50
270.0
 51
347.0
  0
ARC
  5
2E0
100
AcDbEntity
  8
0
100
AcDbCircle
 62
7
  6
CONTINUOUS
 10
15.2471662283
 20
5.2147913711
 40
0.0491666667
100
AcDbArc
 50
193.0
 51
270.0
  0
ARC
  5
2E1
100
AcDbEntity
  8
0
100
AcDbCircle
 62
7
  6
CONTINUOUS
 10
15.3735442856
 20
5.2147913711
 40
0.0491666667
100
AcDbArc
 50
270.0
 51
347.0
  0
ARC
  5
2E2
100
AcDbEntity
  8
0
100
AcDbCircle
 62
7
  6
CONTINUOUS
 10
13.6235442856
 20
5.3131247044
 40
0.0491666667
100
AcDbArc
 50
13.0
 51
90.0
  0
ARC
  5
2E3
100
AcDbEntity
  8
0
100
AcDbCircle
 62
7
  6
CONTINUOUS
 10
13.9971662283
 20
5.3131247044
 40
0.0491666667
100
AcDbArc
 50
90.0
 51
167.0
  0
ARC
  5
2E4
100
AcDbEntity
  8
0
100
AcDbCircle
 62
7
  6
CONTINUOUS
 10
14.1235442856
 20
5.3131247044
 40
0.0491666667
100
AcDbArc
 50
13.0
 51
90.0
  0
ARC
  5
2E5
100
AcDbEntity
  8
0
100
AcDbCircle
 62
7
  6
CONTINUOUS
 10
14.4971662283
 20
5.3131247044
 40
0.0491666667
100
AcDbArc
 50
90.0
 51
167.0
  0
ARC
  5
2E6
100
AcDbEntity
  8
0
100
AcDbCircle
 62
7
  6
CONTINUOUS
 10
14.6235442856
 20
5.3131247044
 40
0.0491666667
100
AcDbArc
 50
13.0
 51
90.0
  0
ARC
  5
2E7
100
AcDbEntity
  8
0
100
AcDbCircle
 62
7
  6
CONTINUOUS
 10
14.9971662283
 20
5.3131247044
 40
0.0491666667
100
AcDbArc
 50
90.0
 51
167.0
  0
ARC
  5
2E8
100
AcDbEntity
  8
0
100
AcDbCircle
 62
7
  6
CONTINUOUS
 10
15.1235442856
 20
5.3131247044
 40
0.0491666667
100
AcDbArc
 50
13.0
 51
90.0
  0
ARC
  5
2E9
100
AcDbEntity
  8
0
100
AcDbCircle
 62
7
  6
CONTINUOUS
 10
15.4971662283
 20
5.3131247044
 40
0.0491666667
100
AcDbArc
 50
90.0
 51
167.0
  0
ARC
  5
2EA
100
AcDbEntity
  8
0
100
AcDbCircle
 62
7
  6
CONTINUOUS
 10
17.3735442856
 20
5.2147913711
 40
0.0491666667
100
AcDbArc
 50
270.0
 51
347.0
  0
ARC
  5
2EB
100
AcDbEntity
  8
0
100
AcDbCircle
 62
7
  6
CONTINUOUS
 10
17.2471662283
 20
5.2147913711
 40
0.0491666667
100
AcDbArc
 50
193.0
 51
270.0
  0
ARC
  5
2EC
100
AcDbEntity
  8
0
100
AcDbCircle
 62
7
  6
CONTINUOUS
 10
16.8735442856
 20
5.2147913711
 40
0.0491666667
100
AcDbArc
 50
270.0
 51
347.0
  0
ARC
  5
2ED
100
AcDbEntity
  8
0
100
AcDbCircle
 62
7
  6
CONTINUOUS
 10
16.7471662283
 20
5.2147913711
 40
0.0491666667
100
AcDbArc
 50
193.0
 51
270.0
  0
ARC
  5
2EE
100
AcDbEntity
  8
0
100
AcDbCircle
 62
7
  6
CONTINUOUS
 10
16.3735442856
 20
5.2147913711
 40
0.0491666667
100
AcDbArc
 50
270.0
 51
347.0
  0
ARC
  5
2EF
100
AcDbEntity
  8
0
100
AcDbCircle
 62
7
  6
CONTINUOUS
 10
16.2471662283
 20
5.2147913711
 40
0.0491666667
100
AcDbArc
 50
193.0
 51
270.0
  0
ARC
  5
2F0
100
AcDbEntity
  8
0
100
AcDbCircle
 62
7
  6
CONTINUOUS
 10
15.8735442856
 20
5.2147913711
 40
0.0491666667
100
AcDbArc
 50
270.0
 51
347.0
  0
ARC
  5
2F1
100
AcDbEntity
  8
0
100
AcDbCircle
 62
7
  6
CONTINUOUS
 10
15.7471662283
 20
5.2147913711
 40
0.0491666667
100
AcDbArc
 50
193.0
 51
270.0
  0
ARC
  5
2F2
100
AcDbEntity
  8
0
100
AcDbCircle
 62
7
  6
CONTINUOUS
 10
17.4971662283
 20
5.3131247044
 40
0.0491666667
100
AcDbArc
 50
90.0
 51
167.0
  0
ARC
  5
2F3
100
AcDbEntity
  8
0
100
AcDbCircle
 62
7
  6
CONTINUOUS
 10
17.1235442856
 20
5.3131247044
 40
0.0491666667
100
AcDbArc
 50
13.0
 51
90.0
  0
ARC
  5
2F4
100
AcDbEntity
  8
0
100
AcDbCircle
 62
7
  6
CONTINUOUS
 10
16.9971662283
 20
5.3131247044
 40
0.0491666667
100
AcDbArc
 50
90.0
 51
167.0
  0
ARC
  5
2F5
100
AcDbEntity
  8
0
100
AcDbCircle
 62
7
  6
CONTINUOUS
 10
16.6235442856
 20
5.3131247044
 40
0.0491666667
100
AcDbArc
 50
13.0
 51
90.0
  0
ARC
  5
2F6
100
AcDbEntity
  8
0
100
AcDbCircle
 62
7
  6
CONTINUOUS
 10
16.4971662283
 20
5.3131247044
 40
0.0491666667
100
AcDbArc
 50
90.0
 51
167.0
  0
ARC
  5
2F7
100
AcDbEntity
  8
0
100
AcDbCircle
 62
7
  6
CONTINUOUS
 10
16.1235442856
 20
5.3131247044
 40
0.0491666667
100
AcDbArc
 50
13.0
 51
90.0
  0
ARC
  5
2F8
100
AcDbEntity
  8
0
100
AcDbCircle
 62
7
  6
CONTINUOUS
 10
15.9971662283
 20
5.3131247044
 40
0.0491666667
100
AcDbArc
 50
90.0
 51
167.0
  0
ARC
  5
2F9
100
AcDbEntity
  8
0
100
AcDbCircle
 62
7
  6
CONTINUOUS
 10
15.6235442856
 20
5.3131247044
 40
0.0491666667
100
AcDbArc
 50
13.0
 51
90.0
  0
SPLINE
  5
2FA
100
AcDbEntity
  8
0
100
AcDbSpline
 62
7
  6
CONTINUOUS
 70
0
 71
3
 72
15
 73
11
 74
0
 42
0.0000001
 43
0.0000001
 44
0.0000000001
 40
0.0
 40
0.0
 40
0.0
 40
0.0
 40
0.1295685294
 40
0.2645756837
 40
0.40126601
 40
0.5362716965
 40
0.6662157365
 40
0.7881010718
 40
0.8998143502
 40
1.0
 40
1.0
 40
1.0
 40
1.0
 10
16.5519238839
 20
14.1997087726
 30
0.0
 10
16.5534721425
 20
14.1997087726
 30
0.0
 10
16.5566360944
 20
14.1994935438
 30
0.0
 10
16.5613586101
 20
14.1986096531
 30
0.0
 10
16.5660149174
 20
14.1971822006
 30
0.0
 10
16.5704267841
 20
14.195266881
 30
0.0
 10
16.574432973
 20
14.1929381965
 30
0.0
 10
16.5778850558
 20
14.1902768639
 30
0.0
 10
16.5806509073
 20
14.1873808171
 30
0.0
 10
16.5820490585
 20
14.1852432451
 30
0.0
 10
16.5825764554
 20
14.1841685234
 30
0.0
  0
SPLINE
  5
2FB
100
AcDbEntity
  8
0
100
AcDbSpline
 62
7
  6
CONTINUOUS
 70
0
 71
3
 72
15
 73
11
 74
0
 42
0.0000001
 43
0.0000001
 44
0.0000000001
 40
0.0
 40
0.0
 40
0.0
 40
0.0
 40
0.0996460468
 40
0.2028720143
 40
0.3125943156
 40
0.4308572419
 40
0.5588153392
 40
0.6968313816
 40
0.8443984128
 40
1.0
 40
1.0
 40
1.0
 40
1.0
 10
15.2738108318
 20
14.1915497161
 30
0.0
 10
15.274000947
 20
14.1921649572
 30
0.0
 10
15.2745395866
 20
14.1933759002
 30
0.0
 10
15.2757705755
 20
14.1949968451
 30
0.0
 10
15.2773939631
 20
14.1964120121
 30
0.0
 10
15.2793781278
 20
14.1975960711
 30
0.0
 10
15.2816856703
 20
14.1985347023
 30
0.0
 10
15.2842772846
 20
14.1992134277
 30
0.0
 10
15.2871041604
 20
14.1996210896
 30
0.0
 10
15.2890647739
 20
14.1997087726
 30
0.0
 10
15.2900703221
 20
14.1997087726
 30
0.0
  0
SPLINE
  5
2FC
100
AcDbEntity
  8
0
100
AcDbSpline
 62
7
  6
CONTINUOUS
 70
0
 71
3
 72
11
 73
7
 74
0
 42
0.0000001
 43
0.0000001
 44
0.0000000001
 40
0.0
 40
0.0
 40
0.0
 40
0.0
 40
0.2336944754
 40
0.4747280221
 40
0.7289544256
 40
1.0
 40
1.0
 40
1.0
 40
1.0
 10
14.3055455381
 20
11.0582420775
 30
0.0
 10
14.3053706835
 20
11.0576762217
 30
0.0
 10
14.3051403719
 20
11.0564840741
 30
0.0
 10
14.3051826633
 20
11.0546247958
 30
0.0
 10
14.3056004707
 20
11.0527176207
 30
0.0
 10
14.3061019347
 20
11.0514775506
 30
0.0
 10
14.3064045503
 20
11.0508608849
 30
0.0
  0
SPLINE
  5
2FD
100
AcDbEntity
  8
0
100
AcDbSpline
 62
7
  6
CONTINUOUS
 70
0
 71
3
 72
9
 73
5
 74
0
 42
0.0000001
 43
0.0000001
 44
0.0000000001
 40
0.0
 40
0.0
 40
0.0
 40
0.0
 40
0.5166047313
 40
1.0
 40
1.0
 40
1.0
 40
1.0
 10
16.6161986409
 20
14.115653713
 30
0.0
 10
16.6173968249
 20
14.1132120707
 30
0.0
 10
16.6193891031
 20
14.1083138994
 30
0.0
 10
16.6205358934
 20
14.1031420423
 30
0.0
 10
16.6208423267
 20
14.1006156068
 30
0.0
  0
SPLINE
  5
2FE
100
AcDbEntity
  8
0
100
AcDbSpline
 62
7
  6
CONTINUOUS
 70
0
 71
3
 72
14
 73
10
 74
0
 42
0.0000001
 43
0.0000001
 44
0.0000000001
 40
0.0
 40
0.0
 40
0.0
 40
0.0
 40
0.1556190061
 40
0.3032574509
 40
0.5688334501
 40
0.6871444843
 40
0.7968769689
 40
0.9001669242
 40
1.0
 40
1.0
 40
1.0
 40
1.0
 10
15.6522232414
 20
10.8219012132
 30
0.0
 10
15.6532283247
 20
10.8219012132
 30
0.0
 10
15.6551892612
 20
10.8219890697
 30
0.0
 10
15.6588271698
 20
10.8225137643
 30
0.0
 10
15.6621479153
 20
10.8235578814
 30
0.0
 10
15.6648982624
 20
10.8251965352
 30
0.0
 10
15.6665220341
 20
10.8266109448
 30
0.0
 10
15.667753274
 20
10.8282323451
 30
0.0
 10
15.6682918789
 20
10.8294443807
 30
0.0
 10
15.66848164
 20
10.8300606082
 30
0.0
  0
SPLINE
  5
2FF
100
AcDbEntity
  8
0
100
AcDbSpline
 62
7
  6
CONTINUOUS
 70
0
 71
3
 72
15
 73
11
 74
0
 42
0.0000001
 43
0.0000001
 44
0.0000000001
 40
0.0
 40
0.0
 40
0.0
 40
0.0
 40
0.1095609061
 40
0.2276766927
 40
0.3524291728
 40
0.4818022814
 40
0.6136292476
 40
0.745598678
 40
0.8752994729
 40
1.0
 40
1.0
 40
1.0
 40
1.0
 10
14.465082968
 20
10.8336819359
 30
0.0
 10
14.4658288374
 20
10.8328148139
 30
0.0
 10
14.467521143
 20
10.8311330663
 30
0.0
 10
14.470439246
 20
10.8288795454
 30
0.0
 10
14.4737681395
 20
10.826859986
 30
0.0
 10
14.4774117499
 20
10.825125008
 30
0.0
 10
14.4812759244
 20
10.8237229959
 30
0.0
 10
14.4852578581
 20
10.8226878587
 30
0.0
 10
14.48924746
 20
10.8220543484
 30
0.0
 10
14.4919048185
 20
10.8219012132
 30
0.0
 10
14.4932066457
 20
10.8219012132
 30
0.0
  0
SPLINE
  5
300
100
AcDbEntity
  8
0
100
AcDbSpline
 62
7
  6
CONTINUOUS
 70
0
 71
3
 72
9
 73
5
 74
0
 42
0.0000001
 43
0.0000001
 44
0.0000000001
 40
0.0
 40
0.0
 40
0.0
 40
0.0
 40
0.4825233805
 40
1.0
 40
1.0
 40
1.0
 40
1.0
 10
14.3400267358
 20
10.9823460745
 30
0.0
 10
14.341313512
 20
10.9797239002
 30
0.0
 10
14.3443918716
 20
10.9744865418
 30
0.0
 10
14.3480995881
 20
10.9696827675
 30
0.0
 10
14.3501423112
 20
10.9673079683
 30
0.0
  0
SPLINE
  5
301
100
AcDbEntity
  8
0
100
AcDbSpline
 62
7
  6
CONTINUOUS
 70
0
 71
3
 72
15
 73
11
 74
0
 42
0.0000001
 43
0.0000001
 44
0.0000000001
 40
0.0
 40
0.0
 40
0.0
 40
0.0
 40
0.1001856498
 40
0.2118989282
 40
0.3337842635
 40
0.4637283035
 40
0.59873399
 40
0.7354243163
 40
0.8704314706
 40
1.0
 40
1.0
 40
1.0
 40
1.0
 10
15.6143111618
 20
11.0508608849
 30
0.0
 10
15.6137837649
 20
11.0519356066
 30
0.0
 10
15.6123856137
 20
11.0540731786
 30
0.0
 10
15.6096197622
 20
11.0569692254
 30
0.0
 10
15.6061676794
 20
11.059630558
 30
0.0
 10
15.6021614905
 20
11.0619592425
 30
0.0
 10
15.5977496238
 20
11.0638745621
 30
0.0
 10
15.5930933165
 20
11.0653020146
 30
0.0
 10
15.5883708008
 20
11.0661859053
 30
0.0
 10
15.5852068489
 20
11.0664011341
 30
0.0
 10
15.5836585902
 20
11.0664011341
 30
0.0
  0
SPLINE
  5
302
100
AcDbEntity
  8
0
100
AcDbSpline
 62
7
  6
CONTINUOUS
 70
0
 71
3
 72
15
 73
11
 74
0
 42
0.0000001
 43
0.0000001
 44
0.0000000001
 40
0.0
 40
0.0
 40
0.0
 40
0.0
 40
0.1556015872
 40
0.3031686184
 40
0.4411846608
 40
0.5691427581
 40
0.6874056844
 40
0.7971279857
 40
0.9003539532
 40
1.0
 40
1.0
 40
1.0
 40
1.0
 10
14.3218050285
 20
11.0664011341
 30
0.0
 10
14.3207994803
 20
11.0664011341
 30
0.0
 10
14.3188388667
 20
11.0663134511
 30
0.0
 10
14.316011991
 20
11.0659057892
 30
0.0
 10
14.3134203766
 20
11.0652270638
 30
0.0
 10
14.3111128342
 20
11.0642884326
 30
0.0
 10
14.3091286695
 20
11.0631043736
 30
0.0
 10
14.3075052818
 20
11.0616892066
 30
0.0
 10
14.3062742929
 20
11.0600682617
 30
0.0
 10
14.3057356533
 20
11.0588573187
 30
0.0
 10
14.3055455381
 20
11.0582420775
 30
0.0
  0
SPLINE
  5
303
100
AcDbEntity
  8
0
100
AcDbSpline
 62
7
  6
CONTINUOUS
 70
0
 71
3
 72
9
 73
5
 74
0
 42
0.0000001
 43
0.0000001
 44
0.0000000001
 40
0.0
 40
0.0
 40
0.0
 40
0.0
 40
0.4833952687
 40
1.0
 40
1.0
 40
1.0
 40
1.0
 10
15.6525770331
 20
10.9673079683
 30
0.0
 10
15.6522705997
 20
10.9698344038
 30
0.0
 10
15.6511238095
 20
10.9750062609
 30
0.0
 10
15.6491315312
 20
10.9799044322
 30
0.0
 10
15.6479333472
 20
10.9823460745
 30
0.0
  0
ENDSEC
  0
SECTION
  2
OBJECTS
  0
DICTIONARY
  5
C
100
AcDbDictionary
280
0
281
1
  3
ACAD_GROUP
350
D
  3
ACAD_MLINESTYLE
350
17
  3
ACAD_LAYOUT
350
1A
  3
ACAD_PLOTSETTINGS
350
19
  3
ACAD_PLOTSTYLENAME
350
E
  0
DICTIONARY
  5
D
102
{ACAD_REACTORS
330
C
102
}
100
AcDbDictionary
280
0
281
1
  0
ACDBDICTIONARYWDFLT
  5
E
102
{ACAD_REACTORS
330
C
102
}
100
AcDbDictionary
281
1
  3
Normal
350
F
100
AcDbDictionaryWithDefault
340
F
  0
DICTIONARY
  5
17
102
{ACAD_REACTORS
330
C
102
}
100
AcDbDictionary
280
0
281
1
  3
Standard
350
18
  0
DICTIONARY
  5
19
102
{ACAD_REACTORS
330
C
102
}
100
AcDbDictionary
281
1
  0
DICTIONARY
  5
1A
102
{ACAD_REACTORS
330
C
102
}
100
AcDbDictionary
281
1
  3
Model
350
304
  3
Layout1
350
305
  0
ACDBPLACEHOLDER
  5
F
102
{ACAD_REACTORS
330
E
102
}
  0
MLINESTYLE
  5
18
102
{ACAD_REACTORS
330
17
102
}
100
AcDbMlineStyle
  2
STANDARD
 70
0
  3

 62
256
 51
90.0
 52
90.0
 71
2
 49
0.5
 62
256
  6
BYLAYER
 49
-0.5
 62
256
  6
BYLAYER
  0
LAYOUT
  5
304
102
{ACAD_REACTORS
330
1A
102
}
100
AcDbPlotSettings
  1

  2
none_device
  4
ANSI_C_(22.00_x_17.00_Inches)
  6

 40
0.0
 41
0.0
 42
0.0
 43
0.0
 44
558.8
 45
431.8
 46
0.0
 47
0.0
 48
0.0
 49
0.0
140
0.0
141
0.0
142
1.0
143
1.0
 70
1024
 72
0
 73
0
 74
0
  7

 75
0
147
1.0
148
0.0
149
0.0
100
AcDbLayout
  1
Model
 70
0
 71
0
 10
0.0
 20
0.0
 11
22.0
 21
17.0
 12
0.0
 22
0.0
 32
0.0
 14
0.0
 24
0.0
 34
0.0
 15
0.0
 25
0.0
 35
0.0
146
0.0
 13
0.0
 23
0.0
 33
0.0
 16
1.0
 26
0.0
 36
0.0
 17
0.0
 27
1.0
 37
0.0
 76
0
330
216
345
0
346
0
  0
LAYOUT
  5
305
102
{ACAD_REACTORS
330
1A
102
}
100
AcDbPlotSettings
  1

  2
none_device
  4
ANSI_C_(22.00_x_17.00_Inches)
  6

 40
0.0
 41
0.0
 42
0.0
 43
0.0
 44
558.8
 45
431.8
 46
0.0
 47
0.0
 48
0.0
 49
0.0
140
0.0
141
0.0
142
1.0
143
1.0
 70
0
 72
0
 73
0
 74
0
  7

 75
0
147
1.0
148
0.0
149
0.0
100
AcDbLayout
  1
Layout1
 70
0
 71
1
 10
0.0
 20
0.0
 11
22.0
 21
17.0
 12
0.0
 22
0.0
 32
0.0
 14
0.0
 24
0.0
 34
0.0
 15
0.0
 25
0.0
 35
0.0
146
0.0
 13
0.0
 23
0.0
 33
0.0
 16
1.0
 26
0.0
 36
0.0
 17
0.0
 27
1.0
 37
0.0
 76
0
330
217
345
0
346
0
  0
ENDSEC
  0
EOF