999
DXF file: _cgs_temp_output.dxf
999
Pro/ENGINEER 2015110 by Parametric Technology Corporation
  0
SECTION
  2
HEADER
  9
$ACADVER
  1
AC1021
  9
$DWGCODEPAGE
  3
ANSI_1252
  9
$EXTMAX
 10
22.0
 20
17.0
 30
0.0
  9
$EXTMIN
 10
0.0
 20
0.0
 30
0.0
  9
$LIMMIN
 10
0.0
 20
0.0
  9
$LIMMAX
 10
22.0
 20
17.0
  9
$VIEWCTR
 10
11.0
 20
8.5
  9
$VIEWSIZE
 40
17.0
  9
$CLAYER
  8
0
  9
$LTSCALE
 40
1.21
  9
$CELTYPE
  6
BYLAYER
  9
$DIMSCALE
 40
1.0
  9
$DIMASZ
 40
0.1875
  9
$DIMEXO
 40
0.0625
  9
$DIMDLI
 40
0.836
  9
$DIMEXE
 40
0.125
  9
$DIMCEN
 40
0.198
  9
$DIMLFAC
 40
1.0
  9
$DIMBLK
  1
_CLOSED
  9
$DIMALT
 70
0
  9
$DIMALTF
 40
25.4
  9
$DIMTXT
 40
0.15625
  9
$DIMTOL
 70
0
  9
$DIMLIM
 70
0
  9
$DIMTFAC
 40
1.0
  9
$DIMGAP
 40
0.09
  9
$DIMDSEP
 70
46
  9
$AUNITS
 70
0
  9
$PDMODE
 70
3
  9
$PDSIZE
 40
0.3125
  9
$HANDSEED
  5
2AE
  9
$TILEMODE
 70
1
  9
$MEASUREMENT
 70
0
  9
$INSUNITS
 70
1
  0
ENDSEC
  0
SECTION
  2
CLASSES
  0
CLASS
  1
ACDBDICTIONARYWDFLT
  2
AcDbDictionaryWithDefault
  3
AutoCAD 2000
 90
0
 91
1
280
0
281
0
  0
CLASS
  1
ACDBPLACEHOLDER
  2
AcDbPlaceHolder
  3
AutoCAD 2000
 90
0
 91
1
280
0
281
0
  0
CLASS
  1
LAYOUT
  2
AcDbLayout
  3
AutoCAD 2000
 90
0
 91
0
280
0
281
0
  0
ENDSEC
  0
SECTION
  2
TABLES
  0
TABLE
  2
VPORT
  5
8
100
AcDbSymbolTable
 70
2
  0
VPORT
  5
1F4
100
AcDbSymbolTableRecord
100
AcDbViewportTableRecord
  2
*ACTIVE
 70
0
 10
0.0
 20
0.0
 11
1.0
 21
1.0
 12
11.0
 22
8.5
 13
0.0
 23
0.0
 14
1.0
 24
1.0
 15
0.0
 25
0.0
 16
0.0
 26
0.0
 36
1.0
 17
0.0
 27
0.0
 37
0.0
 40
17.0
 41
1.2941176471
 42
50.0
 43
0.0
 44
0.0
 50
0.0
 51
0.0
 71
0
 72
100
 73
1
 74
1
 75
0
 76
0
 77
0
 78
0
  0
ENDTAB
  0
TABLE
  2
LTYPE
  5
5
100
AcDbSymbolTable
 70
6
  0
LTYPE
  5
14
100
AcDbSymbolTableRecord
100
AcDbLinetypeTableRecord
  2
BYBLOCK
 70
0
  3

 72
65
 73
0
 40
0.0
  0
LTYPE
  5
15
100
AcDbSymbolTableRecord
100
AcDbLinetypeTableRecord
  2
BYLAYER
 70
0
  3

 72
65
 73
0
 40
0.0
  0
LTYPE
  5
16
100
AcDbSymbolTableRecord
100
AcDbLinetypeTableRecord
  2
CONTINUOUS
 70
64
  3
Solid line
 72
65
 73
0
 40
0.0
  0
LTYPE
  5
1F5
100
AcDbSymbolTableRecord
100
AcDbLinetypeTableRecord
  2
CENTER
 70
64
  3
____ _ ____ _ ____ _ ____ _ ____ _ ____ _ ____
 72
65
 73
4
 40
0.6
 49
0.375
 74
0
 49
-0.075
 74
0
 49
0.075
 74
0
 49
-0.075
 74
0
  0
LTYPE
  5
1F6
100
AcDbSymbolTableRecord
100
AcDbLinetypeTableRecord
  2
HIDDEN
 70
64
  3
- - - - - - - - - - - - - - - - - - - -
 72
65
 73
2
 40
0.2
 49
0.1
 74
0
 49
-0.1
 74
0
  0
LTYPE
  5
1F7
100
AcDbSymbolTableRecord
100
AcDbLinetypeTableRecord
  2
PHANTOM
 70
64
  3
_____ _ _ _____ _ _ _____ _ _ _____
 72
65
 73
6
 40
0.8
 49
0.45
 74
0
 49
-0.05
 74
0
 49
0.1
 74
0
 49
-0.05
 74
0
 49
0.1
 74
0
 49
-0.05
 74
0
  0
LTYPE
  5
1F8
100
AcDbSymbolTableRecord
100
AcDbLinetypeTableRecord
  2
DOT
 70
64
  3
. . . . . . . . . . . . . . . . . . . .
 72
65
 73
2
 40
0.2
 49
0.1
 74
0
 49
-0.1
 74
0
  0
LTYPE
  5
1F9
100
AcDbSymbolTableRecord
100
AcDbLinetypeTableRecord
  2
DASHED
 70
64
  3
- - - - - - - - - - - - - - - - - - - -
 72
65
 73
2
 40
0.2
 49
0.1
 74
0
 49
-0.1
 74
0
  0
ENDTAB
  0
TABLE
  2
LAYER
  5
2
100
AcDbSymbolTable
 70
36
  0
LAYER
  5
10
100
AcDbSymbolTableRecord
100
AcDbLayerTableRecord
  2
0
 70
0
 62
7
  6
CONTINUOUS
370
-3
390
F
  0
LAYER
  5
1FA
100
AcDbSymbolTableRecord
100
AcDbLayerTableRecord
  2
DEFAULT_1
 70
0
 62
7
  6
CENTER
370
-3
390
F
  0
LAYER
  5
1FB
100
AcDbSymbolTableRecord
100
AcDbLayerTableRecord
  2
DEFAULT_2
 70
0
 62
8
  6
HIDDEN
370
-3
390
F
  0
LAYER
  5
1FC
100
AcDbSymbolTableRecord
100
AcDbLayerTableRecord
  2
DEFAULT_3
 70
0
 62
7
  6
PHANTOM
370
-3
390
F
  0
LAYER
  5
1FD
100
AcDbSymbolTableRecord
100
AcDbLayerTableRecord
  2
01_ALL_DTM_PLN
 70
0
 62
7
  6
CONTINUOUS
370
-3
390
F
  0
LAYER
  5
1FE
100
AcDbSymbolTableRecord
100
AcDbLayerTableRecord
  2
01__ASM_ALL_DTM_PLN
 70
0
 62
7
  6
CONTINUOUS
370
-3
390
F
  0
LAYER
  5
1FF
100
AcDbSymbolTableRecord
100
AcDbLayerTableRecord
  2
01__ASM_DEF_DTM_PLN
 70
0
 62
7
  6
CONTINUOUS
370
-3
390
F
  0
LAYER
  5
200
100
AcDbSymbolTableRecord
100
AcDbLayerTableRecord
  2
01___PRT_ALL_DTM_PLN
 70
0
 62
7
  6
CONTINUOUS
370
-3
390
F
  0
LAYER
  5
201
100
AcDbSymbolTableRecord
100
AcDbLayerTableRecord
  2
01___PRT_DEF_DTM_PLN
 70
0
 62
7
  6
CONTINUOUS
370
-3
390
F
  0
LAYER
  5
202
100
AcDbSymbolTableRecord
100
AcDbLayerTableRecord
  2
02_ALL_AXES
 70
0
 62
7
  6
CONTINUOUS
370
-3
390
F
  0
LAYER
  5
203
100
AcDbSymbolTableRecord
100
AcDbLayerTableRecord
  2
02__ASM_ALL_AXES
 70
0
 62
7
  6
CONTINUOUS
370
-3
390
F
  0
LAYER
  5
204
100
AcDbSymbolTableRecord
100
AcDbLayerTableRecord
  2
02___PRT_ALL_AXES
 70
0
 62
7
  6
CONTINUOUS
370
-3
390
F
  0
LAYER
  5
205
100
AcDbSymbolTableRecord
100
AcDbLayerTableRecord
  2
03_ALL_CURVES
 70
0
 62
7
  6
CONTINUOUS
370
-3
390
F
  0
LAYER
  5
206
100
AcDbSymbolTableRecord
100
AcDbLayerTableRecord
  2
03__ASM_ALL_CURVES
 70
0
 62
7
  6
CONTINUOUS
370
-3
390
F
  0
LAYER
  5
207
100
AcDbSymbolTableRecord
100
AcDbLayerTableRecord
  2
03___PRT_ALL_CURVES
 70
0
 62
7
  6
CONTINUOUS
370
-3
390
F
  0
LAYER
  5
208
100
AcDbSymbolTableRecord
100
AcDbLayerTableRecord
  2
04_ALL_DTM_PNT
 70
0
 62
7
  6
CONTINUOUS
370
-3
390
F
  0
LAYER
  5
209
100
AcDbSymbolTableRecord
100
AcDbLayerTableRecord
  2
04__ASM_ALL_DTM_PNT
 70
0
 62
7
  6
CONTINUOUS
370
-3
390
F
  0
LAYER
  5
20A
100
AcDbSymbolTableRecord
100
AcDbLayerTableRecord
  2
04___PRT_ALL_DTM_PNT
 70
0
 62
7
  6
CONTINUOUS
370
-3
390
F
  0
LAYER
  5
20B
100
AcDbSymbolTableRecord
100
AcDbLayerTableRecord
  2
05_ALL_DTM_CSYS
 70
0
 62
7
  6
CONTINUOUS
370
-3
390
F
  0
LAYER
  5
20C
100
AcDbSymbolTableRecord
100
AcDbLayerTableRecord
  2
05__ASM_ALL_DTM_CSYS
 70
0
 62
7
  6
CONTINUOUS
370
-3
390
F
  0
LAYER
  5
20D
100
AcDbSymbolTableRecord
100
AcDbLayerTableRecord
  2
05__ASM_DEF_DTM_CSYS
 70
0
 62
7
  6
CONTINUOUS
370
-3
390
F
  0
LAYER
  5
20E
100
AcDbSymbolTableRecord
100
AcDbLayerTableRecord
  2
05___PRT_ALL_DTM_CSYS
 70
0
 62
7
  6
CONTINUOUS
370
-3
390
F
  0
LAYER
  5
20F
100
AcDbSymbolTableRecord
100
AcDbLayerTableRecord
  2
05___PRT_DEF_DTM_CSYS
 70
0
 62
7
  6
CONTINUOUS
370
-3
390
F
  0
LAYER
  5
210
100
AcDbSymbolTableRecord
100
AcDbLayerTableRecord
  2
06_ALL_SURFS
 70
0
 62
7
  6
CONTINUOUS
370
-3
390
F
  0
LAYER
  5
211
100
AcDbSymbolTableRecord
100
AcDbLayerTableRecord
  2
06__ASM_ALL_SURFS
 70
0
 62
7
  6
CONTINUOUS
370
-3
390
F
  0
LAYER
  5
212
100
AcDbSymbolTableRecord
100
AcDbLayerTableRecord
  2
06___PRT_ALL_SURFS
 70
0
 62
7
  6
CONTINUOUS
370
-3
390
F
  0
LAYER
  5
213
100
AcDbSymbolTableRecord
100
AcDbLayerTableRecord
  2
07__ASM_ALL_SKELETONS
 70
0
 62
7
  6
CONTINUOUS
370
-3
390
F
  0
ENDTAB
  0
TABLE
  2
STYLE
  5
3
100
AcDbSymbolTable
 70
1
  0
STYLE
  5
11
100
AcDbSymbolTableRecord
100
AcDbTextStyleTableRecord
  2
STANDARD
 70
0
 40
0.0
 41
0.8
 50
0.0
 71
0
 42
0.2
  3
txt
  4

  0
STYLE
  5
214
100
AcDbSymbolTableRecord
100
AcDbTextStyleTableRecord
  2
TEXTSTYLE_1
 70
0
 40
0.0
 41
0.8
 50
0.0
 71
0
 42
0.2
  3
gdt
  4

  0
ENDTAB
  0
TABLE
  2
VIEW
  5
6
100
AcDbSymbolTable
 70
0
  0
ENDTAB
  0
TABLE
  2
UCS
  5
7
100
AcDbSymbolTable
 70
0
  0
ENDTAB
  0
TABLE
  2
APPID
  5
9
100
AcDbSymbolTable
 70
1
  0
APPID
  5
215
100
AcDbSymbolTableRecord
100
AcDbRegAppTableRecord
  2
ACAD
 70
0
  0
ENDTAB
  0
TABLE
  2
BLOCK_RECORD
  5
1
100
AcDbSymbolTable
 70
0
  0
BLOCK_RECORD
  5
216
100
AcDbSymbolTableRecord
100
AcDbBlockTableRecord
  2
*Model_Space
  0
BLOCK_RECORD
  5
217
100
AcDbSymbolTableRecord
100
AcDbBlockTableRecord
  2
*Paper_Space
  0
ENDTAB
  0
TABLE
  2
DIMSTYLE
  5
A
100
AcDbSymbolTable
 70
1
100
AcDbDimStyleTable
 71
0
  0
DIMSTYLE
105
218
100
AcDbSymbolTableRecord
100
AcDbDimStyleTableRecord
  2
STANDARD
 70
0
  3

  4

 40
1.0
 41
0.1875
 42
0.0625
 43
0.38
 44
0.125
 45
0.0
 46
0.0
 47
0.0001
 48
0.0001
140
0.15625
141
0.09
142
0.0
143
25.4
144
1.0
145
0.0
146
1.0
147
0.09
 71
0.0
 72
0.0
 73
1
 74
1
 75
0
 76
0
 77
0
 78
4
170
0
171
2
172
0
173
0
174
0
175
0
176
0
177
0
178
0
270
2
271
4
272
4
273
2
274
2
275
0
280
0
281
0
282
0
283
1
284
4
285
0
286
0
287
3
288
0
340
11
278
46
  0
ENDTAB
  0
ENDSEC
  0
SECTION
  2
BLOCKS
  0
BLOCK
  5
20
100
AcDbEntity
  8
0
100
AcDbBlockBegin
  2
*Model_Space
 70
0
 10
0.0
 20
0.0
 30
0.0
  3
*Model_Space
  1

  0
ENDBLK
  5
21
100
AcDbEntity
  8
0
100
AcDbBlockEnd
  0
BLOCK
  5
1C
100
AcDbEntity
  8
0
100
AcDbBlockBegin
  2
*Paper_Space
 70
0
 10
0.0
 20
0.0
 30
0.0
  3
*Paper_Space
  1

  0
ENDBLK
  5
1D
100
AcDbEntity
  8
0
100
AcDbBlockEnd
  0
ENDSEC
  0
SECTION
  2
ENTITIES
  0
MTEXT
  5
219
100
AcDbEntity
  8
0
100
AcDbMText
 62
7
  6
CONTINUOUS
  7
STANDARD
 71
1
 72
1
 10
15.9560215477
 20
0.9479130325
 30
0.0
 11
1.0
 21
0.0
 31
0.0
 44
0.9
  1
SCALE: 1:8.000
 40
0.3
 41
3.36
  0
LINE
  5
21A
100
AcDbEntity
  8
0
100
AcDbLine
 62
7
  6
CONTINUOUS
 10
0.0
 20
0.0
 11
0.0
 21
17.0
  0
LINE
  5
21B
100
AcDbEntity
  8
0
100
AcDbLine
 62
7
  6
CONTINUOUS
 10
0.0
 20
0.0
 11
22.0
 21
0.0
  0
LINE
  5
21C
100
AcDbEntity
  8
0
100
AcDbLine
 62
7
  6
CONTINUOUS
 10
0.0
 20
17.0
 11
22.0
 21
17.0
  0
LINE
  5
21D
100
AcDbEntity
  8
0
100
AcDbLine
 62
7
  6
CONTINUOUS
 10
22.0
 20
0.0
 11
22.0
 21
17.0
  0
LINE
  5
21E
100
AcDbEntity
  8
0
100
AcDbLine
 62
7
  6
CONTINUOUS
 10
4.2103672762
 20
5.7001198968
 11
4.2103672762
 21
5.5001198968
  0
LINE
  5
21F
100
AcDbEntity
  8
0
100
AcDbLine
 62
7
  6
CONTINUOUS
 10
4.3394588635
 20
5.4781708632
 11
4.3830040651
 21
5.373043447
  0
LINE
  5
220
100
AcDbEntity
  8
0
100
AcDbLine
 62
7
  6
CONTINUOUS
 10
4.6777304872
 20
5.373043447
 11
4.7212756888
 21
5.4781708632
  0
LINE
  5
221
100
AcDbEntity
  8
0
100
AcDbLine
 62
7
  6
CONTINUOUS
 10
4.9794588635
 20
5.4781708632
 11
5.0230040651
 21
5.373043447
  0
LINE
  5
222
100
AcDbEntity
  8
0
100
AcDbLine
 62
7
  6
CONTINUOUS
 10
5.3177304872
 20
5.373043447
 11
5.3612756888
 21
5.4781708632
  0
LINE
  5
223
100
AcDbEntity
  8
0
100
AcDbLine
 62
7
  6
CONTINUOUS
 10
5.6194588635
 20
5.4781708632
 11
5.6630040651
 21
5.373043447
  0
LINE
  5
224
100
AcDbEntity
  8
0
100
AcDbLine
 62
7
  6
CONTINUOUS
 10
4.4322776402
 20
5.3401198968
 11
4.6284569122
 21
5.3401198968
  0
LINE
  5
225
100
AcDbEntity
  8
0
100
AcDbLine
 62
7
  6
CONTINUOUS
 10
5.0722776402
 20
5.3401198968
 11
5.2684569122
 21
5.3401198968
  0
LINE
  5
226
100
AcDbEntity
  8
0
100
AcDbLine
 62
7
  6
CONTINUOUS
 10
5.7122776402
 20
5.3401198968
 11
5.9084569122
 21
5.3401198968
  0
LINE
  5
227
100
AcDbEntity
  8
0
100
AcDbLine
 62
7
  6
CONTINUOUS
 10
6.3522776402
 20
5.3401198968
 11
6.5484569122
 21
5.3401198968
  0
LINE
  5
228
100
AcDbEntity
  8
0
100
AcDbLine
 62
7
  6
CONTINUOUS
 10
6.9922776402
 20
5.3401198968
 11
7.1884569122
 21
5.3401198968
  0
LINE
  5
229
100
AcDbEntity
  8
0
100
AcDbLine
 62
7
  6
CONTINUOUS
 10
7.6322776402
 20
5.3401198968
 11
7.8284569122
 21
5.3401198968
  0
LINE
  5
22A
100
AcDbEntity
  8
0
100
AcDbLine
 62
7
  6
CONTINUOUS
 10
5.9577304872
 20
5.373043447
 11
6.0012756888
 21
5.4781708632
  0
LINE
  5
22B
100
AcDbEntity
  8
0
100
AcDbLine
 62
7
  6
CONTINUOUS
 10
4.2103672762
 20
5.5001198968
 11
4.3066098135
 21
5.5001198968
  0
LINE
  5
22C
100
AcDbEntity
  8
0
100
AcDbLine
 62
7
  6
CONTINUOUS
 10
4.7541247388
 20
5.5001198968
 11
4.9466098135
 21
5.5001198968
  0
LINE
  5
22D
100
AcDbEntity
  8
0
100
AcDbLine
 62
7
  6
CONTINUOUS
 10
5.3941247388
 20
5.5001198968
 11
5.5866098135
 21
5.5001198968
  0
LINE
  5
22E
100
AcDbEntity
  8
0
100
AcDbLine
 62
7
  6
CONTINUOUS
 10
6.0341247388
 20
5.5001198968
 11
6.2266098135
 21
5.5001198968
  0
LINE
  5
22F
100
AcDbEntity
  8
0
100
AcDbLine
 62
7
  6
CONTINUOUS
 10
6.6741247388
 20
5.5001198968
 11
6.8666098135
 21
5.5001198968
  0
LINE
  5
230
100
AcDbEntity
  8
0
100
AcDbLine
 62
7
  6
CONTINUOUS
 10
7.3141247388
 20
5.5001198968
 11
7.5066098135
 21
5.5001198968
  0
LINE
  5
231
100
AcDbEntity
  8
0
100
AcDbLine
 62
7
  6
CONTINUOUS
 10
7.9541247388
 20
5.5001198968
 11
8.0503672762
 21
5.5001198968
  0
LINE
  5
232
100
AcDbEntity
  8
0
100
AcDbLine
 62
7
  6
CONTINUOUS
 10
6.2594588635
 20
5.4781708632
 11
6.3030040651
 21
5.373043447
  0
LINE
  5
233
100
AcDbEntity
  8
0
100
AcDbLine
 62
7
  6
CONTINUOUS
 10
8.0503672762
 20
5.7001198968
 11
4.2103672762
 21
5.7001198968
  0
LINE
  5
234
100
AcDbEntity
  8
0
100
AcDbLine
 62
7
  6
CONTINUOUS
 10
6.5977304872
 20
5.373043447
 11
6.6412756888
 21
5.4781708632
  0
LINE
  5
235
100
AcDbEntity
  8
0
100
AcDbLine
 62
7
  6
CONTINUOUS
 10
6.8994588635
 20
5.4781708632
 11
6.9430040651
 21
5.373043447
  0
LINE
  5
236
100
AcDbEntity
  8
0
100
AcDbLine
 62
7
  6
CONTINUOUS
 10
7.2377304872
 20
5.373043447
 11
7.2812756888
 21
5.4781708632
  0
LINE
  5
237
100
AcDbEntity
  8
0
100
AcDbLine
 62
7
  6
CONTINUOUS
 10
7.5394588635
 20
5.4781708632
 11
7.5830040651
 21
5.373043447
  0
LINE
  5
238
100
AcDbEntity
  8
0
100
AcDbLine
 62
7
  6
CONTINUOUS
 10
7.8777304872
 20
5.373043447
 11
7.9212756888
 21
5.4781708632
  0
LINE
  5
239
100
AcDbEntity
  8
0
100
AcDbLine
 62
7
  6
CONTINUOUS
 10
8.0503672762
 20
5.5001198968
 11
8.0503672762
 21
5.7001198968
  0
LINE
  5
23A
100
AcDbEntity
  8
0
100
AcDbLine
 62
7
  6
CONTINUOUS
 10
4.1508720839
 20
13.3480477814
 11
4.1508720839
 21
11.8520477814
  0
LINE
  5
23B
100
AcDbEntity
  8
0
100
AcDbLine
 62
7
  6
CONTINUOUS
 10
7.9908720839
 20
11.8520477814
 11
4.1508720839
 21
11.8520477814
  0
LINE
  5
23C
100
AcDbEntity
  8
0
100
AcDbLine
 62
7
  6
CONTINUOUS
 10
4.1508720839
 20
13.3480477814
 11
7.9908720839
 21
13.3480477814
  0
LINE
  5
23D
100
AcDbEntity
  8
0
100
AcDbLine
 62
7
  6
CONTINUOUS
 10
7.9908720839
 20
13.3480477814
 11
7.9908720839
 21
11.8520477814
  0
LINE
  5
23E
100
AcDbEntity
  8
0
100
AcDbLine
 62
7
  6
CONTINUOUS
 10
14.8123552569
 20
5.2806247044
 11
14.8123552569
 21
5.6406247044
  0
LINE
  5
23F
100
AcDbEntity
  8
0
100
AcDbLine
 62
7
  6
CONTINUOUS
 10
14.8123552569
 20
5.2806247044
 11
16.3083552569
 21
5.2806247044
  0
LINE
  5
240
100
AcDbEntity
  8
0
100
AcDbLine
 62
7
  6
CONTINUOUS
 10
16.3083552569
 20
5.4406247044
 11
14.8123552569
 21
5.4406247044
  0
LINE
  5
241
100
AcDbEntity
  8
0
100
AcDbLine
 62
7
  6
CONTINUOUS
 10
16.3083552569
 20
5.6406247044
 11
14.8123552569
 21
5.6406247044
  0
LINE
  5
242
100
AcDbEntity
  8
0
100
AcDbLine
 62
7
  6
CONTINUOUS
 10
16.3083552569
 20
5.2806247044
 11
16.3083552569
 21
5.6406247044
  0
LINE
  5
243
100
AcDbEntity
  8
0
100
AcDbLine
 62
7
  6
CONTINUOUS
 10
13.4911055634
 20
12.0367662588
 11
13.5521139367
 21
11.9124442651
  0
LINE
  5
244
100
AcDbEntity
  8
0
100
AcDbLine
 62
7
  6
CONTINUOUS
 10
13.8532367832
 20
13.2086233156
 11
13.4911055634
 21
12.0367662588
  0
LINE
  5
245
100
AcDbEntity
  8
0
100
AcDbLine
 62
7
  6
CONTINUOUS
 10
13.6777105367
 20
11.8988005271
 11
13.7498865866
 21
11.8334522773
  0
LINE
  5
246
100
AcDbEntity
  8
0
100
AcDbLine
 62
7
  6
CONTINUOUS
 10
14.0213475979
 20
11.8334522773
 11
14.0293871213
 21
11.8988005271
  0
LINE
  5
247
100
AcDbEntity
  8
0
100
AcDbLine
 62
7
  6
CONTINUOUS
 10
14.0206981294
 20
11.8303912681
 11
14.0213475979
 21
11.8334522773
  0
LINE
  5
248
100
AcDbEntity
  8
0
100
AcDbLine
 62
7
  6
CONTINUOUS
 10
14.0293871213
 20
11.8988005271
 11
14.0298277578
 21
11.900838837
  0
LINE
  5
249
100
AcDbEntity
  8
0
100
AcDbLine
 62
7
  6
CONTINUOUS
 10
14.2671895728
 20
11.8988005271
 11
14.3393656228
 21
11.8334522773
  0
LINE
  5
24A
100
AcDbEntity
  8
0
100
AcDbLine
 62
7
  6
CONTINUOUS
 10
14.0216136515
 20
11.8333700605
 11
14.0458179472
 21
11.9116951899
  0
LINE
  5
24B
100
AcDbEntity
  8
0
100
AcDbLine
 62
7
  6
CONTINUOUS
 10
14.856668609
 20
11.8988005271
 11
14.9288446589
 21
11.8334522773
  0
LINE
  5
24C
100
AcDbEntity
  8
0
100
AcDbLine
 62
7
  6
CONTINUOUS
 10
14.6108266341
 20
11.8334522773
 11
14.6188661574
 21
11.8988005271
  0
LINE
  5
24D
100
AcDbEntity
  8
0
100
AcDbLine
 62
7
  6
CONTINUOUS
 10
14.6101771655
 20
11.8303912681
 11
14.6108266341
 21
11.8334522773
  0
LINE
  5
24E
100
AcDbEntity
  8
0
100
AcDbLine
 62
7
  6
CONTINUOUS
 10
14.6188661574
 20
11.8988005271
 11
14.619306794
 21
11.900838837
  0
LINE
  5
24F
100
AcDbEntity
  8
0
100
AcDbLine
 62
7
  6
CONTINUOUS
 10
13.8053136159
 20
11.8129866702
 11
13.9860066911
 21
11.8129866702
  0
LINE
  5
250
100
AcDbEntity
  8
0
100
AcDbLine
 62
7
  6
CONTINUOUS
 10
14.394792652
 20
11.8129866702
 11
14.5754857273
 21
11.8129866702
  0
LINE
  5
251
100
AcDbEntity
  8
0
100
AcDbLine
 62
7
  6
CONTINUOUS
 10
14.9842716882
 20
11.8129866702
 11
15.1649647634
 21
11.8129866702
  0
LINE
  5
252
100
AcDbEntity
  8
0
100
AcDbLine
 62
7
  6
CONTINUOUS
 10
15.5737507243
 20
11.8129866702
 11
15.7544437996
 21
11.8129866702
  0
LINE
  5
253
100
AcDbEntity
  8
0
100
AcDbLine
 62
7
  6
CONTINUOUS
 10
16.1632297605
 20
11.8129866702
 11
16.3439228358
 21
11.8129866702
  0
LINE
  5
254
100
AcDbEntity
  8
0
100
AcDbLine
 62
7
  6
CONTINUOUS
 10
16.7527087967
 20
11.8129866702
 11
16.9334018719
 21
11.8129866702
  0
LINE
  5
255
100
AcDbEntity
  8
0
100
AcDbLine
 62
7
  6
CONTINUOUS
 10
14.6110926877
 20
11.8333700605
 11
14.6352969833
 21
11.9116951899
  0
LINE
  5
256
100
AcDbEntity
  8
0
100
AcDbLine
 62
7
  6
CONTINUOUS
 10
13.5521139367
 20
11.9124442651
 11
13.6407591838
 21
11.9124442651
  0
LINE
  5
257
100
AcDbEntity
  8
0
100
AcDbLine
 62
7
  6
CONTINUOUS
 10
14.0529477258
 20
11.9124442651
 11
14.23023822
 21
11.9124442651
  0
LINE
  5
258
100
AcDbEntity
  8
0
100
AcDbLine
 62
7
  6
CONTINUOUS
 10
14.642426762
 20
11.9124442651
 11
14.8197172562
 21
11.9124442651
  0
LINE
  5
259
100
AcDbEntity
  8
0
100
AcDbLine
 62
7
  6
CONTINUOUS
 10
15.2319057981
 20
11.9124442651
 11
15.4091962923
 21
11.9124442651
  0
LINE
  5
25A
100
AcDbEntity
  8
0
100
AcDbLine
 62
7
  6
CONTINUOUS
 10
15.8213848343
 20
11.9124442651
 11
15.9986753285
 21
11.9124442651
  0
LINE
  5
25B
100
AcDbEntity
  8
0
100
AcDbLine
 62
7
  6
CONTINUOUS
 10
16.4108638705
 20
11.9124442651
 11
16.5881543646
 21
11.9124442651
  0
LINE
  5
25C
100
AcDbEntity
  8
0
100
AcDbLine
 62
7
  6
CONTINUOUS
 10
17.0003429066
 20
11.9124442651
 11
17.0889881537
 21
11.9124442651
  0
LINE
  5
25D
100
AcDbEntity
  8
0
100
AcDbLine
 62
7
  6
CONTINUOUS
 10
17.0279797804
 20
12.0367662588
 11
13.4911055634
 21
12.0367662588
  0
LINE
  5
25E
100
AcDbEntity
  8
0
100
AcDbLine
 62
7
  6
CONTINUOUS
 10
15.4461476452
 20
11.8988005271
 11
15.5183236951
 21
11.8334522773
  0
LINE
  5
25F
100
AcDbEntity
  8
0
100
AcDbLine
 62
7
  6
CONTINUOUS
 10
15.2003056702
 20
11.8334522773
 11
15.2083451936
 21
11.8988005271
  0
LINE
  5
260
100
AcDbEntity
  8
0
100
AcDbLine
 62
7
  6
CONTINUOUS
 10
15.1996562017
 20
11.8303912681
 11
15.2003056702
 21
11.8334522773
  0
LINE
  5
261
100
AcDbEntity
  8
0
100
AcDbLine
 62
7
  6
CONTINUOUS
 10
15.2083451936
 20
11.8988005271
 11
15.2087858301
 21
11.900838837
  0
LINE
  5
262
100
AcDbEntity
  8
0
100
AcDbLine
 62
7
  6
CONTINUOUS
 10
15.2005717238
 20
11.8333700605
 11
15.2247760195
 21
11.9116951899
  0
LINE
  5
263
100
AcDbEntity
  8
0
100
AcDbLine
 62
7
  6
CONTINUOUS
 10
16.0356266813
 20
11.8988005271
 11
16.1078027312
 21
11.8334522773
  0
LINE
  5
264
100
AcDbEntity
  8
0
100
AcDbLine
 62
7
  6
CONTINUOUS
 10
15.7897847064
 20
11.8334522773
 11
15.7978242298
 21
11.8988005271
  0
LINE
  5
265
100
AcDbEntity
  8
0
100
AcDbLine
 62
7
  6
CONTINUOUS
 10
16.6251057175
 20
11.8988005271
 11
16.6972817674
 21
11.8334522773
  0
LINE
  5
266
100
AcDbEntity
  8
0
100
AcDbLine
 62
7
  6
CONTINUOUS
 10
15.7891352379
 20
11.8303912681
 11
15.7897847064
 21
11.8334522773
  0
LINE
  5
267
100
AcDbEntity
  8
0
100
AcDbLine
 62
7
  6
CONTINUOUS
 10
15.7978242298
 20
11.8988005271
 11
15.7982648663
 21
11.900838837
  0
LINE
  5
268
100
AcDbEntity
  8
0
100
AcDbLine
 62
7
  6
CONTINUOUS
 10
15.79005076
 20
11.8333700605
 11
15.8142550557
 21
11.9116951899
  0
LINE
  5
269
100
AcDbEntity
  8
0
100
AcDbLine
 62
7
  6
CONTINUOUS
 10
13.8532367832
 20
13.2086233156
 11
17.3901110002
 21
13.2086233156
  0
LINE
  5
26A
100
AcDbEntity
  8
0
100
AcDbLine
 62
7
  6
CONTINUOUS
 10
16.3792637426
 20
11.8334522773
 11
16.3873032659
 21
11.8988005271
  0
LINE
  5
26B
100
AcDbEntity
  8
0
100
AcDbLine
 62
7
  6
CONTINUOUS
 10
16.378614274
 20
11.8303912681
 11
16.3792637426
 21
11.8334522773
  0
LINE
  5
26C
100
AcDbEntity
  8
0
100
AcDbLine
 62
7
  6
CONTINUOUS
 10
16.3873032659
 20
11.8988005271
 11
16.3877439025
 21
11.900838837
  0
LINE
  5
26D
100
AcDbEntity
  8
0
100
AcDbLine
 62
7
  6
CONTINUOUS
 10
16.3795297962
 20
11.8333700605
 11
16.4037340918
 21
11.9116951899
  0
LINE
  5
26E
100
AcDbEntity
  8
0
100
AcDbLine
 62
7
  6
CONTINUOUS
 10
17.0889881537
 20
11.9124442651
 11
17.0279797804
 21
12.0367662588
  0
LINE
  5
26F
100
AcDbEntity
  8
0
100
AcDbLine
 62
7
  6
CONTINUOUS
 10
16.9687427787
 20
11.8334522773
 11
16.9767823021
 21
11.8988005271
  0
LINE
  5
270
100
AcDbEntity
  8
0
100
AcDbLine
 62
7
  6
CONTINUOUS
 10
16.9680933102
 20
11.8303912681
 11
16.9687427787
 21
11.8334522773
  0
LINE
  5
271
100
AcDbEntity
  8
0
100
AcDbLine
 62
7
  6
CONTINUOUS
 10
16.9767823021
 20
11.8988005271
 11
16.9772229386
 21
11.900838837
  0
LINE
  5
272
100
AcDbEntity
  8
0
100
AcDbLine
 62
7
  6
CONTINUOUS
 10
17.3901110002
 20
13.2086233156
 11
17.0279797804
 21
12.0367662588
  0
LINE
  5
273
100
AcDbEntity
  8
0
100
AcDbLine
 62
7
  6
CONTINUOUS
 10
16.9690088323
 20
11.8333700605
 11
16.993213128
 21
11.9116951899
  0
LINE
  5
274
100
AcDbEntity
  8
0
100
AcDbLine
 62
7
  6
CONTINUOUS
 10
17.4511193735
 20
13.0843013219
 11
17.0889881537
 21
11.9124442651
  0
LINE
  5
275
100
AcDbEntity
  8
0
100
AcDbLine
 62
7
  6
CONTINUOUS
 10
17.4511193735
 20
13.0843013219
 11
17.3901110002
 21
13.2086233156
  0
ARC
  5
276
100
AcDbEntity
  8
0
100
AcDbCircle
 62
7
  6
CONTINUOUS
 10
5.0722776402
 20
5.3934532301
 40
0.0533333333
100
AcDbArc
 50
202.5
 51
270.0
  0
ARC
  5
277
100
AcDbEntity
  8
0
100
AcDbCircle
 62
7
  6
CONTINUOUS
 10
5.2684569122
 20
5.3934532301
 40
0.0533333333
100
AcDbArc
 50
270.0
 51
337.5
  0
ARC
  5
278
100
AcDbEntity
  8
0
100
AcDbCircle
 62
7
  6
CONTINUOUS
 10
5.7122776402
 20
5.3934532301
 40
0.0533333333
100
AcDbArc
 50
202.5
 51
270.0
  0
ARC
  5
279
100
AcDbEntity
  8
0
100
AcDbCircle
 62
7
  6
CONTINUOUS
 10
5.9084569122
 20
5.3934532301
 40
0.0533333333
100
AcDbArc
 50
270.0
 51
337.5
  0
ARC
  5
27A
100
AcDbEntity
  8
0
100
AcDbCircle
 62
7
  6
CONTINUOUS
 10
6.3522776402
 20
5.3934532301
 40
0.0533333333
100
AcDbArc
 50
202.5
 51
270.0
  0
ARC
  5
27B
100
AcDbEntity
  8
0
100
AcDbCircle
 62
7
  6
CONTINUOUS
 10
6.5484569122
 20
5.3934532301
 40
0.0533333333
100
AcDbArc
 50
270.0
 51
337.5
  0
ARC
  5
27C
100
AcDbEntity
  8
0
100
AcDbCircle
 62
7
  6
CONTINUOUS
 10
4.6284569122
 20
5.3934532301
 40
0.0533333333
100
AcDbArc
 50
270.0
 51
337.5
  0
ARC
  5
27D
100
AcDbEntity
  8
0
100
AcDbCircle
 62
7
  6
CONTINUOUS
 10
4.4322776402
 20
5.3934532301
 40
0.0533333333
100
AcDbArc
 50
202.5
 51
270.0
  0
ARC
  5
27E
100
AcDbEntity
  8
0
100
AcDbCircle
 62
7
  6
CONTINUOUS
 10
7.8284569122
 20
5.3934532301
 40
0.0533333333
100
AcDbArc
 50
270.0
 51
337.5
  0
ARC
  5
27F
100
AcDbEntity
  8
0
100
AcDbCircle
 62
7
  6
CONTINUOUS
 10
7.6322776402
 20
5.3934532301
 40
0.0533333333
100
AcDbArc
 50
202.5
 51
270.0
  0
ARC
  5
280
100
AcDbEntity
  8
0
100
AcDbCircle
 62
7
  6
CONTINUOUS
 10
7.1884569122
 20
5.3934532301
 40
0.0533333333
100
AcDbArc
 50
270.0
 51
337.5
  0
ARC
  5
281
100
AcDbEntity
  8
0
100
AcDbCircle
 62
7
  6
CONTINUOUS
 10
6.9922776402
 20
5.3934532301
 40
0.0533333333
100
AcDbArc
 50
202.5
 51
270.0
  0
ARC
  5
282
100
AcDbEntity
  8
0
100
AcDbCircle
 62
7
  6
CONTINUOUS
 10
4.7541247388
 20
5.4645643412
 40
0.0355555556
100
AcDbArc
 50
90.0
 51
157.5
  0
ARC
  5
283
100
AcDbEntity
  8
0
100
AcDbCircle
 62
7
  6
CONTINUOUS
 10
4.3066098135
 20
5.4645643412
 40
0.0355555556
100
AcDbArc
 50
22.5
 51
90.0
  0
ARC
  5
284
100
AcDbEntity
  8
0
100
AcDbCircle
 62
7
  6
CONTINUOUS
 10
5.3941247388
 20
5.4645643412
 40
0.0355555556
100
AcDbArc
 50
90.0
 51
157.5
  0
ARC
  5
285
100
AcDbEntity
  8
0
100
AcDbCircle
 62
7
  6
CONTINUOUS
 10
4.9466098135
 20
5.4645643412
 40
0.0355555556
100
AcDbArc
 50
22.5
 51
90.0
  0
ARC
  5
286
100
AcDbEntity
  8
0
100
AcDbCircle
 62
7
  6
CONTINUOUS
 10
6.0341247388
 20
5.4645643412
 40
0.0355555556
100
AcDbArc
 50
90.0
 51
157.5
  0
ARC
  5
287
100
AcDbEntity
  8
0
100
AcDbCircle
 62
7
  6
CONTINUOUS
 10
5.5866098135
 20
5.4645643412
 40
0.0355555556
100
AcDbArc
 50
22.5
 51
90.0
  0
ARC
  5
288
100
AcDbEntity
  8
0
100
AcDbCircle
 62
7
  6
CONTINUOUS
 10
6.6741247388
 20
5.4645643412
 40
0.0355555556
100
AcDbArc
 50
90.0
 51
157.5
  0
ARC
  5
289
100
AcDbEntity
  8
0
100
AcDbCircle
 62
7
  6
CONTINUOUS
 10
6.2266098135
 20
5.4645643412
 40
0.0355555556
100
AcDbArc
 50
22.5
 51
90.0
  0
ARC
  5
28A
100
AcDbEntity
  8
0
100
AcDbCircle
 62
7
  6
CONTINUOUS
 10
7.3141247388
 20
5.4645643412
 40
0.0355555556
100
AcDbArc
 50
90.0
 51
157.5
  0
ARC
  5
28B
100
AcDbEntity
  8
0
100
AcDbCircle
 62
7
  6
CONTINUOUS
 10
6.8666098135
 20
5.4645643412
 40
0.0355555556
100
AcDbArc
 50
22.5
 51
90.0
  0
ARC
  5
28C
100
AcDbEntity
  8
0
100
AcDbCircle
 62
7
  6
CONTINUOUS
 10
7.9541247388
 20
5.4645643412
 40
0.0355555556
100
AcDbArc
 50
90.0
 51
157.5
  0
ARC
  5
28D
100
AcDbEntity
  8
0
100
AcDbCircle
 62
7
  6
CONTINUOUS
 10
7.5066098135
 20
5.4645643412
 40
0.0355555556
100
AcDbArc
 50
22.5
 51
90.0
  0
SPLINE
  5
28E
100
AcDbEntity
  8
0
100
AcDbSpline
 62
7
  6
CONTINUOUS
 70
0
 71
3
 72
13
 73
9
 74
0
 42
0.0000001
 43
0.0000001
 44
0.0000000001
 40
0.0
 40
0.0
 40
0.0
 40
0.0
 40
0.1167214899
 40
0.2344029829
 40
0.3538126028
 40
0.4756938497
 40
0.7293205628
 40
1.0
 40
1.0
 40
1.0
 40
1.0
 10
14.0298242555
 20
11.90083992
 30
0.0
 10
14.0299465222
 20
11.9012347804
 30
0.0
 10
14.0302343819
 20
11.9020153335
 30
0.0
 10
14.0307898237
 20
11.903140874
 30
0.0
 10
14.0314680458
 20
11.9042188101
 30
0.0
 10
14.0325473433
 20
11.9056030419
 30
0.0
 10
14.0342100762
 20
11.9071946516
 30
0.0
 10
14.0357543687
 20
11.9082407428
 30
0.0
 10
14.0365839701
 20
11.9087209952
 30
0.0
  0
SPLINE
  5
28F
100
AcDbEntity
  8
0
100
AcDbSpline
 62
7
  6
CONTINUOUS
 70
0
 71
3
 72
14
 73
10
 74
0
 42
0.0000001
 43
0.0000001
 44
0.0000000001
 40
0.0
 40
0.0
 40
0.0
 40
0.0
 40
0.221809941
 40
0.340073983
 40
0.4632239941
 40
0.5911684666
 40
0.723576174
 40
0.8600118196
 40
1.0
 40
1.0
 40
1.0
 40
1.0
 10
14.0365839701
 20
11.9087209952
 30
0.0
 10
14.0376693657
 20
11.9093493257
 30
0.0
 10
14.0394250897
 20
11.9101602105
 30
0.0
 10
14.0419089925
 20
11.9109939575
 30
0.0
 10
14.0439316117
 20
11.9115212584
 30
0.0
 10
14.0460618957
 20
11.9119327751
 30
0.0
 10
14.048287138
 20
11.9122279541
 30
0.0
 10
14.05059295
 20
11.9124055446
 30
0.0
 10
14.0521562119
 20
11.9124442651
 30
0.0
 10
14.0529477258
 20
11.9124442651
 30
0.0
  0
SPLINE
  5
290
100
AcDbEntity
  8
0
100
AcDbSpline
 62
7
  6
CONTINUOUS
 70
0
 71
3
 72
13
 73
9
 74
0
 42
0.0000001
 43
0.0000001
 44
0.0000000001
 40
0.0
 40
0.0
 40
0.0
 40
0.0
 40
0.1167214899
 40
0.2344029829
 40
0.3538126028
 40
0.4756938497
 40
0.7293205628
 40
1.0
 40
1.0
 40
1.0
 40
1.0
 10
14.6193032917
 20
11.90083992
 30
0.0
 10
14.6194255584
 20
11.9012347804
 30
0.0
 10
14.6197134181
 20
11.9020153335
 30
0.0
 10
14.6202688598
 20
11.903140874
 30
0.0
 10
14.620947082
 20
11.9042188101
 30
0.0
 10
14.6220263794
 20
11.9056030419
 30
0.0
 10
14.6236891124
 20
11.9071946516
 30
0.0
 10
14.6252334049
 20
11.9082407428
 30
0.0
 10
14.6260630062
 20
11.9087209952
 30
0.0
  0
SPLINE
  5
291
100
AcDbEntity
  8
0
100
AcDbSpline
 62
7
  6
CONTINUOUS
 70
0
 71
3
 72
14
 73
10
 74
0
 42
0.0000001
 43
0.0000001
 44
0.0000000001
 40
0.0
 40
0.0
 40
0.0
 40
0.0
 40
0.221809941
 40
0.340073983
 40
0.4632239941
 40
0.5911684666
 40
0.723576174
 40
0.8600118196
 40
1.0
 40
1.0
 40
1.0
 40
1.0
 10
14.6260630062
 20
11.9087209952
 30
0.0
 10
14.6271484019
 20
11.9093493257
 30
0.0
 10
14.6289041258
 20
11.9101602105
 30
0.0
 10
14.6313880286
 20
11.9109939575
 30
0.0
 10
14.6334106479
 20
11.9115212584
 30
0.0
 10
14.6355409319
 20
11.9119327751
 30
0.0
 10
14.6377661742
 20
11.9122279541
 30
0.0
 10
14.6400719862
 20
11.9124055446
 30
0.0
 10
14.641635248
 20
11.9124442651
 30
0.0
 10
14.642426762
 20
11.9124442651
 30
0.0
  0
SPLINE
  5
292
100
AcDbEntity
  8
0
100
AcDbSpline
 62
7
  6
CONTINUOUS
 70
0
 71
3
 72
13
 73
9
 74
0
 42
0.0000001
 43
0.0000001
 44
0.0000000001
 40
0.0
 40
0.0
 40
0.0
 40
0.0
 40
0.1167214899
 40
0.2344029829
 40
0.3538126028
 40
0.4756938497
 40
0.7293205628
 40
1.0
 40
1.0
 40
1.0
 40
1.0
 10
15.2087823278
 20
11.90083992
 30
0.0
 10
15.2089045945
 20
11.9012347804
 30
0.0
 10
15.2091924542
 20
11.9020153335
 30
0.0
 10
15.209747896
 20
11.903140874
 30
0.0
 10
15.2104261181
 20
11.9042188101
 30
0.0
 10
15.2115054156
 20
11.9056030419
 30
0.0
 10
15.2131681486
 20
11.9071946516
 30
0.0
 10
15.214712441
 20
11.9082407428
 30
0.0
 10
15.2155420424
 20
11.9087209952
 30
0.0
  0
SPLINE
  5
293
100
AcDbEntity
  8
0
100
AcDbSpline
 62
7
  6
CONTINUOUS
 70
0
 71
3
 72
14
 73
10
 74
0
 42
0.0000001
 43
0.0000001
 44
0.0000000001
 40
0.0
 40
0.0
 40
0.0
 40
0.0
 40
0.221809941
 40
0.340073983
 40
0.4632239941
 40
0.5911684666
 40
0.723576174
 40
0.8600118196
 40
1.0
 40
1.0
 40
1.0
 40
1.0
 10
15.2155420424
 20
11.9087209952
 30
0.0
 10
15.2166274381
 20
11.9093493257
 30
0.0
 10
15.218383162
 20
11.9101602105
 30
0.0
 10
15.2208670648
 20
11.9109939575
 30
0.0
 10
15.2228896841
 20
11.9115212584
 30
0.0
 10
15.225019968
 20
11.9119327751
 30
0.0
 10
15.2272452104
 20
11.9122279541
 30
0.0
 10
15.2295510223
 20
11.9124055446
 30
0.0
 10
15.2311142842
 20
11.9124442651
 30
0.0
 10
15.2319057981
 20
11.9124442651
 30
0.0
  0
SPLINE
  5
294
100
AcDbEntity
  8
0
100
AcDbSpline
 62
7
  6
CONTINUOUS
 70
0
 71
3
 72
13
 73
9
 74
0
 42
0.0000001
 43
0.0000001
 44
0.0000000001
 40
0.0
 40
0.0
 40
0.0
 40
0.0
 40
0.1167214899
 40
0.2344029829
 40
0.3538126028
 40
0.4756938497
 40
0.7293205628
 40
1.0
 40
1.0
 40
1.0
 40
1.0
 10
15.798261364
 20
11.90083992
 30
0.0
 10
15.7983836307
 20
11.9012347804
 30
0.0
 10
15.7986714904
 20
11.9020153335
 30
0.0
 10
15.7992269322
 20
11.903140874
 30
0.0
 10
15.7999051543
 20
11.9042188101
 30
0.0
 10
15.8009844518
 20
11.9056030419
 30
0.0
 10
15.8026471847
 20
11.9071946516
 30
0.0
 10
15.8041914772
 20
11.9082407428
 30
0.0
 10
15.8050210785
 20
11.9087209952
 30
0.0
  0
SPLINE
  5
295
100
AcDbEntity
  8
0
100
AcDbSpline
 62
7
  6
CONTINUOUS
 70
0
 71
3
 72
14
 73
10
 74
0
 42
0.0000001
 43
0.0000001
 44
0.0000000001
 40
0.0
 40
0.0
 40
0.0
 40
0.0
 40
0.221809941
 40
0.340073983
 40
0.4632239941
 40
0.5911684666
 40
0.723576174
 40
0.8600118196
 40
1.0
 40
1.0
 40
1.0
 40
1.0
 10
15.8050210785
 20
11.9087209952
 30
0.0
 10
15.8061064742
 20
11.9093493257
 30
0.0
 10
15.8078621982
 20
11.9101602105
 30
0.0
 10
15.8103461009
 20
11.9109939575
 30
0.0
 10
15.8123687202
 20
11.9115212584
 30
0.0
 10
15.8144990042
 20
11.9119327751
 30
0.0
 10
15.8167242465
 20
11.9122279541
 30
0.0
 10
15.8190300585
 20
11.9124055446
 30
0.0
 10
15.8205933203
 20
11.9124442651
 30
0.0
 10
15.8213848343
 20
11.9124442651
 30
0.0
  0
SPLINE
  5
296
100
AcDbEntity
  8
0
100
AcDbSpline
 62
7
  6
CONTINUOUS
 70
0
 71
3
 72
13
 73
9
 74
0
 42
0.0000001
 43
0.0000001
 44
0.0000000001
 40
0.0
 40
0.0
 40
0.0
 40
0.0
 40
0.1167214899
 40
0.2344029829
 40
0.3538126028
 40
0.4756938497
 40
0.7293205628
 40
1.0
 40
1.0
 40
1.0
 40
1.0
 10
16.3877404001
 20
11.90083992
 30
0.0
 10
16.3878626669
 20
11.9012347804
 30
0.0
 10
16.3881505265
 20
11.9020153335
 30
0.0
 10
16.3887059683
 20
11.903140874
 30
0.0
 10
16.3893841905
 20
11.9042188101
 30
0.0
 10
16.3904634879
 20
11.9056030419
 30
0.0
 10
16.3921262209
 20
11.9071946516
 30
0.0
 10
16.3936705134
 20
11.9082407428
 30
0.0
 10
16.3945001147
 20
11.9087209952
 30
0.0
  0
SPLINE
  5
297
100
AcDbEntity
  8
0
100
AcDbSpline
 62
7
  6
CONTINUOUS
 70
0
 71
3
 72
14
 73
10
 74
0
 42
0.0000001
 43
0.0000001
 44
0.0000000001
 40
0.0
 40
0.0
 40
0.0
 40
0.0
 40
0.221809941
 40
0.340073983
 40
0.4632239941
 40
0.5911684666
 40
0.723576174
 40
0.8600118196
 40
1.0
 40
1.0
 40
1.0
 40
1.0
 10
16.3945001147
 20
11.9087209952
 30
0.0
 10
16.3955855104
 20
11.9093493257
 30
0.0
 10
16.3973412343
 20
11.9101602105
 30
0.0
 10
16.3998251371
 20
11.9109939575
 30
0.0
 10
16.4018477564
 20
11.9115212584
 30
0.0
 10
16.4039780403
 20
11.9119327751
 30
0.0
 10
16.4062032827
 20
11.9122279541
 30
0.0
 10
16.4085090946
 20
11.9124055446
 30
0.0
 10
16.4100723565
 20
11.9124442651
 30
0.0
 10
16.4108638705
 20
11.9124442651
 30
0.0
  0
SPLINE
  5
298
100
AcDbEntity
  8
0
100
AcDbSpline
 62
7
  6
CONTINUOUS
 70
0
 71
3
 72
13
 73
9
 74
0
 42
0.0000001
 43
0.0000001
 44
0.0000000001
 40
0.0
 40
0.0
 40
0.0
 40
0.0
 40
0.1167214899
 40
0.2344029829
 40
0.3538126028
 40
0.4756938497
 40
0.7293205628
 40
1.0
 40
1.0
 40
1.0
 40
1.0
 10
16.9772194363
 20
11.90083992
 30
0.0
 10
16.977341703
 20
11.9012347804
 30
0.0
 10
16.9776295627
 20
11.9020153335
 30
0.0
 10
16.9781850045
 20
11.903140874
 30
0.0
 10
16.9788632266
 20
11.9042188101
 30
0.0
 10
16.9799425241
 20
11.9056030419
 30
0.0
 10
16.981605257
 20
11.9071946516
 30
0.0
 10
16.9831495495
 20
11.9082407428
 30
0.0
 10
16.9839791509
 20
11.9087209952
 30
0.0
  0
SPLINE
  5
299
100
AcDbEntity
  8
0
100
AcDbSpline
 62
7
  6
CONTINUOUS
 70
0
 71
3
 72
14
 73
10
 74
0
 42
0.0000001
 43
0.0000001
 44
0.0000000001
 40
0.0
 40
0.0
 40
0.0
 40
0.0
 40
0.221809941
 40
0.340073983
 40
0.4632239941
 40
0.5911684666
 40
0.723576174
 40
0.8600118196
 40
1.0
 40
1.0
 40
1.0
 40
1.0
 10
16.9839791509
 20
11.9087209952
 30
0.0
 10
16.9850645466
 20
11.9093493257
 30
0.0
 10
16.9868202705
 20
11.9101602105
 30
0.0
 10
16.9893041733
 20
11.9109939575
 30
0.0
 10
16.9913267926
 20
11.9115212584
 30
0.0
 10
16.9934570765
 20
11.9119327751
 30
0.0
 10
16.9956823188
 20
11.9122279541
 30
0.0
 10
16.9979881308
 20
11.9124055446
 30
0.0
 10
16.9995513927
 20
11.9124442651
 30
0.0
 10
17.0003429066
 20
11.9124442651
 30
0.0
  0
SPLINE
  5
29A
100
AcDbEntity
  8
0
100
AcDbSpline
 62
7
  6
CONTINUOUS
 70
0
 71
3
 72
22
 73
18
 74
0
 42
0.0000001
 43
0.0000001
 44
0.0000000001
 40
0.0
 40
0.0
 40
0.0
 40
0.0
 40
0.0787629344
 40
0.1556801955
 40
0.3030353184
 40
0.3731897413
 40
0.4408814217
 40
0.506084618
 40
0.5688106791
 40
0.6291213315
 40
0.6871208581
 40
0.7429628867
 40
0.7968772984
 40
0.849165555
 40
0.9001806231
 40
0.9503219912
 40
1.0
 40
1.0
 40
1.0
 40
1.0
 10
13.9860066911
 20
11.8129866702
 30
0.0
 10
13.987093353
 20
11.8129866702
 30
0.0
 10
13.989241694
 20
11.813035132
 30
0.0
 10
13.9934132157
 20
11.8133274271
 30
0.0
 10
13.9974428271
 20
11.8139092291
 30
0.0
 10
14.0012760476
 20
11.814806033
 30
0.0
 10
14.0039619355
 20
11.8156088141
 30
0.0
 10
14.0064938686
 20
11.8165493106
 30
0.0
 10
14.0088605307
 20
11.8176244087
 30
0.0
 10
14.011051733
 20
11.8188285808
 30
0.0
 10
14.013057769
 20
11.8201563432
 30
0.0
 10
14.0148687894
 20
11.8216028369
 30
0.0
 10
14.0164760899
 20
11.8231621003
 30
0.0
 10
14.0178727566
 20
11.8248269169
 30
0.0
 10
14.0190518231
 20
11.8265905834
 30
0.0
 10
14.0200056925
 20
11.8284450722
 30
0.0
 10
14.0204902649
 20
11.8297381354
 30
0.0
 10
14.0206927348
 20
11.8303929355
 30
0.0
  0
SPLINE
  5
29B
100
AcDbEntity
  8
0
100
AcDbSpline
 62
7
  6
CONTINUOUS
 70
0
 71
3
 72
21
 73
17
 74
0
 42
0.0000001
 43
0.0000001
 44
0.0000000001
 40
0.0
 40
0.0
 40
0.0
 40
0.0
 40
0.0565488971
 40
0.1148912281
 40
0.1748164853
 40
0.2361075083
 40
0.2985653407
 40
0.3619929648
 40
0.4908920498
 40
0.6209956383
 40
0.6859175476
 40
0.7504443196
 40
0.814357526
 40
0.8774284855
 40
0.9393962712
 40
1.0
 40
1.0
 40
1.0
 40
1.0
 10
13.7498865866
 20
11.8334522773
 30
0.0
 10
13.7507291932
 20
11.8326893806
 30
0.0
 10
13.7524870303
 20
11.8311894468
 30
0.0
 10
13.7552799453
 20
11.829054601
 30
0.0
 10
13.7582562117
 20
11.8270102793
 30
0.0
 10
13.7613989399
 20
11.8250702031
 30
0.0
 10
13.7646902128
 20
11.8232445793
 30
0.0
 10
13.7692769869
 20
11.8209633488
 30
0.0
 10
13.7752655592
 20
11.8184631853
 30
0.0
 10
13.7814709468
 20
11.8164650262
 30
0.0
 10
13.7865295093
 20
11.8151831916
 30
0.0
 10
13.790335447
 20
11.8143890649
 30
0.0
 10
13.7941354552
 20
11.8137664121
 30
0.0
 10
13.7979083919
 20
11.8133193623
 30
0.0
 10
13.8016313371
 20
11.813048947
 30
0.0
 10
13.8040954513
 20
11.8129866702
 30
0.0
 10
13.8053136159
 20
11.8129866702
 30
0.0
  0
SPLINE
  5
29C
100
AcDbEntity
  8
0
100
AcDbSpline
 62
7
  6
CONTINUOUS
 70
0
 71
3
 72
22
 73
18
 74
0
 42
0.0000001
 43
0.0000001
 44
0.0000000001
 40
0.0
 40
0.0
 40
0.0
 40
0.0
 40
0.0787629344
 40
0.1556801955
 40
0.3030353184
 40
0.3731897413
 40
0.4408814217
 40
0.506084618
 40
0.5688106791
 40
0.6291213315
 40
0.6871208581
 40
0.7429628867
 40
0.7968772984
 40
0.849165555
 40
0.9001806231
 40
0.9503219912
 40
1.0
 40
1.0
 40
1.0
 40
1.0
 10
16.9334018719
 20
11.8129866702
 30
0.0
 10
16.9344885338
 20
11.8129866702
 30
0.0
 10
16.9366368748
 20
11.813035132
 30
0.0
 10
16.9408083965
 20
11.8133274271
 30
0.0
 10
16.9448380079
 20
11.8139092291
 30
0.0
 10
16.9486712284
 20
11.814806033
 30
0.0
 10
16.9513571163
 20
11.8156088141
 30
0.0
 10
16.9538890494
 20
11.8165493106
 30
0.0
 10
16.9562557115
 20
11.8176244087
 30
0.0
 10
16.9584469138
 20
11.8188285808
 30
0.0
 10
16.9604529498
 20
11.8201563432
 30
0.0
 10
16.9622639702
 20
11.8216028369
 30
0.0
 10
16.9638712707
 20
11.8231621003
 30
0.0
 10
16.9652679374
 20
11.8248269169
 30
0.0
 10
16.9664470039
 20
11.8265905834
 30
0.0
 10
16.9674008733
 20
11.8284450722
 30
0.0
 10
16.9678854457
 20
11.8297381354
 30
0.0
 10
16.9680879156
 20
11.8303929355
 30
0.0
  0
SPLINE
  5
29D
100
AcDbEntity
  8
0
100
AcDbSpline
 62
7
  6
CONTINUOUS
 70
0
 71
3
 72
21
 73
17
 74
0
 42
0.0000001
 43
0.0000001
 44
0.0000000001
 40
0.0
 40
0.0
 40
0.0
 40
0.0
 40
0.0565488971
 40
0.1148912281
 40
0.1748164853
 40
0.2361075083
 40
0.2985653407
 40
0.3619929648
 40
0.4908920498
 40
0.6209956383
 40
0.6859175476
 40
0.7504443196
 40
0.814357526
 40
0.8774284855
 40
0.9393962712
 40
1.0
 40
1.0
 40
1.0
 40
1.0
 10
16.6972817674
 20
11.8334522773
 30
0.0
 10
16.698124374
 20
11.8326893806
 30
0.0
 10
16.6998822111
 20
11.8311894468
 30
0.0
 10
16.7026751261
 20
11.829054601
 30
0.0
 10
16.7056513925
 20
11.8270102793
 30
0.0
 10
16.7087941207
 20
11.8250702031
 30
0.0
 10
16.7120853936
 20
11.8232445793
 30
0.0
 10
16.7166721677
 20
11.8209633488
 30
0.0
 10
16.72266074
 20
11.8184631853
 30
0.0
 10
16.7288661276
 20
11.8164650262
 30
0.0
 10
16.7339246901
 20
11.8151831916
 30
0.0
 10
16.7377306278
 20
11.8143890649
 30
0.0
 10
16.741530636
 20
11.8137664121
 30
0.0
 10
16.7453035728
 20
11.8133193623
 30
0.0
 10
16.7490265179
 20
11.813048947
 30
0.0
 10
16.7514906321
 20
11.8129866702
 30
0.0
 10
16.7527087967
 20
11.8129866702
 30
0.0
  0
SPLINE
  5
29E
100
AcDbEntity
  8
0
100
AcDbSpline
 62
7
  6
CONTINUOUS
 70
0
 71
3
 72
22
 73
18
 74
0
 42
0.0000001
 43
0.0000001
 44
0.0000000001
 40
0.0
 40
0.0
 40
0.0
 40
0.0
 40
0.0787629344
 40
0.1556801955
 40
0.3030353184
 40
0.3731897413
 40
0.4408814217
 40
0.506084618
 40
0.5688106791
 40
0.6291213315
 40
0.6871208581
 40
0.7429628867
 40
0.7968772984
 40
0.849165555
 40
0.9001806231
 40
0.9503219912
 40
1.0
 40
1.0
 40
1.0
 40
1.0
 10
16.3439228358
 20
11.8129866702
 30
0.0
 10
16.3450094977
 20
11.8129866702
 30
0.0
 10
16.3471578387
 20
11.813035132
 30
0.0
 10
16.3513293603
 20
11.8133274271
 30
0.0
 10
16.3553589717
 20
11.8139092291
 30
0.0
 10
16.3591921922
 20
11.814806033
 30
0.0
 10
16.3618780801
 20
11.8156088141
 30
0.0
 10
16.3644100132
 20
11.8165493106
 30
0.0
 10
16.3667766754
 20
11.8176244087
 30
0.0
 10
16.3689678776
 20
11.8188285808
 30
0.0
 10
16.3709739136
 20
11.8201563432
 30
0.0
 10
16.3727849341
 20
11.8216028369
 30
0.0
 10
16.3743922346
 20
11.8231621003
 30
0.0
 10
16.3757889012
 20
11.8248269169
 30
0.0
 10
16.3769679678
 20
11.8265905834
 30
0.0
 10
16.3779218371
 20
11.8284450722
 30
0.0
 10
16.3784064096
 20
11.8297381354
 30
0.0
 10
16.3786088794
 20
11.8303929355
 30
0.0
  0
SPLINE
  5
29F
100
AcDbEntity
  8
0
100
AcDbSpline
 62
7
  6
CONTINUOUS
 70
0
 71
3
 72
21
 73
17
 74
0
 42
0.0000001
 43
0.0000001
 44
0.0000000001
 40
0.0
 40
0.0
 40
0.0
 40
0.0
 40
0.0565488971
 40
0.1148912281
 40
0.1748164853
 40
0.2361075083
 40
0.2985653407
 40
0.3619929648
 40
0.4908920498
 40
0.6209956383
 40
0.6859175476
 40
0.7504443196
 40
0.814357526
 40
0.8774284855
 40
0.9393962712
 40
1.0
 40
1.0
 40
1.0
 40
1.0
 10
16.1078027312
 20
11.8334522773
 30
0.0
 10
16.1086453378
 20
11.8326893806
 30
0.0
 10
16.110403175
 20
11.8311894468
 30
0.0
 10
16.1131960899
 20
11.829054601
 30
0.0
 10
16.1161723563
 20
11.8270102793
 30
0.0
 10
16.1193150845
 20
11.8250702031
 30
0.0
 10
16.1226063574
 20
11.8232445793
 30
0.0
 10
16.1271931315
 20
11.8209633488
 30
0.0
 10
16.1331817038
 20
11.8184631853
 30
0.0
 10
16.1393870914
 20
11.8164650262
 30
0.0
 10
16.144445654
 20
11.8151831916
 30
0.0
 10
16.1482515916
 20
11.8143890649
 30
0.0
 10
16.1520515999
 20
11.8137664121
 30
0.0
 10
16.1558245366
 20
11.8133193623
 30
0.0
 10
16.1595474817
 20
11.813048947
 30
0.0
 10
16.1620115959
 20
11.8129866702
 30
0.0
 10
16.1632297605
 20
11.8129866702
 30
0.0
  0
SPLINE
  5
2A0
100
AcDbEntity
  8
0
100
AcDbSpline
 62
7
  6
CONTINUOUS
 70
0
 71
3
 72
22
 73
18
 74
0
 42
0.0000001
 43
0.0000001
 44
0.0000000001
 40
0.0
 40
0.0
 40
0.0
 40
0.0
 40
0.0787629344
 40
0.1556801955
 40
0.3030353184
 40
0.3731897413
 40
0.4408814217
 40
0.506084618
 40
0.5688106791
 40
0.6291213315
 40
0.6871208581
 40
0.7429628867
 40
0.7968772984
 40
0.849165555
 40
0.9001806231
 40
0.9503219912
 40
1.0
 40
1.0
 40
1.0
 40
1.0
 10
15.7544437996
 20
11.8129866702
 30
0.0
 10
15.7555304615
 20
11.8129866702
 30
0.0
 10
15.7576788025
 20
11.813035132
 30
0.0
 10
15.7618503241
 20
11.8133274271
 30
0.0
 10
15.7658799355
 20
11.8139092291
 30
0.0
 10
15.769713156
 20
11.814806033
 30
0.0
 10
15.7723990439
 20
11.8156088141
 30
0.0
 10
15.7749309771
 20
11.8165493106
 30
0.0
 10
15.7772976392
 20
11.8176244087
 30
0.0
 10
15.7794888415
 20
11.8188285808
 30
0.0
 10
15.7814948774
 20
11.8201563432
 30
0.0
 10
15.7833058979
 20
11.8216028369
 30
0.0
 10
15.7849131984
 20
11.8231621003
 30
0.0
 10
15.7863098651
 20
11.8248269169
 30
0.0
 10
15.7874889316
 20
11.8265905834
 30
0.0
 10
15.788442801
 20
11.8284450722
 30
0.0
 10
15.7889273734
 20
11.8297381354
 30
0.0
 10
15.7891298432
 20
11.8303929355
 30
0.0
  0
SPLINE
  5
2A1
100
AcDbEntity
  8
0
100
AcDbSpline
 62
7
  6
CONTINUOUS
 70
0
 71
3
 72
21
 73
17
 74
0
 42
0.0000001
 43
0.0000001
 44
0.0000000001
 40
0.0
 40
0.0
 40
0.0
 40
0.0
 40
0.0565488971
 40
0.1148912281
 40
0.1748164853
 40
0.2361075083
 40
0.2985653407
 40
0.3619929648
 40
0.4908920498
 40
0.6209956383
 40
0.6859175476
 40
0.7504443196
 40
0.814357526
 40
0.8774284855
 40
0.9393962712
 40
1.0
 40
1.0
 40
1.0
 40
1.0
 10
15.5183236951
 20
11.8334522773
 30
0.0
 10
15.5191663016
 20
11.8326893806
 30
0.0
 10
15.5209241388
 20
11.8311894468
 30
0.0
 10
15.5237170538
 20
11.829054601
 30
0.0
 10
15.5266933202
 20
11.8270102793
 30
0.0
 10
15.5298360484
 20
11.8250702031
 30
0.0
 10
15.5331273213
 20
11.8232445793
 30
0.0
 10
15.5377140953
 20
11.8209633488
 30
0.0
 10
15.5437026677
 20
11.8184631853
 30
0.0
 10
15.5499080553
 20
11.8164650262
 30
0.0
 10
15.5549666178
 20
11.8151831916
 30
0.0
 10
15.5587725555
 20
11.8143890649
 30
0.0
 10
15.5625725637
 20
11.8137664121
 30
0.0
 10
15.5663455004
 20
11.8133193623
 30
0.0
 10
15.5700684456
 20
11.813048947
 30
0.0
 10
15.5725325597
 20
11.8129866702
 30
0.0
 10
15.5737507243
 20
11.8129866702
 30
0.0
  0
SPLINE
  5
2A2
100
AcDbEntity
  8
0
100
AcDbSpline
 62
7
  6
CONTINUOUS
 70
0
 71
3
 72
22
 73
18
 74
0
 42
0.0000001
 43
0.0000001
 44
0.0000000001
 40
0.0
 40
0.0
 40
0.0
 40
0.0
 40
0.0787629344
 40
0.1556801955
 40
0.3030353184
 40
0.3731897413
 40
0.4408814217
 40
0.506084618
 40
0.5688106791
 40
0.6291213315
 40
0.6871208581
 40
0.7429628867
 40
0.7968772984
 40
0.849165555
 40
0.9001806231
 40
0.9503219912
 40
1.0
 40
1.0
 40
1.0
 40
1.0
 10
15.1649647634
 20
11.8129866702
 30
0.0
 10
15.1660514253
 20
11.8129866702
 30
0.0
 10
15.1681997663
 20
11.813035132
 30
0.0
 10
15.172371288
 20
11.8133274271
 30
0.0
 10
15.1764008994
 20
11.8139092291
 30
0.0
 10
15.1802341199
 20
11.814806033
 30
0.0
 10
15.1829200078
 20
11.8156088141
 30
0.0
 10
15.1854519409
 20
11.8165493106
 30
0.0
 10
15.187818603
 20
11.8176244087
 30
0.0
 10
15.1900098053
 20
11.8188285808
 30
0.0
 10
15.1920158413
 20
11.8201563432
 30
0.0
 10
15.1938268617
 20
11.8216028369
 30
0.0
 10
15.1954341622
 20
11.8231621003
 30
0.0
 10
15.1968308289
 20
11.8248269169
 30
0.0
 10
15.1980098954
 20
11.8265905834
 30
0.0
 10
15.1989637648
 20
11.8284450722
 30
0.0
 10
15.1994483372
 20
11.8297381354
 30
0.0
 10
15.1996508071
 20
11.8303929355
 30
0.0
  0
SPLINE
  5
2A3
100
AcDbEntity
  8
0
100
AcDbSpline
 62
7
  6
CONTINUOUS
 70
0
 71
3
 72
21
 73
17
 74
0
 42
0.0000001
 43
0.0000001
 44
0.0000000001
 40
0.0
 40
0.0
 40
0.0
 40
0.0
 40
0.0565488971
 40
0.1148912281
 40
0.1748164853
 40
0.2361075083
 40
0.2985653407
 40
0.3619929648
 40
0.4908920498
 40
0.6209956383
 40
0.6859175476
 40
0.7504443196
 40
0.814357526
 40
0.8774284855
 40
0.9393962712
 40
1.0
 40
1.0
 40
1.0
 40
1.0
 10
14.9288446589
 20
11.8334522773
 30
0.0
 10
14.9296872655
 20
11.8326893806
 30
0.0
 10
14.9314451027
 20
11.8311894468
 30
0.0
 10
14.9342380176
 20
11.829054601
 30
0.0
 10
14.937214284
 20
11.8270102793
 30
0.0
 10
14.9403570122
 20
11.8250702031
 30
0.0
 10
14.9436482851
 20
11.8232445793
 30
0.0
 10
14.9482350592
 20
11.8209633488
 30
0.0
 10
14.9542236315
 20
11.8184631853
 30
0.0
 10
14.9604290191
 20
11.8164650262
 30
0.0
 10
14.9654875817
 20
11.8151831916
 30
0.0
 10
14.9692935193
 20
11.8143890649
 30
0.0
 10
14.9730935275
 20
11.8137664121
 30
0.0
 10
14.9768664643
 20
11.8133193623
 30
0.0
 10
14.9805894094
 20
11.813048947
 30
0.0
 10
14.9830535236
 20
11.8129866702
 30
0.0
 10
14.9842716882
 20
11.8129866702
 30
0.0
  0
SPLINE
  5
2A4
100
AcDbEntity
  8
0
100
AcDbSpline
 62
7
  6
CONTINUOUS
 70
0
 71
3
 72
22
 73
18
 74
0
 42
0.0000001
 43
0.0000001
 44
0.0000000001
 40
0.0
 40
0.0
 40
0.0
 40
0.0
 40
0.0787629344
 40
0.1556801955
 40
0.3030353184
 40
0.3731897413
 40
0.4408814217
 40
0.506084618
 40
0.5688106791
 40
0.6291213315
 40
0.6871208581
 40
0.7429628867
 40
0.7968772984
 40
0.849165555
 40
0.9001806231
 40
0.9503219912
 40
1.0
 40
1.0
 40
1.0
 40
1.0
 10
14.5754857273
 20
11.8129866702
 30
0.0
 10
14.5765723892
 20
11.8129866702
 30
0.0
 10
14.5787207302
 20
11.813035132
 30
0.0
 10
14.5828922518
 20
11.8133274271
 30
0.0
 10
14.5869218632
 20
11.8139092291
 30
0.0
 10
14.5907550837
 20
11.814806033
 30
0.0
 10
14.5934409716
 20
11.8156088141
 30
0.0
 10
14.5959729048
 20
11.8165493106
 30
0.0
 10
14.5983395669
 20
11.8176244087
 30
0.0
 10
14.6005307692
 20
11.8188285808
 30
0.0
 10
14.6025368051
 20
11.8201563432
 30
0.0
 10
14.6043478256
 20
11.8216028369
 30
0.0
 10
14.6059551261
 20
11.8231621003
 30
0.0
 10
14.6073517927
 20
11.8248269169
 30
0.0
 10
14.6085308593
 20
11.8265905834
 30
0.0
 10
14.6094847287
 20
11.8284450722
 30
0.0
 10
14.6099693011
 20
11.8297381354
 30
0.0
 10
14.6101717709
 20
11.8303929355
 30
0.0
  0
SPLINE
  5
2A5
100
AcDbEntity
  8
0
100
AcDbSpline
 62
7
  6
CONTINUOUS
 70
0
 71
3
 72
21
 73
17
 74
0
 42
0.0000001
 43
0.0000001
 44
0.0000000001
 40
0.0
 40
0.0
 40
0.0
 40
0.0
 40
0.0565488971
 40
0.1148912281
 40
0.1748164853
 40
0.2361075083
 40
0.2985653407
 40
0.3619929648
 40
0.4908920498
 40
0.6209956383
 40
0.6859175476
 40
0.7504443196
 40
0.814357526
 40
0.8774284855
 40
0.9393962712
 40
1.0
 40
1.0
 40
1.0
 40
1.0
 10
14.3393656228
 20
11.8334522773
 30
0.0
 10
14.3402082293
 20
11.8326893806
 30
0.0
 10
14.3419660665
 20
11.8311894468
 30
0.0
 10
14.3447589815
 20
11.829054601
 30
0.0
 10
14.3477352478
 20
11.8270102793
 30
0.0
 10
14.3508779761
 20
11.8250702031
 30
0.0
 10
14.3541692489
 20
11.8232445793
 30
0.0
 10
14.358756023
 20
11.8209633488
 30
0.0
 10
14.3647445953
 20
11.8184631853
 30
0.0
 10
14.3709499829
 20
11.8164650262
 30
0.0
 10
14.3760085455
 20
11.8151831916
 30
0.0
 10
14.3798144831
 20
11.8143890649
 30
0.0
 10
14.3836144914
 20
11.8137664121
 30
0.0
 10
14.3873874281
 20
11.8133193623
 30
0.0
 10
14.3911103732
 20
11.813048947
 30
0.0
 10
14.3935744874
 20
11.8129866702
 30
0.0
 10
14.394792652
 20
11.8129866702
 30
0.0
  0
SPLINE
  5
2A6
100
AcDbEntity
  8
0
100
AcDbSpline
 62
7
  6
CONTINUOUS
 70
0
 71
3
 72
19
 73
15
 74
0
 42
0.0000001
 43
0.0000001
 44
0.0000000001
 40
0.0
 40
0.0
 40
0.0
 40
0.0
 40
0.0605497931
 40
0.1225024499
 40
0.1855941811
 40
0.2495549467
 40
0.3790347457
 40
0.5091124201
 40
0.6379818472
 40
0.763892803
 40
0.82522623
 40
0.8851709481
 40
0.9435004861
 40
1.0
 40
1.0
 40
1.0
 40
1.0
 10
13.6407591838
 20
11.9124442651
 30
0.0
 10
13.6415705182
 20
11.9124442651
 30
0.0
 10
13.6432122294
 20
11.9124026108
 30
0.0
 10
13.6456933572
 20
11.9122221292
 30
0.0
 10
13.6482092173
 20
11.9119240713
 30
0.0
 10
13.6516024721
 20
11.9113691786
 30
0.0
 10
13.6558312051
 20
11.9103895956
 30
0.0
 10
13.6607915618
 20
11.9087939408
 30
0.0
 10
13.6655553981
 20
11.9068034225
 30
0.0
 10
13.6693131676
 20
11.9048350572
 30
0.0
 10
13.6721319144
 20
11.903093637
 30
0.0
 10
13.6741164889
 20
11.9017304191
 30
0.0
 10
13.6759780236
 20
11.900307864
 30
0.0
 10
13.6771493259
 20
11.8993086477
 30
0.0
 10
13.6777105367
 20
11.8988005271
 30
0.0
  0
SPLINE
  5
2A7
100
AcDbEntity
  8
0
100
AcDbSpline
 62
7
  6
CONTINUOUS
 70
0
 71
3
 72
19
 73
15
 74
0
 42
0.0000001
 43
0.0000001
 44
0.0000000001
 40
0.0
 40
0.0
 40
0.0
 40
0.0
 40
0.0605497931
 40
0.1225024499
 40
0.1855941811
 40
0.2495549467
 40
0.3790347457
 40
0.5091124201
 40
0.6379818472
 40
0.763892803
 40
0.82522623
 40
0.8851709481
 40
0.9435004861
 40
1.0
 40
1.0
 40
1.0
 40
1.0
 10
14.23023822
 20
11.9124442651
 30
0.0
 10
14.2310495543
 20
11.9124442651
 30
0.0
 10
14.2326912655
 20
11.9124026108
 30
0.0
 10
14.2351723934
 20
11.9122221292
 30
0.0
 10
14.2376882534
 20
11.9119240713
 30
0.0
 10
14.2410815083
 20
11.9113691786
 30
0.0
 10
14.2453102412
 20
11.9103895956
 30
0.0
 10
14.250270598
 20
11.9087939408
 30
0.0
 10
14.2550344342
 20
11.9068034225
 30
0.0
 10
14.2587922038
 20
11.9048350572
 30
0.0
 10
14.2616109506
 20
11.903093637
 30
0.0
 10
14.263595525
 20
11.9017304191
 30
0.0
 10
14.2654570597
 20
11.900307864
 30
0.0
 10
14.2666283621
 20
11.8993086477
 30
0.0
 10
14.2671895728
 20
11.8988005271
 30
0.0
  0
SPLINE
  5
2A8
100
AcDbEntity
  8
0
100
AcDbSpline
 62
7
  6
CONTINUOUS
 70
0
 71
3
 72
19
 73
15
 74
0
 42
0.0000001
 43
0.0000001
 44
0.0000000001
 40
0.0
 40
0.0
 40
0.0
 40
0.0
 40
0.0605497931
 40
0.1225024499
 40
0.1855941811
 40
0.2495549467
 40
0.3790347457
 40
0.5091124201
 40
0.6379818472
 40
0.763892803
 40
0.82522623
 40
0.8851709481
 40
0.9435004861
 40
1.0
 40
1.0
 40
1.0
 40
1.0
 10
14.8197172562
 20
11.9124442651
 30
0.0
 10
14.8205285905
 20
11.9124442651
 30
0.0
 10
14.8221703017
 20
11.9124026108
 30
0.0
 10
14.8246514296
 20
11.9122221292
 30
0.0
 10
14.8271672896
 20
11.9119240713
 30
0.0
 10
14.8305605445
 20
11.9113691786
 30
0.0
 10
14.8347892774
 20
11.9103895956
 30
0.0
 10
14.8397496341
 20
11.9087939408
 30
0.0
 10
14.8445134704
 20
11.9068034225
 30
0.0
 10
14.84827124
 20
11.9048350572
 30
0.0
 10
14.8510899868
 20
11.903093637
 30
0.0
 10
14.8530745612
 20
11.9017304191
 30
0.0
 10
14.8549360959
 20
11.900307864
 30
0.0
 10
14.8561073983
 20
11.8993086477
 30
0.0
 10
14.856668609
 20
11.8988005271
 30
0.0
  0
SPLINE
  5
2A9
100
AcDbEntity
  8
0
100
AcDbSpline
 62
7
  6
CONTINUOUS
 70
0
 71
3
 72
19
 73
15
 74
0
 42
0.0000001
 43
0.0000001
 44
0.0000000001
 40
0.0
 40
0.0
 40
0.0
 40
0.0
 40
0.0605497931
 40
0.1225024499
 40
0.1855941811
 40
0.2495549467
 40
0.3790347457
 40
0.5091124201
 40
0.6379818472
 40
0.763892803
 40
0.82522623
 40
0.8851709481
 40
0.9435004861
 40
1.0
 40
1.0
 40
1.0
 40
1.0
 10
15.4091962923
 20
11.9124442651
 30
0.0
 10
15.4100076266
 20
11.9124442651
 30
0.0
 10
15.4116493378
 20
11.9124026108
 30
0.0
 10
15.4141304657
 20
11.9122221292
 30
0.0
 10
15.4166463258
 20
11.9119240713
 30
0.0
 10
15.4200395806
 20
11.9113691786
 30
0.0
 10
15.4242683135
 20
11.9103895956
 30
0.0
 10
15.4292286703
 20
11.9087939408
 30
0.0
 10
15.4339925065
 20
11.9068034225
 30
0.0
 10
15.4377502761
 20
11.9048350572
 30
0.0
 10
15.4405690229
 20
11.903093637
 30
0.0
 10
15.4425535974
 20
11.9017304191
 30
0.0
 10
15.444415132
 20
11.900307864
 30
0.0
 10
15.4455864344
 20
11.8993086477
 30
0.0
 10
15.4461476452
 20
11.8988005271
 30
0.0
  0
SPLINE
  5
2AA
100
AcDbEntity
  8
0
100
AcDbSpline
 62
7
  6
CONTINUOUS
 70
0
 71
3
 72
19
 73
15
 74
0
 42
0.0000001
 43
0.0000001
 44
0.0000000001
 40
0.0
 40
0.0
 40
0.0
 40
0.0
 40
0.0605497931
 40
0.1225024499
 40
0.1855941811
 40
0.2495549467
 40
0.3790347457
 40
0.5091124201
 40
0.6379818472
 40
0.763892803
 40
0.82522623
 40
0.8851709481
 40
0.9435004861
 40
1.0
 40
1.0
 40
1.0
 40
1.0
 10
15.9986753285
 20
11.9124442651
 30
0.0
 10
15.9994866628
 20
11.9124442651
 30
0.0
 10
16.001128374
 20
11.9124026108
 30
0.0
 10
16.0036095019
 20
11.9122221292
 30
0.0
 10
16.0061253619
 20
11.9119240713
 30
0.0
 10
16.0095186168
 20
11.9113691786
 30
0.0
 10
16.0137473497
 20
11.9103895956
 30
0.0
 10
16.0187077065
 20
11.9087939408
 30
0.0
 10
16.0234715427
 20
11.9068034225
 30
0.0
 10
16.0272293123
 20
11.9048350572
 30
0.0
 10
16.0300480591
 20
11.903093637
 30
0.0
 10
16.0320326335
 20
11.9017304191
 30
0.0
 10
16.0338941682
 20
11.900307864
 30
0.0
 10
16.0350654706
 20
11.8993086477
 30
0.0
 10
16.0356266813
 20
11.8988005271
 30
0.0
  0
SPLINE
  5
2AB
100
AcDbEntity
  8
0
100
AcDbSpline
 62
7
  6
CONTINUOUS
 70
0
 71
3
 72
19
 73
15
 74
0
 42
0.0000001
 43
0.0000001
 44
0.0000000001
 40
0.0
 40
0.0
 40
0.0
 40
0.0
 40
0.0605497931
 40
0.1225024499
 40
0.1855941811
 40
0.2495549467
 40
0.3790347457
 40
0.5091124201
 40
0.6379818472
 40
0.763892803
 40
0.82522623
 40
0.8851709481
 40
0.9435004861
 40
1.0
 40
1.0
 40
1.0
 40
1.0
 10
16.5881543646
 20
11.9124442651
 30
0.0
 10
16.588965699
 20
11.9124442651
 30
0.0
 10
16.5906074102
 20
11.9124026108
 30
0.0
 10
16.593088538
 20
11.9122221292
 30
0.0
 10
16.5956043981
 20
11.9119240713
 30
0.0
 10
16.598997653
 20
11.9113691786
 30
0.0
 10
16.6032263859
 20
11.9103895956
 30
0.0
 10
16.6081867426
 20
11.9087939408
 30
0.0
 10
16.6129505789
 20
11.9068034225
 30
0.0
 10
16.6167083485
 20
11.9048350572
 30
0.0
 10
16.6195270952
 20
11.903093637
 30
0.0
 10
16.6215116697
 20
11.9017304191
 30
0.0
 10
16.6233732044
 20
11.900307864
 30
0.0
 10
16.6245445067
 20
11.8993086477
 30
0.0
 10
16.6251057175
 20
11.8988005271
 30
0.0
  0
ENDSEC
  0
SECTION
  2
OBJECTS
  0
DICTIONARY
  5
C
100
AcDbDictionary
280
0
281
1
  3
ACAD_GROUP
350
D
  3
ACAD_MLINESTYLE
350
17
  3
ACAD_LAYOUT
350
1A
  3
ACAD_PLOTSETTINGS
350
19
  3
ACAD_PLOTSTYLENAME
350
E
  0
DICTIONARY
  5
D
102
{ACAD_REACTORS
330
C
102
}
100
AcDbDictionary
280
0
281
1
  0
ACDBDICTIONARYWDFLT
  5
E
102
{ACAD_REACTORS
330
C
102
}
100
AcDbDictionary
281
1
  3
Normal
350
F
100
AcDbDictionaryWithDefault
340
F
  0
DICTIONARY
  5
17
102
{ACAD_REACTORS
330
C
102
}
100
AcDbDictionary
280
0
281
1
  3
Standard
350
18
  0
DICTIONARY
  5
19
102
{ACAD_REACTORS
330
C
102
}
100
AcDbDictionary
281
1
  0
DICTIONARY
  5
1A
102
{ACAD_REACTORS
330
C
102
}
100
AcDbDictionary
281
1
  3
Model
350
2AC
  3
Layout1
350
2AD
  0
ACDBPLACEHOLDER
  5
F
102
{ACAD_REACTORS
330
E
102
}
  0
MLINESTYLE
  5
18
102
{ACAD_REACTORS
330
17
102
}
100
AcDbMlineStyle
  2
STANDARD
 70
0
  3

 62
256
 51
90.0
 52
90.0
 71
2
 49
0.5
 62
256
  6
BYLAYER
 49
-0.5
 62
256
  6
BYLAYER
  0
LAYOUT
  5
2AC
102
{ACAD_REACTORS
330
1A
102
}
100
AcDbPlotSettings
  1

  2
none_device
  4
ANSI_C_(22.00_x_17.00_Inches)
  6

 40
0.0
 41
0.0
 42
0.0
 43
0.0
 44
558.8
 45
431.8
 46
0.0
 47
0.0
 48
0.0
 49
0.0
140
0.0
141
0.0
142
1.0
143
1.0
 70
1024
 72
0
 73
0
 74
0
  7

 75
0
147
1.0
148
0.0
149
0.0
100
AcDbLayout
  1
Model
 70
0
 71
0
 10
0.0
 20
0.0
 11
22.0
 21
17.0
 12
0.0
 22
0.0
 32
0.0
 14
0.0
 24
0.0
 34
0.0
 15
0.0
 25
0.0
 35
0.0
146
0.0
 13
0.0
 23
0.0
 33
0.0
 16
1.0
 26
0.0
 36
0.0
 17
0.0
 27
1.0
 37
0.0
 76
0
330
216
345
0
346
0
  0
LAYOUT
  5
2AD
102
{ACAD_REACTORS
330
1A
102
}
100
AcDbPlotSettings
  1

  2
none_device
  4
ANSI_C_(22.00_x_17.00_Inches)
  6

 40
0.0
 41
0.0
 42
0.0
 43
0.0
 44
558.8
 45
431.8
 46
0.0
 47
0.0
 48
0.0
 49
0.0
140
0.0
141
0.0
142
1.0
143
1.0
 70
0
 72
0
 73
0
 74
0
  7

 75
0
147
1.0
148
0.0
149
0.0
100
AcDbLayout
  1
Layout1
 70
0
 71
1
 10
0.0
 20
0.0
 11
22.0
 21
17.0
 12
0.0
 22
0.0
 32
0.0
 14
0.0
 24
0.0
 34
0.0
 15
0.0
 25
0.0
 35
0.0
146
0.0
 13
0.0
 23
0.0
 33
0.0
 16
1.0
 26
0.0
 36
0.0
 17
0.0
 27
1.0
 37
0.0
 76
0
330
217
345
0
346
0
  0
ENDSEC
  0
EOF