999
DXF file: _cgs_temp_output.dxf
999
Pro/ENGINEER 2015110 by Parametric Technology Corporation
  0
SECTION
  2
HEADER
  9
$ACADVER
  1
AC1021
  9
$DWGCODEPAGE
  3
ANSI_1252
  9
$EXTMAX
 10
22.0
 20
17.0
 30
0.0
  9
$EXTMIN
 10
0.0
 20
0.0
 30
0.0
  9
$LIMMIN
 10
0.0
 20
0.0
  9
$LIMMAX
 10
22.0
 20
17.0
  9
$VIEWCTR
 10
11.0
 20
8.5
  9
$VIEWSIZE
 40
17.0
  9
$CLAYER
  8
0
  9
$LTSCALE
 40
1.21
  9
$CELTYPE
  6
BYLAYER
  9
$DIMSCALE
 40
1.0
  9
$DIMASZ
 40
0.1875
  9
$DIMEXO
 40
0.0625
  9
$DIMDLI
 40
0.836
  9
$DIMEXE
 40
0.125
  9
$DIMCEN
 40
0.198
  9
$DIMLFAC
 40
1.0
  9
$DIMBLK
  1
_CLOSED
  9
$DIMALT
 70
0
  9
$DIMALTF
 40
25.4
  9
$DIMTXT
 40
0.15625
  9
$DIMTOL
 70
0
  9
$DIMLIM
 70
0
  9
$DIMTFAC
 40
1.0
  9
$DIMGAP
 40
0.09
  9
$DIMDSEP
 70
46
  9
$AUNITS
 70
0
  9
$PDMODE
 70
3
  9
$PDSIZE
 40
0.3125
  9
$HANDSEED
  5
289
  9
$TILEMODE
 70
1
  9
$MEASUREMENT
 70
0
  9
$INSUNITS
 70
1
  0
ENDSEC
  0
SECTION
  2
CLASSES
  0
CLASS
  1
ACDBDICTIONARYWDFLT
  2
AcDbDictionaryWithDefault
  3
AutoCAD 2000
 90
0
 91
1
280
0
281
0
  0
CLASS
  1
ACDBPLACEHOLDER
  2
AcDbPlaceHolder
  3
AutoCAD 2000
 90
0
 91
1
280
0
281
0
  0
CLASS
  1
LAYOUT
  2
AcDbLayout
  3
AutoCAD 2000
 90
0
 91
0
280
0
281
0
  0
ENDSEC
  0
SECTION
  2
TABLES
  0
TABLE
  2
VPORT
  5
8
100
AcDbSymbolTable
 70
2
  0
VPORT
  5
1F4
100
AcDbSymbolTableRecord
100
AcDbViewportTableRecord
  2
*ACTIVE
 70
0
 10
0.0
 20
0.0
 11
1.0
 21
1.0
 12
11.0
 22
8.5
 13
0.0
 23
0.0
 14
1.0
 24
1.0
 15
0.0
 25
0.0
 16
0.0
 26
0.0
 36
1.0
 17
0.0
 27
0.0
 37
0.0
 40
17.0
 41
1.2941176471
 42
50.0
 43
0.0
 44
0.0
 50
0.0
 51
0.0
 71
0
 72
100
 73
1
 74
1
 75
0
 76
0
 77
0
 78
0
  0
ENDTAB
  0
TABLE
  2
LTYPE
  5
5
100
AcDbSymbolTable
 70
6
  0
LTYPE
  5
14
100
AcDbSymbolTableRecord
100
AcDbLinetypeTableRecord
  2
BYBLOCK
 70
0
  3

 72
65
 73
0
 40
0.0
  0
LTYPE
  5
15
100
AcDbSymbolTableRecord
100
AcDbLinetypeTableRecord
  2
BYLAYER
 70
0
  3

 72
65
 73
0
 40
0.0
  0
LTYPE
  5
16
100
AcDbSymbolTableRecord
100
AcDbLinetypeTableRecord
  2
CONTINUOUS
 70
64
  3
Solid line
 72
65
 73
0
 40
0.0
  0
LTYPE
  5
1F5
100
AcDbSymbolTableRecord
100
AcDbLinetypeTableRecord
  2
CENTER
 70
64
  3
____ _ ____ _ ____ _ ____ _ ____ _ ____ _ ____
 72
65
 73
4
 40
0.6
 49
0.375
 74
0
 49
-0.075
 74
0
 49
0.075
 74
0
 49
-0.075
 74
0
  0
LTYPE
  5
1F6
100
AcDbSymbolTableRecord
100
AcDbLinetypeTableRecord
  2
HIDDEN
 70
64
  3
- - - - - - - - - - - - - - - - - - - -
 72
65
 73
2
 40
0.2
 49
0.1
 74
0
 49
-0.1
 74
0
  0
LTYPE
  5
1F7
100
AcDbSymbolTableRecord
100
AcDbLinetypeTableRecord
  2
PHANTOM
 70
64
  3
_____ _ _ _____ _ _ _____ _ _ _____
 72
65
 73
6
 40
0.8
 49
0.45
 74
0
 49
-0.05
 74
0
 49
0.1
 74
0
 49
-0.05
 74
0
 49
0.1
 74
0
 49
-0.05
 74
0
  0
LTYPE
  5
1F8
100
AcDbSymbolTableRecord
100
AcDbLinetypeTableRecord
  2
DOT
 70
64
  3
. . . . . . . . . . . . . . . . . . . .
 72
65
 73
2
 40
0.2
 49
0.1
 74
0
 49
-0.1
 74
0
  0
LTYPE
  5
1F9
100
AcDbSymbolTableRecord
100
AcDbLinetypeTableRecord
  2
DASHED
 70
64
  3
- - - - - - - - - - - - - - - - - - - -
 72
65
 73
2
 40
0.2
 49
0.1
 74
0
 49
-0.1
 74
0
  0
ENDTAB
  0
TABLE
  2
LAYER
  5
2
100
AcDbSymbolTable
 70
36
  0
LAYER
  5
10
100
AcDbSymbolTableRecord
100
AcDbLayerTableRecord
  2
0
 70
0
 62
7
  6
CONTINUOUS
370
-3
390
F
  0
LAYER
  5
1FA
100
AcDbSymbolTableRecord
100
AcDbLayerTableRecord
  2
DEFAULT_1
 70
0
 62
7
  6
CENTER
370
-3
390
F
  0
LAYER
  5
1FB
100
AcDbSymbolTableRecord
100
AcDbLayerTableRecord
  2
DEFAULT_2
 70
0
 62
8
  6
HIDDEN
370
-3
390
F
  0
LAYER
  5
1FC
100
AcDbSymbolTableRecord
100
AcDbLayerTableRecord
  2
DEFAULT_3
 70
0
 62
7
  6
PHANTOM
370
-3
390
F
  0
LAYER
  5
1FD
100
AcDbSymbolTableRecord
100
AcDbLayerTableRecord
  2
01_ALL_DTM_PLN
 70
0
 62
7
  6
CONTINUOUS
370
-3
390
F
  0
LAYER
  5
1FE
100
AcDbSymbolTableRecord
100
AcDbLayerTableRecord
  2
01__ASM_ALL_DTM_PLN
 70
0
 62
7
  6
CONTINUOUS
370
-3
390
F
  0
LAYER
  5
1FF
100
AcDbSymbolTableRecord
100
AcDbLayerTableRecord
  2
01__ASM_DEF_DTM_PLN
 70
0
 62
7
  6
CONTINUOUS
370
-3
390
F
  0
LAYER
  5
200
100
AcDbSymbolTableRecord
100
AcDbLayerTableRecord
  2
01___PRT_ALL_DTM_PLN
 70
0
 62
7
  6
CONTINUOUS
370
-3
390
F
  0
LAYER
  5
201
100
AcDbSymbolTableRecord
100
AcDbLayerTableRecord
  2
01___PRT_DEF_DTM_PLN
 70
0
 62
7
  6
CONTINUOUS
370
-3
390
F
  0
LAYER
  5
202
100
AcDbSymbolTableRecord
100
AcDbLayerTableRecord
  2
02_ALL_AXES
 70
0
 62
7
  6
CONTINUOUS
370
-3
390
F
  0
LAYER
  5
203
100
AcDbSymbolTableRecord
100
AcDbLayerTableRecord
  2
02__ASM_ALL_AXES
 70
0
 62
7
  6
CONTINUOUS
370
-3
390
F
  0
LAYER
  5
204
100
AcDbSymbolTableRecord
100
AcDbLayerTableRecord
  2
02___PRT_ALL_AXES
 70
0
 62
7
  6
CONTINUOUS
370
-3
390
F
  0
LAYER
  5
205
100
AcDbSymbolTableRecord
100
AcDbLayerTableRecord
  2
03_ALL_CURVES
 70
0
 62
7
  6
CONTINUOUS
370
-3
390
F
  0
LAYER
  5
206
100
AcDbSymbolTableRecord
100
AcDbLayerTableRecord
  2
03__ASM_ALL_CURVES
 70
0
 62
7
  6
CONTINUOUS
370
-3
390
F
  0
LAYER
  5
207
100
AcDbSymbolTableRecord
100
AcDbLayerTableRecord
  2
03___PRT_ALL_CURVES
 70
0
 62
7
  6
CONTINUOUS
370
-3
390
F
  0
LAYER
  5
208
100
AcDbSymbolTableRecord
100
AcDbLayerTableRecord
  2
04_ALL_DTM_PNT
 70
0
 62
7
  6
CONTINUOUS
370
-3
390
F
  0
LAYER
  5
209
100
AcDbSymbolTableRecord
100
AcDbLayerTableRecord
  2
04__ASM_ALL_DTM_PNT
 70
0
 62
7
  6
CONTINUOUS
370
-3
390
F
  0
LAYER
  5
20A
100
AcDbSymbolTableRecord
100
AcDbLayerTableRecord
  2
04___PRT_ALL_DTM_PNT
 70
0
 62
7
  6
CONTINUOUS
370
-3
390
F
  0
LAYER
  5
20B
100
AcDbSymbolTableRecord
100
AcDbLayerTableRecord
  2
05_ALL_DTM_CSYS
 70
0
 62
7
  6
CONTINUOUS
370
-3
390
F
  0
LAYER
  5
20C
100
AcDbSymbolTableRecord
100
AcDbLayerTableRecord
  2
05__ASM_ALL_DTM_CSYS
 70
0
 62
7
  6
CONTINUOUS
370
-3
390
F
  0
LAYER
  5
20D
100
AcDbSymbolTableRecord
100
AcDbLayerTableRecord
  2
05__ASM_DEF_DTM_CSYS
 70
0
 62
7
  6
CONTINUOUS
370
-3
390
F
  0
LAYER
  5
20E
100
AcDbSymbolTableRecord
100
AcDbLayerTableRecord
  2
05___PRT_ALL_DTM_CSYS
 70
0
 62
7
  6
CONTINUOUS
370
-3
390
F
  0
LAYER
  5
20F
100
AcDbSymbolTableRecord
100
AcDbLayerTableRecord
  2
05___PRT_DEF_DTM_CSYS
 70
0
 62
7
  6
CONTINUOUS
370
-3
390
F
  0
LAYER
  5
210
100
AcDbSymbolTableRecord
100
AcDbLayerTableRecord
  2
06_ALL_SURFS
 70
0
 62
7
  6
CONTINUOUS
370
-3
390
F
  0
LAYER
  5
211
100
AcDbSymbolTableRecord
100
AcDbLayerTableRecord
  2
06__ASM_ALL_SURFS
 70
0
 62
7
  6
CONTINUOUS
370
-3
390
F
  0
LAYER
  5
212
100
AcDbSymbolTableRecord
100
AcDbLayerTableRecord
  2
06___PRT_ALL_SURFS
 70
0
 62
7
  6
CONTINUOUS
370
-3
390
F
  0
LAYER
  5
213
100
AcDbSymbolTableRecord
100
AcDbLayerTableRecord
  2
07__ASM_ALL_SKELETONS
 70
0
 62
7
  6
CONTINUOUS
370
-3
390
F
  0
LAYER
  5
214
100
AcDbSymbolTableRecord
100
AcDbLayerTableRecord
  2
LAYER_DIM
 70
0
 62
7
  6
CONTINUOUS
370
-3
390
F
  0
LAYER
  5
215
100
AcDbSymbolTableRecord
100
AcDbLayerTableRecord
  2
LAYER_FEATURE
 70
0
 62
7
  6
CONTINUOUS
370
-3
390
F
  0
LAYER
  5
216
100
AcDbSymbolTableRecord
100
AcDbLayerTableRecord
  2
LAYER_GEOM_FEAT
 70
0
 62
7
  6
CONTINUOUS
370
-3
390
F
  0
LAYER
  5
217
100
AcDbSymbolTableRecord
100
AcDbLayerTableRecord
  2
LAYER_PARAMETER_DIM
 70
0
 62
7
  6
CONTINUOUS
370
-3
390
F
  0
LAYER
  5
218
100
AcDbSymbolTableRecord
100
AcDbLayerTableRecord
  2
LAYER_PROTRUSION_FEAT
 70
0
 62
7
  6
CONTINUOUS
370
-3
390
F
  0
LAYER
  5
219
100
AcDbSymbolTableRecord
100
AcDbLayerTableRecord
  2
LAYER_ROUND_FEAT
 70
0
 62
7
  6
CONTINUOUS
370
-3
390
F
  0
ENDTAB
  0
TABLE
  2
STYLE
  5
3
100
AcDbSymbolTable
 70
1
  0
STYLE
  5
11
100
AcDbSymbolTableRecord
100
AcDbTextStyleTableRecord
  2
STANDARD
 70
0
 40
0.0
 41
0.8
 50
0.0
 71
0
 42
0.2
  3
txt
  4

  0
STYLE
  5
21A
100
AcDbSymbolTableRecord
100
AcDbTextStyleTableRecord
  2
TEXTSTYLE_1
 70
0
 40
0.0
 41
0.8
 50
0.0
 71
0
 42
0.2
  3
gdt
  4

  0
ENDTAB
  0
TABLE
  2
VIEW
  5
6
100
AcDbSymbolTable
 70
0
  0
ENDTAB
  0
TABLE
  2
UCS
  5
7
100
AcDbSymbolTable
 70
0
  0
ENDTAB
  0
TABLE
  2
APPID
  5
9
100
AcDbSymbolTable
 70
1
  0
APPID
  5
21B
100
AcDbSymbolTableRecord
100
AcDbRegAppTableRecord
  2
ACAD
 70
0
  0
ENDTAB
  0
TABLE
  2
BLOCK_RECORD
  5
1
100
AcDbSymbolTable
 70
0
  0
BLOCK_RECORD
  5
21C
100
AcDbSymbolTableRecord
100
AcDbBlockTableRecord
  2
*Model_Space
  0
BLOCK_RECORD
  5
21D
100
AcDbSymbolTableRecord
100
AcDbBlockTableRecord
  2
*Paper_Space
  0
ENDTAB
  0
TABLE
  2
DIMSTYLE
  5
A
100
AcDbSymbolTable
 70
1
100
AcDbDimStyleTable
 71
0
  0
DIMSTYLE
105
21E
100
AcDbSymbolTableRecord
100
AcDbDimStyleTableRecord
  2
STANDARD
 70
0
  3

  4

 40
1.0
 41
0.1875
 42
0.0625
 43
0.38
 44
0.125
 45
0.0
 46
0.0
 47
0.0001
 48
0.0001
140
0.15625
141
0.09
142
0.0
143
25.4
144
1.0
145
0.0
146
1.0
147
0.09
 71
0.0
 72
0.0
 73
1
 74
1
 75
0
 76
0
 77
0
 78
4
170
0
171
2
172
0
173
0
174
0
175
0
176
0
177
0
178
0
270
2
271
4
272
4
273
2
274
2
275
0
280
0
281
0
282
0
283
1
284
4
285
0
286
0
287
3
288
0
340
11
278
46
  0
ENDTAB
  0
ENDSEC
  0
SECTION
  2
BLOCKS
  0
BLOCK
  5
20
100
AcDbEntity
  8
0
100
AcDbBlockBegin
  2
*Model_Space
 70
0
 10
0.0
 20
0.0
 30
0.0
  3
*Model_Space
  1

  0
ENDBLK
  5
21
100
AcDbEntity
  8
0
100
AcDbBlockEnd
  0
BLOCK
  5
1C
100
AcDbEntity
  8
0
100
AcDbBlockBegin
  2
*Paper_Space
 70
0
 10
0.0
 20
0.0
 30
0.0
  3
*Paper_Space
  1

  0
ENDBLK
  5
1D
100
AcDbEntity
  8
0
100
AcDbBlockEnd
  0
ENDSEC
  0
SECTION
  2
ENTITIES
  0
MTEXT
  5
21F
100
AcDbEntity
  8
0
100
AcDbMText
 62
7
  6
CONTINUOUS
  7
STANDARD
 71
1
 72
1
 10
15.9560215477
 20
0.9479130325
 30
0.0
 11
1.0
 21
0.0
 31
0.0
 44
0.9
  1
SCALE: 1:1.000
 40
0.3
 41
3.36
  0
LINE
  5
220
100
AcDbEntity
  8
0
100
AcDbLine
 62
7
  6
CONTINUOUS
 10
0.0
 20
0.0
 11
0.0
 21
17.0
  0
LINE
  5
221
100
AcDbEntity
  8
0
100
AcDbLine
 62
7
  6
CONTINUOUS
 10
0.0
 20
0.0
 11
22.0
 21
0.0
  0
LINE
  5
222
100
AcDbEntity
  8
0
100
AcDbLine
 62
7
  6
CONTINUOUS
 10
0.0
 20
17.0
 11
22.0
 21
17.0
  0
LINE
  5
223
100
AcDbEntity
  8
0
100
AcDbLine
 62
7
  6
CONTINUOUS
 10
22.0
 20
0.0
 11
22.0
 21
17.0
  0
LINE
  5
224
100
AcDbEntity
  8
0
100
AcDbLine
 62
7
  6
CONTINUOUS
 10
3.3483672762
 20
5.9251198968
 11
3.3483672762
 21
5.8501198968
  0
LINE
  5
225
100
AcDbEntity
  8
0
100
AcDbLine
 62
7
  6
CONTINUOUS
 10
3.3483672762
 20
5.8501198968
 11
3.5713209707
 21
5.1366680742
  0
LINE
  5
226
100
AcDbEntity
  8
0
100
AcDbLine
 62
7
  6
CONTINUOUS
 10
4.5983672762
 20
5.8501198968
 11
4.5983672762
 21
5.8951198968
  0
LINE
  5
227
100
AcDbEntity
  8
0
100
AcDbLine
 62
7
  6
CONTINUOUS
 10
4.3754135816
 20
5.1366680742
 11
4.5983672762
 21
5.8501198968
  0
LINE
  5
228
100
AcDbEntity
  8
LAYER_FEATURE
100
AcDbLine
 62
7
  6
CONTINUOUS
 10
4.7863672762
 20
5.8951198968
 11
4.7863672762
 21
5.8501198968
  0
LINE
  5
229
100
AcDbEntity
  8
LAYER_FEATURE
100
AcDbLine
 62
7
  6
CONTINUOUS
 10
4.7863672762
 20
5.8501198968
 11
5.0093209707
 21
5.1366680742
  0
LINE
  5
22A
100
AcDbEntity
  8
0
100
AcDbLine
 62
7
  6
CONTINUOUS
 10
3.6210334696
 20
5.1001198968
 11
4.3257010828
 21
5.1001198968
  0
LINE
  5
22B
100
AcDbEntity
  8
LAYER_FEATURE
100
AcDbLine
 62
7
  6
CONTINUOUS
 10
5.0590334696
 20
5.1001198968
 11
5.7637010828
 21
5.1001198968
  0
LINE
  5
22C
100
AcDbEntity
  8
LAYER_FEATURE
100
AcDbLine
 62
7
  6
CONTINUOUS
 10
6.4970334696
 20
5.1001198968
 11
7.2017010828
 21
5.1001198968
  0
LINE
  5
22D
100
AcDbEntity
  8
LAYER_FEATURE
100
AcDbLine
 62
7
  6
CONTINUOUS
 10
7.9350334696
 20
5.1001198968
 11
8.6397010828
 21
5.1001198968
  0
LINE
  5
22E
100
AcDbEntity
  8
LAYER_FEATURE
100
AcDbLine
 62
7
  6
CONTINUOUS
 10
5.8134135816
 20
5.1366680742
 11
6.0363672762
 21
5.8501198968
  0
LINE
  5
22F
100
AcDbEntity
  8
LAYER_FEATURE
100
AcDbLine
 62
7
  6
CONTINUOUS
 10
6.0363672762
 20
5.8501198968
 11
6.0363672762
 21
5.8951198968
  0
LINE
  5
230
100
AcDbEntity
  8
LAYER_FEATURE
100
AcDbLine
 62
7
  6
CONTINUOUS
 10
6.2243672762
 20
5.8951198968
 11
6.2243672762
 21
5.8501198968
  0
LINE
  5
231
100
AcDbEntity
  8
LAYER_FEATURE
100
AcDbLine
 62
7
  6
CONTINUOUS
 10
6.2243672762
 20
5.8501198968
 11
6.4473209707
 21
5.1366680742
  0
LINE
  5
232
100
AcDbEntity
  8
LAYER_FEATURE
100
AcDbLine
 62
7
  6
CONTINUOUS
 10
4.5983672762
 20
5.8951198968
 11
4.7863672762
 21
5.8951198968
  0
LINE
  5
233
100
AcDbEntity
  8
LAYER_FEATURE
100
AcDbLine
 62
7
  6
CONTINUOUS
 10
6.0363672762
 20
5.8951198968
 11
6.2243672762
 21
5.8951198968
  0
LINE
  5
234
100
AcDbEntity
  8
LAYER_FEATURE
100
AcDbLine
 62
7
  6
CONTINUOUS
 10
7.4743672762
 20
5.8951198968
 11
7.6623672762
 21
5.8951198968
  0
LINE
  5
235
100
AcDbEntity
  8
0
100
AcDbLine
 62
7
  6
CONTINUOUS
 10
8.8973672762
 20
5.9401198968
 11
3.3633672762
 21
5.9401198968
  0
LINE
  5
236
100
AcDbEntity
  8
LAYER_FEATURE
100
AcDbLine
 62
7
  6
CONTINUOUS
 10
7.2514135816
 20
5.1366680742
 11
7.4743672762
 21
5.8501198968
  0
LINE
  5
237
100
AcDbEntity
  8
LAYER_FEATURE
100
AcDbLine
 62
7
  6
CONTINUOUS
 10
7.4743672762
 20
5.8501198968
 11
7.4743672762
 21
5.8951198968
  0
LINE
  5
238
100
AcDbEntity
  8
LAYER_FEATURE
100
AcDbLine
 62
7
  6
CONTINUOUS
 10
7.6623672762
 20
5.8951198968
 11
7.6623672762
 21
5.8501198968
  0
LINE
  5
239
100
AcDbEntity
  8
LAYER_FEATURE
100
AcDbLine
 62
7
  6
CONTINUOUS
 10
7.6623672762
 20
5.8501198968
 11
7.8853209707
 21
5.1366680742
  0
LINE
  5
23A
100
AcDbEntity
  8
0
100
AcDbLine
 62
7
  6
CONTINUOUS
 10
8.9123672762
 20
5.8501198968
 11
8.9123672762
 21
5.9251198968
  0
LINE
  5
23B
100
AcDbEntity
  8
LAYER_FEATURE
100
AcDbLine
 62
7
  6
CONTINUOUS
 10
8.6894135816
 20
5.1366680742
 11
8.9123672762
 21
5.8501198968
  0
LINE
  5
23C
100
AcDbEntity
  8
0
100
AcDbLine
 62
7
  6
CONTINUOUS
 10
3.2888720839
 20
14.6000477814
 11
3.2888720839
 21
10.6000477814
  0
LINE
  5
23D
100
AcDbEntity
  8
0
100
AcDbLine
 62
7
  6
CONTINUOUS
 10
8.8528720839
 20
10.6000477814
 11
3.2888720839
 21
10.6000477814
  0
LINE
  5
23E
100
AcDbEntity
  8
0
100
AcDbLine
 62
7
  6
CONTINUOUS
 10
3.2888720839
 20
14.6000477814
 11
8.8528720839
 21
14.6000477814
  0
LINE
  5
23F
100
AcDbEntity
  8
0
100
AcDbLine
 62
7
  6
CONTINUOUS
 10
8.8528720839
 20
10.6000477814
 11
8.8528720839
 21
14.6000477814
  0
LINE
  5
240
100
AcDbEntity
  8
LAYER_FEATURE
100
AcDbLine
 62
7
  6
CONTINUOUS
 10
13.5603552569
 20
5.0406247044
 11
13.5603552569
 21
5.7906247044
  0
LINE
  5
241
100
AcDbEntity
  8
0
100
AcDbLine
 62
7
  6
CONTINUOUS
 10
13.5603552569
 20
5.7906247044
 11
13.5603552569
 21
5.8806247044
  0
LINE
  5
242
100
AcDbEntity
  8
LAYER_FEATURE
100
AcDbLine
 62
7
  6
CONTINUOUS
 10
13.5603552569
 20
5.0406247044
 11
17.5603552569
 21
5.0406247044
  0
LINE
  5
243
100
AcDbEntity
  8
LAYER_FEATURE
100
AcDbLine
 62
7
  6
CONTINUOUS
 10
17.5603552569
 20
5.7906247044
 11
13.5603552569
 21
5.7906247044
  0
LINE
  5
244
100
AcDbEntity
  8
0
100
AcDbLine
 62
7
  6
CONTINUOUS
 10
13.5603552569
 20
5.8806247044
 11
17.5603552569
 21
5.8806247044
  0
LINE
  5
245
100
AcDbEntity
  8
0
100
AcDbLine
 62
7
  6
CONTINUOUS
 10
17.5603552569
 20
5.8806247044
 11
17.5603552569
 21
5.7906247044
  0
LINE
  5
246
100
AcDbEntity
  8
LAYER_FEATURE
100
AcDbLine
 62
7
  6
CONTINUOUS
 10
17.5603552569
 20
5.0406247044
 11
17.5603552569
 21
5.7906247044
  0
LINE
  5
247
100
AcDbEntity
  8
0
100
AcDbLine
 62
7
  6
CONTINUOUS
 10
12.4073601065
 20
11.1959032108
 11
12.4302382465
 21
11.1492824632
  0
LINE
  5
248
100
AcDbEntity
  8
0
100
AcDbLine
 62
7
  6
CONTINUOUS
 10
12.4302382465
 20
11.1492824632
 11
12.8532248738
 21
10.7057936984
  0
LINE
  5
249
100
AcDbEntity
  8
0
100
AcDbLine
 62
7
  6
CONTINUOUS
 10
13.3751100024
 20
14.3336395599
 11
12.4068447088
 21
11.2003319214
  0
LINE
  5
24A
100
AcDbEntity
  8
LAYER_FEATURE
100
AcDbLine
 62
7
  6
CONTINUOUS
 10
13.7547239559
 20
11.1492824632
 11
14.1777105831
 21
10.7057936984
  0
LINE
  5
24B
100
AcDbEntity
  8
0
100
AcDbLine
 62
7
  6
CONTINUOUS
 10
13.581564489
 20
11.1492824632
 11
13.567837605
 21
11.1772549118
  0
LINE
  5
24C
100
AcDbEntity
  8
LAYER_FEATURE
100
AcDbLine
 62
7
  6
CONTINUOUS
 10
13.7409970719
 20
11.1772549118
 11
13.7547239559
 21
11.1492824632
  0
LINE
  5
24D
100
AcDbEntity
  8
0
100
AcDbLine
 62
7
  6
CONTINUOUS
 10
13.5938432132
 20
10.7057936984
 11
13.581564489
 21
11.1492824632
  0
LINE
  5
24E
100
AcDbEntity
  8
0
100
AcDbLine
 62
7
  6
CONTINUOUS
 10
12.9101618416
 20
10.683074987
 11
13.5592036939
 21
10.683074987
  0
LINE
  5
24F
100
AcDbEntity
  8
LAYER_FEATURE
100
AcDbLine
 62
7
  6
CONTINUOUS
 10
14.234647551
 20
10.683074987
 11
14.8836894033
 21
10.683074987
  0
LINE
  5
250
100
AcDbEntity
  8
LAYER_FEATURE
100
AcDbLine
 62
7
  6
CONTINUOUS
 10
15.5591332604
 20
10.683074987
 11
16.2081751126
 21
10.683074987
  0
LINE
  5
251
100
AcDbEntity
  8
LAYER_FEATURE
100
AcDbLine
 62
7
  6
CONTINUOUS
 10
16.8836189698
 20
10.683074987
 11
17.532660822
 21
10.683074987
  0
LINE
  5
252
100
AcDbEntity
  8
0
100
AcDbLine
 62
7
  6
CONTINUOUS
 10
13.5930717657
 20
10.7000748345
 11
13.5938432132
 21
10.7057936984
  0
LINE
  5
253
100
AcDbEntity
  8
0
100
AcDbLine
 62
7
  6
CONTINUOUS
 10
13.5902086294
 20
11.1772549118
 11
13.581564489
 21
11.1492824632
  0
LINE
  5
254
100
AcDbEntity
  8
0
100
AcDbLine
 62
7
  6
CONTINUOUS
 10
13.5947580534
 20
10.7055109914
 11
13.7405779727
 21
11.1773844232
  0
LINE
  5
255
100
AcDbEntity
  8
LAYER_FEATURE
100
AcDbLine
 62
7
  6
CONTINUOUS
 10
13.567837605
 20
11.1772549118
 11
13.7409970719
 21
11.1772549118
  0
LINE
  5
256
100
AcDbEntity
  8
LAYER_FEATURE
100
AcDbLine
 62
7
  6
CONTINUOUS
 10
14.8923233144
 20
11.1772549118
 11
15.0654827813
 21
11.1772549118
  0
LINE
  5
257
100
AcDbEntity
  8
LAYER_FEATURE
100
AcDbLine
 62
7
  6
CONTINUOUS
 10
16.2168090238
 20
11.1772549118
 11
16.3899684907
 21
11.1772549118
  0
LINE
  5
258
100
AcDbEntity
  8
0
100
AcDbLine
 62
7
  6
CONTINUOUS
 10
17.5137519343
 20
11.2052273603
 11
12.4166003935
 21
11.2052273603
  0
LINE
  5
259
100
AcDbEntity
  8
LAYER_FEATURE
100
AcDbLine
 62
7
  6
CONTINUOUS
 10
15.0792096653
 20
11.1492824632
 11
15.5021962925
 21
10.7057936984
  0
LINE
  5
25A
100
AcDbEntity
  8
LAYER_FEATURE
100
AcDbLine
 62
7
  6
CONTINUOUS
 10
14.9060501984
 20
11.1492824632
 11
14.8923233144
 21
11.1772549118
  0
LINE
  5
25B
100
AcDbEntity
  8
LAYER_FEATURE
100
AcDbLine
 62
7
  6
CONTINUOUS
 10
15.0654827813
 20
11.1772549118
 11
15.0792096653
 21
11.1492824632
  0
LINE
  5
25C
100
AcDbEntity
  8
LAYER_FEATURE
100
AcDbLine
 62
7
  6
CONTINUOUS
 10
14.9183289226
 20
10.7057936984
 11
14.9060501984
 21
11.1492824632
  0
LINE
  5
25D
100
AcDbEntity
  8
LAYER_FEATURE
100
AcDbLine
 62
7
  6
CONTINUOUS
 10
14.917557475
 20
10.7000748345
 11
14.9183289226
 21
10.7057936984
  0
LINE
  5
25E
100
AcDbEntity
  8
LAYER_FEATURE
100
AcDbLine
 62
7
  6
CONTINUOUS
 10
16.4036953747
 20
11.1492824632
 11
16.8266820019
 21
10.7057936984
  0
LINE
  5
25F
100
AcDbEntity
  8
LAYER_FEATURE
100
AcDbLine
 62
7
  6
CONTINUOUS
 10
14.9146943388
 20
11.1772549118
 11
14.9060501984
 21
11.1492824632
  0
LINE
  5
260
100
AcDbEntity
  8
LAYER_FEATURE
100
AcDbLine
 62
7
  6
CONTINUOUS
 10
14.9192437628
 20
10.7055109914
 11
15.0650636821
 21
11.1773844232
  0
LINE
  5
261
100
AcDbEntity
  8
LAYER_FEATURE
100
AcDbLine
 62
7
  6
CONTINUOUS
 10
16.2305359078
 20
11.1492824632
 11
16.2168090238
 21
11.1772549118
  0
LINE
  5
262
100
AcDbEntity
  8
LAYER_FEATURE
100
AcDbLine
 62
7
  6
CONTINUOUS
 10
16.3899684907
 20
11.1772549118
 11
16.4036953747
 21
11.1492824632
  0
LINE
  5
263
100
AcDbEntity
  8
LAYER_FEATURE
100
AcDbLine
 62
7
  6
CONTINUOUS
 10
16.242814632
 20
10.7057936984
 11
16.2305359078
 21
11.1492824632
  0
LINE
  5
264
100
AcDbEntity
  8
LAYER_FEATURE
100
AcDbLine
 62
7
  6
CONTINUOUS
 10
16.2420431844
 20
10.7000748345
 11
16.242814632
 21
10.7057936984
  0
LINE
  5
265
100
AcDbEntity
  8
LAYER_FEATURE
100
AcDbLine
 62
7
  6
CONTINUOUS
 10
16.2391800482
 20
11.1772549118
 11
16.2305359078
 21
11.1492824632
  0
LINE
  5
266
100
AcDbEntity
  8
LAYER_FEATURE
100
AcDbLine
 62
7
  6
CONTINUOUS
 10
16.2437294722
 20
10.7055109914
 11
16.3895493915
 21
11.1773844232
  0
LINE
  5
267
100
AcDbEntity
  8
0
100
AcDbLine
 62
7
  6
CONTINUOUS
 10
17.5550216172
 20
11.1492824632
 11
17.5321434772
 21
11.1959032108
  0
LINE
  5
268
100
AcDbEntity
  8
0
100
AcDbLine
 62
7
  6
CONTINUOUS
 10
13.3848656871
 20
14.3385349988
 11
18.4820172279
 21
14.3385349988
  0
LINE
  5
269
100
AcDbEntity
  8
LAYER_FEATURE
100
AcDbLine
 62
7
  6
CONTINUOUS
 10
17.5673003414
 20
10.7057936984
 11
17.5550216172
 21
11.1492824632
  0
LINE
  5
26A
100
AcDbEntity
  8
LAYER_FEATURE
100
AcDbLine
 62
7
  6
CONTINUOUS
 10
17.5665288938
 20
10.7000748345
 11
17.5673003414
 21
10.7057936984
  0
LINE
  5
26B
100
AcDbEntity
  8
LAYER_FEATURE
100
AcDbLine
 62
7
  6
CONTINUOUS
 10
18.5232869108
 20
14.2825901017
 11
17.5550216172
 21
11.1492824632
  0
LINE
  5
26C
100
AcDbEntity
  8
LAYER_FEATURE
100
AcDbLine
 62
7
  6
CONTINUOUS
 10
17.5682151815
 20
10.7055109914
 11
18.5348000207
 21
13.8333806774
  0
LINE
  5
26D
100
AcDbEntity
  8
LAYER_FEATURE
100
AcDbLine
 62
7
  6
CONTINUOUS
 10
18.535565635
 20
13.8391013369
 11
18.5347941874
 21
13.8333824731
  0
LINE
  5
26E
100
AcDbEntity
  8
LAYER_FEATURE
100
AcDbLine
 62
7
  6
CONTINUOUS
 10
18.535565635
 20
13.8391013369
 11
18.5232869108
 21
14.2825901017
  0
LINE
  5
26F
100
AcDbEntity
  8
0
100
AcDbLine
 62
7
  6
CONTINUOUS
 10
18.5004087708
 20
14.3292108493
 11
18.5232869108
 21
14.2825901017
  0
ARC
  5
270
100
AcDbEntity
  8
0
100
AcDbCircle
 62
7
  6
CONTINUOUS
 10
3.6210334696
 20
5.1522032301
 40
0.0520833333
100
AcDbArc
 50
197.3540246363
 51
270.0
  0
ARC
  5
271
100
AcDbEntity
  8
0
100
AcDbCircle
 62
7
  6
CONTINUOUS
 10
4.3257010828
 20
5.1522032301
 40
0.0520833333
100
AcDbArc
 50
270.0
 51
342.6459753637
  0
ARC
  5
272
100
AcDbEntity
  8
LAYER_FEATURE
100
AcDbCircle
 62
7
  6
CONTINUOUS
 10
5.0590334696
 20
5.1522032301
 40
0.0520833333
100
AcDbArc
 50
197.3540246363
 51
270.0
  0
ARC
  5
273
100
AcDbEntity
  8
LAYER_FEATURE
100
AcDbCircle
 62
7
  6
CONTINUOUS
 10
5.7637010828
 20
5.1522032301
 40
0.0520833333
100
AcDbArc
 50
270.0
 51
342.6459753637
  0
ARC
  5
274
100
AcDbEntity
  8
LAYER_FEATURE
100
AcDbCircle
 62
7
  6
CONTINUOUS
 10
6.4970334696
 20
5.1522032301
 40
0.0520833333
100
AcDbArc
 50
197.3540246363
 51
270.0
  0
ARC
  5
275
100
AcDbEntity
  8
LAYER_FEATURE
100
AcDbCircle
 62
7
  6
CONTINUOUS
 10
7.2017010828
 20
5.1522032301
 40
0.0520833333
100
AcDbArc
 50
270.0
 51
342.6459753637
  0
ARC
  5
276
100
AcDbEntity
  8
LAYER_FEATURE
100
AcDbCircle
 62
7
  6
CONTINUOUS
 10
8.6397010828
 20
5.1522032301
 40
0.0520833333
100
AcDbArc
 50
270.0
 51
342.6459753637
  0
ARC
  5
277
100
AcDbEntity
  8
LAYER_FEATURE
100
AcDbCircle
 62
7
  6
CONTINUOUS
 10
7.9350334696
 20
5.1522032301
 40
0.0520833333
100
AcDbArc
 50
197.3540246363
 51
270.0
  0
ARC
  5
278
100
AcDbEntity
  8
0
100
AcDbCircle
 62
7
  6
CONTINUOUS
 10
3.3633672762
 20
5.9251198968
 40
0.015
100
AcDbArc
 50
90.0
 51
180.0
  0
ARC
  5
279
100
AcDbEntity
  8
0
100
AcDbCircle
 62
7
  6
CONTINUOUS
 10
8.8973672762
 20
5.9251198968
 40
0.015
100
AcDbArc
 50
0.0
 51
90.0
  0
SPLINE
  5
27A
100
AcDbEntity
  8
0
100
AcDbSpline
 62
7
  6
CONTINUOUS
 70
0
 71
3
 72
15
 73
11
 74
0
 42
0.0000001
 43
0.0000001
 44
0.0000000001
 40
0.0
 40
0.0
 40
0.0
 40
0.0
 40
0.1294165569
 40
0.2645180781
 40
0.4012970774
 40
0.5362628266
 40
0.6661560434
 40
0.78813941
 40
0.8999194788
 40
1.0
 40
1.0
 40
1.0
 40
1.0
 10
18.4820172279
 20
14.3385349988
 30
0.0
 10
18.4829450813
 20
14.3385349988
 30
0.0
 10
18.4848428856
 20
14.3384047906
 30
0.0
 10
18.4876769486
 20
14.3378763572
 30
0.0
 10
18.490471301
 20
14.3370183806
 30
0.0
 10
18.493119144
 20
14.3358709002
 30
0.0
 10
18.4955218912
 20
14.3344720768
 30
0.0
 10
18.4975947824
 20
14.3328759926
 30
0.0
 10
18.4992528022
 20
14.3311364577
 30
0.0
 10
18.5000926689
 20
14.3298549973
 30
0.0
 10
18.5004087708
 20
14.3292108493
 30
0.0
  0
SPLINE
  5
27B
100
AcDbEntity
  8
0
100
AcDbSpline
 62
7
  6
CONTINUOUS
 70
0
 71
3
 72
10
 73
6
 74
0
 42
0.0000001
 43
0.0000001
 44
0.0000000001
 40
0.0
 40
0.0
 40
0.0
 40
0.0
 40
0.2343758129
 40
0.4761728829
 40
1.0
 40
1.0
 40
1.0
 40
1.0
 10
12.4068447951
 20
11.2003318694
 30
0.0
 10
12.4067395669
 20
11.1999921043
 30
0.0
 10
12.4066016159
 20
11.1992756251
 30
0.0
 10
12.4066384928
 20
11.1977499232
 30
0.0
 10
12.4070098943
 20
11.1966168683
 30
0.0
 10
12.4073601065
 20
11.1959032108
 30
0.0
  0
SPLINE
  5
27C
100
AcDbEntity
  8
0
100
AcDbSpline
 62
7
  6
CONTINUOUS
 70
0
 71
3
 72
13
 73
9
 74
0
 42
0.0000001
 43
0.0000001
 44
0.0000000001
 40
0.0
 40
0.0
 40
0.0
 40
0.0
 40
0.0997942201
 40
0.2030647278
 40
0.3128498857
 40
0.4312452013
 40
0.6971835619
 40
1.0
 40
1.0
 40
1.0
 40
1.0
 10
13.3751100887
 20
14.333639508
 30
0.0
 10
13.3752244518
 20
14.3340087684
 30
0.0
 10
13.3755482563
 20
14.334734877
 30
0.0
 10
13.376284949
 20
14.3357086592
 30
0.0
 10
13.3772599434
 20
14.3365564236
 30
0.0
 10
13.3789106307
 20
14.3375416552
 30
0.0
 10
13.3814833349
 20
14.3383475429
 30
0.0
 10
13.3836926921
 20
14.3385349988
 30
0.0
 10
13.3848656871
 20
14.3385349988
 30
0.0
  0
SPLINE
  5
27D
100
AcDbEntity
  8
LAYER_FEATURE
100
AcDbSpline
 62
7
  6
CONTINUOUS
 70
0
 71
3
 72
15
 73
11
 74
0
 42
0.0000001
 43
0.0000001
 44
0.0000000001
 40
0.0
 40
0.0
 40
0.0
 40
0.0
 40
0.1555633803
 40
0.3031037266
 40
0.4411036835
 40
0.5690458564
 40
0.6872833779
 40
0.7969686312
 40
0.9002186473
 40
1.0
 40
1.0
 40
1.0
 40
1.0
 10
17.532660822
 20
10.683074987
 30
0.0
 10
17.534755199
 20
10.683074987
 30
0.0
 10
17.5388389338
 20
10.6832575294
 30
0.0
 10
17.5447272083
 20
10.6841064144
 30
0.0
 10
17.5501256768
 20
10.6855201907
 30
0.0
 10
17.554932212
 20
10.6874755424
 30
0.0
 10
17.5590659054
 20
10.6899399903
 30
0.0
 10
17.5624494366
 20
10.6928858151
 30
0.0
 10
17.5650151981
 20
10.6962643848
 30
0.0
 10
17.566135862
 20
10.6987902365
 30
0.0
 10
17.5665320291
 20
10.7000738661
 30
0.0
  0
SPLINE
  5
27E
100
AcDbEntity
  8
LAYER_FEATURE
100
AcDbSpline
 62
7
  6
CONTINUOUS
 70
0
 71
3
 72
15
 73
11
 74
0
 42
0.0000001
 43
0.0000001
 44
0.0000000001
 40
0.0
 40
0.0
 40
0.0
 40
0.0
 40
0.1116972803
 40
0.2311192609
 40
0.356381168
 40
0.4855762735
 40
0.6166986439
 40
0.7476456265
 40
0.8762357421
 40
1.0
 40
1.0
 40
1.0
 40
1.0
 10
16.8266820019
 20
10.7057936984
 30
0.0
 10
16.8282955171
 20
10.7041019763
 30
0.0
 10
16.8318821268
 20
10.700833768
 30
0.0
 10
16.837943826
 20
10.6964641073
 30
0.0
 10
16.8447454344
 20
10.6925679095
 30
0.0
 10
16.852107731
 20
10.6892348348
 30
0.0
 10
16.859856063
 20
10.6865502787
 30
0.0
 10
16.8678019035
 20
10.6845737033
 30
0.0
 10
16.8757440498
 20
10.6833656831
 30
0.0
 10
16.8810285996
 20
10.683074987
 30
0.0
 10
16.8836189698
 20
10.683074987
 30
0.0
  0
SPLINE
  5
27F
100
AcDbEntity
  8
LAYER_FEATURE
100
AcDbSpline
 62
7
  6
CONTINUOUS
 70
0
 71
3
 72
15
 73
11
 74
0
 42
0.0000001
 43
0.0000001
 44
0.0000000001
 40
0.0
 40
0.0
 40
0.0
 40
0.0
 40
0.1555633803
 40
0.3031037266
 40
0.4411036835
 40
0.5690458564
 40
0.6872833779
 40
0.7969686312
 40
0.9002186473
 40
1.0
 40
1.0
 40
1.0
 40
1.0
 10
16.2081751126
 20
10.683074987
 30
0.0
 10
16.2102694896
 20
10.683074987
 30
0.0
 10
16.2143532244
 20
10.6832575294
 30
0.0
 10
16.2202414989
 20
10.6841064144
 30
0.0
 10
16.2256399674
 20
10.6855201907
 30
0.0
 10
16.2304465026
 20
10.6874755424
 30
0.0
 10
16.234580196
 20
10.6899399903
 30
0.0
 10
16.2379637272
 20
10.6928858151
 30
0.0
 10
16.2405294888
 20
10.6962643848
 30
0.0
 10
16.2416501527
 20
10.6987902365
 30
0.0
 10
16.2420463197
 20
10.7000738661
 30
0.0
  0
SPLINE
  5
280
100
AcDbEntity
  8
LAYER_FEATURE
100
AcDbSpline
 62
7
  6
CONTINUOUS
 70
0
 71
3
 72
15
 73
11
 74
0
 42
0.0000001
 43
0.0000001
 44
0.0000000001
 40
0.0
 40
0.0
 40
0.0
 40
0.0
 40
0.1116972803
 40
0.2311192609
 40
0.356381168
 40
0.4855762735
 40
0.6166986439
 40
0.7476456265
 40
0.8762357421
 40
1.0
 40
1.0
 40
1.0
 40
1.0
 10
15.5021962925
 20
10.7057936984
 30
0.0
 10
15.5038098077
 20
10.7041019763
 30
0.0
 10
15.5073964174
 20
10.700833768
 30
0.0
 10
15.5134581166
 20
10.6964641073
 30
0.0
 10
15.520259725
 20
10.6925679095
 30
0.0
 10
15.5276220216
 20
10.6892348348
 30
0.0
 10
15.5353703536
 20
10.6865502787
 30
0.0
 10
15.5433161942
 20
10.6845737033
 30
0.0
 10
15.5512583404
 20
10.6833656831
 30
0.0
 10
15.5565428902
 20
10.683074987
 30
0.0
 10
15.5591332604
 20
10.683074987
 30
0.0
  0
SPLINE
  5
281
100
AcDbEntity
  8
LAYER_FEATURE
100
AcDbSpline
 62
7
  6
CONTINUOUS
 70
0
 71
3
 72
15
 73
11
 74
0
 42
0.0000001
 43
0.0000001
 44
0.0000000001
 40
0.0
 40
0.0
 40
0.0
 40
0.0
 40
0.1555633803
 40
0.3031037266
 40
0.4411036835
 40
0.5690458564
 40
0.6872833779
 40
0.7969686312
 40
0.9002186473
 40
1.0
 40
1.0
 40
1.0
 40
1.0
 10
14.8836894033
 20
10.683074987
 30
0.0
 10
14.8857837802
 20
10.683074987
 30
0.0
 10
14.8898675151
 20
10.6832575294
 30
0.0
 10
14.8957557896
 20
10.6841064144
 30
0.0
 10
14.901154258
 20
10.6855201907
 30
0.0
 10
14.9059607933
 20
10.6874755424
 30
0.0
 10
14.9100944866
 20
10.6899399903
 30
0.0
 10
14.9134780179
 20
10.6928858151
 30
0.0
 10
14.9160437794
 20
10.6962643848
 30
0.0
 10
14.9171644433
 20
10.6987902365
 30
0.0
 10
14.9175606103
 20
10.7000738661
 30
0.0
  0
SPLINE
  5
282
100
AcDbEntity
  8
LAYER_FEATURE
100
AcDbSpline
 62
7
  6
CONTINUOUS
 70
0
 71
3
 72
15
 73
11
 74
0
 42
0.0000001
 43
0.0000001
 44
0.0000000001
 40
0.0
 40
0.0
 40
0.0
 40
0.0
 40
0.1116972803
 40
0.2311192609
 40
0.356381168
 40
0.4855762735
 40
0.6166986439
 40
0.7476456265
 40
0.8762357421
 40
1.0
 40
1.0
 40
1.0
 40
1.0
 10
14.1777105831
 20
10.7057936984
 30
0.0
 10
14.1793240983
 20
10.7041019763
 30
0.0
 10
14.182910708
 20
10.700833768
 30
0.0
 10
14.1889724072
 20
10.6964641073
 30
0.0
 10
14.1957740156
 20
10.6925679095
 30
0.0
 10
14.2031363122
 20
10.6892348348
 30
0.0
 10
14.2108846442
 20
10.6865502787
 30
0.0
 10
14.2188304848
 20
10.6845737033
 30
0.0
 10
14.226772631
 20
10.6833656831
 30
0.0
 10
14.2320571808
 20
10.683074987
 30
0.0
 10
14.234647551
 20
10.683074987
 30
0.0
  0
SPLINE
  5
283
100
AcDbEntity
  8
0
100
AcDbSpline
 62
7
  6
CONTINUOUS
 70
0
 71
3
 72
15
 73
11
 74
0
 42
0.0000001
 43
0.0000001
 44
0.0000000001
 40
0.0
 40
0.0
 40
0.0
 40
0.0
 40
0.1555633803
 40
0.3031037266
 40
0.4411036835
 40
0.5690458564
 40
0.6872833779
 40
0.7969686312
 40
0.9002186473
 40
1.0
 40
1.0
 40
1.0
 40
1.0
 10
13.5592036939
 20
10.683074987
 30
0.0
 10
13.5612980708
 20
10.683074987
 30
0.0
 10
13.5653818057
 20
10.6832575294
 30
0.0
 10
13.5712700802
 20
10.6841064144
 30
0.0
 10
13.5766685486
 20
10.6855201907
 30
0.0
 10
13.5814750839
 20
10.6874755424
 30
0.0
 10
13.5856087772
 20
10.6899399903
 30
0.0
 10
13.5889923085
 20
10.6928858151
 30
0.0
 10
13.59155807
 20
10.6962643848
 30
0.0
 10
13.5926787339
 20
10.6987902365
 30
0.0
 10
13.593074901
 20
10.7000738661
 30
0.0
  0
SPLINE
  5
284
100
AcDbEntity
  8
0
100
AcDbSpline
 62
7
  6
CONTINUOUS
 70
0
 71
3
 72
15
 73
11
 74
0
 42
0.0000001
 43
0.0000001
 44
0.0000000001
 40
0.0
 40
0.0
 40
0.0
 40
0.0
 40
0.1116972803
 40
0.2311192609
 40
0.356381168
 40
0.4855762735
 40
0.6166986439
 40
0.7476456265
 40
0.8762357421
 40
1.0
 40
1.0
 40
1.0
 40
1.0
 10
12.8532248738
 20
10.7057936984
 30
0.0
 10
12.8548383889
 20
10.7041019763
 30
0.0
 10
12.8584249987
 20
10.700833768
 30
0.0
 10
12.8644866979
 20
10.6964641073
 30
0.0
 10
12.8712883062
 20
10.6925679095
 30
0.0
 10
12.8786506029
 20
10.6892348348
 30
0.0
 10
12.8863989348
 20
10.6865502787
 30
0.0
 10
12.8943447754
 20
10.6845737033
 30
0.0
 10
12.9022869216
 20
10.6833656831
 30
0.0
 10
12.9075714715
 20
10.683074987
 30
0.0
 10
12.9101618416
 20
10.683074987
 30
0.0
  0
SPLINE
  5
285
100
AcDbEntity
  8
0
100
AcDbSpline
 62
7
  6
CONTINUOUS
 70
0
 71
3
 72
13
 73
9
 74
0
 42
0.0000001
 43
0.0000001
 44
0.0000000001
 40
0.0
 40
0.0
 40
0.0
 40
0.0
 40
0.3028164381
 40
0.5687547987
 40
0.6871501143
 40
0.7969352722
 40
0.9002057799
 40
1.0
 40
1.0
 40
1.0
 40
1.0
 10
12.4166003935
 20
11.2052273603
 30
0.0
 10
12.4154273984
 20
11.2052273603
 30
0.0
 10
12.4132180413
 20
11.2050399044
 30
0.0
 10
12.4106453371
 20
11.2042340167
 30
0.0
 10
12.4089946497
 20
11.2032487851
 30
0.0
 10
12.4080196554
 20
11.2024010207
 30
0.0
 10
12.4072829627
 20
11.2014272385
 30
0.0
 10
12.4069591582
 20
11.2007011299
 30
0.0
 10
12.4068447951
 20
11.2003318694
 30
0.0
  0
SPLINE
  5
286
100
AcDbEntity
  8
0
100
AcDbSpline
 62
7
  6
CONTINUOUS
 70
0
 71
3
 72
15
 73
11
 74
0
 42
0.0000001
 43
0.0000001
 44
0.0000000001
 40
0.0
 40
0.0
 40
0.0
 40
0.0
 40
0.1000805212
 40
0.21186059
 40
0.3338439566
 40
0.4637371734
 40
0.5987029226
 40
0.7354819219
 40
0.8705834431
 40
1.0
 40
1.0
 40
1.0
 40
1.0
 10
17.5321434772
 20
11.1959032108
 30
0.0
 10
17.5318273753
 20
11.1965473588
 30
0.0
 10
17.5309875086
 20
11.1978288191
 30
0.0
 10
17.5293294888
 20
11.1995683541
 30
0.0
 10
17.5272565975
 20
11.2011644383
 30
0.0
 10
17.5248538504
 20
11.2025632617
 30
0.0
 10
17.5222060074
 20
11.2037107421
 30
0.0
 10
17.519411655
 20
11.2045687187
 30
0.0
 10
17.516577592
 20
11.2050971521
 30
0.0
 10
17.5146797877
 20
11.2052273603
 30
0.0
 10
17.5137519343
 20
11.2052273603
 30
0.0
  0
ENDSEC
  0
SECTION
  2
OBJECTS
  0
DICTIONARY
  5
C
100
AcDbDictionary
280
0
281
1
  3
ACAD_GROUP
350
D
  3
ACAD_MLINESTYLE
350
17
  3
ACAD_LAYOUT
350
1A
  3
ACAD_PLOTSETTINGS
350
19
  3
ACAD_PLOTSTYLENAME
350
E
  0
DICTIONARY
  5
D
102
{ACAD_REACTORS
330
C
102
}
100
AcDbDictionary
280
0
281
1
  0
ACDBDICTIONARYWDFLT
  5
E
102
{ACAD_REACTORS
330
C
102
}
100
AcDbDictionary
281
1
  3
Normal
350
F
100
AcDbDictionaryWithDefault
340
F
  0
DICTIONARY
  5
17
102
{ACAD_REACTORS
330
C
102
}
100
AcDbDictionary
280
0
281
1
  3
Standard
350
18
  0
DICTIONARY
  5
19
102
{ACAD_REACTORS
330
C
102
}
100
AcDbDictionary
281
1
  0
DICTIONARY
  5
1A
102
{ACAD_REACTORS
330
C
102
}
100
AcDbDictionary
281
1
  3
Model
350
287
  3
Layout1
350
288
  0
ACDBPLACEHOLDER
  5
F
102
{ACAD_REACTORS
330
E
102
}
  0
MLINESTYLE
  5
18
102
{ACAD_REACTORS
330
17
102
}
100
AcDbMlineStyle
  2
STANDARD
 70
0
  3

 62
256
 51
90.0
 52
90.0
 71
2
 49
0.5
 62
256
  6
BYLAYER
 49
-0.5
 62
256
  6
BYLAYER
  0
LAYOUT
  5
287
102
{ACAD_REACTORS
330
1A
102
}
100
AcDbPlotSettings
  1

  2
none_device
  4
ANSI_C_(22.00_x_17.00_Inches)
  6

 40
0.0
 41
0.0
 42
0.0
 43
0.0
 44
558.8
 45
431.8
 46
0.0
 47
0.0
 48
0.0
 49
0.0
140
0.0
141
0.0
142
1.0
143
1.0
 70
1024
 72
0
 73
0
 74
0
  7

 75
0
147
1.0
148
0.0
149
0.0
100
AcDbLayout
  1
Model
 70
0
 71
0
 10
0.0
 20
0.0
 11
22.0
 21
17.0
 12
0.0
 22
0.0
 32
0.0
 14
0.0
 24
0.0
 34
0.0
 15
0.0
 25
0.0
 35
0.0
146
0.0
 13
0.0
 23
0.0
 33
0.0
 16
1.0
 26
0.0
 36
0.0
 17
0.0
 27
1.0
 37
0.0
 76
0
330
21C
345
0
346
0
  0
LAYOUT
  5
288
102
{ACAD_REACTORS
330
1A
102
}
100
AcDbPlotSettings
  1

  2
none_device
  4
ANSI_C_(22.00_x_17.00_Inches)
  6

 40
0.0
 41
0.0
 42
0.0
 43
0.0
 44
558.8
 45
431.8
 46
0.0
 47
0.0
 48
0.0
 49
0.0
140
0.0
141
0.0
142
1.0
143
1.0
 70
0
 72
0
 73
0
 74
0
  7

 75
0
147
1.0
148
0.0
149
0.0
100
AcDbLayout
  1
Layout1
 70
0
 71
1
 10
0.0
 20
0.0
 11
22.0
 21
17.0
 12
0.0
 22
0.0
 32
0.0
 14
0.0
 24
0.0
 34
0.0
 15
0.0
 25
0.0
 35
0.0
146
0.0
 13
0.0
 23
0.0
 33
0.0
 16
1.0
 26
0.0
 36
0.0
 17
0.0
 27
1.0
 37
0.0
 76
0
330
21D
345
0
346
0
  0
ENDSEC
  0
EOF