999
DXF file: _cgs_temp_output.dxf
999
Pro/ENGINEER 2015110 by Parametric Technology Corporation
  0
SECTION
  2
HEADER
  9
$ACADVER
  1
AC1021
  9
$DWGCODEPAGE
  3
ANSI_1252
  9
$EXTMAX
 10
22.0
 20
17.0
 30
0.0
  9
$EXTMIN
 10
0.0
 20
0.0
 30
0.0
  9
$LIMMIN
 10
0.0
 20
0.0
  9
$LIMMAX
 10
22.0
 20
17.0
  9
$VIEWCTR
 10
11.0
 20
8.5
  9
$VIEWSIZE
 40
17.0
  9
$CLAYER
  8
0
  9
$LTSCALE
 40
1.21
  9
$CELTYPE
  6
BYLAYER
  9
$DIMSCALE
 40
1.0
  9
$DIMASZ
 40
0.1875
  9
$DIMEXO
 40
0.0625
  9
$DIMDLI
 40
0.836
  9
$DIMEXE
 40
0.125
  9
$DIMCEN
 40
0.198
  9
$DIMLFAC
 40
1.0
  9
$DIMBLK
  1
_CLOSED
  9
$DIMALT
 70
0
  9
$DIMALTF
 40
25.4
  9
$DIMTXT
 40
0.15625
  9
$DIMTOL
 70
0
  9
$DIMLIM
 70
0
  9
$DIMTFAC
 40
1.0
  9
$DIMGAP
 40
0.09
  9
$DIMDSEP
 70
46
  9
$AUNITS
 70
0
  9
$PDMODE
 70
3
  9
$PDSIZE
 40
0.3125
  9
$HANDSEED
  5
289
  9
$TILEMODE
 70
1
  9
$MEASUREMENT
 70
0
  9
$INSUNITS
 70
1
  0
ENDSEC
  0
SECTION
  2
CLASSES
  0
CLASS
  1
ACDBDICTIONARYWDFLT
  2
AcDbDictionaryWithDefault
  3
AutoCAD 2000
 90
0
 91
1
280
0
281
0
  0
CLASS
  1
ACDBPLACEHOLDER
  2
AcDbPlaceHolder
  3
AutoCAD 2000
 90
0
 91
1
280
0
281
0
  0
CLASS
  1
LAYOUT
  2
AcDbLayout
  3
AutoCAD 2000
 90
0
 91
0
280
0
281
0
  0
ENDSEC
  0
SECTION
  2
TABLES
  0
TABLE
  2
VPORT
  5
8
100
AcDbSymbolTable
 70
2
  0
VPORT
  5
1F4
100
AcDbSymbolTableRecord
100
AcDbViewportTableRecord
  2
*ACTIVE
 70
0
 10
0.0
 20
0.0
 11
1.0
 21
1.0
 12
11.0
 22
8.5
 13
0.0
 23
0.0
 14
1.0
 24
1.0
 15
0.0
 25
0.0
 16
0.0
 26
0.0
 36
1.0
 17
0.0
 27
0.0
 37
0.0
 40
17.0
 41
1.2941176471
 42
50.0
 43
0.0
 44
0.0
 50
0.0
 51
0.0
 71
0
 72
100
 73
1
 74
1
 75
0
 76
0
 77
0
 78
0
  0
ENDTAB
  0
TABLE
  2
LTYPE
  5
5
100
AcDbSymbolTable
 70
6
  0
LTYPE
  5
14
100
AcDbSymbolTableRecord
100
AcDbLinetypeTableRecord
  2
BYBLOCK
 70
0
  3

 72
65
 73
0
 40
0.0
  0
LTYPE
  5
15
100
AcDbSymbolTableRecord
100
AcDbLinetypeTableRecord
  2
BYLAYER
 70
0
  3

 72
65
 73
0
 40
0.0
  0
LTYPE
  5
16
100
AcDbSymbolTableRecord
100
AcDbLinetypeTableRecord
  2
CONTINUOUS
 70
64
  3
Solid line
 72
65
 73
0
 40
0.0
  0
LTYPE
  5
1F5
100
AcDbSymbolTableRecord
100
AcDbLinetypeTableRecord
  2
CENTER
 70
64
  3
____ _ ____ _ ____ _ ____ _ ____ _ ____ _ ____
 72
65
 73
4
 40
0.6
 49
0.375
 74
0
 49
-0.075
 74
0
 49
0.075
 74
0
 49
-0.075
 74
0
  0
LTYPE
  5
1F6
100
AcDbSymbolTableRecord
100
AcDbLinetypeTableRecord
  2
HIDDEN
 70
64
  3
- - - - - - - - - - - - - - - - - - - -
 72
65
 73
2
 40
0.2
 49
0.1
 74
0
 49
-0.1
 74
0
  0
LTYPE
  5
1F7
100
AcDbSymbolTableRecord
100
AcDbLinetypeTableRecord
  2
PHANTOM
 70
64
  3
_____ _ _ _____ _ _ _____ _ _ _____
 72
65
 73
6
 40
0.8
 49
0.45
 74
0
 49
-0.05
 74
0
 49
0.1
 74
0
 49
-0.05
 74
0
 49
0.1
 74
0
 49
-0.05
 74
0
  0
LTYPE
  5
1F8
100
AcDbSymbolTableRecord
100
AcDbLinetypeTableRecord
  2
DOT
 70
64
  3
. . . . . . . . . . . . . . . . . . . .
 72
65
 73
2
 40
0.2
 49
0.1
 74
0
 49
-0.1
 74
0
  0
LTYPE
  5
1F9
100
AcDbSymbolTableRecord
100
AcDbLinetypeTableRecord
  2
DASHED
 70
64
  3
- - - - - - - - - - - - - - - - - - - -
 72
65
 73
2
 40
0.2
 49
0.1
 74
0
 49
-0.1
 74
0
  0
ENDTAB
  0
TABLE
  2
LAYER
  5
2
100
AcDbSymbolTable
 70
36
  0
LAYER
  5
10
100
AcDbSymbolTableRecord
100
AcDbLayerTableRecord
  2
0
 70
0
 62
7
  6
CONTINUOUS
370
-3
390
F
  0
LAYER
  5
1FA
100
AcDbSymbolTableRecord
100
AcDbLayerTableRecord
  2
DEFAULT_1
 70
0
 62
7
  6
CENTER
370
-3
390
F
  0
LAYER
  5
1FB
100
AcDbSymbolTableRecord
100
AcDbLayerTableRecord
  2
DEFAULT_2
 70
0
 62
8
  6
HIDDEN
370
-3
390
F
  0
LAYER
  5
1FC
100
AcDbSymbolTableRecord
100
AcDbLayerTableRecord
  2
DEFAULT_3
 70
0
 62
7
  6
PHANTOM
370
-3
390
F
  0
LAYER
  5
1FD
100
AcDbSymbolTableRecord
100
AcDbLayerTableRecord
  2
01_ALL_DTM_PLN
 70
0
 62
7
  6
CONTINUOUS
370
-3
390
F
  0
LAYER
  5
1FE
100
AcDbSymbolTableRecord
100
AcDbLayerTableRecord
  2
01__ASM_ALL_DTM_PLN
 70
0
 62
7
  6
CONTINUOUS
370
-3
390
F
  0
LAYER
  5
1FF
100
AcDbSymbolTableRecord
100
AcDbLayerTableRecord
  2
01__ASM_DEF_DTM_PLN
 70
0
 62
7
  6
CONTINUOUS
370
-3
390
F
  0
LAYER
  5
200
100
AcDbSymbolTableRecord
100
AcDbLayerTableRecord
  2
01___PRT_ALL_DTM_PLN
 70
0
 62
7
  6
CONTINUOUS
370
-3
390
F
  0
LAYER
  5
201
100
AcDbSymbolTableRecord
100
AcDbLayerTableRecord
  2
01___PRT_DEF_DTM_PLN
 70
0
 62
7
  6
CONTINUOUS
370
-3
390
F
  0
LAYER
  5
202
100
AcDbSymbolTableRecord
100
AcDbLayerTableRecord
  2
02_ALL_AXES
 70
0
 62
7
  6
CONTINUOUS
370
-3
390
F
  0
LAYER
  5
203
100
AcDbSymbolTableRecord
100
AcDbLayerTableRecord
  2
02__ASM_ALL_AXES
 70
0
 62
7
  6
CONTINUOUS
370
-3
390
F
  0
LAYER
  5
204
100
AcDbSymbolTableRecord
100
AcDbLayerTableRecord
  2
02___PRT_ALL_AXES
 70
0
 62
7
  6
CONTINUOUS
370
-3
390
F
  0
LAYER
  5
205
100
AcDbSymbolTableRecord
100
AcDbLayerTableRecord
  2
03_ALL_CURVES
 70
0
 62
7
  6
CONTINUOUS
370
-3
390
F
  0
LAYER
  5
206
100
AcDbSymbolTableRecord
100
AcDbLayerTableRecord
  2
03__ASM_ALL_CURVES
 70
0
 62
7
  6
CONTINUOUS
370
-3
390
F
  0
LAYER
  5
207
100
AcDbSymbolTableRecord
100
AcDbLayerTableRecord
  2
03___PRT_ALL_CURVES
 70
0
 62
7
  6
CONTINUOUS
370
-3
390
F
  0
LAYER
  5
208
100
AcDbSymbolTableRecord
100
AcDbLayerTableRecord
  2
04_ALL_DTM_PNT
 70
0
 62
7
  6
CONTINUOUS
370
-3
390
F
  0
LAYER
  5
209
100
AcDbSymbolTableRecord
100
AcDbLayerTableRecord
  2
04__ASM_ALL_DTM_PNT
 70
0
 62
7
  6
CONTINUOUS
370
-3
390
F
  0
LAYER
  5
20A
100
AcDbSymbolTableRecord
100
AcDbLayerTableRecord
  2
04___PRT_ALL_DTM_PNT
 70
0
 62
7
  6
CONTINUOUS
370
-3
390
F
  0
LAYER
  5
20B
100
AcDbSymbolTableRecord
100
AcDbLayerTableRecord
  2
05_ALL_DTM_CSYS
 70
0
 62
7
  6
CONTINUOUS
370
-3
390
F
  0
LAYER
  5
20C
100
AcDbSymbolTableRecord
100
AcDbLayerTableRecord
  2
05__ASM_ALL_DTM_CSYS
 70
0
 62
7
  6
CONTINUOUS
370
-3
390
F
  0
LAYER
  5
20D
100
AcDbSymbolTableRecord
100
AcDbLayerTableRecord
  2
05__ASM_DEF_DTM_CSYS
 70
0
 62
7
  6
CONTINUOUS
370
-3
390
F
  0
LAYER
  5
20E
100
AcDbSymbolTableRecord
100
AcDbLayerTableRecord
  2
05___PRT_ALL_DTM_CSYS
 70
0
 62
7
  6
CONTINUOUS
370
-3
390
F
  0
LAYER
  5
20F
100
AcDbSymbolTableRecord
100
AcDbLayerTableRecord
  2
05___PRT_DEF_DTM_CSYS
 70
0
 62
7
  6
CONTINUOUS
370
-3
390
F
  0
LAYER
  5
210
100
AcDbSymbolTableRecord
100
AcDbLayerTableRecord
  2
06_ALL_SURFS
 70
0
 62
7
  6
CONTINUOUS
370
-3
390
F
  0
LAYER
  5
211
100
AcDbSymbolTableRecord
100
AcDbLayerTableRecord
  2
06__ASM_ALL_SURFS
 70
0
 62
7
  6
CONTINUOUS
370
-3
390
F
  0
LAYER
  5
212
100
AcDbSymbolTableRecord
100
AcDbLayerTableRecord
  2
06___PRT_ALL_SURFS
 70
0
 62
7
  6
CONTINUOUS
370
-3
390
F
  0
LAYER
  5
213
100
AcDbSymbolTableRecord
100
AcDbLayerTableRecord
  2
07__ASM_ALL_SKELETONS
 70
0
 62
7
  6
CONTINUOUS
370
-3
390
F
  0
LAYER
  5
214
100
AcDbSymbolTableRecord
100
AcDbLayerTableRecord
  2
LAYER_DIM
 70
0
 62
7
  6
CONTINUOUS
370
-3
390
F
  0
LAYER
  5
215
100
AcDbSymbolTableRecord
100
AcDbLayerTableRecord
  2
LAYER_FEATURE
 70
0
 62
7
  6
CONTINUOUS
370
-3
390
F
  0
LAYER
  5
216
100
AcDbSymbolTableRecord
100
AcDbLayerTableRecord
  2
LAYER_GEOM_FEAT
 70
0
 62
7
  6
CONTINUOUS
370
-3
390
F
  0
LAYER
  5
217
100
AcDbSymbolTableRecord
100
AcDbLayerTableRecord
  2
LAYER_PARAMETER_DIM
 70
0
 62
7
  6
CONTINUOUS
370
-3
390
F
  0
LAYER
  5
218
100
AcDbSymbolTableRecord
100
AcDbLayerTableRecord
  2
LAYER_PROTRUSION_FEAT
 70
0
 62
7
  6
CONTINUOUS
370
-3
390
F
  0
LAYER
  5
219
100
AcDbSymbolTableRecord
100
AcDbLayerTableRecord
  2
LAYER_ROUND_FEAT
 70
0
 62
7
  6
CONTINUOUS
370
-3
390
F
  0
ENDTAB
  0
TABLE
  2
STYLE
  5
3
100
AcDbSymbolTable
 70
1
  0
STYLE
  5
11
100
AcDbSymbolTableRecord
100
AcDbTextStyleTableRecord
  2
STANDARD
 70
0
 40
0.0
 41
0.8
 50
0.0
 71
0
 42
0.2
  3
txt
  4

  0
STYLE
  5
21A
100
AcDbSymbolTableRecord
100
AcDbTextStyleTableRecord
  2
TEXTSTYLE_1
 70
0
 40
0.0
 41
0.8
 50
0.0
 71
0
 42
0.2
  3
gdt
  4

  0
ENDTAB
  0
TABLE
  2
VIEW
  5
6
100
AcDbSymbolTable
 70
0
  0
ENDTAB
  0
TABLE
  2
UCS
  5
7
100
AcDbSymbolTable
 70
0
  0
ENDTAB
  0
TABLE
  2
APPID
  5
9
100
AcDbSymbolTable
 70
1
  0
APPID
  5
21B
100
AcDbSymbolTableRecord
100
AcDbRegAppTableRecord
  2
ACAD
 70
0
  0
ENDTAB
  0
TABLE
  2
BLOCK_RECORD
  5
1
100
AcDbSymbolTable
 70
0
  0
BLOCK_RECORD
  5
21C
100
AcDbSymbolTableRecord
100
AcDbBlockTableRecord
  2
*Model_Space
  0
BLOCK_RECORD
  5
21D
100
AcDbSymbolTableRecord
100
AcDbBlockTableRecord
  2
*Paper_Space
  0
ENDTAB
  0
TABLE
  2
DIMSTYLE
  5
A
100
AcDbSymbolTable
 70
1
100
AcDbDimStyleTable
 71
0
  0
DIMSTYLE
105
21E
100
AcDbSymbolTableRecord
100
AcDbDimStyleTableRecord
  2
STANDARD
 70
0
  3

  4

 40
1.0
 41
0.1875
 42
0.0625
 43
0.38
 44
0.125
 45
0.0
 46
0.0
 47
0.0001
 48
0.0001
140
0.15625
141
0.09
142
0.0
143
25.4
144
1.0
145
0.0
146
1.0
147
0.09
 71
0.0
 72
0.0
 73
1
 74
1
 75
0
 76
0
 77
0
 78
4
170
0
171
2
172
0
173
0
174
0
175
0
176
0
177
0
178
0
270
2
271
4
272
4
273
2
274
2
275
0
280
0
281
0
282
0
283
1
284
4
285
0
286
0
287
3
288
0
340
11
278
46
  0
ENDTAB
  0
ENDSEC
  0
SECTION
  2
BLOCKS
  0
BLOCK
  5
20
100
AcDbEntity
  8
0
100
AcDbBlockBegin
  2
*Model_Space
 70
0
 10
0.0
 20
0.0
 30
0.0
  3
*Model_Space
  1

  0
ENDBLK
  5
21
100
AcDbEntity
  8
0
100
AcDbBlockEnd
  0
BLOCK
  5
1C
100
AcDbEntity
  8
0
100
AcDbBlockBegin
  2
*Paper_Space
 70
0
 10
0.0
 20
0.0
 30
0.0
  3
*Paper_Space
  1

  0
ENDBLK
  5
1D
100
AcDbEntity
  8
0
100
AcDbBlockEnd
  0
ENDSEC
  0
SECTION
  2
ENTITIES
  0
MTEXT
  5
21F
100
AcDbEntity
  8
0
100
AcDbMText
 62
7
  6
CONTINUOUS
  7
STANDARD
 71
1
 72
1
 10
15.9560215477
 20
0.9479130325
 30
0.0
 11
1.0
 21
0.0
 31
0.0
 44
0.9
  1
SCALE: 1:1.000
 40
0.3
 41
3.36
  0
LINE
  5
220
100
AcDbEntity
  8
0
100
AcDbLine
 62
7
  6
CONTINUOUS
 10
0.0
 20
0.0
 11
0.0
 21
17.0
  0
LINE
  5
221
100
AcDbEntity
  8
0
100
AcDbLine
 62
7
  6
CONTINUOUS
 10
0.0
 20
0.0
 11
22.0
 21
0.0
  0
LINE
  5
222
100
AcDbEntity
  8
0
100
AcDbLine
 62
7
  6
CONTINUOUS
 10
0.0
 20
17.0
 11
22.0
 21
17.0
  0
LINE
  5
223
100
AcDbEntity
  8
0
100
AcDbLine
 62
7
  6
CONTINUOUS
 10
22.0
 20
0.0
 11
22.0
 21
17.0
  0
LINE
  5
224
100
AcDbEntity
  8
0
100
AcDbLine
 62
7
  6
CONTINUOUS
 10
4.1903672762
 20
5.8351198968
 11
4.1903672762
 21
5.7201198968
  0
LINE
  5
225
100
AcDbEntity
  8
0
100
AcDbLine
 62
7
  6
CONTINUOUS
 10
4.1903672762
 20
5.7201198968
 11
4.3473453078
 21
5.2158874316
  0
LINE
  5
226
100
AcDbEntity
  8
0
100
AcDbLine
 62
7
  6
CONTINUOUS
 10
5.0703672762
 20
5.7201198968
 11
5.0703672762
 21
5.7851198968
  0
LINE
  5
227
100
AcDbEntity
  8
0
100
AcDbLine
 62
7
  6
CONTINUOUS
 10
4.9133892446
 20
5.2158874316
 11
5.0703672762
 21
5.7201198968
  0
LINE
  5
228
100
AcDbEntity
  8
LAYER_FEATURE
100
AcDbLine
 62
7
  6
CONTINUOUS
 10
5.1903672762
 20
5.7851198968
 11
5.1903672762
 21
5.7201198968
  0
LINE
  5
229
100
AcDbEntity
  8
LAYER_FEATURE
100
AcDbLine
 62
7
  6
CONTINUOUS
 10
5.1903672762
 20
5.7201198968
 11
5.3473453078
 21
5.2158874316
  0
LINE
  5
22A
100
AcDbEntity
  8
0
100
AcDbLine
 62
7
  6
CONTINUOUS
 10
4.3823546404
 20
5.1901198968
 11
4.8783799119
 21
5.1901198968
  0
LINE
  5
22B
100
AcDbEntity
  8
LAYER_FEATURE
100
AcDbLine
 62
7
  6
CONTINUOUS
 10
5.3823546404
 20
5.1901198968
 11
5.8783799119
 21
5.1901198968
  0
LINE
  5
22C
100
AcDbEntity
  8
LAYER_FEATURE
100
AcDbLine
 62
7
  6
CONTINUOUS
 10
6.3823546404
 20
5.1901198968
 11
6.8783799119
 21
5.1901198968
  0
LINE
  5
22D
100
AcDbEntity
  8
LAYER_FEATURE
100
AcDbLine
 62
7
  6
CONTINUOUS
 10
7.3823546404
 20
5.1901198968
 11
7.8783799119
 21
5.1901198968
  0
LINE
  5
22E
100
AcDbEntity
  8
LAYER_FEATURE
100
AcDbLine
 62
7
  6
CONTINUOUS
 10
5.9133892446
 20
5.2158874316
 11
6.0703672762
 21
5.7201198968
  0
LINE
  5
22F
100
AcDbEntity
  8
LAYER_FEATURE
100
AcDbLine
 62
7
  6
CONTINUOUS
 10
6.0703672762
 20
5.7201198968
 11
6.0703672762
 21
5.7851198968
  0
LINE
  5
230
100
AcDbEntity
  8
LAYER_FEATURE
100
AcDbLine
 62
7
  6
CONTINUOUS
 10
6.1903672762
 20
5.7851198968
 11
6.1903672762
 21
5.7201198968
  0
LINE
  5
231
100
AcDbEntity
  8
LAYER_FEATURE
100
AcDbLine
 62
7
  6
CONTINUOUS
 10
6.1903672762
 20
5.7201198968
 11
6.3473453078
 21
5.2158874316
  0
LINE
  5
232
100
AcDbEntity
  8
LAYER_FEATURE
100
AcDbLine
 62
7
  6
CONTINUOUS
 10
5.0703672762
 20
5.7851198968
 11
5.1903672762
 21
5.7851198968
  0
LINE
  5
233
100
AcDbEntity
  8
LAYER_FEATURE
100
AcDbLine
 62
7
  6
CONTINUOUS
 10
6.0703672762
 20
5.7851198968
 11
6.1903672762
 21
5.7851198968
  0
LINE
  5
234
100
AcDbEntity
  8
LAYER_FEATURE
100
AcDbLine
 62
7
  6
CONTINUOUS
 10
7.0703672762
 20
5.7851198968
 11
7.1903672762
 21
5.7851198968
  0
LINE
  5
235
100
AcDbEntity
  8
0
100
AcDbLine
 62
7
  6
CONTINUOUS
 10
8.0553672762
 20
5.8501198968
 11
4.2053672762
 21
5.8501198968
  0
LINE
  5
236
100
AcDbEntity
  8
LAYER_FEATURE
100
AcDbLine
 62
7
  6
CONTINUOUS
 10
6.9133892446
 20
5.2158874316
 11
7.0703672762
 21
5.7201198968
  0
LINE
  5
237
100
AcDbEntity
  8
LAYER_FEATURE
100
AcDbLine
 62
7
  6
CONTINUOUS
 10
7.0703672762
 20
5.7201198968
 11
7.0703672762
 21
5.7851198968
  0
LINE
  5
238
100
AcDbEntity
  8
LAYER_FEATURE
100
AcDbLine
 62
7
  6
CONTINUOUS
 10
7.1903672762
 20
5.7851198968
 11
7.1903672762
 21
5.7201198968
  0
LINE
  5
239
100
AcDbEntity
  8
LAYER_FEATURE
100
AcDbLine
 62
7
  6
CONTINUOUS
 10
7.1903672762
 20
5.7201198968
 11
7.3473453078
 21
5.2158874316
  0
LINE
  5
23A
100
AcDbEntity
  8
0
100
AcDbLine
 62
7
  6
CONTINUOUS
 10
8.0703672762
 20
5.7201198968
 11
8.0703672762
 21
5.8351198968
  0
LINE
  5
23B
100
AcDbEntity
  8
LAYER_FEATURE
100
AcDbLine
 62
7
  6
CONTINUOUS
 10
7.9133892446
 20
5.2158874316
 11
8.0703672762
 21
5.7201198968
  0
LINE
  5
23C
100
AcDbEntity
  8
0
100
AcDbLine
 62
7
  6
CONTINUOUS
 10
4.1308720839
 20
14.6000477814
 11
4.1308720839
 21
10.6000477814
  0
LINE
  5
23D
100
AcDbEntity
  8
0
100
AcDbLine
 62
7
  6
CONTINUOUS
 10
8.0108720839
 20
10.6000477814
 11
4.1308720839
 21
10.6000477814
  0
LINE
  5
23E
100
AcDbEntity
  8
0
100
AcDbLine
 62
7
  6
CONTINUOUS
 10
8.0108720839
 20
10.6000477814
 11
8.0108720839
 21
14.6000477814
  0
LINE
  5
23F
100
AcDbEntity
  8
0
100
AcDbLine
 62
7
  6
CONTINUOUS
 10
4.1308720839
 20
14.6000477814
 11
8.0108720839
 21
14.6000477814
  0
LINE
  5
240
100
AcDbEntity
  8
LAYER_FEATURE
100
AcDbLine
 62
7
  6
CONTINUOUS
 10
13.5603552569
 20
5.1306247044
 11
13.5603552569
 21
5.6606247044
  0
LINE
  5
241
100
AcDbEntity
  8
0
100
AcDbLine
 62
7
  6
CONTINUOUS
 10
13.5603552569
 20
5.6606247044
 11
13.5603552569
 21
5.7906247044
  0
LINE
  5
242
100
AcDbEntity
  8
LAYER_FEATURE
100
AcDbLine
 62
7
  6
CONTINUOUS
 10
13.5603552569
 20
5.1306247044
 11
17.5603552569
 21
5.1306247044
  0
LINE
  5
243
100
AcDbEntity
  8
LAYER_FEATURE
100
AcDbLine
 62
7
  6
CONTINUOUS
 10
17.5603552569
 20
5.6606247044
 11
13.5603552569
 21
5.6606247044
  0
LINE
  5
244
100
AcDbEntity
  8
0
100
AcDbLine
 62
7
  6
CONTINUOUS
 10
13.5603552569
 20
5.7906247044
 11
17.5603552569
 21
5.7906247044
  0
LINE
  5
245
100
AcDbEntity
  8
0
100
AcDbLine
 62
7
  6
CONTINUOUS
 10
17.5603552569
 20
5.7906247044
 11
17.5603552569
 21
5.6606247044
  0
LINE
  5
246
100
AcDbEntity
  8
LAYER_FEATURE
100
AcDbLine
 62
7
  6
CONTINUOUS
 10
17.5603552569
 20
5.1306247044
 11
17.5603552569
 21
5.6606247044
  0
LINE
  5
247
100
AcDbEntity
  8
0
100
AcDbLine
 62
7
  6
CONTINUOUS
 10
13.2133988516
 20
11.0684731673
 11
13.5117972059
 21
10.7550372406
  0
LINE
  5
248
100
AcDbEntity
  8
0
100
AcDbLine
 62
7
  6
CONTINUOUS
 10
13.178319037
 20
11.1399583137
 11
13.2133988516
 21
11.0684731673
  0
LINE
  5
249
100
AcDbEntity
  8
LAYER_FEATURE
100
AcDbLine
 62
7
  6
CONTINUOUS
 10
14.1344598456
 20
11.0684731673
 11
14.4328581999
 21
10.7550372406
  0
LINE
  5
24A
100
AcDbEntity
  8
0
100
AcDbLine
 62
7
  6
CONTINUOUS
 10
14.0239325264
 20
11.0684731673
 11
14.004104805
 21
11.1088778152
  0
LINE
  5
24B
100
AcDbEntity
  8
0
100
AcDbLine
 62
7
  6
CONTINUOUS
 10
14.1460689328
 20
14.2776946627
 11
13.1778036392
 21
11.1443870242
  0
LINE
  5
24C
100
AcDbEntity
  8
0
100
AcDbLine
 62
7
  6
CONTINUOUS
 10
13.5519031135
 20
10.7390198841
 11
14.0087726432
 21
10.7390198841
  0
LINE
  5
24D
100
AcDbEntity
  8
LAYER_FEATURE
100
AcDbLine
 62
7
  6
CONTINUOUS
 10
14.4729641075
 20
10.7390198841
 11
14.9298336372
 21
10.7390198841
  0
LINE
  5
24E
100
AcDbEntity
  8
LAYER_FEATURE
100
AcDbLine
 62
7
  6
CONTINUOUS
 10
15.3940251015
 20
10.7390198841
 11
15.8508946312
 21
10.7390198841
  0
LINE
  5
24F
100
AcDbEntity
  8
LAYER_FEATURE
100
AcDbLine
 62
7
  6
CONTINUOUS
 10
16.3150860955
 20
10.7390198841
 11
16.7719556252
 21
10.7390198841
  0
LINE
  5
250
100
AcDbEntity
  8
LAYER_FEATURE
100
AcDbLine
 62
7
  6
CONTINUOUS
 10
14.1146321243
 20
11.1088778152
 11
14.1344598456
 21
11.0684731673
  0
LINE
  5
251
100
AcDbEntity
  8
0
100
AcDbLine
 62
7
  6
CONTINUOUS
 10
14.0331581969
 20
10.7550372406
 11
14.0239325264
 21
11.0684731673
  0
LINE
  5
252
100
AcDbEntity
  8
LAYER_FEATURE
100
AcDbLine
 62
7
  6
CONTINUOUS
 10
14.004104805
 20
11.1088778152
 11
14.1146321243
 21
11.1088778152
  0
LINE
  5
253
100
AcDbEntity
  8
LAYER_FEATURE
100
AcDbLine
 62
7
  6
CONTINUOUS
 10
14.925165799
 20
11.1088778152
 11
15.0356931183
 21
11.1088778152
  0
LINE
  5
254
100
AcDbEntity
  8
LAYER_FEATURE
100
AcDbLine
 62
7
  6
CONTINUOUS
 10
15.846226793
 20
11.1088778152
 11
15.9567541123
 21
11.1088778152
  0
LINE
  5
255
100
AcDbEntity
  8
0
100
AcDbLine
 62
7
  6
CONTINUOUS
 10
16.7336441508
 20
11.1492824632
 11
13.1875593239
 21
11.1492824632
  0
LINE
  5
256
100
AcDbEntity
  8
0
100
AcDbLine
 62
7
  6
CONTINUOUS
 10
14.0326144965
 20
10.7509881669
 11
14.0331581969
 21
10.7550372406
  0
LINE
  5
257
100
AcDbEntity
  8
LAYER_FEATURE
100
AcDbLine
 62
7
  6
CONTINUOUS
 10
15.0555208396
 20
11.0684731673
 11
15.3539191939
 21
10.7550372406
  0
LINE
  5
258
100
AcDbEntity
  8
0
100
AcDbLine
 62
7
  6
CONTINUOUS
 10
14.0364185069
 20
11.1088778152
 11
14.0239325264
 21
11.0684731673
  0
LINE
  5
259
100
AcDbEntity
  8
LAYER_FEATURE
100
AcDbLine
 62
7
  6
CONTINUOUS
 10
14.9449935204
 20
11.0684731673
 11
14.925165799
 21
11.1088778152
  0
LINE
  5
25A
100
AcDbEntity
  8
LAYER_FEATURE
100
AcDbLine
 62
7
  6
CONTINUOUS
 10
15.0356931183
 20
11.1088778152
 11
15.0555208396
 21
11.0684731673
  0
LINE
  5
25B
100
AcDbEntity
  8
0
100
AcDbLine
 62
7
  6
CONTINUOUS
 10
14.0338094502
 20
10.7548359881
 11
14.132171619
 21
11.0731360829
  0
LINE
  5
25C
100
AcDbEntity
  8
LAYER_FEATURE
100
AcDbLine
 62
7
  6
CONTINUOUS
 10
14.9542191909
 20
10.7550372406
 11
14.9449935204
 21
11.0684731673
  0
LINE
  5
25D
100
AcDbEntity
  8
LAYER_FEATURE
100
AcDbLine
 62
7
  6
CONTINUOUS
 10
15.9765818336
 20
11.0684731673
 11
16.2749801879
 21
10.7550372406
  0
LINE
  5
25E
100
AcDbEntity
  8
LAYER_FEATURE
100
AcDbLine
 62
7
  6
CONTINUOUS
 10
14.9536754905
 20
10.7509881669
 11
14.9542191909
 21
10.7550372406
  0
LINE
  5
25F
100
AcDbEntity
  8
LAYER_FEATURE
100
AcDbLine
 62
7
  6
CONTINUOUS
 10
15.8660545144
 20
11.0684731673
 11
15.846226793
 21
11.1088778152
  0
LINE
  5
260
100
AcDbEntity
  8
LAYER_FEATURE
100
AcDbLine
 62
7
  6
CONTINUOUS
 10
15.9567541123
 20
11.1088778152
 11
15.9765818336
 21
11.0684731673
  0
LINE
  5
261
100
AcDbEntity
  8
LAYER_FEATURE
100
AcDbLine
 62
7
  6
CONTINUOUS
 10
14.9574795009
 20
11.1088778152
 11
14.9449935204
 21
11.0684731673
  0
LINE
  5
262
100
AcDbEntity
  8
LAYER_FEATURE
100
AcDbLine
 62
7
  6
CONTINUOUS
 10
14.9548704442
 20
10.7548359881
 11
15.053232613
 21
11.0731360829
  0
LINE
  5
263
100
AcDbEntity
  8
LAYER_FEATURE
100
AcDbLine
 62
7
  6
CONTINUOUS
 10
15.8752801849
 20
10.7550372406
 11
15.8660545144
 21
11.0684731673
  0
LINE
  5
264
100
AcDbEntity
  8
0
100
AcDbLine
 62
7
  6
CONTINUOUS
 10
16.7871155084
 20
11.0684731673
 11
16.7520356937
 21
11.1399583137
  0
LINE
  5
265
100
AcDbEntity
  8
LAYER_FEATURE
100
AcDbLine
 62
7
  6
CONTINUOUS
 10
15.8747364845
 20
10.7509881669
 11
15.8752801849
 21
10.7550372406
  0
LINE
  5
266
100
AcDbEntity
  8
LAYER_FEATURE
100
AcDbLine
 62
7
  6
CONTINUOUS
 10
15.8785404949
 20
11.1088778152
 11
15.8660545144
 21
11.0684731673
  0
LINE
  5
267
100
AcDbEntity
  8
LAYER_FEATURE
100
AcDbLine
 62
7
  6
CONTINUOUS
 10
15.8759314382
 20
10.7548359881
 11
15.974293607
 21
11.0731360829
  0
LINE
  5
268
100
AcDbEntity
  8
LAYER_FEATURE
100
AcDbLine
 62
7
  6
CONTINUOUS
 10
16.7963411789
 20
10.7550372406
 11
16.7871155084
 21
11.0684731673
  0
LINE
  5
269
100
AcDbEntity
  8
LAYER_FEATURE
100
AcDbLine
 62
7
  6
CONTINUOUS
 10
16.7957974785
 20
10.7509881669
 11
16.7963411789
 21
10.7550372406
  0
LINE
  5
26A
100
AcDbEntity
  8
LAYER_FEATURE
100
AcDbLine
 62
7
  6
CONTINUOUS
 10
17.755380802
 20
14.2017808058
 11
16.7871155084
 21
11.0684731673
  0
LINE
  5
26B
100
AcDbEntity
  8
LAYER_FEATURE
100
AcDbLine
 62
7
  6
CONTINUOUS
 10
16.7969924322
 20
10.7548359881
 11
17.764068148
 21
13.8842941512
  0
LINE
  5
26C
100
AcDbEntity
  8
0
100
AcDbLine
 62
7
  6
CONTINUOUS
 10
14.1558246175
 20
14.2825901017
 11
17.7019094444
 21
14.2825901017
  0
LINE
  5
26D
100
AcDbEntity
  8
LAYER_FEATURE
100
AcDbLine
 62
7
  6
CONTINUOUS
 10
17.7646064726
 20
13.8883448791
 11
17.7640627721
 21
13.8842958054
  0
LINE
  5
26E
100
AcDbEntity
  8
LAYER_FEATURE
100
AcDbLine
 62
7
  6
CONTINUOUS
 10
17.7646064726
 20
13.8883448791
 11
17.755380802
 21
14.2017808058
  0
LINE
  5
26F
100
AcDbEntity
  8
0
100
AcDbLine
 62
7
  6
CONTINUOUS
 10
17.7203009873
 20
14.2732659522
 11
17.755380802
 21
14.2017808058
  0
ARC
  5
270
100
AcDbEntity
  8
0
100
AcDbCircle
 62
7
  6
CONTINUOUS
 10
4.3823546404
 20
5.2267865634
 40
0.0366666667
100
AcDbArc
 50
197.2924493999
 51
270.0
  0
ARC
  5
271
100
AcDbEntity
  8
0
100
AcDbCircle
 62
7
  6
CONTINUOUS
 10
4.8783799119
 20
5.2267865634
 40
0.0366666667
100
AcDbArc
 50
270.0
 51
342.7075506001
  0
ARC
  5
272
100
AcDbEntity
  8
LAYER_FEATURE
100
AcDbCircle
 62
7
  6
CONTINUOUS
 10
5.3823546404
 20
5.2267865634
 40
0.0366666667
100
AcDbArc
 50
197.2924493999
 51
270.0
  0
ARC
  5
273
100
AcDbEntity
  8
LAYER_FEATURE
100
AcDbCircle
 62
7
  6
CONTINUOUS
 10
5.8783799119
 20
5.2267865634
 40
0.0366666667
100
AcDbArc
 50
270.0
 51
342.7075506001
  0
ARC
  5
274
100
AcDbEntity
  8
LAYER_FEATURE
100
AcDbCircle
 62
7
  6
CONTINUOUS
 10
6.3823546404
 20
5.2267865634
 40
0.0366666667
100
AcDbArc
 50
197.2924493999
 51
270.0
  0
ARC
  5
275
100
AcDbEntity
  8
LAYER_FEATURE
100
AcDbCircle
 62
7
  6
CONTINUOUS
 10
6.8783799119
 20
5.2267865634
 40
0.0366666667
100
AcDbArc
 50
270.0
 51
342.7075506001
  0
ARC
  5
276
100
AcDbEntity
  8
LAYER_FEATURE
100
AcDbCircle
 62
7
  6
CONTINUOUS
 10
7.8783799119
 20
5.2267865634
 40
0.0366666667
100
AcDbArc
 50
270.0
 51
342.7075506001
  0
ARC
  5
277
100
AcDbEntity
  8
LAYER_FEATURE
100
AcDbCircle
 62
7
  6
CONTINUOUS
 10
7.3823546404
 20
5.2267865634
 40
0.0366666667
100
AcDbArc
 50
197.2924493999
 51
270.0
  0
ARC
  5
278
100
AcDbEntity
  8
0
100
AcDbCircle
 62
7
  6
CONTINUOUS
 10
4.2053672762
 20
5.8351198968
 40
0.015
100
AcDbArc
 50
90.0
 51
180.0
  0
ARC
  5
279
100
AcDbEntity
  8
0
100
AcDbCircle
 62
7
  6
CONTINUOUS
 10
8.0553672762
 20
5.8351198968
 40
0.015
100
AcDbArc
 50
0.0
 51
90.0
  0
SPLINE
  5
27A
100
AcDbEntity
  8
0
100
AcDbSpline
 62
7
  6
CONTINUOUS
 70
0
 71
3
 72
15
 73
11
 74
0
 42
0.0000001
 43
0.0000001
 44
0.0000000001
 40
0.0
 40
0.0
 40
0.0
 40
0.0
 40
0.1294170408
 40
0.2645194172
 40
0.4012985776
 40
0.536263589
 40
0.6661554061
 40
0.7881379059
 40
0.8999187562
 40
1.0
 40
1.0
 40
1.0
 40
1.0
 10
17.7019094444
 20
14.2825901017
 30
0.0
 10
17.7028373013
 20
14.2825901017
 30
0.0
 10
17.7047351148
 20
14.2824598885
 30
0.0
 10
17.7075691884
 20
14.2819314547
 30
0.0
 10
17.710363542
 20
14.2810734745
 30
0.0
 10
17.7130113692
 20
14.2799259949
 30
0.0
 10
17.7154141036
 20
14.2785271929
 30
0.0
 10
17.7174869825
 20
14.2769311089
 30
0.0
 10
17.7191450005
 20
14.2751915679
 30
0.0
 10
17.7199848832
 20
14.2739101047
 30
0.0
 10
17.7203009873
 20
14.2732659522
 30
0.0
  0
SPLINE
  5
27B
100
AcDbEntity
  8
0
100
AcDbSpline
 62
7
  6
CONTINUOUS
 70
0
 71
3
 72
10
 73
6
 74
0
 42
0.0000001
 43
0.0000001
 44
0.0000000001
 40
0.0
 40
0.0
 40
0.0
 40
0.0
 40
0.2343746203
 40
0.4761726396
 40
1.0
 40
1.0
 40
1.0
 40
1.0
 10
13.1778037186
 20
11.1443869762
 30
0.0
 10
13.177698493
 20
11.1440472122
 30
0.0
 10
13.1775605529
 20
11.1433307313
 30
0.0
 10
13.1775974347
 20
11.1418050317
 30
0.0
 10
13.1779688247
 20
11.1406719713
 30
0.0
 10
13.178319037
 20
11.1399583137
 30
0.0
  0
SPLINE
  5
27C
100
AcDbEntity
  8
0
100
AcDbSpline
 62
7
  6
CONTINUOUS
 70
0
 71
3
 72
13
 73
9
 74
0
 42
0.0000001
 43
0.0000001
 44
0.0000000001
 40
0.0
 40
0.0
 40
0.0
 40
0.0
 40
0.0997933322
 40
0.2030628839
 40
0.3128473842
 40
0.4312422957
 40
0.6971820152
 40
1.0
 40
1.0
 40
1.0
 40
1.0
 10
14.1460690122
 20
14.2776946147
 30
0.0
 10
14.1461833721
 20
14.2780638725
 30
0.0
 10
14.1465071734
 20
14.2787899754
 30
0.0
 10
14.1472438653
 20
14.2797637458
 30
0.0
 10
14.1482188514
 20
14.2806115066
 30
0.0
 10
14.1498695331
 20
14.2815967507
 30
0.0
 10
14.1524422494
 20
14.282402637
 30
0.0
 10
14.1546516165
 20
14.2825901017
 30
0.0
 10
14.1558246175
 20
14.2825901017
 30
0.0
  0
SPLINE
  5
27D
100
AcDbEntity
  8
LAYER_FEATURE
100
AcDbSpline
 62
7
  6
CONTINUOUS
 70
0
 71
3
 72
15
 73
11
 74
0
 42
0.0000001
 43
0.0000001
 44
0.0000000001
 40
0.0
 40
0.0
 40
0.0
 40
0.0
 40
0.1555634863
 40
0.3031053582
 40
0.4411066285
 40
0.5690479591
 40
0.6872842077
 40
0.7969681408
 40
0.9002175363
 40
1.0
 40
1.0
 40
1.0
 40
1.0
 10
16.7719556252
 20
10.7390198841
 30
0.0
 10
16.7734300674
 20
10.7390198841
 30
0.0
 10
16.7763050322
 20
10.7391484053
 30
0.0
 10
16.7804504014
 20
10.7397460359
 30
0.0
 10
16.7842509496
 20
10.7407413117
 30
0.0
 10
16.7876347321
 20
10.7421179056
 30
0.0
 10
16.7905448235
 20
10.7438528581
 30
0.0
 10
16.7929268083
 20
10.745926696
 30
0.0
 10
16.7947331036
 20
10.7483051998
 30
0.0
 10
16.7955220439
 20
10.7500834098
 30
0.0
 10
16.7958009383
 20
10.7509870982
 30
0.0
  0
SPLINE
  5
27E
100
AcDbEntity
  8
LAYER_FEATURE
100
AcDbSpline
 62
7
  6
CONTINUOUS
 70
0
 71
3
 72
15
 73
11
 74
0
 42
0.0000001
 43
0.0000001
 44
0.0000000001
 40
0.0
 40
0.0
 40
0.0
 40
0.0
 40
0.1116594361
 40
0.231059108
 40
0.3563119083
 40
0.4855091216
 40
0.6166425656
 40
0.7476073122
 40
0.8762183896
 40
1.0
 40
1.0
 40
1.0
 40
1.0
 10
16.2749801879
 20
10.7550372406
 30
0.0
 10
16.2761154543
 20
10.7538447632
 30
0.0
 10
16.2786398609
 20
10.7515408899
 30
0.0
 10
16.2829077617
 20
10.7484604394
 30
0.0
 10
16.2876979767
 20
10.7457135292
 30
0.0
 10
16.2928840601
 20
10.7433634854
 30
0.0
 10
16.2983427975
 20
10.7414705502
 30
0.0
 10
16.3039412086
 20
10.7400767692
 30
0.0
 10
16.3095372855
 20
10.7392249095
 30
0.0
 10
16.3132608889
 20
10.7390198841
 30
0.0
 10
16.3150860955
 20
10.7390198841
 30
0.0
  0
SPLINE
  5
27F
100
AcDbEntity
  8
LAYER_FEATURE
100
AcDbSpline
 62
7
  6
CONTINUOUS
 70
0
 71
3
 72
15
 73
11
 74
0
 42
0.0000001
 43
0.0000001
 44
0.0000000001
 40
0.0
 40
0.0
 40
0.0
 40
0.0
 40
0.1555634863
 40
0.3031053582
 40
0.4411066285
 40
0.5690479591
 40
0.6872842077
 40
0.7969681408
 40
0.9002175363
 40
1.0
 40
1.0
 40
1.0
 40
1.0
 10
15.8508946312
 20
10.7390198841
 30
0.0
 10
15.8523690734
 20
10.7390198841
 30
0.0
 10
15.8552440382
 20
10.7391484053
 30
0.0
 10
15.8593894074
 20
10.7397460359
 30
0.0
 10
15.8631899556
 20
10.7407413117
 30
0.0
 10
15.8665737381
 20
10.7421179056
 30
0.0
 10
15.8694838295
 20
10.7438528581
 30
0.0
 10
15.8718658143
 20
10.745926696
 30
0.0
 10
15.8736721095
 20
10.7483051998
 30
0.0
 10
15.8744610499
 20
10.7500834098
 30
0.0
 10
15.8747399443
 20
10.7509870982
 30
0.0
  0
SPLINE
  5
280
100
AcDbEntity
  8
LAYER_FEATURE
100
AcDbSpline
 62
7
  6
CONTINUOUS
 70
0
 71
3
 72
15
 73
11
 74
0
 42
0.0000001
 43
0.0000001
 44
0.0000000001
 40
0.0
 40
0.0
 40
0.0
 40
0.0
 40
0.1116594361
 40
0.231059108
 40
0.3563119083
 40
0.4855091216
 40
0.6166425656
 40
0.7476073122
 40
0.8762183896
 40
1.0
 40
1.0
 40
1.0
 40
1.0
 10
15.3539191939
 20
10.7550372406
 30
0.0
 10
15.3550544603
 20
10.7538447632
 30
0.0
 10
15.3575788669
 20
10.7515408899
 30
0.0
 10
15.3618467677
 20
10.7484604394
 30
0.0
 10
15.3666369827
 20
10.7457135292
 30
0.0
 10
15.3718230661
 20
10.7433634854
 30
0.0
 10
15.3772818035
 20
10.7414705502
 30
0.0
 10
15.3828802146
 20
10.7400767692
 30
0.0
 10
15.3884762915
 20
10.7392249095
 30
0.0
 10
15.3921998949
 20
10.7390198841
 30
0.0
 10
15.3940251015
 20
10.7390198841
 30
0.0
  0
SPLINE
  5
281
100
AcDbEntity
  8
LAYER_FEATURE
100
AcDbSpline
 62
7
  6
CONTINUOUS
 70
0
 71
3
 72
15
 73
11
 74
0
 42
0.0000001
 43
0.0000001
 44
0.0000000001
 40
0.0
 40
0.0
 40
0.0
 40
0.0
 40
0.1555634863
 40
0.3031053582
 40
0.4411066285
 40
0.5690479591
 40
0.6872842077
 40
0.7969681408
 40
0.9002175363
 40
1.0
 40
1.0
 40
1.0
 40
1.0
 10
14.9298336372
 20
10.7390198841
 30
0.0
 10
14.9313080794
 20
10.7390198841
 30
0.0
 10
14.9341830442
 20
10.7391484053
 30
0.0
 10
14.9383284134
 20
10.7397460359
 30
0.0
 10
14.9421289616
 20
10.7407413117
 30
0.0
 10
14.9455127441
 20
10.7421179056
 30
0.0
 10
14.9484228355
 20
10.7438528581
 30
0.0
 10
14.9508048203
 20
10.745926696
 30
0.0
 10
14.9526111155
 20
10.7483051998
 30
0.0
 10
14.9534000559
 20
10.7500834098
 30
0.0
 10
14.9536789503
 20
10.7509870982
 30
0.0
  0
SPLINE
  5
282
100
AcDbEntity
  8
LAYER_FEATURE
100
AcDbSpline
 62
7
  6
CONTINUOUS
 70
0
 71
3
 72
15
 73
11
 74
0
 42
0.0000001
 43
0.0000001
 44
0.0000000001
 40
0.0
 40
0.0
 40
0.0
 40
0.0
 40
0.1116594361
 40
0.231059108
 40
0.3563119083
 40
0.4855091216
 40
0.6166425656
 40
0.7476073122
 40
0.8762183896
 40
1.0
 40
1.0
 40
1.0
 40
1.0
 10
14.4328581999
 20
10.7550372406
 30
0.0
 10
14.4339934663
 20
10.7538447632
 30
0.0
 10
14.4365178729
 20
10.7515408899
 30
0.0
 10
14.4407857737
 20
10.7484604394
 30
0.0
 10
14.4455759887
 20
10.7457135292
 30
0.0
 10
14.4507620721
 20
10.7433634854
 30
0.0
 10
14.4562208095
 20
10.7414705502
 30
0.0
 10
14.4618192206
 20
10.7400767692
 30
0.0
 10
14.4674152974
 20
10.7392249095
 30
0.0
 10
14.4711389009
 20
10.7390198841
 30
0.0
 10
14.4729641075
 20
10.7390198841
 30
0.0
  0
SPLINE
  5
283
100
AcDbEntity
  8
0
100
AcDbSpline
 62
7
  6
CONTINUOUS
 70
0
 71
3
 72
15
 73
11
 74
0
 42
0.0000001
 43
0.0000001
 44
0.0000000001
 40
0.0
 40
0.0
 40
0.0
 40
0.0
 40
0.1555634863
 40
0.3031053582
 40
0.4411066285
 40
0.5690479591
 40
0.6872842077
 40
0.7969681408
 40
0.9002175363
 40
1.0
 40
1.0
 40
1.0
 40
1.0
 10
14.0087726432
 20
10.7390198841
 30
0.0
 10
14.0102470854
 20
10.7390198841
 30
0.0
 10
14.0131220502
 20
10.7391484053
 30
0.0
 10
14.0172674194
 20
10.7397460359
 30
0.0
 10
14.0210679676
 20
10.7407413117
 30
0.0
 10
14.0244517501
 20
10.7421179056
 30
0.0
 10
14.0273618414
 20
10.7438528581
 30
0.0
 10
14.0297438263
 20
10.745926696
 30
0.0
 10
14.0315501215
 20
10.7483051998
 30
0.0
 10
14.0323390619
 20
10.7500834098
 30
0.0
 10
14.0326179563
 20
10.7509870982
 30
0.0
  0
SPLINE
  5
284
100
AcDbEntity
  8
0
100
AcDbSpline
 62
7
  6
CONTINUOUS
 70
0
 71
3
 72
15
 73
11
 74
0
 42
0.0000001
 43
0.0000001
 44
0.0000000001
 40
0.0
 40
0.0
 40
0.0
 40
0.0
 40
0.1116594361
 40
0.231059108
 40
0.3563119083
 40
0.4855091216
 40
0.6166425656
 40
0.7476073122
 40
0.8762183896
 40
1.0
 40
1.0
 40
1.0
 40
1.0
 10
13.5117972059
 20
10.7550372406
 30
0.0
 10
13.5129324723
 20
10.7538447632
 30
0.0
 10
13.5154568789
 20
10.7515408899
 30
0.0
 10
13.5197247797
 20
10.7484604394
 30
0.0
 10
13.5245149947
 20
10.7457135292
 30
0.0
 10
13.5297010781
 20
10.7433634854
 30
0.0
 10
13.5351598155
 20
10.7414705502
 30
0.0
 10
13.5407582266
 20
10.7400767692
 30
0.0
 10
13.5463543034
 20
10.7392249095
 30
0.0
 10
13.5500779069
 20
10.7390198841
 30
0.0
 10
13.5519031135
 20
10.7390198841
 30
0.0
  0
SPLINE
  5
285
100
AcDbEntity
  8
0
100
AcDbSpline
 62
7
  6
CONTINUOUS
 70
0
 71
3
 72
13
 73
9
 74
0
 42
0.0000001
 43
0.0000001
 44
0.0000000001
 40
0.0
 40
0.0
 40
0.0
 40
0.0
 40
0.3028179848
 40
0.5687577043
 40
0.6871526158
 40
0.7969371161
 40
0.9002066678
 40
1.0
 40
1.0
 40
1.0
 40
1.0
 10
13.1875593239
 20
11.1492824632
 30
0.0
 10
13.1863863228
 20
11.1492824632
 30
0.0
 10
13.1841769558
 20
11.1490949985
 30
0.0
 10
13.1816042395
 20
11.1482891122
 30
0.0
 10
13.1799535578
 20
11.1473038681
 30
0.0
 10
13.1789785717
 20
11.1464561073
 30
0.0
 10
13.1782418798
 20
11.1454823369
 30
0.0
 10
13.1779180785
 20
11.144756234
 30
0.0
 10
13.1778037186
 20
11.1443869762
 30
0.0
  0
SPLINE
  5
286
100
AcDbEntity
  8
0
100
AcDbSpline
 62
7
  6
CONTINUOUS
 70
0
 71
3
 72
15
 73
11
 74
0
 42
0.0000001
 43
0.0000001
 44
0.0000000001
 40
0.0
 40
0.0
 40
0.0
 40
0.0
 40
0.1000812438
 40
0.2118620941
 40
0.3338445939
 40
0.463736411
 40
0.5987014224
 40
0.7354805828
 40
0.8705829592
 40
1.0
 40
1.0
 40
1.0
 40
1.0
 10
16.7520356937
 20
11.1399583137
 30
0.0
 10
16.7517195895
 20
11.1406024662
 30
0.0
 10
16.7508797069
 20
11.1418839293
 30
0.0
 10
16.7492216889
 20
11.1436234703
 30
0.0
 10
16.74714881
 20
11.1452195544
 30
0.0
 10
16.7447460755
 20
11.1466183564
 30
0.0
 10
16.7420982484
 20
11.147765836
 30
0.0
 10
16.7393038948
 20
11.1486238162
 30
0.0
 10
16.7364698212
 20
11.1491522499
 30
0.0
 10
16.7345720077
 20
11.1492824632
 30
0.0
 10
16.7336441508
 20
11.1492824632
 30
0.0
  0
ENDSEC
  0
SECTION
  2
OBJECTS
  0
DICTIONARY
  5
C
100
AcDbDictionary
280
0
281
1
  3
ACAD_GROUP
350
D
  3
ACAD_MLINESTYLE
350
17
  3
ACAD_LAYOUT
350
1A
  3
ACAD_PLOTSETTINGS
350
19
  3
ACAD_PLOTSTYLENAME
350
E
  0
DICTIONARY
  5
D
102
{ACAD_REACTORS
330
C
102
}
100
AcDbDictionary
280
0
281
1
  0
ACDBDICTIONARYWDFLT
  5
E
102
{ACAD_REACTORS
330
C
102
}
100
AcDbDictionary
281
1
  3
Normal
350
F
100
AcDbDictionaryWithDefault
340
F
  0
DICTIONARY
  5
17
102
{ACAD_REACTORS
330
C
102
}
100
AcDbDictionary
280
0
281
1
  3
Standard
350
18
  0
DICTIONARY
  5
19
102
{ACAD_REACTORS
330
C
102
}
100
AcDbDictionary
281
1
  0
DICTIONARY
  5
1A
102
{ACAD_REACTORS
330
C
102
}
100
AcDbDictionary
281
1
  3
Model
350
287
  3
Layout1
350
288
  0
ACDBPLACEHOLDER
  5
F
102
{ACAD_REACTORS
330
E
102
}
  0
MLINESTYLE
  5
18
102
{ACAD_REACTORS
330
17
102
}
100
AcDbMlineStyle
  2
STANDARD
 70
0
  3

 62
256
 51
90.0
 52
90.0
 71
2
 49
0.5
 62
256
  6
BYLAYER
 49
-0.5
 62
256
  6
BYLAYER
  0
LAYOUT
  5
287
102
{ACAD_REACTORS
330
1A
102
}
100
AcDbPlotSettings
  1

  2
none_device
  4
ANSI_C_(22.00_x_17.00_Inches)
  6

 40
0.0
 41
0.0
 42
0.0
 43
0.0
 44
558.8
 45
431.8
 46
0.0
 47
0.0
 48
0.0
 49
0.0
140
0.0
141
0.0
142
1.0
143
1.0
 70
1024
 72
0
 73
0
 74
0
  7

 75
0
147
1.0
148
0.0
149
0.0
100
AcDbLayout
  1
Model
 70
0
 71
0
 10
0.0
 20
0.0
 11
22.0
 21
17.0
 12
0.0
 22
0.0
 32
0.0
 14
0.0
 24
0.0
 34
0.0
 15
0.0
 25
0.0
 35
0.0
146
0.0
 13
0.0
 23
0.0
 33
0.0
 16
1.0
 26
0.0
 36
0.0
 17
0.0
 27
1.0
 37
0.0
 76
0
330
21C
345
0
346
0
  0
LAYOUT
  5
288
102
{ACAD_REACTORS
330
1A
102
}
100
AcDbPlotSettings
  1

  2
none_device
  4
ANSI_C_(22.00_x_17.00_Inches)
  6

 40
0.0
 41
0.0
 42
0.0
 43
0.0
 44
558.8
 45
431.8
 46
0.0
 47
0.0
 48
0.0
 49
0.0
140
0.0
141
0.0
142
1.0
143
1.0
 70
0
 72
0
 73
0
 74
0
  7

 75
0
147
1.0
148
0.0
149
0.0
100
AcDbLayout
  1
Layout1
 70
0
 71
1
 10
0.0
 20
0.0
 11
22.0
 21
17.0
 12
0.0
 22
0.0
 32
0.0
 14
0.0
 24
0.0
 34
0.0
 15
0.0
 25
0.0
 35
0.0
146
0.0
 13
0.0
 23
0.0
 33
0.0
 16
1.0
 26
0.0
 36
0.0
 17
0.0
 27
1.0
 37
0.0
 76
0
330
21D
345
0
346
0
  0
ENDSEC
  0
EOF