999
DXF file: _cgs_temp_output.dxf
999
Pro/ENGINEER 2016360 by Parametric Technology Corporation
  0
SECTION
  2
HEADER
  9
$ACADVER
  1
AC1021
  9
$DWGCODEPAGE
  3
ANSI_1252
  9
$EXTMAX
 10
22.0
 20
17.0
 30
0.0
  9
$EXTMIN
 10
0.0
 20
0.0
 30
0.0
  9
$LIMMIN
 10
0.0
 20
0.0
  9
$LIMMAX
 10
22.0
 20
17.0
  9
$VIEWCTR
 10
11.0
 20
8.5
  9
$VIEWSIZE
 40
17.0
  9
$CLAYER
  8
0
  9
$LTSCALE
 40
1.21
  9
$CELTYPE
  6
BYLAYER
  9
$DIMSCALE
 40
1.0
  9
$DIMASZ
 40
0.1875
  9
$DIMEXO
 40
0.0625
  9
$DIMDLI
 40
0.836
  9
$DIMEXE
 40
0.125
  9
$DIMCEN
 40
0.198
  9
$DIMLFAC
 40
1.0
  9
$DIMBLK
  1
_CLOSED
  9
$DIMALT
 70
0
  9
$DIMALTF
 40
25.4
  9
$DIMTXT
 40
0.15625
  9
$DIMTOL
 70
0
  9
$DIMLIM
 70
0
  9
$DIMTFAC
 40
1.0
  9
$DIMGAP
 40
0.09
  9
$DIMDSEP
 70
46
  9
$AUNITS
 70
0
  9
$PDMODE
 70
3
  9
$PDSIZE
 40
0.3125
  9
$HANDSEED
  5
49C
  9
$TILEMODE
 70
1
  9
$MEASUREMENT
 70
0
  9
$INSUNITS
 70
1
  0
ENDSEC
  0
SECTION
  2
CLASSES
  0
CLASS
  1
ACDBDICTIONARYWDFLT
  2
AcDbDictionaryWithDefault
  3
AutoCAD 2000
 90
0
 91
1
280
0
281
0
  0
CLASS
  1
ACDBPLACEHOLDER
  2
AcDbPlaceHolder
  3
AutoCAD 2000
 90
0
 91
1
280
0
281
0
  0
CLASS
  1
LAYOUT
  2
AcDbLayout
  3
AutoCAD 2000
 90
0
 91
0
280
0
281
0
  0
ENDSEC
  0
SECTION
  2
TABLES
  0
TABLE
  2
VPORT
  5
8
100
AcDbSymbolTable
 70
2
  0
VPORT
  5
1F4
100
AcDbSymbolTableRecord
100
AcDbViewportTableRecord
  2
*ACTIVE
 70
0
 10
0.0
 20
0.0
 11
1.0
 21
1.0
 12
11.0
 22
8.5
 13
0.0
 23
0.0
 14
1.0
 24
1.0
 15
0.0
 25
0.0
 16
0.0
 26
0.0
 36
1.0
 17
0.0
 27
0.0
 37
0.0
 40
17.0
 41
1.2941176471
 42
50.0
 43
0.0
 44
0.0
 50
0.0
 51
0.0
 71
0
 72
100
 73
1
 74
1
 75
0
 76
0
 77
0
 78
0
  0
ENDTAB
  0
TABLE
  2
LTYPE
  5
5
100
AcDbSymbolTable
 70
6
  0
LTYPE
  5
14
100
AcDbSymbolTableRecord
100
AcDbLinetypeTableRecord
  2
BYBLOCK
 70
0
  3

 72
65
 73
0
 40
0.0
  0
LTYPE
  5
15
100
AcDbSymbolTableRecord
100
AcDbLinetypeTableRecord
  2
BYLAYER
 70
0
  3

 72
65
 73
0
 40
0.0
  0
LTYPE
  5
16
100
AcDbSymbolTableRecord
100
AcDbLinetypeTableRecord
  2
CONTINUOUS
 70
64
  3
Solid line
 72
65
 73
0
 40
0.0
  0
LTYPE
  5
1F5
100
AcDbSymbolTableRecord
100
AcDbLinetypeTableRecord
  2
CENTER
 70
64
  3
____ _ ____ _ ____ _ ____ _ ____ _ ____ _ ____
 72
65
 73
4
 40
0.6
 49
0.375
 74
0
 49
-0.075
 74
0
 49
0.075
 74
0
 49
-0.075
 74
0
  0
LTYPE
  5
1F6
100
AcDbSymbolTableRecord
100
AcDbLinetypeTableRecord
  2
HIDDEN
 70
64
  3
- - - - - - - - - - - - - - - - - - - -
 72
65
 73
2
 40
0.2
 49
0.1
 74
0
 49
-0.1
 74
0
  0
LTYPE
  5
1F7
100
AcDbSymbolTableRecord
100
AcDbLinetypeTableRecord
  2
PHANTOM
 70
64
  3
_____ _ _ _____ _ _ _____ _ _ _____
 72
65
 73
6
 40
0.8
 49
0.45
 74
0
 49
-0.05
 74
0
 49
0.1
 74
0
 49
-0.05
 74
0
 49
0.1
 74
0
 49
-0.05
 74
0
  0
LTYPE
  5
1F8
100
AcDbSymbolTableRecord
100
AcDbLinetypeTableRecord
  2
DOT
 70
64
  3
. . . . . . . . . . . . . . . . . . . .
 72
65
 73
2
 40
0.2
 49
0.1
 74
0
 49
-0.1
 74
0
  0
LTYPE
  5
1F9
100
AcDbSymbolTableRecord
100
AcDbLinetypeTableRecord
  2
DASHED
 70
64
  3
- - - - - - - - - - - - - - - - - - - -
 72
65
 73
2
 40
0.2
 49
0.1
 74
0
 49
-0.1
 74
0
  0
ENDTAB
  0
TABLE
  2
LAYER
  5
2
100
AcDbSymbolTable
 70
36
  0
LAYER
  5
10
100
AcDbSymbolTableRecord
100
AcDbLayerTableRecord
  2
0
 70
0
 62
7
  6
CONTINUOUS
370
-3
390
F
  0
LAYER
  5
1FA
100
AcDbSymbolTableRecord
100
AcDbLayerTableRecord
  2
DEFAULT_1
 70
0
 62
7
  6
CENTER
370
-3
390
F
  0
LAYER
  5
1FB
100
AcDbSymbolTableRecord
100
AcDbLayerTableRecord
  2
DEFAULT_2
 70
0
 62
8
  6
HIDDEN
370
-3
390
F
  0
LAYER
  5
1FC
100
AcDbSymbolTableRecord
100
AcDbLayerTableRecord
  2
DEFAULT_3
 70
0
 62
7
  6
PHANTOM
370
-3
390
F
  0
LAYER
  5
1FD
100
AcDbSymbolTableRecord
100
AcDbLayerTableRecord
  2
01_ALL_DTM_PLN
 70
0
 62
7
  6
CONTINUOUS
370
-3
390
F
  0
LAYER
  5
1FE
100
AcDbSymbolTableRecord
100
AcDbLayerTableRecord
  2
01__ASM_ALL_DTM_PLN
 70
0
 62
7
  6
CONTINUOUS
370
-3
390
F
  0
LAYER
  5
1FF
100
AcDbSymbolTableRecord
100
AcDbLayerTableRecord
  2
01__ASM_DEF_DTM_PLN
 70
0
 62
7
  6
CONTINUOUS
370
-3
390
F
  0
LAYER
  5
200
100
AcDbSymbolTableRecord
100
AcDbLayerTableRecord
  2
01___PRT_ALL_DTM_PLN
 70
0
 62
7
  6
CONTINUOUS
370
-3
390
F
  0
LAYER
  5
201
100
AcDbSymbolTableRecord
100
AcDbLayerTableRecord
  2
01___PRT_DEF_DTM_PLN
 70
0
 62
7
  6
CONTINUOUS
370
-3
390
F
  0
LAYER
  5
202
100
AcDbSymbolTableRecord
100
AcDbLayerTableRecord
  2
02_ALL_AXES
 70
0
 62
7
  6
CONTINUOUS
370
-3
390
F
  0
LAYER
  5
203
100
AcDbSymbolTableRecord
100
AcDbLayerTableRecord
  2
02__ASM_ALL_AXES
 70
0
 62
7
  6
CONTINUOUS
370
-3
390
F
  0
LAYER
  5
204
100
AcDbSymbolTableRecord
100
AcDbLayerTableRecord
  2
02___PRT_ALL_AXES
 70
0
 62
7
  6
CONTINUOUS
370
-3
390
F
  0
LAYER
  5
205
100
AcDbSymbolTableRecord
100
AcDbLayerTableRecord
  2
03_ALL_CURVES
 70
0
 62
7
  6
CONTINUOUS
370
-3
390
F
  0
LAYER
  5
206
100
AcDbSymbolTableRecord
100
AcDbLayerTableRecord
  2
03__ASM_ALL_CURVES
 70
0
 62
7
  6
CONTINUOUS
370
-3
390
F
  0
LAYER
  5
207
100
AcDbSymbolTableRecord
100
AcDbLayerTableRecord
  2
03___PRT_ALL_CURVES
 70
0
 62
7
  6
CONTINUOUS
370
-3
390
F
  0
LAYER
  5
208
100
AcDbSymbolTableRecord
100
AcDbLayerTableRecord
  2
04_ALL_DTM_PNT
 70
0
 62
7
  6
CONTINUOUS
370
-3
390
F
  0
LAYER
  5
209
100
AcDbSymbolTableRecord
100
AcDbLayerTableRecord
  2
04__ASM_ALL_DTM_PNT
 70
0
 62
7
  6
CONTINUOUS
370
-3
390
F
  0
LAYER
  5
20A
100
AcDbSymbolTableRecord
100
AcDbLayerTableRecord
  2
04___PRT_ALL_DTM_PNT
 70
0
 62
7
  6
CONTINUOUS
370
-3
390
F
  0
LAYER
  5
20B
100
AcDbSymbolTableRecord
100
AcDbLayerTableRecord
  2
05_ALL_DTM_CSYS
 70
0
 62
7
  6
CONTINUOUS
370
-3
390
F
  0
LAYER
  5
20C
100
AcDbSymbolTableRecord
100
AcDbLayerTableRecord
  2
05__ASM_ALL_DTM_CSYS
 70
0
 62
7
  6
CONTINUOUS
370
-3
390
F
  0
LAYER
  5
20D
100
AcDbSymbolTableRecord
100
AcDbLayerTableRecord
  2
05__ASM_DEF_DTM_CSYS
 70
0
 62
7
  6
CONTINUOUS
370
-3
390
F
  0
LAYER
  5
20E
100
AcDbSymbolTableRecord
100
AcDbLayerTableRecord
  2
05___PRT_ALL_DTM_CSYS
 70
0
 62
7
  6
CONTINUOUS
370
-3
390
F
  0
LAYER
  5
20F
100
AcDbSymbolTableRecord
100
AcDbLayerTableRecord
  2
05___PRT_DEF_DTM_CSYS
 70
0
 62
7
  6
CONTINUOUS
370
-3
390
F
  0
LAYER
  5
210
100
AcDbSymbolTableRecord
100
AcDbLayerTableRecord
  2
06_ALL_SURFS
 70
0
 62
7
  6
CONTINUOUS
370
-3
390
F
  0
LAYER
  5
211
100
AcDbSymbolTableRecord
100
AcDbLayerTableRecord
  2
06__ASM_ALL_SURFS
 70
0
 62
7
  6
CONTINUOUS
370
-3
390
F
  0
LAYER
  5
212
100
AcDbSymbolTableRecord
100
AcDbLayerTableRecord
  2
06___PRT_ALL_SURFS
 70
0
 62
7
  6
CONTINUOUS
370
-3
390
F
  0
LAYER
  5
213
100
AcDbSymbolTableRecord
100
AcDbLayerTableRecord
  2
07__ASM_ALL_SKELETONS
 70
0
 62
7
  6
CONTINUOUS
370
-3
390
F
  0
LAYER
  5
214
100
AcDbSymbolTableRecord
100
AcDbLayerTableRecord
  2
LAYER_AXIS
 70
0
 62
7
  6
CONTINUOUS
370
-3
390
F
  0
LAYER
  5
215
100
AcDbSymbolTableRecord
100
AcDbLayerTableRecord
  2
LAYER_CHAMFER_FEAT
 70
0
 62
7
  6
CONTINUOUS
370
-3
390
F
  0
LAYER
  5
216
100
AcDbSymbolTableRecord
100
AcDbLayerTableRecord
  2
LAYER_CUT_FEAT
 70
0
 62
7
  6
CONTINUOUS
370
-3
390
F
  0
LAYER
  5
217
100
AcDbSymbolTableRecord
100
AcDbLayerTableRecord
  2
LAYER_DATUM
 70
0
 62
7
  6
CONTINUOUS
370
-3
390
F
  0
LAYER
  5
218
100
AcDbSymbolTableRecord
100
AcDbLayerTableRecord
  2
LAYER_DIM
 70
0
 62
7
  6
CONTINUOUS
370
-3
390
F
  0
LAYER
  5
219
100
AcDbSymbolTableRecord
100
AcDbLayerTableRecord
  2
LAYER_FEATURE
 70
0
 62
7
  6
CONTINUOUS
370
-3
390
F
  0
LAYER
  5
21A
100
AcDbSymbolTableRecord
100
AcDbLayerTableRecord
  2
LAYER_GEOM_FEAT
 70
0
 62
7
  6
CONTINUOUS
370
-3
390
F
  0
LAYER
  5
21B
100
AcDbSymbolTableRecord
100
AcDbLayerTableRecord
  2
LAYER_NOGEOM_FEAT
 70
0
 62
7
  6
CONTINUOUS
370
-3
390
F
  0
LAYER
  5
21C
100
AcDbSymbolTableRecord
100
AcDbLayerTableRecord
  2
LAYER_PARAMETER_DIM
 70
0
 62
7
  6
CONTINUOUS
370
-3
390
F
  0
LAYER
  5
21D
100
AcDbSymbolTableRecord
100
AcDbLayerTableRecord
  2
LAYER_PROTRUSION_FEAT
 70
0
 62
7
  6
CONTINUOUS
370
-3
390
F
  0
LAYER
  5
21E
100
AcDbSymbolTableRecord
100
AcDbLayerTableRecord
  2
LAYER_QUILT
 70
0
 62
7
  6
CONTINUOUS
370
-3
390
F
  0
LAYER
  5
21F
100
AcDbSymbolTableRecord
100
AcDbLayerTableRecord
  2
LAYER_ROUND_FEAT
 70
0
 62
7
  6
CONTINUOUS
370
-3
390
F
  0
ENDTAB
  0
TABLE
  2
STYLE
  5
3
100
AcDbSymbolTable
 70
1
  0
STYLE
  5
11
100
AcDbSymbolTableRecord
100
AcDbTextStyleTableRecord
  2
STANDARD
 70
0
 40
0.0
 41
0.8
 50
0.0
 71
0
 42
0.2
  3
txt
  4

  0
STYLE
  5
220
100
AcDbSymbolTableRecord
100
AcDbTextStyleTableRecord
  2
TEXTSTYLE_1
 70
0
 40
0.0
 41
0.8
 50
0.0
 71
0
 42
0.2
  3
gdt
  4

  0
ENDTAB
  0
TABLE
  2
VIEW
  5
6
100
AcDbSymbolTable
 70
0
  0
ENDTAB
  0
TABLE
  2
UCS
  5
7
100
AcDbSymbolTable
 70
0
  0
ENDTAB
  0
TABLE
  2
APPID
  5
9
100
AcDbSymbolTable
 70
1
  0
APPID
  5
221
100
AcDbSymbolTableRecord
100
AcDbRegAppTableRecord
  2
ACAD
 70
0
  0
ENDTAB
  0
TABLE
  2
BLOCK_RECORD
  5
1
100
AcDbSymbolTable
 70
0
  0
BLOCK_RECORD
  5
222
100
AcDbSymbolTableRecord
100
AcDbBlockTableRecord
  2
*Model_Space
  0
BLOCK_RECORD
  5
223
100
AcDbSymbolTableRecord
100
AcDbBlockTableRecord
  2
*Paper_Space
  0
ENDTAB
  0
TABLE
  2
DIMSTYLE
  5
A
100
AcDbSymbolTable
 70
1
100
AcDbDimStyleTable
 71
0
  0
DIMSTYLE
105
224
100
AcDbSymbolTableRecord
100
AcDbDimStyleTableRecord
  2
STANDARD
 70
0
  3

  4

 40
1.0
 41
0.1875
 42
0.0625
 43
0.38
 44
0.125
 45
0.0
 46
0.0
 47
0.0001
 48
0.0001
140
0.15625
141
0.09
142
0.0
143
25.4
144
1.0
145
0.0
146
1.0
147
0.09
 71
0.0
 72
0.0
 73
1
 74
1
 75
0
 76
0
 77
0
 78
4
 79
1
170
0
171
3
172
0
173
0
174
0
175
0
176
0
177
0
178
0
270
2
179
4
271
4
272
4
273
2
274
2
275
0
280
0
281
0
282
0
283
1
284
4
285
0
286
0
287
3
288
0
340
11
278
46
  0
ENDTAB
  0
ENDSEC
  0
SECTION
  2
BLOCKS
  0
BLOCK
  5
20
100
AcDbEntity
  8
0
100
AcDbBlockBegin
  2
*Model_Space
 70
0
 10
0.0
 20
0.0
 30
0.0
  3
*Model_Space
  1

  0
ENDBLK
  5
21
100
AcDbEntity
  8
0
100
AcDbBlockEnd
  0
BLOCK
  5
1C
100
AcDbEntity
  8
0
100
AcDbBlockBegin
  2
*Paper_Space
 70
0
 10
0.0
 20
0.0
 30
0.0
  3
*Paper_Space
  1

  0
ENDBLK
  5
1D
100
AcDbEntity
  8
0
100
AcDbBlockEnd
  0
ENDSEC
  0
SECTION
  2
ENTITIES
  0
MTEXT
  5
225
100
AcDbEntity
  8
0
100
AcDbMText
 62
7
  6
CONTINUOUS
  7
STANDARD
 71
1
 72
1
 10
15.9560215477
 20
0.9479130325
 30
0.0
 11
1.0
 21
0.0
 31
0.0
 44
0.9
  1
SCALE: 1:2.000
 40
0.3
 41
3.36
  0
LINE
  5
226
100
AcDbEntity
  8
0
100
AcDbLine
 62
7
  6
CONTINUOUS
 10
0.0
 20
0.0
 11
0.0
 21
17.0
  0
LINE
  5
227
100
AcDbEntity
  8
0
100
AcDbLine
 62
7
  6
CONTINUOUS
 10
0.0
 20
0.0
 11
22.0
 21
0.0
  0
LINE
  5
228
100
AcDbEntity
  8
0
100
AcDbLine
 62
7
  6
CONTINUOUS
 10
0.0
 20
17.0
 11
22.0
 21
17.0
  0
LINE
  5
229
100
AcDbEntity
  8
0
100
AcDbLine
 62
7
  6
CONTINUOUS
 10
22.0
 20
0.0
 11
22.0
 21
17.0
  0
LINE
  5
22A
100
AcDbEntity
  8
LAYER_FEATURE
100
AcDbLine
 62
7
  6
CONTINUOUS
 10
5.9991672762
 20
6.4411198968
 11
5.9880045422
 21
6.4299571628
  0
LINE
  5
22B
100
AcDbEntity
  8
LAYER_FEATURE
100
AcDbLine
 62
7
  6
CONTINUOUS
 10
7.0513672762
 20
5.3889198968
 11
7.0402045422
 21
5.3777571628
  0
LINE
  5
22C
100
AcDbEntity
  8
LAYER_FEATURE
100
AcDbLine
 62
7
  6
CONTINUOUS
 10
6.2615672762
 20
6.4411198968
 11
6.2727300102
 21
6.4299571628
  0
LINE
  5
22D
100
AcDbEntity
  8
LAYER_FEATURE
100
AcDbLine
 62
7
  6
CONTINUOUS
 10
7.0513672762
 20
5.6513198968
 11
7.0402045422
 21
5.6624826307
  0
LINE
  5
22E
100
AcDbEntity
  8
LAYER_FEATURE
100
AcDbLine
 62
7
  6
CONTINUOUS
 10
7.0513672762
 20
5.6513198968
 11
7.0513672762
 21
5.3889198968
  0
LINE
  5
22F
100
AcDbEntity
  8
LAYER_FEATURE
100
AcDbLine
 62
7
  6
CONTINUOUS
 10
5.9991672762
 20
6.4411198968
 11
6.2615672762
 21
6.4411198968
  0
LINE
  5
230
100
AcDbEntity
  8
LAYER_FEATURE
100
AcDbLine
 62
7
  6
CONTINUOUS
 10
4.6728720839
 20
12.3790477814
 11
4.6728720839
 21
12.4590477814
  0
LINE
  5
231
100
AcDbEntity
  8
LAYER_FEATURE
100
AcDbLine
 62
7
  6
CONTINUOUS
 10
4.6728720839
 20
13.3530477814
 11
4.6728720839
 21
13.4330477814
  0
LINE
  5
232
100
AcDbEntity
  8
02___PRT_ALL_AXES
100
AcDbLine
 62
7
  6
CONTINUOUS
 10
4.8228720839
 20
12.5059049161
 11
4.8228720839
 21
13.3061906466
  0
LINE
  5
233
100
AcDbEntity
  8
LAYER_FEATURE
100
AcDbLine
 62
7
  6
CONTINUOUS
 10
4.8231655946
 20
12.5059049161
 11
4.8231655946
 21
13.3061906466
  0
LINE
  5
234
100
AcDbEntity
  8
LAYER_FEATURE
100
AcDbLine
 62
7
  6
CONTINUOUS
 10
4.8394369797
 20
13.3061906466
 11
4.8394369797
 21
12.5059049161
  0
LINE
  5
235
100
AcDbEntity
  8
LAYER_FEATURE
100
AcDbLine
 62
7
  6
CONTINUOUS
 10
4.8493833575
 20
12.5059049161
 11
4.8493833575
 21
13.3061906466
  0
LINE
  5
236
100
AcDbEntity
  8
LAYER_FEATURE
100
AcDbLine
 62
7
  6
CONTINUOUS
 10
4.8976434103
 20
13.3061906466
 11
4.8976434103
 21
12.5059049161
  0
LINE
  5
237
100
AcDbEntity
  8
LAYER_FEATURE
100
AcDbLine
 62
7
  6
CONTINUOUS
 10
4.917197454
 20
12.5059049161
 11
4.917197454
 21
13.3061906466
  0
LINE
  5
238
100
AcDbEntity
  8
LAYER_FEATURE
100
AcDbLine
 62
7
  6
CONTINUOUS
 10
4.9958027363
 20
13.3061906466
 11
4.9958027363
 21
12.5059049161
  0
LINE
  5
239
100
AcDbEntity
  8
LAYER_FEATURE
100
AcDbLine
 62
7
  6
CONTINUOUS
 10
5.0242985563
 20
12.5059049161
 11
5.0242985563
 21
13.3061906466
  0
LINE
  5
23A
100
AcDbEntity
  8
LAYER_FEATURE
100
AcDbLine
 62
7
  6
CONTINUOUS
 10
5.1305722595
 20
13.3061906466
 11
5.1305722595
 21
12.5059049161
  0
LINE
  5
23B
100
AcDbEntity
  8
02___PRT_ALL_AXES
100
AcDbLine
 62
7
  6
CONTINUOUS
 10
5.1498720839
 20
11.7670477814
 11
5.1498720839
 21
12.3790477814
  0
LINE
  5
23C
100
AcDbEntity
  8
LAYER_FEATURE
100
AcDbLine
 62
7
  6
CONTINUOUS
 10
5.1670394649
 20
12.5059049161
 11
5.1670394649
 21
13.3061906466
  0
LINE
  5
23D
100
AcDbEntity
  8
LAYER_CUT_FEAT
100
AcDbLine
 62
7
  6
CONTINUOUS
 10
5.296865107
 20
13.3060820594
 11
5.296865107
 21
12.5060135033
  0
LINE
  5
23E
100
AcDbEntity
  8
LAYER_FEATURE
100
AcDbLine
 62
7
  6
CONTINUOUS
 10
5.2973625655
 20
13.3061906466
 11
5.2973625655
 21
12.5059049161
  0
LINE
  5
23F
100
AcDbEntity
  8
02___PRT_ALL_AXES
100
AcDbLine
 62
7
  6
CONTINUOUS
 10
5.1498720839
 20
11.7670477814
 11
6.9918720839
 21
11.7670477814
  0
LINE
  5
240
100
AcDbEntity
  8
LAYER_FEATURE
100
AcDbLine
 62
7
  6
CONTINUOUS
 10
5.3405593093
 20
12.5059049161
 11
5.3405593093
 21
13.3061906466
  0
LINE
  5
241
100
AcDbEntity
  8
LAYER_CUT_FEAT
100
AcDbLine
 62
7
  6
CONTINUOUS
 10
5.4887173113
 20
13.3060477814
 11
5.4887173113
 21
12.5060477814
  0
LINE
  5
242
100
AcDbEntity
  8
LAYER_FEATURE
100
AcDbLine
 62
7
  6
CONTINUOUS
 10
5.4904938104
 20
13.3061906466
 11
5.4904938104
 21
12.5059049161
  0
LINE
  5
243
100
AcDbEntity
  8
LAYER_FEATURE
100
AcDbLine
 62
7
  6
CONTINUOUS
 10
5.5389490793
 20
12.5059049161
 11
5.5389490793
 21
13.3061906466
  0
LINE
  5
244
100
AcDbEntity
  8
LAYER_CUT_FEAT
100
AcDbLine
 62
7
  6
CONTINUOUS
 10
6.0235293618
 20
11.9910477814
 11
6.1182148059
 21
11.9910477814
  0
LINE
  5
245
100
AcDbEntity
  8
LAYER_CUT_FEAT
100
AcDbLine
 62
7
  6
CONTINUOUS
 10
6.1182148059
 20
12.1550477814
 11
6.0235293618
 21
12.1550477814
  0
LINE
  5
246
100
AcDbEntity
  8
LAYER_CUT_FEAT
100
AcDbLine
 62
7
  6
CONTINUOUS
 10
5.6995904284
 20
13.3060477814
 11
5.6995904284
 21
12.5060477814
  0
LINE
  5
247
100
AcDbEntity
  8
LAYER_FEATURE
100
AcDbLine
 62
7
  6
CONTINUOUS
 10
5.7033891413
 20
13.3061906466
 11
5.7033891413
 21
12.5059049161
  0
LINE
  5
248
100
AcDbEntity
  8
LAYER_FEATURE
100
AcDbLine
 62
7
  6
CONTINUOUS
 10
5.7554528493
 20
12.5059049161
 11
5.7554528493
 21
13.3061906466
  0
LINE
  5
249
100
AcDbEntity
  8
LAYER_FEATURE
100
AcDbLine
 62
7
  6
CONTINUOUS
 10
4.6728720839
 20
12.4590477814
 11
4.7738350723
 21
12.4961201287
  0
LINE
  5
24A
100
AcDbEntity
  8
LAYER_CUT_FEAT
100
AcDbLine
 62
7
  6
CONTINUOUS
 10
5.9761866397
 20
12.0730477814
 11
6.0235293618
 21
11.9910477814
  0
LINE
  5
24B
100
AcDbEntity
  8
LAYER_FEATURE
100
AcDbLine
 62
7
  6
CONTINUOUS
 10
7.3679090954
 20
13.3159754341
 11
7.4688720839
 21
13.3530477814
  0
LINE
  5
24C
100
AcDbEntity
  8
LAYER_FEATURE
100
AcDbLine
 62
7
  6
CONTINUOUS
 10
4.6728720839
 20
12.3790477814
 11
7.4688720839
 21
12.3790477814
  0
LINE
  5
24D
100
AcDbEntity
  8
LAYER_FEATURE
100
AcDbLine
 62
7
  6
CONTINUOUS
 10
5.928798663
 20
13.3061906466
 11
5.928798663
 21
12.5059049161
  0
LINE
  5
24E
100
AcDbEntity
  8
LAYER_FEATURE
100
AcDbLine
 62
7
  6
CONTINUOUS
 10
4.6728720839
 20
12.4590477814
 11
7.4688720839
 21
12.4590477814
  0
LINE
  5
24F
100
AcDbEntity
  8
LAYER_FEATURE
100
AcDbLine
 62
7
  6
CONTINUOUS
 10
7.3188720839
 20
12.5059049161
 11
7.3185785731
 21
12.5059049161
  0
LINE
  5
250
100
AcDbEntity
  8
LAYER_FEATURE
100
AcDbLine
 62
7
  6
CONTINUOUS
 10
7.302307188
 20
12.5059049161
 11
7.2923608102
 21
12.5059049161
  0
LINE
  5
251
100
AcDbEntity
  8
LAYER_FEATURE
100
AcDbLine
 62
7
  6
CONTINUOUS
 10
7.2441007574
 20
12.5059049161
 11
7.2245467137
 21
12.5059049161
  0
LINE
  5
252
100
AcDbEntity
  8
LAYER_FEATURE
100
AcDbLine
 62
7
  6
CONTINUOUS
 10
7.1459414314
 20
12.5059049161
 11
7.1174456114
 21
12.5059049161
  0
LINE
  5
253
100
AcDbEntity
  8
LAYER_FEATURE
100
AcDbLine
 62
7
  6
CONTINUOUS
 10
7.0111719082
 20
12.5059049161
 11
6.9747047028
 21
12.5059049161
  0
LINE
  5
254
100
AcDbEntity
  8
LAYER_FEATURE
100
AcDbLine
 62
7
  6
CONTINUOUS
 10
6.8443816023
 20
12.5059049161
 11
6.8011848584
 21
12.5059049161
  0
LINE
  5
255
100
AcDbEntity
  8
LAYER_FEATURE
100
AcDbLine
 62
7
  6
CONTINUOUS
 10
6.6512503574
 20
12.5059049161
 11
6.6027950884
 21
12.5059049161
  0
LINE
  5
256
100
AcDbEntity
  8
LAYER_FEATURE
100
AcDbLine
 62
7
  6
CONTINUOUS
 10
6.4383550265
 20
12.5059049161
 11
6.3862913184
 21
12.5059049161
  0
LINE
  5
257
100
AcDbEntity
  8
LAYER_FEATURE
100
AcDbLine
 62
7
  6
CONTINUOUS
 10
6.2129455047
 20
12.5059049161
 11
6.1590463247
 21
12.5059049161
  0
LINE
  5
258
100
AcDbEntity
  8
LAYER_FEATURE
100
AcDbLine
 62
7
  6
CONTINUOUS
 10
5.982697843
 20
12.5059049161
 11
5.928798663
 21
12.5059049161
  0
LINE
  5
259
100
AcDbEntity
  8
LAYER_FEATURE
100
AcDbLine
 62
7
  6
CONTINUOUS
 10
5.7554528493
 20
12.5059049161
 11
5.7033891413
 21
12.5059049161
  0
LINE
  5
25A
100
AcDbEntity
  8
LAYER_FEATURE
100
AcDbLine
 62
7
  6
CONTINUOUS
 10
5.5389490793
 20
12.5059049161
 11
5.4904938104
 21
12.5059049161
  0
LINE
  5
25B
100
AcDbEntity
  8
LAYER_FEATURE
100
AcDbLine
 62
7
  6
CONTINUOUS
 10
5.3405593093
 20
12.5059049161
 11
5.2973625655
 21
12.5059049161
  0
LINE
  5
25C
100
AcDbEntity
  8
LAYER_FEATURE
100
AcDbLine
 62
7
  6
CONTINUOUS
 10
5.1670394649
 20
12.5059049161
 11
5.1305722595
 21
12.5059049161
  0
LINE
  5
25D
100
AcDbEntity
  8
LAYER_FEATURE
100
AcDbLine
 62
7
  6
CONTINUOUS
 10
5.0242985563
 20
12.5059049161
 11
4.9958027363
 21
12.5059049161
  0
LINE
  5
25E
100
AcDbEntity
  8
LAYER_FEATURE
100
AcDbLine
 62
7
  6
CONTINUOUS
 10
4.917197454
 20
12.5059049161
 11
4.8976434103
 21
12.5059049161
  0
LINE
  5
25F
100
AcDbEntity
  8
LAYER_FEATURE
100
AcDbLine
 62
7
  6
CONTINUOUS
 10
4.8493833575
 20
12.5059049161
 11
4.8394369797
 21
12.5059049161
  0
LINE
  5
260
100
AcDbEntity
  8
LAYER_FEATURE
100
AcDbLine
 62
7
  6
CONTINUOUS
 10
4.8231655946
 20
12.5059049161
 11
4.8228720839
 21
12.5059049161
  0
LINE
  5
261
100
AcDbEntity
  8
LAYER_FEATURE
100
AcDbLine
 62
7
  6
CONTINUOUS
 10
7.3116444018
 20
12.5060477814
 11
7.302307224
 21
12.5060477814
  0
LINE
  5
262
100
AcDbEntity
  8
LAYER_FEATURE
100
AcDbLine
 62
7
  6
CONTINUOUS
 10
7.2845462057
 20
12.5060477814
 11
7.2441007574
 21
12.5060477814
  0
LINE
  5
263
100
AcDbEntity
  8
LAYER_FEATURE
100
AcDbLine
 62
7
  6
CONTINUOUS
 10
7.2161176512
 20
12.5060477814
 11
7.1459414314
 21
12.5060477814
  0
LINE
  5
264
100
AcDbEntity
  8
LAYER_FEATURE
100
AcDbLine
 62
7
  6
CONTINUOUS
 10
7.1086892976
 20
12.5060477814
 11
7.0111770553
 21
12.5060477814
  0
LINE
  5
265
100
AcDbEntity
  8
LAYER_FEATURE
100
AcDbLine
 62
7
  6
CONTINUOUS
 10
6.9659191457
 20
12.5060477814
 11
6.8448790607
 21
12.5060477814
  0
LINE
  5
266
100
AcDbEntity
  8
LAYER_FEATURE
100
AcDbLine
 62
7
  6
CONTINUOUS
 10
6.7926694153
 20
12.5060477814
 11
6.6530242054
 21
12.5060477814
  0
LINE
  5
267
100
AcDbEntity
  8
LAYER_FEATURE
100
AcDbLine
 62
7
  6
CONTINUOUS
 10
6.59483958
 20
12.5060477814
 11
6.4416843413
 21
12.5060477814
  0
LINE
  5
268
100
AcDbEntity
  8
LAYER_FEATURE
100
AcDbLine
 62
7
  6
CONTINUOUS
 10
6.3791667969
 20
12.5060477814
 11
6.2177169017
 21
12.5060477814
  0
LINE
  5
269
100
AcDbEntity
  8
LAYER_FEATURE
100
AcDbLine
 62
7
  6
CONTINUOUS
 10
5.9240272731
 20
12.5060477814
 11
5.762577397
 21
12.5060477814
  0
LINE
  5
26A
100
AcDbEntity
  8
LAYER_FEATURE
100
AcDbLine
 62
7
  6
CONTINUOUS
 10
5.7000598244
 20
12.5060477814
 11
5.5469045491
 21
12.5060477814
  0
LINE
  5
26B
100
AcDbEntity
  8
LAYER_FEATURE
100
AcDbLine
 62
7
  6
CONTINUOUS
 10
5.4887199612
 20
12.5060477814
 11
5.3490747953
 21
12.5060477814
  0
LINE
  5
26C
100
AcDbEntity
  8
LAYER_FEATURE
100
AcDbLine
 62
7
  6
CONTINUOUS
 10
5.296865107
 20
12.5060477814
 11
5.1758249727
 21
12.5060477814
  0
LINE
  5
26D
100
AcDbEntity
  8
LAYER_FEATURE
100
AcDbLine
 62
7
  6
CONTINUOUS
 10
5.1305671124
 20
12.5060477814
 11
5.0330549174
 21
12.5060477814
  0
LINE
  5
26E
100
AcDbEntity
  8
LAYER_FEATURE
100
AcDbLine
 62
7
  6
CONTINUOUS
 10
4.9958027363
 20
12.5060477814
 11
4.9256264682
 21
12.5060477814
  0
LINE
  5
26F
100
AcDbEntity
  8
LAYER_FEATURE
100
AcDbLine
 62
7
  6
CONTINUOUS
 10
4.8976434103
 20
12.5060477814
 11
4.8571979987
 21
12.5060477814
  0
LINE
  5
270
100
AcDbEntity
  8
LAYER_FEATURE
100
AcDbLine
 62
7
  6
CONTINUOUS
 10
4.8394369797
 20
12.5060477814
 11
4.83009973
 21
12.5060477814
  0
LINE
  5
271
100
AcDbEntity
  8
LAYER_FEATURE
100
AcDbLine
 62
7
  6
CONTINUOUS
 10
5.9887488665
 20
12.5060477814
 11
6.1529953012
 21
12.5060477814
  0
LINE
  5
272
100
AcDbEntity
  8
LAYER_CUT_FEAT
100
AcDbLine
 62
7
  6
CONTINUOUS
 10
6.165557528
 20
12.0730477814
 11
6.1182148059
 21
12.1550477814
  0
LINE
  5
273
100
AcDbEntity
  8
LAYER_FEATURE
100
AcDbLine
 62
7
  6
CONTINUOUS
 10
5.982697843
 20
12.5059049161
 11
5.982697843
 21
13.3061906466
  0
LINE
  5
274
100
AcDbEntity
  8
LAYER_FEATURE
100
AcDbLine
 62
7
  6
CONTINUOUS
 10
6.1590463247
 20
13.3061906466
 11
6.1590463247
 21
12.5059049161
  0
LINE
  5
275
100
AcDbEntity
  8
LAYER_FEATURE
100
AcDbLine
 62
7
  6
CONTINUOUS
 10
6.2129455047
 20
12.5059049161
 11
6.2129455047
 21
13.3061906466
  0
LINE
  5
276
100
AcDbEntity
  8
LAYER_CUT_FEAT
100
AcDbLine
 62
7
  6
CONTINUOUS
 10
6.0235293618
 20
12.1550477814
 11
5.9761866397
 21
12.0730477814
  0
LINE
  5
277
100
AcDbEntity
  8
LAYER_FEATURE
100
AcDbLine
 62
7
  6
CONTINUOUS
 10
4.7738350723
 20
13.3159754341
 11
4.6728720839
 21
13.3530477814
  0
LINE
  5
278
100
AcDbEntity
  8
LAYER_FEATURE
100
AcDbLine
 62
7
  6
CONTINUOUS
 10
6.3862913184
 20
13.3061906466
 11
6.3862913184
 21
12.5059049161
  0
LINE
  5
279
100
AcDbEntity
  8
LAYER_FEATURE
100
AcDbLine
 62
7
  6
CONTINUOUS
 10
6.4383550265
 20
12.5059049161
 11
6.4383550265
 21
13.3061906466
  0
LINE
  5
27A
100
AcDbEntity
  8
LAYER_CUT_FEAT
100
AcDbLine
 62
7
  6
CONTINUOUS
 10
6.4421537393
 20
13.3060477814
 11
6.4421537393
 21
12.5060477814
  0
LINE
  5
27B
100
AcDbEntity
  8
LAYER_CUT_FEAT
100
AcDbLine
 62
7
  6
CONTINUOUS
 10
6.1182148059
 20
11.9910477814
 11
6.165557528
 21
12.0730477814
  0
LINE
  5
27C
100
AcDbEntity
  8
LAYER_FEATURE
100
AcDbLine
 62
7
  6
CONTINUOUS
 10
7.4688720839
 20
12.4590477814
 11
7.3679090954
 21
12.4961201287
  0
LINE
  5
27D
100
AcDbEntity
  8
LAYER_FEATURE
100
AcDbLine
 62
7
  6
CONTINUOUS
 10
6.987274527
 20
12.2088453382
 11
6.9918720839
 21
12.2042477814
  0
LINE
  5
27E
100
AcDbEntity
  8
LAYER_FEATURE
100
AcDbLine
 62
7
  6
CONTINUOUS
 10
6.6027950884
 20
13.3061906466
 11
6.6027950884
 21
12.5059049161
  0
LINE
  5
27F
100
AcDbEntity
  8
LAYER_FEATURE
100
AcDbLine
 62
7
  6
CONTINUOUS
 10
6.6512503574
 20
12.5059049161
 11
6.6512503574
 21
13.3061906466
  0
LINE
  5
280
100
AcDbEntity
  8
LAYER_CUT_FEAT
100
AcDbLine
 62
7
  6
CONTINUOUS
 10
6.6530268564
 20
13.3060477814
 11
6.6530268564
 21
12.5060477814
  0
LINE
  5
281
100
AcDbEntity
  8
LAYER_FEATURE
100
AcDbLine
 62
7
  6
CONTINUOUS
 10
6.8011848584
 20
13.3061906466
 11
6.8011848584
 21
12.5059049161
  0
LINE
  5
282
100
AcDbEntity
  8
LAYER_FEATURE
100
AcDbLine
 62
7
  6
CONTINUOUS
 10
6.8443816023
 20
12.5059049161
 11
6.8443816023
 21
13.3061906466
  0
LINE
  5
283
100
AcDbEntity
  8
LAYER_FEATURE
100
AcDbLine
 62
7
  6
CONTINUOUS
 10
7.3116444022
 20
13.3060477814
 11
7.302307224
 21
13.3060477814
  0
LINE
  5
284
100
AcDbEntity
  8
LAYER_FEATURE
100
AcDbLine
 62
7
  6
CONTINUOUS
 10
7.2845462052
 20
13.3060477814
 11
7.2441007574
 21
13.3060477814
  0
LINE
  5
285
100
AcDbEntity
  8
LAYER_FEATURE
100
AcDbLine
 62
7
  6
CONTINUOUS
 10
7.2161176514
 20
13.3060477814
 11
7.1459414314
 21
13.3060477814
  0
LINE
  5
286
100
AcDbEntity
  8
LAYER_FEATURE
100
AcDbLine
 62
7
  6
CONTINUOUS
 10
7.1086892974
 20
13.3060477814
 11
7.0111770553
 21
13.3060477814
  0
LINE
  5
287
100
AcDbEntity
  8
LAYER_FEATURE
100
AcDbLine
 62
7
  6
CONTINUOUS
 10
6.9659191457
 20
13.3060477814
 11
6.8448790607
 21
13.3060477814
  0
LINE
  5
288
100
AcDbEntity
  8
LAYER_FEATURE
100
AcDbLine
 62
7
  6
CONTINUOUS
 10
6.7926694153
 20
13.3060477814
 11
6.6530242054
 21
13.3060477814
  0
LINE
  5
289
100
AcDbEntity
  8
LAYER_FEATURE
100
AcDbLine
 62
7
  6
CONTINUOUS
 10
6.5948395799
 20
13.3060477814
 11
6.4416843413
 21
13.3060477814
  0
LINE
  5
28A
100
AcDbEntity
  8
LAYER_FEATURE
100
AcDbLine
 62
7
  6
CONTINUOUS
 10
6.379166797
 20
13.3060477814
 11
6.2177169017
 21
13.3060477814
  0
LINE
  5
28B
100
AcDbEntity
  8
LAYER_FEATURE
100
AcDbLine
 62
7
  6
CONTINUOUS
 10
6.1529953012
 20
13.3060477814
 11
5.9887488668
 21
13.3060477814
  0
LINE
  5
28C
100
AcDbEntity
  8
LAYER_FEATURE
100
AcDbLine
 62
7
  6
CONTINUOUS
 10
5.9240272734
 20
13.3060477814
 11
5.762577397
 21
13.3060477814
  0
LINE
  5
28D
100
AcDbEntity
  8
LAYER_FEATURE
100
AcDbLine
 62
7
  6
CONTINUOUS
 10
5.7000598243
 20
13.3060477814
 11
5.5469045491
 21
13.3060477814
  0
LINE
  5
28E
100
AcDbEntity
  8
LAYER_FEATURE
100
AcDbLine
 62
7
  6
CONTINUOUS
 10
5.4887199611
 20
13.3060477814
 11
5.3490747953
 21
13.3060477814
  0
LINE
  5
28F
100
AcDbEntity
  8
LAYER_FEATURE
100
AcDbLine
 62
7
  6
CONTINUOUS
 10
5.296865107
 20
13.3060477814
 11
5.1758249727
 21
13.3060477814
  0
LINE
  5
290
100
AcDbEntity
  8
LAYER_FEATURE
100
AcDbLine
 62
7
  6
CONTINUOUS
 10
5.1305671124
 20
13.3060477814
 11
5.0330549174
 21
13.3060477814
  0
LINE
  5
291
100
AcDbEntity
  8
LAYER_FEATURE
100
AcDbLine
 62
7
  6
CONTINUOUS
 10
4.9958027363
 20
13.3060477814
 11
4.9256264683
 21
13.3060477814
  0
LINE
  5
292
100
AcDbEntity
  8
LAYER_FEATURE
100
AcDbLine
 62
7
  6
CONTINUOUS
 10
4.8976434103
 20
13.3060477814
 11
4.8571979987
 21
13.3060477814
  0
LINE
  5
293
100
AcDbEntity
  8
LAYER_FEATURE
100
AcDbLine
 62
7
  6
CONTINUOUS
 10
4.8394369797
 20
13.3060477814
 11
4.83009973
 21
13.3060477814
  0
LINE
  5
294
100
AcDbEntity
  8
LAYER_FEATURE
100
AcDbLine
 62
7
  6
CONTINUOUS
 10
4.8228720839
 20
13.3061906466
 11
4.8231655946
 21
13.3061906466
  0
LINE
  5
295
100
AcDbEntity
  8
LAYER_FEATURE
100
AcDbLine
 62
7
  6
CONTINUOUS
 10
4.8394369797
 20
13.3061906466
 11
4.8493833575
 21
13.3061906466
  0
LINE
  5
296
100
AcDbEntity
  8
LAYER_FEATURE
100
AcDbLine
 62
7
  6
CONTINUOUS
 10
4.8976434103
 20
13.3061906466
 11
4.917197454
 21
13.3061906466
  0
LINE
  5
297
100
AcDbEntity
  8
LAYER_FEATURE
100
AcDbLine
 62
7
  6
CONTINUOUS
 10
4.9958027363
 20
13.3061906466
 11
5.0242985563
 21
13.3061906466
  0
LINE
  5
298
100
AcDbEntity
  8
LAYER_FEATURE
100
AcDbLine
 62
7
  6
CONTINUOUS
 10
5.1305722595
 20
13.3061906466
 11
5.1670394649
 21
13.3061906466
  0
LINE
  5
299
100
AcDbEntity
  8
LAYER_FEATURE
100
AcDbLine
 62
7
  6
CONTINUOUS
 10
5.2973625655
 20
13.3061906466
 11
5.3405593093
 21
13.3061906466
  0
LINE
  5
29A
100
AcDbEntity
  8
LAYER_FEATURE
100
AcDbLine
 62
7
  6
CONTINUOUS
 10
5.4904938104
 20
13.3061906466
 11
5.5389490793
 21
13.3061906466
  0
LINE
  5
29B
100
AcDbEntity
  8
LAYER_FEATURE
100
AcDbLine
 62
7
  6
CONTINUOUS
 10
5.7033891413
 20
13.3061906466
 11
5.7554528493
 21
13.3061906466
  0
LINE
  5
29C
100
AcDbEntity
  8
LAYER_FEATURE
100
AcDbLine
 62
7
  6
CONTINUOUS
 10
5.928798663
 20
13.3061906466
 11
5.982697843
 21
13.3061906466
  0
LINE
  5
29D
100
AcDbEntity
  8
LAYER_FEATURE
100
AcDbLine
 62
7
  6
CONTINUOUS
 10
6.1590463247
 20
13.3061906466
 11
6.2129455047
 21
13.3061906466
  0
LINE
  5
29E
100
AcDbEntity
  8
LAYER_FEATURE
100
AcDbLine
 62
7
  6
CONTINUOUS
 10
6.3862913184
 20
13.3061906466
 11
6.4383550265
 21
13.3061906466
  0
LINE
  5
29F
100
AcDbEntity
  8
LAYER_FEATURE
100
AcDbLine
 62
7
  6
CONTINUOUS
 10
6.6027950884
 20
13.3061906466
 11
6.6512503574
 21
13.3061906466
  0
LINE
  5
2A0
100
AcDbEntity
  8
LAYER_FEATURE
100
AcDbLine
 62
7
  6
CONTINUOUS
 10
6.8011848584
 20
13.3061906466
 11
6.8443816023
 21
13.3061906466
  0
LINE
  5
2A1
100
AcDbEntity
  8
LAYER_FEATURE
100
AcDbLine
 62
7
  6
CONTINUOUS
 10
6.9747047028
 20
13.3061906466
 11
7.0111719082
 21
13.3061906466
  0
LINE
  5
2A2
100
AcDbEntity
  8
LAYER_FEATURE
100
AcDbLine
 62
7
  6
CONTINUOUS
 10
7.1174456114
 20
13.3061906466
 11
7.1459414314
 21
13.3061906466
  0
LINE
  5
2A3
100
AcDbEntity
  8
LAYER_FEATURE
100
AcDbLine
 62
7
  6
CONTINUOUS
 10
7.2245467137
 20
13.3061906466
 11
7.2441007574
 21
13.3061906466
  0
LINE
  5
2A4
100
AcDbEntity
  8
LAYER_FEATURE
100
AcDbLine
 62
7
  6
CONTINUOUS
 10
7.2923608102
 20
13.3061906466
 11
7.302307188
 21
13.3061906466
  0
LINE
  5
2A5
100
AcDbEntity
  8
LAYER_FEATURE
100
AcDbLine
 62
7
  6
CONTINUOUS
 10
7.3185785731
 20
13.3061906466
 11
7.3188720839
 21
13.3061906466
  0
LINE
  5
2A6
100
AcDbEntity
  8
LAYER_FEATURE
100
AcDbLine
 62
7
  6
CONTINUOUS
 10
4.6728720839
 20
13.3530477814
 11
7.4688720839
 21
13.3530477814
  0
LINE
  5
2A7
100
AcDbEntity
  8
LAYER_CUT_FEAT
100
AcDbLine
 62
7
  6
CONTINUOUS
 10
6.8448790607
 20
13.3060820594
 11
6.8448790607
 21
12.5060135033
  0
LINE
  5
2A8
100
AcDbEntity
  8
LAYER_FEATURE
100
AcDbLine
 62
7
  6
CONTINUOUS
 10
4.6728720839
 20
13.4330477814
 11
7.4688720839
 21
13.4330477814
  0
LINE
  5
2A9
100
AcDbEntity
  8
LAYER_FEATURE
100
AcDbLine
 62
7
  6
CONTINUOUS
 10
6.9747047028
 20
13.3061906466
 11
6.9747047028
 21
12.5059049161
  0
LINE
  5
2AA
100
AcDbEntity
  8
02___PRT_ALL_AXES
100
AcDbLine
 62
7
  6
CONTINUOUS
 10
6.9918720839
 20
11.7670477814
 11
6.9918720839
 21
11.9090477814
  0
LINE
  5
2AB
100
AcDbEntity
  8
LAYER_FEATURE
100
AcDbLine
 62
7
  6
CONTINUOUS
 10
6.9918720839
 20
11.9418477814
 11
6.9918720839
 21
12.2042477814
  0
LINE
  5
2AC
100
AcDbEntity
  8
02___PRT_ALL_AXES
100
AcDbLine
 62
7
  6
CONTINUOUS
 10
6.9918720839
 20
12.2370477814
 11
6.9918720839
 21
12.3790477814
  0
LINE
  5
2AD
100
AcDbEntity
  8
LAYER_FEATURE
100
AcDbLine
 62
7
  6
CONTINUOUS
 10
7.0111719082
 20
12.5059049161
 11
7.0111719082
 21
13.3061906466
  0
LINE
  5
2AE
100
AcDbEntity
  8
LAYER_FEATURE
100
AcDbLine
 62
7
  6
CONTINUOUS
 10
7.1174456114
 20
13.3061906466
 11
7.1174456114
 21
12.5059049161
  0
LINE
  5
2AF
100
AcDbEntity
  8
LAYER_FEATURE
100
AcDbLine
 62
7
  6
CONTINUOUS
 10
7.1459414314
 20
12.5059049161
 11
7.1459414314
 21
13.3061906466
  0
LINE
  5
2B0
100
AcDbEntity
  8
LAYER_FEATURE
100
AcDbLine
 62
7
  6
CONTINUOUS
 10
7.2245467137
 20
13.3061906466
 11
7.2245467137
 21
12.5059049161
  0
LINE
  5
2B1
100
AcDbEntity
  8
LAYER_FEATURE
100
AcDbLine
 62
7
  6
CONTINUOUS
 10
7.2441007574
 20
12.5059049161
 11
7.2441007574
 21
13.3061906466
  0
LINE
  5
2B2
100
AcDbEntity
  8
LAYER_FEATURE
100
AcDbLine
 62
7
  6
CONTINUOUS
 10
6.9872745273
 20
11.9372502248
 11
6.9918720839
 21
11.9418477814
  0
LINE
  5
2B3
100
AcDbEntity
  8
LAYER_FEATURE
100
AcDbLine
 62
7
  6
CONTINUOUS
 10
7.2923608102
 20
13.3061906466
 11
7.2923608102
 21
12.5059049161
  0
LINE
  5
2B4
100
AcDbEntity
  8
LAYER_FEATURE
100
AcDbLine
 62
7
  6
CONTINUOUS
 10
7.302307188
 20
12.5059049161
 11
7.302307188
 21
13.3061906466
  0
LINE
  5
2B5
100
AcDbEntity
  8
LAYER_FEATURE
100
AcDbLine
 62
7
  6
CONTINUOUS
 10
7.3185785731
 20
13.3061906466
 11
7.3185785731
 21
12.5059049161
  0
LINE
  5
2B6
100
AcDbEntity
  8
02___PRT_ALL_AXES
100
AcDbLine
 62
7
  6
CONTINUOUS
 10
7.3188720839
 20
12.5059049161
 11
7.3188720839
 21
13.3061906466
  0
LINE
  5
2B7
100
AcDbEntity
  8
LAYER_FEATURE
100
AcDbLine
 62
7
  6
CONTINUOUS
 10
7.4688720839
 20
12.3790477814
 11
7.4688720839
 21
12.4590477814
  0
LINE
  5
2B8
100
AcDbEntity
  8
LAYER_FEATURE
100
AcDbLine
 62
7
  6
CONTINUOUS
 10
7.4688720839
 20
13.3530477814
 11
7.4688720839
 21
13.4330477814
  0
LINE
  5
2B9
100
AcDbEntity
  8
LAYER_FEATURE
100
AcDbLine
 62
7
  6
CONTINUOUS
 10
16.3933552569
 20
4.0626247044
 11
16.3133552569
 21
4.0626247044
  0
LINE
  5
2BA
100
AcDbEntity
  8
LAYER_FEATURE
100
AcDbLine
 62
7
  6
CONTINUOUS
 10
15.4193552569
 20
4.0626247044
 11
15.3393552569
 21
4.0626247044
  0
LINE
  5
2BB
100
AcDbEntity
  8
LAYER_FEATURE
100
AcDbLine
 62
7
  6
CONTINUOUS
 10
15.4662123917
 20
4.2157434638
 11
16.2664981222
 21
4.2157434638
  0
LINE
  5
2BC
100
AcDbEntity
  8
LAYER_FEATURE
100
AcDbLine
 62
7
  6
CONTINUOUS
 10
16.2664981222
 20
4.2207379584
 11
15.4662123917
 21
4.2207379584
  0
LINE
  5
2BD
100
AcDbEntity
  8
LAYER_FEATURE
100
AcDbLine
 62
7
  6
CONTINUOUS
 10
16.2664981222
 20
4.2531419069
 11
15.4662123917
 21
4.2531419069
  0
LINE
  5
2BE
100
AcDbEntity
  8
LAYER_FEATURE
100
AcDbLine
 62
7
  6
CONTINUOUS
 10
16.2664981222
 20
4.267955309
 11
15.4662123917
 21
4.267955309
  0
LINE
  5
2BF
100
AcDbEntity
  8
LAYER_FEATURE
100
AcDbLine
 62
7
  6
CONTINUOUS
 10
14.8975553926
 20
6.3770248401
 11
14.9021552569
 21
6.3816247044
  0
LINE
  5
2C0
100
AcDbEntity
  8
LAYER_FEATURE
100
AcDbLine
 62
7
  6
CONTINUOUS
 10
15.4662123917
 20
4.3316597283
 11
16.2664981222
 21
4.3316597283
  0
LINE
  5
2C1
100
AcDbEntity
  8
LAYER_FEATURE
100
AcDbLine
 62
7
  6
CONTINUOUS
 10
16.2664981222
 20
4.3557875854
 11
15.4662123917
 21
4.3557875854
  0
LINE
  5
2C2
100
AcDbEntity
  8
LAYER_FEATURE
100
AcDbLine
 62
7
  6
CONTINUOUS
 10
15.4662123917
 20
4.4486230981
 11
16.2664981222
 21
4.4486230981
  0
LINE
  5
2C3
100
AcDbEntity
  8
LAYER_FEATURE
100
AcDbLine
 62
7
  6
CONTINUOUS
 10
16.2664981222
 20
4.4812437648
 11
15.4662123917
 21
4.4812437648
  0
LINE
  5
2C4
100
AcDbEntity
  8
02___PRT_ALL_AXES
100
AcDbLine
 62
7
  6
CONTINUOUS
 10
15.3393552569
 20
4.5396247044
 11
14.7273552569
 21
4.5396247044
  0
LINE
  5
2C5
100
AcDbEntity
  8
LAYER_CUT_FEAT
100
AcDbLine
 62
7
  6
CONTINUOUS
 10
16.26643169
 20
4.599897694
 11
15.4662788239
 21
4.599897694
  0
LINE
  5
2C6
100
AcDbEntity
  8
LAYER_FEATURE
100
AcDbLine
 62
7
  6
CONTINUOUS
 10
15.4662123917
 20
4.6000489687
 11
16.2664981222
 21
4.6000489687
  0
LINE
  5
2C7
100
AcDbEntity
  8
02___PRT_ALL_AXES
100
AcDbLine
 62
7
  6
CONTINUOUS
 10
14.7273552569
 20
6.3816247044
 11
14.7273552569
 21
4.5396247044
  0
LINE
  5
2C8
100
AcDbEntity
  8
LAYER_FEATURE
100
AcDbLine
 62
7
  6
CONTINUOUS
 10
16.2664981222
 20
4.6400515875
 11
15.4662123917
 21
4.6400515875
  0
LINE
  5
2C9
100
AcDbEntity
  8
LAYER_CUT_FEAT
100
AcDbLine
 62
7
  6
CONTINUOUS
 10
16.2663628191
 20
4.7797399689
 11
15.4663476948
 21
4.7797399689
  0
LINE
  5
2CA
100
AcDbEntity
  8
LAYER_FEATURE
100
AcDbLine
 62
7
  6
CONTINUOUS
 10
15.4662123917
 20
4.7807807139
 11
16.2664981222
 21
4.7807807139
  0
LINE
  5
2CB
100
AcDbEntity
  8
LAYER_CUT_FEAT
100
AcDbLine
 62
7
  6
CONTINUOUS
 10
14.9513552569
 20
5.5079674265
 11
14.9513552569
 21
5.4132819824
  0
LINE
  5
2CC
100
AcDbEntity
  8
LAYER_FEATURE
100
AcDbLine
 62
7
  6
CONTINUOUS
 10
16.2664981222
 20
4.8268030434
 11
15.4662123917
 21
4.8268030434
  0
LINE
  5
2CD
100
AcDbEntity
  8
LAYER_CUT_FEAT
100
AcDbLine
 62
7
  6
CONTINUOUS
 10
15.1153552569
 20
5.4132819824
 11
15.1153552569
 21
5.5079674265
  0
LINE
  5
2CE
100
AcDbEntity
  8
LAYER_CUT_FEAT
100
AcDbLine
 62
7
  6
CONTINUOUS
 10
16.2663552569
 20
4.9819652872
 11
15.4663552569
 21
4.9819652872
  0
LINE
  5
2CF
100
AcDbEntity
  8
LAYER_FEATURE
100
AcDbLine
 62
7
  6
CONTINUOUS
 10
15.4662123917
 20
4.9846637308
 11
16.2664981222
 21
4.9846637308
  0
LINE
  5
2D0
100
AcDbEntity
  8
LAYER_FEATURE
100
AcDbLine
 62
7
  6
CONTINUOUS
 10
16.2664981222
 20
5.0351385359
 11
15.4662123917
 21
5.0351385359
  0
LINE
  5
2D1
100
AcDbEntity
  8
LAYER_CUT_FEAT
100
AcDbLine
 62
7
  6
CONTINUOUS
 10
15.0333552569
 20
5.5553101486
 11
14.9513552569
 21
5.5079674265
  0
LINE
  5
2D2
100
AcDbEntity
  8
LAYER_CUT_FEAT
100
AcDbLine
 62
7
  6
CONTINUOUS
 10
14.9513552569
 20
5.4132819824
 11
15.0333552569
 21
5.3659392603
  0
LINE
  5
2D3
100
AcDbEntity
  8
LAYER_FEATURE
100
AcDbLine
 62
7
  6
CONTINUOUS
 10
15.3393552569
 20
6.8586247044
 11
15.3393552569
 21
4.0626247044
  0
LINE
  5
2D4
100
AcDbEntity
  8
LAYER_CUT_FEAT
100
AcDbLine
 62
7
  6
CONTINUOUS
 10
16.2663552569
 20
5.1996574792
 11
15.4663552569
 21
5.1996574792
  0
LINE
  5
2D5
100
AcDbEntity
  8
LAYER_FEATURE
100
AcDbLine
 62
7
  6
CONTINUOUS
 10
15.4662123917
 20
5.2047550278
 11
16.2664981222
 21
5.2047550278
  0
LINE
  5
2D6
100
AcDbEntity
  8
LAYER_FEATURE
100
AcDbLine
 62
7
  6
CONTINUOUS
 10
16.2664981222
 20
5.2579634495
 11
15.4662123917
 21
5.2579634495
  0
LINE
  5
2D7
100
AcDbEntity
  8
LAYER_FEATURE
100
AcDbLine
 62
7
  6
CONTINUOUS
 10
15.4193552569
 20
6.8586247044
 11
15.4193552569
 21
4.0626247044
  0
LINE
  5
2D8
100
AcDbEntity
  8
LAYER_FEATURE
100
AcDbLine
 62
7
  6
CONTINUOUS
 10
15.4662123917
 20
4.2157434638
 11
15.4662123917
 21
4.2207379584
  0
LINE
  5
2D9
100
AcDbEntity
  8
LAYER_FEATURE
100
AcDbLine
 62
7
  6
CONTINUOUS
 10
15.4662123917
 20
4.2531419069
 11
15.4662123917
 21
4.267955309
  0
LINE
  5
2DA
100
AcDbEntity
  8
LAYER_FEATURE
100
AcDbLine
 62
7
  6
CONTINUOUS
 10
15.4662123917
 20
4.3316597283
 11
15.4662123917
 21
4.3557875854
  0
LINE
  5
2DB
100
AcDbEntity
  8
LAYER_FEATURE
100
AcDbLine
 62
7
  6
CONTINUOUS
 10
15.4662123917
 20
4.4486230981
 11
15.4662123917
 21
4.4812437648
  0
LINE
  5
2DC
100
AcDbEntity
  8
LAYER_FEATURE
100
AcDbLine
 62
7
  6
CONTINUOUS
 10
15.4662123917
 20
4.6000489687
 11
15.4662123917
 21
4.6400515875
  0
LINE
  5
2DD
100
AcDbEntity
  8
LAYER_FEATURE
100
AcDbLine
 62
7
  6
CONTINUOUS
 10
15.4662123917
 20
4.7807807139
 11
15.4662123917
 21
4.8268030434
  0
LINE
  5
2DE
100
AcDbEntity
  8
LAYER_FEATURE
100
AcDbLine
 62
7
  6
CONTINUOUS
 10
15.4662123917
 20
4.9846637308
 11
15.4662123917
 21
5.0351385359
  0
LINE
  5
2DF
100
AcDbEntity
  8
LAYER_FEATURE
100
AcDbLine
 62
7
  6
CONTINUOUS
 10
15.4662123917
 20
5.2047550278
 11
15.4662123917
 21
5.2579634495
  0
LINE
  5
2E0
100
AcDbEntity
  8
LAYER_FEATURE
100
AcDbLine
 62
7
  6
CONTINUOUS
 10
15.4662123917
 20
5.4335596597
 11
15.4662123917
 21
5.4876897491
  0
LINE
  5
2E1
100
AcDbEntity
  8
LAYER_FEATURE
100
AcDbLine
 62
7
  6
CONTINUOUS
 10
15.4662123917
 20
5.6632859593
 11
15.4662123917
 21
5.7164943811
  0
LINE
  5
2E2
100
AcDbEntity
  8
LAYER_FEATURE
100
AcDbLine
 62
7
  6
CONTINUOUS
 10
15.4662123917
 20
5.886110873
 11
15.4662123917
 21
5.9365856781
  0
LINE
  5
2E3
100
AcDbEntity
  8
LAYER_FEATURE
100
AcDbLine
 62
7
  6
CONTINUOUS
 10
15.4662123917
 20
6.0944463654
 11
15.4662123917
 21
6.140468695
  0
LINE
  5
2E4
100
AcDbEntity
  8
LAYER_FEATURE
100
AcDbLine
 62
7
  6
CONTINUOUS
 10
15.4662123917
 20
6.2811978214
 11
15.4662123917
 21
6.3212004402
  0
LINE
  5
2E5
100
AcDbEntity
  8
LAYER_FEATURE
100
AcDbLine
 62
7
  6
CONTINUOUS
 10
15.4662123917
 20
6.4400056441
 11
15.4662123917
 21
6.4726263108
  0
LINE
  5
2E6
100
AcDbEntity
  8
LAYER_FEATURE
100
AcDbLine
 62
7
  6
CONTINUOUS
 10
15.4662123917
 20
6.5654618235
 11
15.4662123917
 21
6.5895896805
  0
LINE
  5
2E7
100
AcDbEntity
  8
LAYER_FEATURE
100
AcDbLine
 62
7
  6
CONTINUOUS
 10
15.4662123917
 20
6.6532940999
 11
15.4662123917
 21
6.668107502
  0
LINE
  5
2E8
100
AcDbEntity
  8
LAYER_FEATURE
100
AcDbLine
 62
7
  6
CONTINUOUS
 10
15.4662123917
 20
6.7005114505
 11
15.4662123917
 21
6.7055059451
  0
LINE
  5
2E9
100
AcDbEntity
  8
LAYER_FEATURE
100
AcDbLine
 62
7
  6
CONTINUOUS
 10
15.4663552569
 20
4.2281439117
 11
15.4663552569
 21
4.2531419069
  0
LINE
  5
2EA
100
AcDbEntity
  8
LAYER_FEATURE
100
AcDbLine
 62
7
  6
CONTINUOUS
 10
15.4663552569
 20
4.2761119625
 11
15.4663552569
 21
4.3316597283
  0
LINE
  5
2EB
100
AcDbEntity
  8
LAYER_FEATURE
100
AcDbLine
 62
7
  6
CONTINUOUS
 10
15.4663552569
 20
4.3644170727
 11
15.4663552569
 21
4.4486230981
  0
LINE
  5
2EC
100
AcDbEntity
  8
LAYER_FEATURE
100
AcDbLine
 62
7
  6
CONTINUOUS
 10
15.4663552569
 20
4.4900522911
 11
15.4663552569
 21
4.599897694
  0
LINE
  5
2ED
100
AcDbEntity
  8
LAYER_FEATURE
100
AcDbLine
 62
7
  6
CONTINUOUS
 10
15.4663552569
 20
4.6487391493
 11
15.4663552569
 21
4.7797399689
  0
LINE
  5
2EE
100
AcDbEntity
  8
LAYER_FEATURE
100
AcDbLine
 62
7
  6
CONTINUOUS
 10
15.4663552569
 20
4.8350738026
 11
15.4663552569
 21
4.9821012194
  0
LINE
  5
2EF
100
AcDbEntity
  8
LAYER_FEATURE
100
AcDbLine
 62
7
  6
CONTINUOUS
 10
15.4663552569
 20
5.0427108631
 11
15.4663552569
 21
5.2006873189
  0
LINE
  5
2F0
100
AcDbEntity
  8
LAYER_FEATURE
100
AcDbLine
 62
7
  6
CONTINUOUS
 10
15.4663552569
 20
5.2645794364
 11
15.4663552569
 21
5.4281252781
  0
LINE
  5
2F1
100
AcDbEntity
  8
LAYER_FEATURE
100
AcDbLine
 62
7
  6
CONTINUOUS
 10
15.4663552569
 20
5.4931241473
 11
15.4663552569
 21
5.656669959
  0
LINE
  5
2F2
100
AcDbEntity
  8
LAYER_FEATURE
100
AcDbLine
 62
7
  6
CONTINUOUS
 10
15.4663552569
 20
5.7205620808
 11
15.4663552569
 21
5.8785385648
  0
LINE
  5
2F3
100
AcDbEntity
  8
LAYER_FEATURE
100
AcDbLine
 62
7
  6
CONTINUOUS
 10
15.4663552569
 20
5.9391481924
 11
15.4663552569
 21
6.0861755998
  0
LINE
  5
2F4
100
AcDbEntity
  8
LAYER_FEATURE
100
AcDbLine
 62
7
  6
CONTINUOUS
 10
15.4663552569
 20
6.14150944
 11
15.4663552569
 21
6.2725102696
  0
LINE
  5
2F5
100
AcDbEntity
  8
LAYER_FEATURE
100
AcDbLine
 62
7
  6
CONTINUOUS
 10
15.4663552569
 20
6.3213517148
 11
15.4663552569
 21
6.4311971236
  0
LINE
  5
2F6
100
AcDbEntity
  8
LAYER_FEATURE
100
AcDbLine
 62
7
  6
CONTINUOUS
 10
15.4663552569
 20
6.4726263108
 11
15.4663552569
 21
6.5568323013
  0
LINE
  5
2F7
100
AcDbEntity
  8
LAYER_FEATURE
100
AcDbLine
 62
7
  6
CONTINUOUS
 10
15.4663552569
 20
6.5895896805
 11
15.4663552569
 21
6.6451374597
  0
LINE
  5
2F8
100
AcDbEntity
  8
LAYER_FEATURE
100
AcDbLine
 62
7
  6
CONTINUOUS
 10
15.4663552569
 20
6.668107502
 11
15.4663552569
 21
6.6931054772
  0
LINE
  5
2F9
100
AcDbEntity
  8
LAYER_CUT_FEAT
100
AcDbLine
 62
7
  6
CONTINUOUS
 10
15.0333552569
 20
5.3659392603
 11
15.1153552569
 21
5.4132819824
  0
LINE
  5
2FA
100
AcDbEntity
  8
LAYER_CUT_FEAT
100
AcDbLine
 62
7
  6
CONTINUOUS
 10
15.1153552569
 20
5.5079674265
 11
15.0333552569
 21
5.5553101486
  0
LINE
  5
2FB
100
AcDbEntity
  8
LAYER_FEATURE
100
AcDbLine
 62
7
  6
CONTINUOUS
 10
15.4662123917
 20
5.4335596597
 11
16.2664981222
 21
5.4335596597
  0
LINE
  5
2FC
100
AcDbEntity
  8
LAYER_FEATURE
100
AcDbLine
 62
7
  6
CONTINUOUS
 10
16.2664981222
 20
5.4876897491
 11
15.4662123917
 21
5.4876897491
  0
LINE
  5
2FD
100
AcDbEntity
  8
LAYER_FEATURE
100
AcDbLine
 62
7
  6
CONTINUOUS
 10
16.3133552569
 20
6.8586247044
 11
16.2762829096
 21
6.757661716
  0
LINE
  5
2FE
100
AcDbEntity
  8
LAYER_FEATURE
100
AcDbLine
 62
7
  6
CONTINUOUS
 10
15.4662123917
 20
5.6632859593
 11
16.2664981222
 21
5.6632859593
  0
LINE
  5
2FF
100
AcDbEntity
  8
LAYER_FEATURE
100
AcDbLine
 62
7
  6
CONTINUOUS
 10
16.3133552569
 20
4.0626247044
 11
16.2762829096
 21
4.1635876929
  0
LINE
  5
300
100
AcDbEntity
  8
LAYER_FEATURE
100
AcDbLine
 62
7
  6
CONTINUOUS
 10
16.2664981222
 20
5.7164943811
 11
15.4662123917
 21
5.7164943811
  0
LINE
  5
301
100
AcDbEntity
  8
LAYER_CUT_FEAT
100
AcDbLine
 62
7
  6
CONTINUOUS
 10
16.2663552569
 20
5.7215919297
 11
15.4663552569
 21
5.7215919297
  0
LINE
  5
302
100
AcDbEntity
  8
LAYER_FEATURE
100
AcDbLine
 62
7
  6
CONTINUOUS
 10
15.4564276042
 20
4.1635876929
 11
15.4193552569
 21
4.0626247044
  0
LINE
  5
303
100
AcDbEntity
  8
LAYER_FEATURE
100
AcDbLine
 62
7
  6
CONTINUOUS
 10
15.4662123917
 20
5.886110873
 11
16.2664981222
 21
5.886110873
  0
LINE
  5
304
100
AcDbEntity
  8
LAYER_FEATURE
100
AcDbLine
 62
7
  6
CONTINUOUS
 10
15.1691551205
 20
6.3770248409
 11
15.1645552569
 21
6.3816247044
  0
LINE
  5
305
100
AcDbEntity
  8
LAYER_FEATURE
100
AcDbLine
 62
7
  6
CONTINUOUS
 10
15.4564276042
 20
6.757661716
 11
15.4193552569
 21
6.8586247044
  0
LINE
  5
306
100
AcDbEntity
  8
LAYER_FEATURE
100
AcDbLine
 62
7
  6
CONTINUOUS
 10
16.2664981222
 20
5.9365856781
 11
15.4662123917
 21
5.9365856781
  0
LINE
  5
307
100
AcDbEntity
  8
LAYER_CUT_FEAT
100
AcDbLine
 62
7
  6
CONTINUOUS
 10
16.2663552569
 20
5.9392841217
 11
15.4663552569
 21
5.9392841217
  0
LINE
  5
308
100
AcDbEntity
  8
LAYER_FEATURE
100
AcDbLine
 62
7
  6
CONTINUOUS
 10
15.4662123917
 20
6.0944463654
 11
16.2664981222
 21
6.0944463654
  0
LINE
  5
309
100
AcDbEntity
  8
LAYER_FEATURE
100
AcDbLine
 62
7
  6
CONTINUOUS
 10
16.2663552569
 20
4.2281439106
 11
16.2663552569
 21
4.2531419069
  0
LINE
  5
30A
100
AcDbEntity
  8
LAYER_FEATURE
100
AcDbLine
 62
7
  6
CONTINUOUS
 10
16.2663552569
 20
4.2761119634
 11
16.2663552569
 21
4.3316597283
  0
LINE
  5
30B
100
AcDbEntity
  8
LAYER_FEATURE
100
AcDbLine
 62
7
  6
CONTINUOUS
 10
16.2663552569
 20
4.3644170715
 11
16.2663552569
 21
4.4486230981
  0
LINE
  5
30C
100
AcDbEntity
  8
LAYER_FEATURE
100
AcDbLine
 62
7
  6
CONTINUOUS
 10
16.2663552569
 20
4.4900522921
 11
16.2663552569
 21
4.599897694
  0
LINE
  5
30D
100
AcDbEntity
  8
LAYER_FEATURE
100
AcDbLine
 62
7
  6
CONTINUOUS
 10
16.2663552569
 20
4.6487391484
 11
16.2663552569
 21
4.7797399689
  0
LINE
  5
30E
100
AcDbEntity
  8
LAYER_FEATURE
100
AcDbLine
 62
7
  6
CONTINUOUS
 10
16.2663552569
 20
4.8350738034
 11
16.2663552569
 21
4.9821012194
  0
LINE
  5
30F
100
AcDbEntity
  8
LAYER_FEATURE
100
AcDbLine
 62
7
  6
CONTINUOUS
 10
16.2663552569
 20
5.0427108626
 11
16.2663552569
 21
5.2006873189
  0
LINE
  5
310
100
AcDbEntity
  8
LAYER_FEATURE
100
AcDbLine
 62
7
  6
CONTINUOUS
 10
16.2663552569
 20
5.2645794368
 11
16.2663552569
 21
5.4281252781
  0
LINE
  5
311
100
AcDbEntity
  8
LAYER_FEATURE
100
AcDbLine
 62
7
  6
CONTINUOUS
 10
16.2663552569
 20
5.4931241471
 11
16.2663552569
 21
5.656669959
  0
LINE
  5
312
100
AcDbEntity
  8
LAYER_FEATURE
100
AcDbLine
 62
7
  6
CONTINUOUS
 10
16.2663552569
 20
5.7205620809
 11
16.2663552569
 21
5.8785385648
  0
LINE
  5
313
100
AcDbEntity
  8
LAYER_FEATURE
100
AcDbLine
 62
7
  6
CONTINUOUS
 10
16.2663552569
 20
5.9391481924
 11
16.2663552569
 21
6.0861755998
  0
LINE
  5
314
100
AcDbEntity
  8
LAYER_FEATURE
100
AcDbLine
 62
7
  6
CONTINUOUS
 10
16.2663552569
 20
6.14150944
 11
16.2663552569
 21
6.2725102696
  0
LINE
  5
315
100
AcDbEntity
  8
LAYER_FEATURE
100
AcDbLine
 62
7
  6
CONTINUOUS
 10
16.2663552569
 20
6.3213517148
 11
16.2663552569
 21
6.4311971236
  0
LINE
  5
316
100
AcDbEntity
  8
LAYER_FEATURE
100
AcDbLine
 62
7
  6
CONTINUOUS
 10
16.2663552569
 20
6.4726263108
 11
16.2663552569
 21
6.5568323013
  0
LINE
  5
317
100
AcDbEntity
  8
LAYER_FEATURE
100
AcDbLine
 62
7
  6
CONTINUOUS
 10
16.2663552569
 20
6.5895896805
 11
16.2663552569
 21
6.6451374597
  0
LINE
  5
318
100
AcDbEntity
  8
LAYER_FEATURE
100
AcDbLine
 62
7
  6
CONTINUOUS
 10
16.2663552569
 20
6.668107502
 11
16.2663552569
 21
6.6931054772
  0
LINE
  5
319
100
AcDbEntity
  8
LAYER_FEATURE
100
AcDbLine
 62
7
  6
CONTINUOUS
 10
16.2664981222
 20
6.7055059451
 11
16.2664981222
 21
6.7005114505
  0
LINE
  5
31A
100
AcDbEntity
  8
LAYER_FEATURE
100
AcDbLine
 62
7
  6
CONTINUOUS
 10
16.2664981222
 20
6.668107502
 11
16.2664981222
 21
6.6532940999
  0
LINE
  5
31B
100
AcDbEntity
  8
LAYER_FEATURE
100
AcDbLine
 62
7
  6
CONTINUOUS
 10
16.2664981222
 20
6.5895896805
 11
16.2664981222
 21
6.5654618235
  0
LINE
  5
31C
100
AcDbEntity
  8
LAYER_FEATURE
100
AcDbLine
 62
7
  6
CONTINUOUS
 10
16.2664981222
 20
6.4726263108
 11
16.2664981222
 21
6.4400056441
  0
LINE
  5
31D
100
AcDbEntity
  8
LAYER_FEATURE
100
AcDbLine
 62
7
  6
CONTINUOUS
 10
16.2664981222
 20
6.3212004402
 11
16.2664981222
 21
6.2811978214
  0
LINE
  5
31E
100
AcDbEntity
  8
LAYER_FEATURE
100
AcDbLine
 62
7
  6
CONTINUOUS
 10
16.2664981222
 20
6.140468695
 11
16.2664981222
 21
6.0944463654
  0
LINE
  5
31F
100
AcDbEntity
  8
LAYER_FEATURE
100
AcDbLine
 62
7
  6
CONTINUOUS
 10
16.2664981222
 20
5.9365856781
 11
16.2664981222
 21
5.886110873
  0
LINE
  5
320
100
AcDbEntity
  8
LAYER_FEATURE
100
AcDbLine
 62
7
  6
CONTINUOUS
 10
16.2664981222
 20
5.7164943811
 11
16.2664981222
 21
5.6632859593
  0
LINE
  5
321
100
AcDbEntity
  8
LAYER_FEATURE
100
AcDbLine
 62
7
  6
CONTINUOUS
 10
16.2664981222
 20
5.4876897491
 11
16.2664981222
 21
5.4335596597
  0
LINE
  5
322
100
AcDbEntity
  8
LAYER_FEATURE
100
AcDbLine
 62
7
  6
CONTINUOUS
 10
16.2664981222
 20
5.2579634495
 11
16.2664981222
 21
5.2047550278
  0
LINE
  5
323
100
AcDbEntity
  8
LAYER_FEATURE
100
AcDbLine
 62
7
  6
CONTINUOUS
 10
16.2664981222
 20
5.0351385359
 11
16.2664981222
 21
4.9846637308
  0
LINE
  5
324
100
AcDbEntity
  8
LAYER_FEATURE
100
AcDbLine
 62
7
  6
CONTINUOUS
 10
16.2664981222
 20
4.8268030434
 11
16.2664981222
 21
4.7807807139
  0
LINE
  5
325
100
AcDbEntity
  8
LAYER_FEATURE
100
AcDbLine
 62
7
  6
CONTINUOUS
 10
16.2664981222
 20
4.6400515875
 11
16.2664981222
 21
4.6000489687
  0
LINE
  5
326
100
AcDbEntity
  8
LAYER_FEATURE
100
AcDbLine
 62
7
  6
CONTINUOUS
 10
16.2664981222
 20
4.4812437648
 11
16.2664981222
 21
4.4486230981
  0
LINE
  5
327
100
AcDbEntity
  8
LAYER_FEATURE
100
AcDbLine
 62
7
  6
CONTINUOUS
 10
16.2664981222
 20
4.3557875854
 11
16.2664981222
 21
4.3316597283
  0
LINE
  5
328
100
AcDbEntity
  8
LAYER_FEATURE
100
AcDbLine
 62
7
  6
CONTINUOUS
 10
16.2664981222
 20
4.267955309
 11
16.2664981222
 21
4.2531419069
  0
LINE
  5
329
100
AcDbEntity
  8
LAYER_FEATURE
100
AcDbLine
 62
7
  6
CONTINUOUS
 10
16.2664981222
 20
4.2207379584
 11
16.2664981222
 21
4.2157434638
  0
LINE
  5
32A
100
AcDbEntity
  8
LAYER_FEATURE
100
AcDbLine
 62
7
  6
CONTINUOUS
 10
16.3133552569
 20
6.8586247044
 11
16.3133552569
 21
4.0626247044
  0
LINE
  5
32B
100
AcDbEntity
  8
LAYER_FEATURE
100
AcDbLine
 62
7
  6
CONTINUOUS
 10
16.2664981222
 20
6.140468695
 11
15.4662123917
 21
6.140468695
  0
LINE
  5
32C
100
AcDbEntity
  8
LAYER_CUT_FEAT
100
AcDbLine
 62
7
  6
CONTINUOUS
 10
16.2663628191
 20
6.14150944
 11
15.4663476948
 21
6.14150944
  0
LINE
  5
32D
100
AcDbEntity
  8
LAYER_FEATURE
100
AcDbLine
 62
7
  6
CONTINUOUS
 10
16.3933552569
 20
6.8586247044
 11
16.3933552569
 21
4.0626247044
  0
LINE
  5
32E
100
AcDbEntity
  8
LAYER_FEATURE
100
AcDbLine
 62
7
  6
CONTINUOUS
 10
15.4662123917
 20
6.2811978214
 11
16.2664981222
 21
6.2811978214
  0
LINE
  5
32F
100
AcDbEntity
  8
LAYER_FEATURE
100
AcDbLine
 62
7
  6
CONTINUOUS
 10
16.2664981222
 20
6.3212004402
 11
15.4662123917
 21
6.3212004402
  0
LINE
  5
330
100
AcDbEntity
  8
LAYER_CUT_FEAT
100
AcDbLine
 62
7
  6
CONTINUOUS
 10
16.26643169
 20
6.3213517148
 11
15.4662788239
 21
6.3213517148
  0
LINE
  5
331
100
AcDbEntity
  8
02___PRT_ALL_AXES
100
AcDbLine
 62
7
  6
CONTINUOUS
 10
15.3393552569
 20
6.3816247044
 11
15.1973552569
 21
6.3816247044
  0
LINE
  5
332
100
AcDbEntity
  8
02___PRT_ALL_AXES
100
AcDbLine
 62
7
  6
CONTINUOUS
 10
14.8693552569
 20
6.3816247044
 11
14.7273552569
 21
6.3816247044
  0
LINE
  5
333
100
AcDbEntity
  8
LAYER_FEATURE
100
AcDbLine
 62
7
  6
CONTINUOUS
 10
14.9021553445
 20
6.3816247044
 11
15.1645551694
 21
6.3816247044
  0
LINE
  5
334
100
AcDbEntity
  8
LAYER_FEATURE
100
AcDbLine
 62
7
  6
CONTINUOUS
 10
15.4662123917
 20
6.4400056441
 11
16.2664981222
 21
6.4400056441
  0
LINE
  5
335
100
AcDbEntity
  8
LAYER_FEATURE
100
AcDbLine
 62
7
  6
CONTINUOUS
 10
16.2664981222
 20
6.4726263108
 11
15.4662123917
 21
6.4726263108
  0
LINE
  5
336
100
AcDbEntity
  8
LAYER_FEATURE
100
AcDbLine
 62
7
  6
CONTINUOUS
 10
15.4662123917
 20
6.5654618235
 11
16.2664981222
 21
6.5654618235
  0
LINE
  5
337
100
AcDbEntity
  8
LAYER_FEATURE
100
AcDbLine
 62
7
  6
CONTINUOUS
 10
16.2664981222
 20
6.5895896805
 11
15.4662123917
 21
6.5895896805
  0
LINE
  5
338
100
AcDbEntity
  8
LAYER_FEATURE
100
AcDbLine
 62
7
  6
CONTINUOUS
 10
15.4662123917
 20
6.6532940999
 11
16.2664981222
 21
6.6532940999
  0
LINE
  5
339
100
AcDbEntity
  8
LAYER_FEATURE
100
AcDbLine
 62
7
  6
CONTINUOUS
 10
16.2664981222
 20
6.668107502
 11
15.4662123917
 21
6.668107502
  0
LINE
  5
33A
100
AcDbEntity
  8
LAYER_FEATURE
100
AcDbLine
 62
7
  6
CONTINUOUS
 10
15.4662123917
 20
6.7005114505
 11
16.2664981222
 21
6.7005114505
  0
LINE
  5
33B
100
AcDbEntity
  8
LAYER_FEATURE
100
AcDbLine
 62
7
  6
CONTINUOUS
 10
16.2664981222
 20
6.7055059451
 11
15.4662123917
 21
6.7055059451
  0
LINE
  5
33C
100
AcDbEntity
  8
LAYER_FEATURE
100
AcDbLine
 62
7
  6
CONTINUOUS
 10
16.3933552569
 20
6.8586247044
 11
16.3133552569
 21
6.8586247044
  0
LINE
  5
33D
100
AcDbEntity
  8
LAYER_FEATURE
100
AcDbLine
 62
7
  6
CONTINUOUS
 10
15.4193552569
 20
6.8586247044
 11
15.3393552569
 21
6.8586247044
  0
LINE
  5
33E
100
AcDbEntity
  8
LAYER_FEATURE
100
AcDbLine
 62
7
  6
CONTINUOUS
 10
14.0078651758
 20
12.6021915938
 11
14.0272304816
 21
12.6648577465
  0
LINE
  5
33F
100
AcDbEntity
  8
LAYER_FEATURE
100
AcDbLine
 62
7
  6
CONTINUOUS
 10
14.2436377748
 20
13.3651520037
 11
14.2630030806
 21
13.4278181565
  0
LINE
  5
340
100
AcDbEntity
  8
LAYER_FEATURE
100
AcDbLine
 62
7
  6
CONTINUOUS
 10
14.3844269962
 20
13.3096815865
 11
14.2781062559
 21
12.9656275445
  0
LINE
  5
341
100
AcDbEntity
  8
LAYER_FEATURE
100
AcDbLine
 62
7
  6
CONTINUOUS
 10
14.2822789278
 20
12.9682342814
 11
14.3966346473
 21
13.3382895253
  0
LINE
  5
342
100
AcDbEntity
  8
LAYER_FEATURE
100
AcDbLine
 62
7
  6
CONTINUOUS
 10
14.4515909345
 20
13.4257681531
 11
14.3161476539
 21
12.9874735363
  0
LINE
  5
343
100
AcDbEntity
  8
LAYER_FEATURE
100
AcDbLine
 62
7
  6
CONTINUOUS
 10
14.3324480136
 20
12.9958822728
 11
14.4729769815
 21
13.4506341797
  0
LINE
  5
344
100
AcDbEntity
  8
LAYER_FEATURE
100
AcDbLine
 62
7
  6
CONTINUOUS
 10
14.5567719448
 20
13.5244846787
 11
14.403437131
 21
13.0282930392
  0
LINE
  5
345
100
AcDbEntity
  8
LAYER_FEATURE
100
AcDbLine
 62
7
  6
CONTINUOUS
 10
14.430301131
 20
13.0389524356
 11
14.5866081116
 21
13.5447620103
  0
LINE
  5
346
100
AcDbEntity
  8
LAYER_CUT_FEAT
100
AcDbLine
 62
7
  6
CONTINUOUS
 10
14.3174215293
 20
12.5065314454
 11
14.3287986465
 21
12.5433478102
  0
LINE
  5
347
100
AcDbEntity
  8
LAYER_FEATURE
100
AcDbLine
 62
7
  6
CONTINUOUS
 10
14.6963882141
 20
13.6024694904
 11
14.5322688269
 21
13.0713789589
  0
LINE
  5
348
100
AcDbEntity
  8
LAYER_FEATURE
100
AcDbLine
 62
7
  6
CONTINUOUS
 10
14.5676976893
 20
13.0804183373
 11
14.7336584657
 21
13.6174676068
  0
LINE
  5
349
100
AcDbEntity
  8
02___PRT_ALL_AXES
100
AcDbLine
 62
7
  6
CONTINUOUS
 10
14.3154563286
 20
11.9819625289
 11
14.4636009185
 21
12.4613585976
  0
LINE
  5
34A
100
AcDbEntity
  8
LAYER_FEATURE
100
AcDbLine
 62
7
  6
CONTINUOUS
 10
14.8652805543
 20
13.6560151273
 11
14.8656852776
 21
13.6570669089
  0
LINE
  5
34B
100
AcDbEntity
  8
LAYER_CUT_FEAT
100
AcDbLine
 62
7
  6
CONTINUOUS
 10
14.8652805804
 20
13.6560152116
 11
14.6948666747
 21
13.1045556107
  0
LINE
  5
34C
100
AcDbEntity
  8
LAYER_FEATURE
100
AcDbLine
 62
7
  6
CONTINUOUS
 10
14.8656852776
 20
13.6570669089
 11
14.6949497048
 21
13.1045663927
  0
LINE
  5
34D
100
AcDbEntity
  8
LAYER_FEATURE
100
AcDbLine
 62
7
  6
CONTINUOUS
 10
14.7372362187
 20
13.1100575864
 11
14.9091204205
 21
13.6662750674
  0
LINE
  5
34E
100
AcDbEntity
  8
LAYER_CUT_FEAT
100
AcDbLine
 62
7
  6
CONTINUOUS
 10
15.0570335629
 20
13.6831780369
 11
14.8830980539
 21
13.1203225236
  0
LINE
  5
34F
100
AcDbEntity
  8
LAYER_FEATURE
100
AcDbLine
 62
7
  6
CONTINUOUS
 10
15.058897927
 20
13.6864176848
 11
14.8839724011
 21
13.1203584752
  0
LINE
  5
350
100
AcDbEntity
  8
LAYER_FEATURE
100
AcDbLine
 62
7
  6
CONTINUOUS
 10
14.9313456076
 20
13.1210435584
 11
15.1070188294
 21
13.6895223123
  0
LINE
  5
351
100
AcDbEntity
  8
LAYER_CUT_FEAT
100
AcDbLine
 62
7
  6
CONTINUOUS
 10
15.2654326566
 20
13.6844892546
 11
15.0894928042
 21
13.1151476835
  0
LINE
  5
352
100
AcDbEntity
  8
LAYER_FEATURE
100
AcDbLine
 62
7
  6
CONTINUOUS
 10
15.2694465373
 20
13.6895223123
 11
15.0919028209
 21
13.1149906358
  0
LINE
  5
353
100
AcDbEntity
  8
LAYER_FEATURE
100
AcDbLine
 62
7
  6
CONTINUOUS
 10
15.2657918286
 20
13.6854301257
 11
15.2654326661
 21
13.6844892517
  0
LINE
  5
354
100
AcDbEntity
  8
LAYER_CUT_FEAT
100
AcDbLine
 62
7
  6
CONTINUOUS
 10
16.1466514212
 20
11.8908803182
 11
16.0952810994
 21
11.8908803182
  0
LINE
  5
355
100
AcDbEntity
  8
LAYER_CUT_FEAT
100
AcDbLine
 62
7
  6
CONTINUOUS
 10
16.1520593474
 20
11.9845418327
 11
16.0874965564
 21
11.9845418327
  0
LINE
  5
356
100
AcDbEntity
  8
LAYER_CUT_FEAT
100
AcDbLine
 62
7
  6
CONTINUOUS
 10
14.9013165926
 20
12.5222405149
 11
14.9250726887
 21
12.4580077083
  0
LINE
  5
357
100
AcDbEntity
  8
LAYER_FEATURE
100
AcDbLine
 62
7
  6
CONTINUOUS
 10
15.142620638
 20
13.110429338
 11
15.3206144995
 21
13.6864176848
  0
LINE
  5
358
100
AcDbEntity
  8
LAYER_CUT_FEAT
100
AcDbLine
 62
7
  6
CONTINUOUS
 10
14.9647715658
 20
12.5864733215
 11
14.9013165926
 21
12.5222405149
  0
LINE
  5
359
100
AcDbEntity
  8
LAYER_CUT_FEAT
100
AcDbLine
 62
7
  6
CONTINUOUS
 10
14.9013165926
 20
12.5222405149
 11
14.9328374758
 21
12.4580077083
  0
LINE
  5
35A
100
AcDbEntity
  8
LAYER_CUT_FEAT
100
AcDbLine
 62
7
  6
CONTINUOUS
 10
14.9647715658
 20
12.5864733215
 11
15.0147984319
 21
12.4845292867
  0
LINE
  5
35B
100
AcDbEntity
  8
LAYER_CUT_FEAT
100
AcDbLine
 62
7
  6
CONTINUOUS
 10
15.4833690422
 20
13.6598652566
 11
15.3065520075
 21
13.0876851226
  0
LINE
  5
35C
100
AcDbEntity
  8
LAYER_FEATURE
100
AcDbLine
 62
7
  6
CONTINUOUS
 10
15.4901611279
 20
13.6662750674
 11
15.3110998208
 21
13.0868324653
  0
LINE
  5
35D
100
AcDbEntity
  8
LAYER_FEATURE
100
AcDbLine
 62
7
  6
CONTINUOUS
 10
15.3633567046
 20
13.0769263831
 11
15.5426336864
 21
13.6570669089
  0
LINE
  5
35E
100
AcDbEntity
  8
LAYER_CUT_FEAT
100
AcDbLine
 62
7
  6
CONTINUOUS
 10
15.0147984319
 20
12.4845292867
 11
14.9885980192
 21
12.4580077083
  0
LINE
  5
35F
100
AcDbEntity
  8
LAYER_CUT_FEAT
100
AcDbLine
 62
7
  6
CONTINUOUS
 10
15.012283758
 20
12.4580077083
 11
15.0757387312
 21
12.5222405149
  0
LINE
  5
360
100
AcDbEntity
  8
LAYER_CUT_FEAT
100
AcDbLine
 62
7
  6
CONTINUOUS
 10
15.0757387312
 20
12.5222405149
 11
15.0519826351
 21
12.5864733215
  0
LINE
  5
361
100
AcDbEntity
  8
LAYER_FEATURE
100
AcDbLine
 62
7
  6
CONTINUOUS
 10
15.7135255283
 20
13.6174676068
 11
15.5338186799
 21
13.0359360322
  0
LINE
  5
362
100
AcDbEntity
  8
LAYER_FEATURE
100
AcDbLine
 62
7
  6
CONTINUOUS
 10
15.5857794903
 20
13.0208426016
 11
15.7655157931
 21
13.6024694904
  0
LINE
  5
363
100
AcDbEntity
  8
LAYER_CUT_FEAT
100
AcDbLine
 62
7
  6
CONTINUOUS
 10
14.9250726887
 20
12.4580077083
 11
15.012283758
 21
12.4580077083
  0
LINE
  5
364
100
AcDbEntity
  8
LAYER_CUT_FEAT
100
AcDbLine
 62
7
  6
CONTINUOUS
 10
15.0384841708
 20
12.4845292867
 11
15.0147984319
 21
12.4845292867
  0
LINE
  5
365
100
AcDbEntity
  8
LAYER_FEATURE
100
AcDbLine
 62
7
  6
CONTINUOUS
 10
15.9319333317
 20
13.5447620103
 11
15.7523739448
 21
12.9637076213
  0
LINE
  5
366
100
AcDbEntity
  8
LAYER_CUT_FEAT
100
AcDbLine
 62
7
  6
CONTINUOUS
 10
15.0519826351
 20
12.5864733215
 11
14.9647715658
 21
12.5864733215
  0
LINE
  5
367
100
AcDbEntity
  8
LAYER_FEATURE
100
AcDbLine
 62
7
  6
CONTINUOUS
 10
15.8022643191
 20
12.9439249753
 11
15.9816708366
 21
13.5244846787
  0
LINE
  5
368
100
AcDbEntity
  8
LAYER_FEATURE
100
AcDbLine
 62
7
  6
CONTINUOUS
 10
16.1145591192
 20
12.0983588281
 11
16.1393696151
 21
12.0686346093
  0
LINE
  5
369
100
AcDbEntity
  8
LAYER_CUT_FEAT
100
AcDbLine
 62
7
  6
CONTINUOUS
 10
16.0834774457
 20
11.9149336355
 11
16.1123604703
 21
11.8560762195
  0
LINE
  5
36A
100
AcDbEntity
  8
LAYER_FEATURE
100
AcDbLine
 62
7
  6
CONTINUOUS
 10
16.1379469223
 20
13.4506341797
 11
15.9593514911
 21
12.8726991525
  0
LINE
  5
36B
100
AcDbEntity
  8
LAYER_FEATURE
100
AcDbLine
 62
7
  6
CONTINUOUS
 10
16.0054997143
 20
12.8489891203
 11
16.1837379163
 21
13.4257681531
  0
LINE
  5
36C
100
AcDbEntity
  8
LAYER_CUT_FEAT
100
AcDbLine
 62
7
  6
CONTINUOUS
 10
16.1846693118
 20
13.4183820338
 11
16.0082612579
 21
12.8475253623
  0
LINE
  5
36D
100
AcDbEntity
  8
LAYER_CUT_FEAT
100
AcDbLine
 62
7
  6
CONTINUOUS
 10
16.1520593474
 20
11.9845418327
 11
16.1231763228
 21
12.0433992487
  0
LINE
  5
36E
100
AcDbEntity
  8
LAYER_CUT_FEAT
100
AcDbLine
 62
7
  6
CONTINUOUS
 10
16.0888853719
 20
12.00859515
 11
16.0834774457
 21
11.9149336355
  0
LINE
  5
36F
100
AcDbEntity
  8
LAYER_FEATURE
100
AcDbLine
 62
7
  6
CONTINUOUS
 10
16.3245507544
 20
13.3382895253
 11
16.1478766457
 21
12.7665719001
  0
LINE
  5
370
100
AcDbEntity
  8
LAYER_FEATURE
100
AcDbLine
 62
7
  6
CONTINUOUS
 10
16.1887791978
 20
12.7399619541
 11
16.36483588
 21
13.3096815865
  0
LINE
  5
371
100
AcDbEntity
  8
LAYER_CUT_FEAT
100
AcDbLine
 62
7
  6
CONTINUOUS
 10
16.3647294285
 20
13.3049976948
 11
16.1898907084
 21
12.7392193893
  0
LINE
  5
372
100
AcDbEntity
  8
LAYER_CUT_FEAT
100
AcDbLine
 62
7
  6
CONTINUOUS
 10
16.1466514212
 20
11.8908803182
 11
16.1520593474
 21
11.9845418327
  0
LINE
  5
373
100
AcDbEntity
  8
LAYER_FEATURE
100
AcDbLine
 62
7
  6
CONTINUOUS
 10
16.4853902582
 20
13.2115538096
 11
16.3119050591
 21
12.6501554998
  0
LINE
  5
374
100
AcDbEntity
  8
LAYER_FEATURE
100
AcDbLine
 62
7
  6
CONTINUOUS
 10
16.3463022749
 20
12.6219829167
 11
16.5187976539
 21
13.1801781676
  0
LINE
  5
375
100
AcDbEntity
  8
LAYER_CUT_FEAT
100
AcDbLine
 62
7
  6
CONTINUOUS
 10
16.5184369344
 20
13.1781579183
 11
16.3465112911
 21
12.621806333
  0
LINE
  5
376
100
AcDbEntity
  8
LAYER_CUT_FEAT
100
AcDbLine
 62
7
  6
CONTINUOUS
 10
16.1231763228
 20
12.0433992487
 11
16.0888853719
 21
12.00859515
  0
LINE
  5
377
100
AcDbEntity
  8
02___PRT_ALL_AXES
100
AcDbLine
 62
7
  6
CONTINUOUS
 10
16.0753415237
 20
11.4381168706
 11
16.2234861136
 21
11.9175129393
  0
LINE
  5
378
100
AcDbEntity
  8
LAYER_FEATURE
100
AcDbLine
 62
7
  6
CONTINUOUS
 10
16.6149882374
 20
13.0747428655
 11
16.4465740484
 21
12.5297543501
  0
LINE
  5
379
100
AcDbEntity
  8
LAYER_FEATURE
100
AcDbLine
 62
7
  6
CONTINUOUS
 10
16.4735533028
 20
12.5018157671
 11
16.6403802543
 21
13.0416679801
  0
LINE
  5
37A
100
AcDbEntity
  8
LAYER_FEATURE
100
AcDbLine
 62
7
  6
CONTINUOUS
 10
16.1145591192
 20
11.8011166401
 11
16.1393696151
 21
11.8308408589
  0
LINE
  5
37B
100
AcDbEntity
  8
LAYER_CUT_FEAT
100
AcDbLine
 62
7
  6
CONTINUOUS
 10
16.1123604703
 20
11.8560762195
 11
16.1466514212
 21
11.8908803182
  0
LINE
  5
37C
100
AcDbEntity
  8
LAYER_CUT_FEAT
100
AcDbLine
 62
7
  6
CONTINUOUS
 10
16.3696655028
 20
11.8723400915
 11
16.38104262
 21
11.9091564562
  0
LINE
  5
37D
100
AcDbEntity
  8
LAYER_FEATURE
100
AcDbLine
 62
7
  6
CONTINUOUS
 10
16.7089313882
 20
12.9325156254
 11
16.5486104711
 21
12.4137169476
  0
LINE
  5
37E
100
AcDbEntity
  8
LAYER_FEATURE
100
AcDbLine
 62
7
  6
CONTINUOUS
 10
16.5676305046
 20
12.3881853266
 11
16.7254433317
 21
12.8988678223
  0
LINE
  5
37F
100
AcDbEntity
  8
LAYER_FEATURE
100
AcDbLine
 62
7
  6
CONTINUOUS
 10
16.7640205893
 20
12.7897154676
 11
16.616906176
 21
12.3136530518
  0
LINE
  5
380
100
AcDbEntity
  8
LAYER_FEATURE
100
AcDbLine
 62
7
  6
CONTINUOUS
 10
16.6281817355
 20
12.2941887353
 11
16.7710901649
 21
12.7566405823
  0
LINE
  5
381
100
AcDbEntity
  8
LAYER_FEATURE
100
AcDbLine
 62
7
  6
CONTINUOUS
 10
16.778379844
 20
12.6512052801
 11
16.6532121771
 21
12.2461625617
  0
LINE
  5
382
100
AcDbEntity
  8
LAYER_FEATURE
100
AcDbLine
 62
7
  6
CONTINUOUS
 10
16.6575578645
 20
12.2373069818
 11
16.7757663059
 21
12.6198296381
  0
LINE
  5
383
100
AcDbEntity
  8
LAYER_FEATURE
100
AcDbLine
 62
7
  6
CONTINUOUS
 10
16.7515201652
 20
12.5217018613
 11
16.6611612772
 21
12.2293003927
  0
LINE
  5
384
100
AcDbEntity
  8
LAYER_FEATURE
100
AcDbLine
 62
7
  6
CONTINUOUS
 10
16.6792218563
 20
11.7766799431
 11
16.6985871622
 21
11.8393460959
  0
LINE
  5
385
100
AcDbEntity
  8
LAYER_FEATURE
100
AcDbLine
 62
7
  6
CONTINUOUS
 10
16.9149944553
 20
12.5396403531
 11
16.9343597612
 21
12.6023065059
  0
CIRCLE
  5
386
100
AcDbEntity
  8
LAYER_FEATURE
100
AcDbCircle
 62
7
  6
CONTINUOUS
 10
6.1303672762
 20
5.5201198968
 40
1.398
  0
CIRCLE
  5
387
100
AcDbEntity
  8
LAYER_FEATURE
100
AcDbCircle
 62
7
  6
CONTINUOUS
 10
6.1303672762
 20
5.5201198968
 40
1.27
  0
CIRCLE
  5
388
100
AcDbEntity
  8
LAYER_CUT_FEAT
100
AcDbCircle
 62
7
  6
CONTINUOUS
 10
6.1303672762
 20
5.5201198968
 40
1.074
  0
CIRCLE
  5
389
100
AcDbEntity
  8
02___PRT_ALL_AXES
100
AcDbCircle
 62
7
  6
CONTINUOUS
 10
6.1303672762
 20
5.5201198968
 40
0.921
  0
CIRCLE
  5
38A
100
AcDbEntity
  8
LAYER_CHAMFER_FEAT
100
AcDbCircle
 62
7
  6
CONTINUOUS
 10
6.1303672762
 20
5.5201198968
 40
0.2875
  0
CIRCLE
  5
38B
100
AcDbEntity
  8
LAYER_CHAMFER_FEAT
100
AcDbCircle
 62
7
  6
CONTINUOUS
 10
6.1303672762
 20
5.5201198968
 40
0.25
  0
ARC
  5
38C
100
AcDbEntity
  8
LAYER_FEATURE
100
AcDbCircle
 62
7
  6
CONTINUOUS
 10
4.8574414087
 20
12.2789340286
 40
0.2271138832
100
AcDbArc
 50
90.0614193637
 51
92.0332937778
  0
ARC
  5
38D
100
AcDbEntity
  8
LAYER_FEATURE
100
AcDbCircle
 62
7
  6
CONTINUOUS
 10
7.284302759
 20
12.2789340286
 40
0.2271138832
100
AcDbArc
 50
87.9667062222
 51
89.9385806363
  0
ARC
  5
38E
100
AcDbEntity
  8
LAYER_FEATURE
100
AcDbCircle
 62
7
  6
CONTINUOUS
 10
7.284302759
 20
13.5331615341
 40
0.2271138832
100
AcDbArc
 50
270.0614193636
 51
272.0332937778
  0
ARC
  5
38F
100
AcDbEntity
  8
LAYER_FEATURE
100
AcDbCircle
 62
7
  6
CONTINUOUS
 10
4.8574414087
 20
13.5331615341
 40
0.2271138832
100
AcDbArc
 50
267.9667062222
 51
269.9385806363
  0
ARC
  5
390
100
AcDbEntity
  8
LAYER_FEATURE
100
AcDbCircle
 62
7
  6
CONTINUOUS
 10
7.3116126946
 20
12.3361574013
 40
0.169890383
100
AcDbArc
 50
87.6500885567
 51
89.9892814256
  0
ARC
  5
391
100
AcDbEntity
  8
LAYER_FEATURE
100
AcDbCircle
 62
7
  6
CONTINUOUS
 10
4.8301314731
 20
13.4759381614
 40
0.169890383
100
AcDbArc
 50
267.6500885566
 51
269.9892814257
  0
ARC
  5
392
100
AcDbEntity
  8
LAYER_FEATURE
100
AcDbCircle
 62
7
  6
CONTINUOUS
 10
4.8301101308
 20
12.3371932693
 40
0.1688545124
100
AcDbArc
 50
90.003542453
 51
92.3570875647
  0
ARC
  5
393
100
AcDbEntity
  8
LAYER_FEATURE
100
AcDbCircle
 62
7
  6
CONTINUOUS
 10
7.3116340369
 20
13.4749022934
 40
0.1688545124
100
AcDbArc
 50
270.003542453
 51
272.3570875647
  0
CIRCLE
  5
394
100
AcDbEntity
  8
02___PRT_ALL_AXES
100
AcDbCircle
 62
7
  6
CONTINUOUS
 10
6.0708720839
 20
12.0730477814
 40
0.164
  0
ARC
  5
395
100
AcDbEntity
  8
LAYER_FEATURE
100
AcDbCircle
 62
7
  6
CONTINUOUS
 10
4.8296741373
 20
12.3440477814
 40
0.162
100
AcDbArc
 50
92.4064417311
 51
110.1626039908
  0
ARC
  5
396
100
AcDbEntity
  8
LAYER_FEATURE
100
AcDbCircle
 62
7
  6
CONTINUOUS
 10
7.3120700304
 20
12.3440477814
 40
0.162
100
AcDbArc
 50
69.8373960092
 51
87.5935582689
  0
ARC
  5
397
100
AcDbEntity
  8
LAYER_FEATURE
100
AcDbCircle
 62
7
  6
CONTINUOUS
 10
4.8296741373
 20
13.4680477814
 40
0.162
100
AcDbArc
 50
249.8373960092
 51
267.5935582689
  0
ARC
  5
398
100
AcDbEntity
  8
LAYER_FEATURE
100
AcDbCircle
 62
7
  6
CONTINUOUS
 10
7.3120700304
 20
13.4680477814
 40
0.162
100
AcDbArc
 50
272.4064417311
 51
290.1626039908
  0
CIRCLE
  5
399
100
AcDbEntity
  8
LAYER_FEATURE
100
AcDbCircle
 62
7
  6
CONTINUOUS
 10
6.0708720839
 20
12.0730477814
 40
0.1312
  0
ARC
  5
39A
100
AcDbEntity
  8
LAYER_FEATURE
100
AcDbCircle
 62
7
  6
CONTINUOUS
 10
15.2675513483
 20
6.6929748057
 40
0.1988039516
100
AcDbArc
 50
0.037670435
 51
2.172599868
  0
ARC
  5
39B
100
AcDbEntity
  8
LAYER_FEATURE
100
AcDbCircle
 62
7
  6
CONTINUOUS
 10
15.2675513483
 20
4.2282746032
 40
0.1988039516
100
AcDbArc
 50
357.8274001321
 51
359.9623295649
  0
ARC
  5
39C
100
AcDbEntity
  8
LAYER_FEATURE
100
AcDbCircle
 62
7
  6
CONTINUOUS
 10
16.4651591655
 20
4.2282746032
 40
0.1988039516
100
AcDbArc
 50
180.037670435
 51
182.172599868
  0
ARC
  5
39D
100
AcDbEntity
  8
LAYER_FEATURE
100
AcDbCircle
 62
7
  6
CONTINUOUS
 10
16.4651591655
 20
6.6929748057
 40
0.1988039516
100
AcDbArc
 50
177.827400132
 51
179.962329565
  0
CIRCLE
  5
39E
100
AcDbEntity
  8
02___PRT_ALL_AXES
100
AcDbCircle
 62
7
  6
CONTINUOUS
 10
15.0333552569
 20
5.4606247044
 40
0.164
  0
ARC
  5
39F
100
AcDbEntity
  8
LAYER_FEATURE
100
AcDbCircle
 62
7
  6
CONTINUOUS
 10
15.3043552569
 20
6.701822651
 40
0.162
100
AcDbArc
 50
1.3038071023
 51
20.1626039908
  0
ARC
  5
3A0
100
AcDbEntity
  8
LAYER_FEATURE
100
AcDbCircle
 62
7
  6
CONTINUOUS
 10
15.3043552569
 20
4.2194267579
 40
0.162
100
AcDbArc
 50
339.8373960092
 51
358.6961928977
  0
ARC
  5
3A1
100
AcDbEntity
  8
LAYER_FEATURE
100
AcDbCircle
 62
7
  6
CONTINUOUS
 10
16.4283552569
 20
6.701822651
 40
0.162
100
AcDbArc
 50
159.8373960092
 51
178.6961928977
  0
ARC
  5
3A2
100
AcDbEntity
  8
LAYER_FEATURE
100
AcDbCircle
 62
7
  6
CONTINUOUS
 10
16.4283552569
 20
4.2194267579
 40
0.162
100
AcDbArc
 50
181.3038071023
 51
200.1626039908
  0
CIRCLE
  5
3A3
100
AcDbEntity
  8
LAYER_FEATURE
100
AcDbCircle
 62
7
  6
CONTINUOUS
 10
15.0333552569
 20
5.4606247044
 40
0.1312
  0
ARC
  5
3A4
100
AcDbEntity
  8
LAYER_FEATURE
100
AcDbCircle
 62
7
  6
CONTINUOUS
 10
15.1362539238
 20
11.518772799
 40
2.1766401636
100
AcDbArc
 50
73.1960500299
 51
74.6204357331
  0
ARC
  5
3A5
100
AcDbEntity
  8
LAYER_FEATURE
100
AcDbCircle
 62
7
  6
CONTINUOUS
 10
15.1520705757
 20
11.5607276612
 40
2.1318016363
100
AcDbArc
 50
67.0980980694
 51
68.5417398852
  0
ARC
  5
3A6
100
AcDbEntity
  8
LAYER_FEATURE
100
AcDbCircle
 62
7
  6
CONTINUOUS
 10
15.1578603245
 20
11.6185525712
 40
2.0745098807
100
AcDbArc
 50
79.3110704548
 51
80.7824931982
  0
ARC
  5
3A7
100
AcDbEntity
  8
LAYER_FEATURE
100
AcDbCircle
 62
7
  6
CONTINUOUS
 10
15.2308617666
 20
11.7256340891
 40
1.948955821
100
AcDbArc
 50
60.730626039
 51
62.2625218902
  0
ARC
  5
3A8
100
AcDbEntity
  8
LAYER_FEATURE
100
AcDbCircle
 62
7
  6
CONTINUOUS
 10
15.1832573542
 20
11.8458150658
 40
1.8457207227
100
AcDbArc
 50
85.7321456781
 51
87.323499241
  0
ARC
  5
3A9
100
AcDbEntity
  8
LAYER_FEATURE
100
AcDbCircle
 62
7
  6
CONTINUOUS
 10
15.3814122195
 20
11.9675124351
 40
1.6638930635
100
AcDbArc
 50
53.769313234
 51
55.4707830338
  0
ARC
  5
3AA
100
AcDbEntity
  8
LAYER_FEATURE
100
AcDbCircle
 62
7
  6
CONTINUOUS
 10
13.9818486753
 20
11.9671644995
 40
1.5653046805
100
AcDbArc
 50
70.3929898109
 51
71.1459023916
  0
ARC
  5
3AB
100
AcDbEntity
  8
LAYER_FEATURE
100
AcDbCircle
 62
7
  6
CONTINUOUS
 10
14.0686974046
 20
11.8288423335
 40
1.5473304386
100
AcDbArc
 50
76.7432843393
 51
77.2261701238
  0
ARC
  5
3AC
100
AcDbEntity
  8
LAYER_FEATURE
100
AcDbCircle
 62
7
  6
CONTINUOUS
 10
15.1817316712
 20
12.1570102176
 40
1.5343322096
100
AcDbArc
 50
92.7910670004
 51
94.5918312558
  0
ARC
  5
3AD
100
AcDbEntity
  8
LAYER_FEATURE
100
AcDbCircle
 62
7
  6
CONTINUOUS
 10
13.9771357627
 20
12.2030477861
 40
1.4763474175
100
AcDbArc
 50
64.2047249937
 51
64.987772124
  0
ARC
  5
3AE
100
AcDbEntity
  8
LAYER_FEATURE
100
AcDbCircle
 62
7
  6
CONTINUOUS
 10
14.0678746918
 20
12.5042445341
 40
1.2999315809
100
AcDbArc
 50
57.6038458482
 51
58.4564279096
  0
ARC
  5
3AF
100
AcDbEntity
  8
LAYER_FEATURE
100
AcDbCircle
 62
7
  6
CONTINUOUS
 10
15.1354765017
 20
12.4915005754
 40
1.1963829581
100
AcDbArc
 50
100.9061215556
 51
103.0326192542
  0
ARC
  5
3B0
100
AcDbEntity
  8
LAYER_FEATURE
100
AcDbCircle
 62
7
  6
CONTINUOUS
 10
14.2521796788
 20
12.8257755399
 40
1.0697697575
100
AcDbArc
 50
50.2337412039
 51
51.2048238683
  0
ARC
  5
3B1
100
AcDbEntity
  8
LAYER_FEATURE
100
AcDbCircle
 62
7
  6
CONTINUOUS
 10
15.0455478918
 20
12.7886165296
 40
0.8855897031
100
AcDbArc
 50
110.6208807273
 51
113.2203286784
  0
ARC
  5
3B2
100
AcDbEntity
  8
LAYER_FEATURE
100
AcDbCircle
 62
7
  6
CONTINUOUS
 10
14.5122521588
 20
13.1200738701
 40
0.8266858463
100
AcDbArc
 50
41.6365518531
 51
42.7899464281
  0
ARC
  5
3B3
100
AcDbEntity
  8
LAYER_CUT_FEAT
100
AcDbCircle
 62
7
  6
CONTINUOUS
 10
14.9398714584
 20
12.4771644219
 40
0.6524213317
100
AcDbArc
 50
206.1687637812
 51
209.1657654307
  0
ARC
  5
3B4
100
AcDbEntity
  8
LAYER_FEATURE
100
AcDbCircle
 62
7
  6
CONTINUOUS
 10
14.931984255
 20
13.0044846244
 40
0.6412365665
100
AcDbArc
 50
122.5890354821
 51
125.8127868477
  0
ARC
  5
3B5
100
AcDbEntity
  8
LAYER_FEATURE
100
AcDbCircle
 62
7
  6
CONTINUOUS
 10
14.8184385749
 20
13.3495740685
 40
0.6083165972
100
AcDbArc
 50
31.2243940551
 51
32.6396728183
  0
ARC
  5
3B6
100
AcDbEntity
  8
LAYER_FEATURE
100
AcDbCircle
 62
7
  6
CONTINUOUS
 10
14.8297332717
 20
13.1221760765
 40
0.4849327543
100
AcDbArc
 50
137.3648742187
 51
141.2407150162
  0
ARC
  5
3B7
100
AcDbEntity
  8
LAYER_FEATURE
100
AcDbCircle
 62
7
  6
CONTINUOUS
 10
15.1364702932
 20
13.4962424854
 40
0.4409169317
100
AcDbArc
 50
18.3422305008
 51
20.0961480951
  0
ARC
  5
3B8
100
AcDbEntity
  8
LAYER_FEATURE
100
AcDbCircle
 62
7
  6
CONTINUOUS
 10
14.7707179169
 20
13.1617511703
 40
0.4136472935
100
AcDbArc
 50
154.736315606
 51
159.0456186516
  0
ARC
  5
3B9
100
AcDbEntity
  8
LAYER_FEATURE
100
AcDbCircle
 62
7
  6
CONTINUOUS
 10
14.5514993331
 20
13.5661500653
 40
0.1321213691
100
AcDbArc
 50
250.3696815638
 51
260.3739548911
  0
ARC
  5
3BA
100
AcDbEntity
  8
LAYER_FEATURE
100
AcDbCircle
 62
7
  6
CONTINUOUS
 10
14.8962123779
 20
13.6233502293
 40
0.0448238941
100
AcDbArc
 50
62.0393571543
 51
73.2633017824
  0
ARC
  5
3BB
100
AcDbEntity
  8
LAYER_FEATURE
100
AcDbCircle
 62
7
  6
CONTINUOUS
 10
14.4745092324
 20
13.4099340196
 40
0.040739726
100
AcDbArc
 50
71.1208176523
 51
80.4984352634
  0
ARC
  5
3BC
100
AcDbEntity
  8
LAYER_FEATURE
100
AcDbCircle
 62
7
  6
CONTINUOUS
 10
14.5841750374
 20
13.5040264307
 40
0.0407144371
100
AcDbArc
 50
65.0450481434
 51
74.4265511563
  0
ARC
  5
3BD
100
AcDbEntity
  8
LAYER_FEATURE
100
AcDbCircle
 62
7
  6
CONTINUOUS
 10
16.2456612279
 20
11.1808365855
 40
1.5665527667
100
AcDbArc
 50
70.6049448057
 51
71.3574512133
  0
ARC
  5
3BE
100
AcDbEntity
  8
LAYER_FEATURE
100
AcDbCircle
 62
7
  6
CONTINUOUS
 10
16.3939444027
 20
11.2906942194
 40
1.5466860615
100
AcDbArc
 50
76.6809918794
 51
77.4397486865
  0
ARC
  5
3BF
100
AcDbEntity
  8
LAYER_FEATURE
100
AcDbCircle
 62
7
  6
CONTINUOUS
 10
16.519101545
 20
11.5225155449
 40
1.4254477891
100
AcDbArc
 50
82.9371091584
 51
83.7381119575
  0
ARC
  5
3C0
100
AcDbEntity
  8
LAYER_FEATURE
100
AcDbCircle
 62
7
  6
CONTINUOUS
 10
15.5920053626
 20
12.226843913
 40
1.3295826985
100
AcDbArc
 50
45.8087974021
 51
47.783895055
  0
ARC
  5
3C1
100
AcDbEntity
  8
LAYER_FEATURE
100
AcDbCircle
 62
7
  6
CONTINUOUS
 10
16.5933210296
 20
11.8511395573
 40
1.2266600571
100
AcDbArc
 50
89.6820623157
 51
90.5672141995
  0
ARC
  5
3C2
100
AcDbEntity
  8
LAYER_FEATURE
100
AcDbCircle
 62
7
  6
CONTINUOUS
 10
16.5960818852
 20
12.2333211233
 40
0.9875575233
100
AcDbArc
 50
97.2921287108
 51
98.3147086756
  0
ARC
  5
3C3
100
AcDbEntity
  8
LAYER_FEATURE
100
AcDbCircle
 62
7
  6
CONTINUOUS
 10
15.8327963878
 20
12.4479597413
 40
1.0023378544
100
AcDbArc
 50
36.3220628213
 51
38.7057676097
  0
ARC
  5
3C4
100
AcDbEntity
  8
LAYER_FEATURE
100
AcDbCircle
 62
7
  6
CONTINUOUS
 10
16.5202428519
 20
12.6188059933
 40
0.7490097895
100
AcDbArc
 50
106.254290962
 51
107.4836248871
  0
ARC
  5
3C5
100
AcDbEntity
  8
LAYER_FEATURE
100
AcDbCircle
 62
7
  6
CONTINUOUS
 10
16.0636207273
 20
12.5949678041
 40
0.7282612037
100
AcDbArc
 50
24.6639493793
 51
27.6130770699
  0
ARC
  5
3C6
100
AcDbEntity
  8
LAYER_FEATURE
100
AcDbCircle
 62
7
  6
CONTINUOUS
 10
16.3743966809
 20
12.9631978315
 40
0.5455427916
100
AcDbArc
 50
117.1840160779
 51
118.7024961889
  0
ARC
  5
3C7
100
AcDbEntity
  8
LAYER_FEATURE
100
AcDbCircle
 62
7
  6
CONTINUOUS
 10
16.2477812093
 20
12.6620791426
 40
0.5317839119
100
AcDbArc
 50
10.2427655323
 51
13.8874489233
  0
ARC
  5
3C8
100
AcDbEntity
  8
LAYER_FEATURE
100
AcDbCircle
 62
7
  6
CONTINUOUS
 10
16.3498328343
 20
12.6711058516
 40
0.4290088255
100
AcDbArc
 50
353.1354536659
 51
357.3412480101
  0
ARC
  5
3C9
100
AcDbEntity
  8
LAYER_FEATURE
100
AcDbCircle
 62
7
  6
CONTINUOUS
 10
16.1807770849
 20
13.2388372344
 40
0.3985903032
100
AcDbArc
 50
130.7181760619
 51
132.5903006703
  0
ARC
  5
3CA
100
AcDbEntity
  8
LAYER_FEATURE
100
AcDbCircle
 62
7
  6
CONTINUOUS
 10
15.4357727732
 20
13.5652524431
 40
0.3363525722
100
AcDbArc
 50
2.6105595646
 51
4.710681251
  0
ARC
  5
3CB
100
AcDbEntity
  8
LAYER_FEATURE
100
AcDbCircle
 62
7
  6
CONTINUOUS
 10
15.9693289661
 20
13.4405161852
 40
0.3156893427
100
AcDbArc
 50
147.0760037968
 51
149.2639675134
  0
ARC
  5
3CC
100
AcDbEntity
  8
LAYER_FEATURE
100
AcDbCircle
 62
7
  6
CONTINUOUS
 10
15.6964214777
 20
13.5817620984
 40
0.2957457886
100
AcDbArc
 50
344.6559666058
 51
346.9427402991
  0
ARC
  5
3CD
100
AcDbEntity
  8
LAYER_FEATURE
100
AcDbCircle
 62
7
  6
CONTINUOUS
 10
16.7888729883
 20
12.7910048634
 40
0.1327767775
100
AcDbArc
 50
249.8704980574
 51
251.357954001
  0
ARC
  5
3CE
100
AcDbEntity
  8
LAYER_FEATURE
100
AcDbCircle
 62
7
  6
CONTINUOUS
 10
16.4736887276
 20
13.1693652687
 40
0.0437812129
100
AcDbArc
 50
74.4979662205
 51
85.9112137274
  0
ARC
  5
3CF
100
AcDbEntity
  8
LAYER_FEATURE
100
AcDbCircle
 62
7
  6
CONTINUOUS
 10
16.7407976849
 20
12.7558294773
 40
0.0410537946
100
AcDbArc
 50
67.3468957572
 51
76.6765330686
  0
SPLINE
  5
3D0
100
AcDbEntity
  8
02___PRT_ALL_AXES
100
AcDbSpline
 62
7
  6
CONTINUOUS
 70
0
 71
3
 72
21
 73
17
 74
0
 42
0.0000001
 43
0.0000001
 44
0.0000000001
 40
0.0
 40
0.0
 40
0.0
 40
0.0
 40
0.0385100873
 40
0.0850374609
 40
0.1473790571
 40
0.223084826
 40
0.3092943945
 40
0.4027802035
 40
0.5000000006
 40
0.5972197976
 40
0.6907056065
 40
0.7769151749
 40
0.8526209436
 40
0.9149625393
 40
0.9614899128
 40
1.0
 40
1.0
 40
1.0
 40
1.0
 10
6.9918720839
 20
11.9090477814
 30
0.0
 10
6.9911300314
 20
11.9132149742
 30
0.0
 10
6.9895500959
 20
11.9224273795
 30
0.0
 10
6.9870397684
 20
11.9384310776
 30
0.0
 10
6.9842678197
 20
11.9585293781
 30
0.0
 10
6.9814851872
 20
11.9830232563
 30
0.0
 10
6.9791148738
 20
12.0109991157
 30
0.0
 10
6.9775239731
 20
12.0413996381
 30
0.0
 10
6.9769637992
 20
12.0730477816
 30
0.0
 10
6.9775239731
 20
12.104695925
 30
0.0
 10
6.9791148738
 20
12.1350964474
 30
0.0
 10
6.9814851872
 20
12.1630723067
 30
0.0
 10
6.9842678197
 20
12.1875661848
 30
0.0
 10
6.9870397684
 20
12.2076644853
 30
0.0
 10
6.9895500959
 20
12.2236681833
 30
0.0
 10
6.9911300314
 20
12.2328805885
 30
0.0
 10
6.9918720839
 20
12.2370477814
 30
0.0
  0
LINE
  5
3D1
100
AcDbEntity
  8
LAYER_FEATURE
100
AcDbLine
 62
7
  6
CONTINUOUS
 10
6.1590463247
 20
12.5059049161
 11
6.1529953452
 21
12.5060477814
  0
LINE
  5
3D2
100
AcDbEntity
  8
LAYER_FEATURE
100
AcDbLine
 62
7
  6
CONTINUOUS
 10
5.9887488225
 20
12.5060477814
 11
5.982697843
 21
12.5059049161
  0
LINE
  5
3D3
100
AcDbEntity
  8
LAYER_FEATURE
100
AcDbLine
 62
7
  6
CONTINUOUS
 10
5.928798663
 20
12.5059049161
 11
5.9240272789
 21
12.5060477814
  0
LINE
  5
3D4
100
AcDbEntity
  8
LAYER_FEATURE
100
AcDbLine
 62
7
  6
CONTINUOUS
 10
5.7625773653
 20
12.5060477814
 11
5.7554528493
 21
12.5059049161
  0
LINE
  5
3D5
100
AcDbEntity
  8
LAYER_FEATURE
100
AcDbLine
 62
7
  6
CONTINUOUS
 10
5.7033891413
 20
12.5059049161
 11
5.7000598363
 21
12.5060477814
  0
LINE
  5
3D6
100
AcDbEntity
  8
LAYER_FEATURE
100
AcDbLine
 62
7
  6
CONTINUOUS
 10
5.5469045151
 20
12.5060477814
 11
5.5389490793
 21
12.5059049161
  0
LINE
  5
3D7
100
AcDbEntity
  8
LAYER_FEATURE
100
AcDbLine
 62
7
  6
CONTINUOUS
 10
5.4904938104
 20
12.5059049161
 11
5.4887199601
 21
12.5060477814
  0
LINE
  5
3D8
100
AcDbEntity
  8
LAYER_FEATURE
100
AcDbLine
 62
7
  6
CONTINUOUS
 10
5.3490747519
 20
12.5060477814
 11
5.3405593093
 21
12.5059049161
  0
LINE
  5
3D9
100
AcDbEntity
  8
LAYER_FEATURE
100
AcDbLine
 62
7
  6
CONTINUOUS
 10
5.2973625655
 20
12.5059049161
 11
5.2968651081
 21
12.5060135031
  0
LINE
  5
3DA
100
AcDbEntity
  8
LAYER_FEATURE
100
AcDbLine
 62
7
  6
CONTINUOUS
 10
5.1758249312
 20
12.5060477814
 11
5.1670394649
 21
12.5059049161
  0
LINE
  5
3DB
100
AcDbEntity
  8
LAYER_FEATURE
100
AcDbLine
 62
7
  6
CONTINUOUS
 10
5.0330548678
 20
12.5060477814
 11
5.0242985563
 21
12.5059049161
  0
LINE
  5
3DC
100
AcDbEntity
  8
LAYER_FEATURE
100
AcDbLine
 62
7
  6
CONTINUOUS
 10
4.925626425
 20
12.5060477814
 11
4.917197454
 21
12.5059049161
  0
LINE
  5
3DD
100
AcDbEntity
  8
LAYER_FEATURE
100
AcDbLine
 62
7
  6
CONTINUOUS
 10
5.2968651081
 20
13.3060820597
 11
5.2973625655
 21
13.3061906466
  0
LINE
  5
3DE
100
AcDbEntity
  8
LAYER_FEATURE
100
AcDbLine
 62
7
  6
CONTINUOUS
 10
6.8448790596
 20
12.5060135031
 11
6.8443816023
 21
12.5059049161
  0
LINE
  5
3DF
100
AcDbEntity
  8
LAYER_FEATURE
100
AcDbLine
 62
7
  6
CONTINUOUS
 10
7.2245467137
 20
12.5059049161
 11
7.2161177428
 21
12.5060477814
  0
LINE
  5
3E0
100
AcDbEntity
  8
LAYER_FEATURE
100
AcDbLine
 62
7
  6
CONTINUOUS
 10
7.1174456114
 20
12.5059049161
 11
7.1086892999
 21
12.5060477814
  0
LINE
  5
3E1
100
AcDbEntity
  8
LAYER_FEATURE
100
AcDbLine
 62
7
  6
CONTINUOUS
 10
6.9747047028
 20
12.5059049161
 11
6.9659192365
 21
12.5060477814
  0
LINE
  5
3E2
100
AcDbEntity
  8
LAYER_FEATURE
100
AcDbLine
 62
7
  6
CONTINUOUS
 10
6.8011848584
 20
12.5059049161
 11
6.7926694158
 21
12.5060477814
  0
LINE
  5
3E3
100
AcDbEntity
  8
LAYER_FEATURE
100
AcDbLine
 62
7
  6
CONTINUOUS
 10
6.6512503574
 20
13.3061906466
 11
6.6530242077
 21
13.3060477814
  0
LINE
  5
3E4
100
AcDbEntity
  8
LAYER_FEATURE
100
AcDbLine
 62
7
  6
CONTINUOUS
 10
6.7926694158
 20
13.3060477814
 11
6.8011848584
 21
13.3061906466
  0
LINE
  5
3E5
100
AcDbEntity
  8
LAYER_FEATURE
100
AcDbLine
 62
7
  6
CONTINUOUS
 10
6.8443816023
 20
13.3061906466
 11
6.8448790596
 21
13.3060820597
  0
LINE
  5
3E6
100
AcDbEntity
  8
LAYER_FEATURE
100
AcDbLine
 62
7
  6
CONTINUOUS
 10
6.9659192365
 20
13.3060477814
 11
6.9747047028
 21
13.3061906466
  0
LINE
  5
3E7
100
AcDbEntity
  8
LAYER_FEATURE
100
AcDbLine
 62
7
  6
CONTINUOUS
 10
7.1086892999
 20
13.3060477814
 11
7.1174456114
 21
13.3061906466
  0
LINE
  5
3E8
100
AcDbEntity
  8
LAYER_FEATURE
100
AcDbLine
 62
7
  6
CONTINUOUS
 10
7.2161177428
 20
13.3060477814
 11
7.2245467137
 21
13.3061906466
  0
LINE
  5
3E9
100
AcDbEntity
  8
LAYER_FEATURE
100
AcDbLine
 62
7
  6
CONTINUOUS
 10
6.6530242077
 20
12.5060477814
 11
6.6512503574
 21
12.5059049161
  0
LINE
  5
3EA
100
AcDbEntity
  8
LAYER_FEATURE
100
AcDbLine
 62
7
  6
CONTINUOUS
 10
4.917197454
 20
13.3061906466
 11
4.925626425
 21
13.3060477814
  0
LINE
  5
3EB
100
AcDbEntity
  8
LAYER_FEATURE
100
AcDbLine
 62
7
  6
CONTINUOUS
 10
5.0242985563
 20
13.3061906466
 11
5.0330548678
 21
13.3060477814
  0
LINE
  5
3EC
100
AcDbEntity
  8
LAYER_FEATURE
100
AcDbLine
 62
7
  6
CONTINUOUS
 10
5.1670394649
 20
13.3061906466
 11
5.1758249312
 21
13.3060477814
  0
LINE
  5
3ED
100
AcDbEntity
  8
LAYER_FEATURE
100
AcDbLine
 62
7
  6
CONTINUOUS
 10
6.6027950884
 20
12.5059049161
 11
6.5948396527
 21
12.5060477814
  0
LINE
  5
3EE
100
AcDbEntity
  8
LAYER_FEATURE
100
AcDbLine
 62
7
  6
CONTINUOUS
 10
5.3405593093
 20
13.3061906466
 11
5.3490747519
 21
13.3060477814
  0
LINE
  5
3EF
100
AcDbEntity
  8
LAYER_FEATURE
100
AcDbLine
 62
7
  6
CONTINUOUS
 10
5.4887199601
 20
13.3060477814
 11
5.4904938104
 21
13.3061906466
  0
LINE
  5
3F0
100
AcDbEntity
  8
LAYER_FEATURE
100
AcDbLine
 62
7
  6
CONTINUOUS
 10
5.5389490793
 20
13.3061906466
 11
5.5469045151
 21
13.3060477814
  0
LINE
  5
3F1
100
AcDbEntity
  8
LAYER_FEATURE
100
AcDbLine
 62
7
  6
CONTINUOUS
 10
6.4416843314
 20
12.5060477814
 11
6.4383550265
 21
12.5059049161
  0
LINE
  5
3F2
100
AcDbEntity
  8
LAYER_FEATURE
100
AcDbLine
 62
7
  6
CONTINUOUS
 10
5.7000598363
 20
13.3060477814
 11
5.7033891413
 21
13.3061906466
  0
LINE
  5
3F3
100
AcDbEntity
  8
LAYER_FEATURE
100
AcDbLine
 62
7
  6
CONTINUOUS
 10
5.7554528493
 20
13.3061906466
 11
5.7625773653
 21
13.3060477814
  0
LINE
  5
3F4
100
AcDbEntity
  8
LAYER_FEATURE
100
AcDbLine
 62
7
  6
CONTINUOUS
 10
5.9240272789
 20
13.3060477814
 11
5.928798663
 21
13.3061906466
  0
LINE
  5
3F5
100
AcDbEntity
  8
LAYER_FEATURE
100
AcDbLine
 62
7
  6
CONTINUOUS
 10
5.982697843
 20
13.3061906466
 11
5.9887488225
 21
13.3060477814
  0
LINE
  5
3F6
100
AcDbEntity
  8
LAYER_FEATURE
100
AcDbLine
 62
7
  6
CONTINUOUS
 10
6.1529953452
 20
13.3060477814
 11
6.1590463247
 21
13.3061906466
  0
LINE
  5
3F7
100
AcDbEntity
  8
LAYER_FEATURE
100
AcDbLine
 62
7
  6
CONTINUOUS
 10
6.2129455047
 20
13.3061906466
 11
6.2177168888
 21
13.3060477814
  0
LINE
  5
3F8
100
AcDbEntity
  8
LAYER_FEATURE
100
AcDbLine
 62
7
  6
CONTINUOUS
 10
6.3791668024
 20
13.3060477814
 11
6.3862913184
 21
13.3061906466
  0
LINE
  5
3F9
100
AcDbEntity
  8
LAYER_FEATURE
100
AcDbLine
 62
7
  6
CONTINUOUS
 10
6.4383550265
 20
13.3061906466
 11
6.4416843314
 21
13.3060477814
  0
LINE
  5
3FA
100
AcDbEntity
  8
LAYER_FEATURE
100
AcDbLine
 62
7
  6
CONTINUOUS
 10
6.3862913184
 20
12.5059049161
 11
6.3791668024
 21
12.5060477814
  0
LINE
  5
3FB
100
AcDbEntity
  8
LAYER_FEATURE
100
AcDbLine
 62
7
  6
CONTINUOUS
 10
6.5948396527
 20
13.3060477814
 11
6.6027950884
 21
13.3061906466
  0
LINE
  5
3FC
100
AcDbEntity
  8
LAYER_FEATURE
100
AcDbLine
 62
7
  6
CONTINUOUS
 10
6.2177168888
 20
12.5060477814
 11
6.2129455047
 21
12.5059049161
  0
SPLINE
  5
3FD
100
AcDbEntity
  8
02___PRT_ALL_AXES
100
AcDbSpline
 62
7
  6
CONTINUOUS
 70
0
 71
3
 72
21
 73
17
 74
0
 42
0.0000001
 43
0.0000001
 44
0.0000000001
 40
0.0
 40
0.0
 40
0.0
 40
0.0
 40
0.0385100746
 40
0.0850374478
 40
0.1473790483
 40
0.2230848293
 40
0.3092944086
 40
0.4027802156
 40
0.5000000003
 40
0.5972197851
 40
0.6907055919
 40
0.7769151712
 40
0.8526209522
 40
0.9149625526
 40
0.9614899256
 40
1.0
 40
1.0
 40
1.0
 40
1.0
 10
15.1973552569
 20
6.3816247044
 30
0.0
 10
15.1931880653
 20
6.380882653
 30
0.0
 10
15.1839756614
 20
6.3793027185
 30
0.0
 10
15.1679719644
 20
6.3767923904
 30
0.0
 10
15.1478736624
 20
6.3740204397
 30
0.0
 10
15.1233797813
 20
6.3712378065
 30
0.0
 10
15.0954039194
 20
6.3688674957
 30
0.0
 10
15.0650033973
 20
6.3672765988
 30
0.0
 10
15.0333552568
 20
6.3667164268
 30
0.0
 10
15.0017071163
 20
6.3672765988
 30
0.0
 10
14.9713065943
 20
6.3688674957
 30
0.0
 10
14.9433307324
 20
6.3712378065
 30
0.0
 10
14.9188368513
 20
6.3740204397
 30
0.0
 10
14.8987385494
 20
6.3767923904
 30
0.0
 10
14.8827348524
 20
6.3793027185
 30
0.0
 10
14.8735224485
 20
6.380882653
 30
0.0
 10
14.8693552569
 20
6.3816247044
 30
0.0
  0
LINE
  5
3FE
100
AcDbEntity
  8
LAYER_FEATURE
100
AcDbLine
 62
7
  6
CONTINUOUS
 10
15.4663552569
 20
6.5568323706
 11
15.4662123917
 21
6.5654618235
  0
LINE
  5
3FF
100
AcDbEntity
  8
LAYER_FEATURE
100
AcDbLine
 62
7
  6
CONTINUOUS
 10
15.4663552569
 20
6.645137524
 11
15.4662123917
 21
6.6532940999
  0
LINE
  5
400
100
AcDbEntity
  8
LAYER_FEATURE
100
AcDbLine
 62
7
  6
CONTINUOUS
 10
15.4662123917
 20
4.267955309
 11
15.4663552569
 21
4.2761118849
  0
LINE
  5
401
100
AcDbEntity
  8
LAYER_FEATURE
100
AcDbLine
 62
7
  6
CONTINUOUS
 10
15.4662123917
 20
4.3557875854
 11
15.4663552569
 21
4.3644170383
  0
LINE
  5
402
100
AcDbEntity
  8
LAYER_FEATURE
100
AcDbLine
 62
7
  6
CONTINUOUS
 10
15.4662123917
 20
4.4812437648
 11
15.4663552569
 21
4.490052229
  0
LINE
  5
403
100
AcDbEntity
  8
LAYER_FEATURE
100
AcDbLine
 62
7
  6
CONTINUOUS
 10
15.4662123917
 20
4.6400515875
 11
15.4663552569
 21
4.6487391013
  0
LINE
  5
404
100
AcDbEntity
  8
LAYER_FEATURE
100
AcDbLine
 62
7
  6
CONTINUOUS
 10
15.4662123917
 20
4.8268030434
 11
15.4663552569
 21
4.835073764
  0
LINE
  5
405
100
AcDbEntity
  8
LAYER_FEATURE
100
AcDbLine
 62
7
  6
CONTINUOUS
 10
15.4663552569
 20
4.982101222
 11
15.4662123917
 21
4.9846637308
  0
LINE
  5
406
100
AcDbEntity
  8
LAYER_FEATURE
100
AcDbLine
 62
7
  6
CONTINUOUS
 10
15.4662123917
 20
5.0351385359
 11
15.4663552569
 21
5.0427108138
  0
LINE
  5
407
100
AcDbEntity
  8
LAYER_FEATURE
100
AcDbLine
 62
7
  6
CONTINUOUS
 10
15.4663552569
 20
5.2006873312
 11
15.4662123917
 21
5.2047550278
  0
LINE
  5
408
100
AcDbEntity
  8
LAYER_FEATURE
100
AcDbLine
 62
7
  6
CONTINUOUS
 10
15.4662123917
 20
5.2579634495
 11
15.4663552569
 21
5.2645794199
  0
LINE
  5
409
100
AcDbEntity
  8
LAYER_FEATURE
100
AcDbLine
 62
7
  6
CONTINUOUS
 10
15.4663552569
 20
5.4281252959
 11
15.4662123917
 21
5.4335596597
  0
LINE
  5
40A
100
AcDbEntity
  8
LAYER_FEATURE
100
AcDbLine
 62
7
  6
CONTINUOUS
 10
15.4662123917
 20
5.4876897491
 11
15.4663552569
 21
5.493124113
  0
LINE
  5
40B
100
AcDbEntity
  8
LAYER_FEATURE
100
AcDbLine
 62
7
  6
CONTINUOUS
 10
15.4663552569
 20
5.656669989
 11
15.4662123917
 21
5.6632859593
  0
LINE
  5
40C
100
AcDbEntity
  8
LAYER_FEATURE
100
AcDbLine
 62
7
  6
CONTINUOUS
 10
15.4662123917
 20
5.7164943811
 11
15.4663552569
 21
5.7205620777
  0
LINE
  5
40D
100
AcDbEntity
  8
LAYER_FEATURE
100
AcDbLine
 62
7
  6
CONTINUOUS
 10
15.4663552569
 20
5.8785385951
 11
15.4662123917
 21
5.886110873
  0
LINE
  5
40E
100
AcDbEntity
  8
LAYER_FEATURE
100
AcDbLine
 62
7
  6
CONTINUOUS
 10
15.4662123917
 20
5.9365856781
 11
15.4663552569
 21
5.9391481869
  0
LINE
  5
40F
100
AcDbEntity
  8
LAYER_FEATURE
100
AcDbLine
 62
7
  6
CONTINUOUS
 10
15.4663552569
 20
6.0861756449
 11
15.4662123917
 21
6.0944463654
  0
LINE
  5
410
100
AcDbEntity
  8
LAYER_FEATURE
100
AcDbLine
 62
7
  6
CONTINUOUS
 10
15.4662123917
 20
6.140468695
 11
15.4663476939
 21
6.1415094352
  0
LINE
  5
411
100
AcDbEntity
  8
LAYER_FEATURE
100
AcDbLine
 62
7
  6
CONTINUOUS
 10
15.4663552569
 20
6.2725103076
 11
15.4662123917
 21
6.2811978214
  0
LINE
  5
412
100
AcDbEntity
  8
LAYER_FEATURE
100
AcDbLine
 62
7
  6
CONTINUOUS
 10
15.4662123917
 20
6.3212004402
 11
15.4662788236
 21
6.3213517152
  0
LINE
  5
413
100
AcDbEntity
  8
LAYER_FEATURE
100
AcDbLine
 62
7
  6
CONTINUOUS
 10
15.4663552569
 20
6.4311971799
 11
15.4662123917
 21
6.4400056441
  0
LINE
  5
414
100
AcDbEntity
  8
LAYER_FEATURE
100
AcDbLine
 62
7
  6
CONTINUOUS
 10
16.2664981222
 20
6.5654618235
 11
16.2663552569
 21
6.5568323706
  0
LINE
  5
415
100
AcDbEntity
  8
LAYER_FEATURE
100
AcDbLine
 62
7
  6
CONTINUOUS
 10
16.2664981222
 20
6.4400056441
 11
16.2663552569
 21
6.4311971799
  0
LINE
  5
416
100
AcDbEntity
  8
LAYER_FEATURE
100
AcDbLine
 62
7
  6
CONTINUOUS
 10
16.2664981222
 20
6.2811978214
 11
16.2663552569
 21
6.2725103076
  0
LINE
  5
417
100
AcDbEntity
  8
LAYER_FEATURE
100
AcDbLine
 62
7
  6
CONTINUOUS
 10
16.2664981222
 20
6.0944463654
 11
16.2663552569
 21
6.0861756449
  0
LINE
  5
418
100
AcDbEntity
  8
LAYER_FEATURE
100
AcDbLine
 62
7
  6
CONTINUOUS
 10
16.2663552569
 20
5.9391481869
 11
16.2664981222
 21
5.9365856781
  0
LINE
  5
419
100
AcDbEntity
  8
LAYER_FEATURE
100
AcDbLine
 62
7
  6
CONTINUOUS
 10
16.2664981222
 20
5.886110873
 11
16.2663552569
 21
5.8785385951
  0
LINE
  5
41A
100
AcDbEntity
  8
LAYER_FEATURE
100
AcDbLine
 62
7
  6
CONTINUOUS
 10
16.2663552569
 20
5.7205620777
 11
16.2664981222
 21
5.7164943811
  0
LINE
  5
41B
100
AcDbEntity
  8
LAYER_FEATURE
100
AcDbLine
 62
7
  6
CONTINUOUS
 10
16.2664981222
 20
5.6632859593
 11
16.2663552569
 21
5.656669989
  0
LINE
  5
41C
100
AcDbEntity
  8
LAYER_FEATURE
100
AcDbLine
 62
7
  6
CONTINUOUS
 10
16.2663552569
 20
5.493124113
 11
16.2664981222
 21
5.4876897491
  0
LINE
  5
41D
100
AcDbEntity
  8
LAYER_FEATURE
100
AcDbLine
 62
7
  6
CONTINUOUS
 10
16.2664981222
 20
5.4335596597
 11
16.2663552569
 21
5.4281252959
  0
LINE
  5
41E
100
AcDbEntity
  8
LAYER_FEATURE
100
AcDbLine
 62
7
  6
CONTINUOUS
 10
16.2663552569
 20
5.2645794199
 11
16.2664981222
 21
5.2579634495
  0
LINE
  5
41F
100
AcDbEntity
  8
LAYER_FEATURE
100
AcDbLine
 62
7
  6
CONTINUOUS
 10
16.2664981222
 20
5.2047550278
 11
16.2663552569
 21
5.2006873312
  0
LINE
  5
420
100
AcDbEntity
  8
LAYER_FEATURE
100
AcDbLine
 62
7
  6
CONTINUOUS
 10
16.2663552569
 20
5.0427108138
 11
16.2664981222
 21
5.0351385359
  0
LINE
  5
421
100
AcDbEntity
  8
LAYER_FEATURE
100
AcDbLine
 62
7
  6
CONTINUOUS
 10
16.2664981222
 20
4.9846637308
 11
16.2663552569
 21
4.982101222
  0
LINE
  5
422
100
AcDbEntity
  8
LAYER_FEATURE
100
AcDbLine
 62
7
  6
CONTINUOUS
 10
16.2663552569
 20
4.835073764
 11
16.2664981222
 21
4.8268030434
  0
LINE
  5
423
100
AcDbEntity
  8
LAYER_FEATURE
100
AcDbLine
 62
7
  6
CONTINUOUS
 10
16.2664981222
 20
4.7807807139
 11
16.26636282
 21
4.7797399737
  0
LINE
  5
424
100
AcDbEntity
  8
LAYER_FEATURE
100
AcDbLine
 62
7
  6
CONTINUOUS
 10
16.2663552569
 20
4.6487391013
 11
16.2664981222
 21
4.6400515875
  0
LINE
  5
425
100
AcDbEntity
  8
LAYER_FEATURE
100
AcDbLine
 62
7
  6
CONTINUOUS
 10
16.2664981222
 20
4.6000489687
 11
16.2664316902
 21
4.5998976937
  0
LINE
  5
426
100
AcDbEntity
  8
LAYER_FEATURE
100
AcDbLine
 62
7
  6
CONTINUOUS
 10
16.2663552569
 20
4.490052229
 11
16.2664981222
 21
4.4812437648
  0
LINE
  5
427
100
AcDbEntity
  8
LAYER_FEATURE
100
AcDbLine
 62
7
  6
CONTINUOUS
 10
16.2663552569
 20
4.3644170383
 11
16.2664981222
 21
4.3557875854
  0
LINE
  5
428
100
AcDbEntity
  8
LAYER_FEATURE
100
AcDbLine
 62
7
  6
CONTINUOUS
 10
16.2663552569
 20
4.2761118849
 11
16.2664981222
 21
4.267955309
  0
LINE
  5
429
100
AcDbEntity
  8
LAYER_FEATURE
100
AcDbLine
 62
7
  6
CONTINUOUS
 10
15.4662788236
 20
4.5998976937
 11
15.4662123917
 21
4.6000489687
  0
LINE
  5
42A
100
AcDbEntity
  8
LAYER_FEATURE
100
AcDbLine
 62
7
  6
CONTINUOUS
 10
15.4663476939
 20
4.7797399737
 11
15.4662123917
 21
4.7807807139
  0
LINE
  5
42B
100
AcDbEntity
  8
LAYER_FEATURE
100
AcDbLine
 62
7
  6
CONTINUOUS
 10
16.26636282
 20
6.1415094352
 11
16.2664981222
 21
6.140468695
  0
LINE
  5
42C
100
AcDbEntity
  8
LAYER_FEATURE
100
AcDbLine
 62
7
  6
CONTINUOUS
 10
16.2664981222
 20
6.6532940999
 11
16.2663552569
 21
6.645137524
  0
LINE
  5
42D
100
AcDbEntity
  8
LAYER_FEATURE
100
AcDbLine
 62
7
  6
CONTINUOUS
 10
16.2664316902
 20
6.3213517152
 11
16.2664981222
 21
6.3212004402
  0
SPLINE
  5
42E
100
AcDbEntity
  8
02___PRT_ALL_AXES
100
AcDbSpline
 62
7
  6
CONTINUOUS
 70
0
 71
3
 72
56
 73
52
 74
0
 42
0.0000001
 43
0.0000001
 44
0.0000000001
 40
0.0
 40
0.0
 40
0.0
 40
0.0
 40
0.0136865921
 40
0.0278622602
 40
0.042508703
 40
0.0576089261
 40
0.0731444224
 40
0.0890949491
 40
0.1054393736
 40
0.122155893
 40
0.1392218225
 40
0.156613954
 40
0.1922804322
 40
0.2289621875
 40
0.2664615942
 40
0.3045798615
 40
0.3431189493
 40
0.3818830317
 40
0.420679761
 40
0.4593213061
 40
0.4976254353
 40
0.5354166272
 40
0.5725274234
 40
0.6087999268
 40
0.6440876679
 40
0.6782575611
 40
0.7111921689
 40
0.727166135
 40
0.7427956066
 40
0.7580713532
 40
0.7729855814
 40
0.7875319544
 40
0.8017058036
 40
0.8155040511
 40
0.8289254579
 40
0.8419705897
 40
0.854642028
 40
0.8669444365
 40
0.8788846562
 40
0.8904719383
 40
0.9017179572
 40
0.9126370919
 40
0.9232464367
 40
0.9335660286
 40
0.9436188929
 40
0.9534311073
 40
0.9630318152
 40
0.9724530654
 40
0.9817296996
 40
0.9908989387
 40
1.0
 40
1.0
 40
1.0
 40
1.0
 10
16.0780695195
 20
11.8212721209
 30
0.0
 10
16.0774124836
 20
11.8226110194
 30
0.0
 10
16.0761070352
 20
11.8253525147
 30
0.0
 10
16.0742059618
 20
11.8295769368
 30
0.0
 10
16.0723301943
 20
11.8339805973
 30
0.0
 10
16.0704830993
 20
11.8385565285
 30
0.0
 10
16.0686680551
 20
11.8432977337
 30
0.0
 10
16.0668886023
 20
11.8481968953
 30
0.0
 10
16.0651483734
 20
11.8532464382
 30
0.0
 10
16.0634510742
 20
11.8584385894
 30
0.0
 10
16.061800465
 20
11.8637654193
 30
0.0
 10
16.0596490438
 20
11.8710980045
 30
0.0
 10
16.0571057451
 20
11.8805420414
 30
0.0
 10
16.0543264114
 20
11.8921865971
 30
0.0
 10
16.051826005
 20
11.9041673767
 30
0.0
 10
16.0496354835
 20
11.9164143887
 30
0.0
 10
16.0477850096
 20
11.9288568375
 30
0.0
 10
16.046303486
 20
11.9414231879
 30
0.0
 10
16.0452180599
 20
11.9540413263
 30
0.0
 10
16.044553589
 20
11.9666386607
 30
0.0
 10
16.0443320634
 20
11.9791422466
 30
0.0
 10
16.0445719991
 20
11.9914789759
 30
0.0
 10
16.04528782
 20
12.0035758693
 30
0.0
 10
16.0464892433
 20
12.0153604501
 30
0.0
 10
16.048180752
 20
12.0267614055
 30
0.0
 10
16.0503610646
 20
12.0377087533
 30
0.0
 10
16.0526017109
 20
12.0464854928
 30
0.0
 10
16.054639322
 20
12.0532174707
 30
0.0
 10
16.0562670415
 20
12.0580605073
 30
0.0
 10
16.0580070474
 20
12.0627413601
 30
0.0
 10
16.0598562966
 20
12.0672529115
 30
0.0
 10
16.0618114484
 20
12.071588265
 30
0.0
 10
16.0638686709
 20
12.0757409145
 30
0.0
 10
16.066023994
 20
12.0797045934
 30
0.0
 10
16.0682729463
 20
12.0834734629
 30
0.0
 10
16.0706109283
 20
12.0870419445
 30
0.0
 10
16.0730329745
 20
12.0904048582
 30
0.0
 10
16.0755339056
 20
12.0935573561
 30
0.0
 10
16.078108359
 20
12.0964948989
 30
0.0
 10
16.080750682
 20
12.099213362
 30
0.0
 10
16.0834551693
 20
12.1017088413
 30
0.0
 10
16.0862158243
 20
12.1039778848
 30
0.0
 10
16.0890266303
 20
12.1060172275
 30
0.0
 10
16.0918813555
 20
12.1078240129
 30
0.0
 10
16.0947737085
 20
12.1093956205
 30
0.0
 10
16.0976972788
 20
12.1107297335
 30
0.0
 10
16.1006455498
 20
12.1118243758
 30
0.0
 10
16.1036119286
 20
12.112677773
 30
0.0
 10
16.1065897919
 20
12.1132886028
 30
0.0
 10
16.1095721551
 20
12.1136557104
 30
0.0
 10
16.1115640032
 20
12.1137377362
 30
0.0
 10
16.1125557432
 20
12.1137377315
 30
0.0
  0
SPLINE
  5
42F
100
AcDbEntity
  8
02___PRT_ALL_AXES
100
AcDbSpline
 62
7
  6
CONTINUOUS
 70
0
 71
3
 72
27
 73
23
 74
0
 42
0.0000001
 43
0.0000001
 44
0.0000000001
 40
0.0
 40
0.0
 40
0.0
 40
0.0
 40
0.0747453345
 40
0.1478806291
 40
0.2192954267
 40
0.288907891
 40
0.3566629509
 40
0.4225385091
 40
0.4865472913
 40
0.5487398123
 40
0.6092063246
 40
0.6680779611
 40
0.7255266934
 40
0.7817638568
 40
0.8095105597
 40
0.8370497543
 40
0.864416974
 40
0.8916491902
 40
0.9187844956
 40
0.9458617879
 40
0.9729204423
 40
1.0
 40
1.0
 40
1.0
 40
1.0
 10
14.9488287849
 20
12.3937749017
 30
0.0
 10
14.9457892948
 20
12.3937749017
 30
0.0
 10
14.9397748128
 20
12.3939073584
 30
0.0
 10
14.9308749107
 20
12.3945171559
 30
0.0
 10
14.9222220498
 20
12.3955347361
 30
0.0
 10
14.913848137
 20
12.3969578214
 30
0.0
 10
14.9057830551
 20
12.3987833463
 30
0.0
 10
14.8980550548
 20
12.4010073621
 30
0.0
 10
14.8906905402
 20
12.4036251547
 30
0.0
 10
14.8837141057
 20
12.4066312381
 30
0.0
 10
14.8771485892
 20
12.410019341
 30
0.0
 10
14.8710150282
 20
12.4137824922
 30
0.0
 10
14.8653331392
 20
12.4179125074
 30
0.0
 10
14.8609692403
 20
12.4216701569
 30
0.0
 10
14.8577304422
 20
12.4248462681
 30
0.0
 10
14.8554350361
 20
12.4273029773
 30
0.0
 10
14.8532645795
 20
12.4298432492
 30
0.0
 10
14.8512205888
 20
12.4324655983
 30
0.0
 10
14.8493045827
 20
12.4351684336
 30
0.0
 10
14.8475179551
 20
12.4379501306
 30
0.0
 10
14.8458620022
 20
12.4408088488
 30
0.0
 10
14.8448467615
 20
12.442763319
 30
0.0
 10
14.844361644
 20
12.4437518825
 30
0.0
  0
SPLINE
  5
430
100
AcDbEntity
  8
LAYER_CUT_FEAT
100
AcDbSpline
 62
7
  6
CONTINUOUS
 70
0
 71
3
 72
22
 73
18
 74
0
 42
0.0000001
 43
0.0000001
 44
0.0000000001
 40
0.0
 40
0.0
 40
0.0
 40
0.0
 40
0.1381197631
 40
0.2053664309
 40
0.2714549167
 40
0.336437138
 40
0.400372579
 40
0.4633278437
 40
0.5253764097
 40
0.5865986125
 40
0.6470813093
 40
0.7069174431
 40
0.7662055021
 40
0.8250488573
 40
0.8835549588
 40
0.9418344159
 40
1.0
 40
1.0
 40
1.0
 40
1.0
 10
14.3543240085
 20
12.1894357684
 30
0.0
 10
14.347689907
 20
12.2029546459
 30
0.0
 10
14.3385486352
 20
12.2234263218
 30
0.0
 10
14.32812273
 20
12.2511316566
 30
0.0
 10
14.3213432925
 20
12.2716705822
 30
0.0
 10
14.3155422123
 20
12.2921317921
 30
0.0
 10
14.3107249664
 20
12.3124963103
 30
0.0
 10
14.3068964334
 20
12.3327445107
 30
0.0
 10
14.304060509
 20
12.3528570466
 30
0.0
 10
14.3022201544
 20
12.372814595
 30
0.0
 10
14.301377345
 20
12.3925979528
 30
0.0
 10
14.3015331094
 20
12.412188029
 30
0.0
 10
14.3026875228
 20
12.4315658855
 30
0.0
 10
14.304839628
 20
12.4507126783
 30
0.0
 10
14.3079875248
 20
12.4696099915
 30
0.0
 10
14.312128041
 20
12.4882387378
 30
0.0
 10
14.3155491739
 20
12.5004724688
 30
0.0
 10
14.3174215323
 20
12.5065314445
 30
0.0
  0
SPLINE
  5
431
100
AcDbEntity
  8
LAYER_CHAMFER_FEAT
100
AcDbSpline
 62
7
  6
CONTINUOUS
 70
0
 71
3
 72
23
 73
19
 74
0
 42
0.0000001
 43
0.0000001
 44
0.0000000001
 40
0.0
 40
0.0
 40
0.0
 40
0.0
 40
0.0739039217
 40
0.1460164681
 40
0.2163425743
 40
0.2849016436
 40
0.3517287483
 40
0.4168753226
 40
0.480410088
 40
0.5424200078
 40
0.6030105392
 40
0.6623057927
 40
0.7204484611
 40
0.7775988306
 40
0.833933314
 40
0.8896424713
 40
0.9449281327
 40
1.0
 40
1.0
 40
1.0
 40
1.0
 10
15.0485911986
 20
11.8838381837
 30
0.0
 10
15.0459222808
 20
11.8830142377
 30
0.0
 10
15.0406815528
 20
11.8812786637
 30
0.0
 10
15.0330354725
 20
11.8783738854
 30
0.0
 10
15.0257143799
 20
11.8752046982
 30
0.0
 10
15.0187323437
 20
11.8717770241
 30
0.0
 10
15.0121025653
 20
11.8680972427
 30
0.0
 10
15.0058376785
 20
11.8641721695
 30
0.0
 10
14.9999496685
 20
11.8600090424
 30
0.0
 10
14.9944498103
 20
11.8556156111
 30
0.0
 10
14.9893487133
 20
11.8510000331
 30
0.0
 10
14.9846563252
 20
11.8461708775
 30
0.0
 10
14.9803818185
 20
11.841137226
 30
0.0
 10
14.9765336323
 20
11.8359085763
 30
0.0
 10
14.9731194925
 20
11.8304948929
 30
0.0
 10
14.9701461943
 20
11.8249064808
 30
0.0
 10
14.9676198375
 20
11.8191546497
 30
0.0
 10
14.9662357565
 20
11.8152149567
 30
0.0
 10
14.9656212071
 20
11.8132263002
 30
0.0
  0
SPLINE
  5
432
100
AcDbEntity
  8
LAYER_CHAMFER_FEAT
100
AcDbSpline
 62
7
  6
CONTINUOUS
 70
0
 71
3
 72
23
 73
19
 74
0
 42
0.0000001
 43
0.0000001
 44
0.0000000001
 40
0.0
 40
0.0
 40
0.0
 40
0.0
 40
0.0739436678
 40
0.1460916248
 40
0.2164483484
 40
0.2850328181
 40
0.3518794995
 40
0.4170396009
 40
0.4805817666
 40
0.542592737
 40
0.6031780961
 40
0.6624623204
 40
0.7205884032
 40
0.7777172142
 40
0.834026003
 40
0.8897061717
 40
0.9449605559
 40
1.0
 40
1.0
 40
1.0
 40
1.0
 10
15.4144092776
 20
11.7710326795
 30
0.0
 10
15.4161595913
 20
11.768841063
 30
0.0
 10
15.4195299751
 20
11.7644399735
 30
0.0
 10
15.4242363846
 20
11.7577095294
 30
0.0
 10
15.4285231555
 20
11.7509433815
 30
0.0
 10
15.4323819259
 20
11.7441544752
 30
0.0
 10
15.4358052309
 20
11.7373556023
 30
0.0
 10
15.4387864268
 20
11.7305596522
 30
0.0
 10
15.4413196721
 20
11.7237794933
 30
0.0
 10
15.4433998815
 20
11.7170279707
 30
0.0
 10
15.4450228537
 20
11.7103179328
 30
0.0
 10
15.4461852284
 20
11.7036621938
 30
0.0
 10
15.4468844352
 20
11.6970735258
 30
0.0
 10
15.4471188304
 20
11.6905646562
 30
0.0
 10
15.4468877192
 20
11.6841482866
 30
0.0
 10
15.4461912307
 20
11.6778368687
 30
0.0
 10
15.4450306675
 20
11.6716433197
 30
0.0
 10
15.4439480196
 20
11.6675972633
 30
0.0
 10
15.4433316194
 20
11.6656026175
 30
0.0
  0
SPLINE
  5
433
100
AcDbEntity
  8
LAYER_FEATURE
100
AcDbSpline
 62
7
  6
CONTINUOUS
 70
0
 71
3
 72
39
 73
35
 74
0
 42
0.0000001
 43
0.0000001
 44
0.0000000001
 40
0.0
 40
0.0
 40
0.0
 40
0.0
 40
0.0202790618
 40
0.0417769734
 40
0.0645047683
 40
0.088457389
 40
0.1136160365
 40
0.139950159
 40
0.1674191595
 40
0.1959737238
 40
0.225556867
 40
0.2561048794
 40
0.2875482221
 40
0.3198122362
 40
0.3528177379
 40
0.386481608
 40
0.4207174009
 40
0.4554358481
 40
0.4905453185
 40
0.5259523001
 40
0.5615618996
 40
0.5972782806
 40
0.6330050961
 40
0.6686459545
 40
0.7041048759
 40
0.7392867167
 40
0.7740976211
 40
0.8084455377
 40
0.8422406052
 40
0.8753957699
 40
0.9078272053
 40
0.939454174
 40
0.9702031791
 40
1.0
 40
1.0
 40
1.0
 40
1.0
 10
16.1393696148
 20
12.0686346072
 30
0.0
 10
16.1402666005
 20
12.0675599815
 30
0.0
 10
16.1420325641
 20
12.0652768689
 30
0.0
 10
16.1445270985
 20
12.0615857239
 30
0.0
 10
16.1469364392
 20
12.0575404205
 30
0.0
 10
16.1492529962
 20
12.0531538154
 30
0.0
 10
16.151469649
 20
12.0484395443
 30
0.0
 10
16.1535794573
 20
12.0434124189
 30
0.0
 10
16.1555757854
 20
12.0380882409
 30
0.0
 10
16.1574523136
 20
12.0324837884
 30
0.0
 10
16.1592030908
 20
12.0266167599
 30
0.0
 10
16.1608225643
 20
12.0205057165
 30
0.0
 10
16.1623055816
 20
12.0141700078
 30
0.0
 10
16.1636474128
 20
12.0076297082
 30
0.0
 10
16.1648437781
 20
12.0009055579
 30
0.0
 10
16.1658908729
 20
11.9940188952
 30
0.0
 10
16.1667853581
 20
11.9869915796
 30
0.0
 10
16.1675243744
 20
11.9798459213
 30
0.0
 10
16.1681055591
 20
11.9726046135
 30
0.0
 10
16.1685270676
 20
11.9652906588
 30
0.0
 10
16.1687875559
 20
11.9579272919
 30
0.0
 10
16.1688861876
 20
11.9505379055
 30
0.0
 10
16.1688226419
 20
11.9431459768
 30
0.0
 10
16.1685971312
 20
11.9357749911
 30
0.0
 10
16.1682103768
 20
11.9284483657
 30
0.0
 10
16.1676636085
 20
11.9211893766
 30
0.0
 10
16.1669585637
 20
11.9140210823
 30
0.0
 10
16.1660975005
 20
11.9069662497
 30
0.0
 10
16.1650831704
 20
11.9000472763
 30
0.0
 10
16.1639188025
 20
11.8932861195
 30
0.0
 10
16.1626081
 20
11.8867042834
 30
0.0
 10
16.1611552562
 20
11.8803225004
 30
0.0
 10
16.1595648886
 20
11.8741612343
 30
0.0
 10
16.158397143
 20
11.8701475796
 30
0.0
 10
16.1577898895
 20
11.8681825063
 30
0.0
  0
SPLINE
  5
434
100
AcDbEntity
  8
LAYER_FEATURE
100
AcDbSpline
 62
7
  6
CONTINUOUS
 70
0
 71
3
 72
15
 73
11
 74
0
 42
0.0000001
 43
0.0000001
 44
0.0000000001
 40
0.0
 40
0.0
 40
0.0
 40
0.0
 40
0.103041611
 40
0.2124414656
 40
0.3282548063
 40
0.450449333
 40
0.5789186776
 40
0.713488756
 40
0.8539451102
 40
1.0
 40
1.0
 40
1.0
 40
1.0
 10
16.1393696144
 20
11.8308408628
 30
0.0
 10
16.1402916013
 20
11.8319454396
 30
0.0
 10
16.1421058689
 20
11.8342959897
 30
0.0
 10
16.1446642005
 20
11.8381023385
 30
0.0
 10
16.1471322198
 20
11.8422814646
 30
0.0
 10
16.1495017413
 20
11.8468193773
 30
0.0
 10
16.151765053
 20
11.8517011732
 30
0.0
 10
16.1539147667
 20
11.8569107789
 30
0.0
 10
16.1559436022
 20
11.8624307548
 30
0.0
 10
16.1571877593
 20
11.8662340124
 30
0.0
 10
16.1577898895
 20
11.8681825063
 30
0.0
  0
SPLINE
  5
435
100
AcDbEntity
  8
02___PRT_ALL_AXES
100
AcDbSpline
 62
7
  6
CONTINUOUS
 70
0
 71
3
 72
26
 73
22
 74
0
 42
0.0000001
 43
0.0000001
 44
0.0000000001
 40
0.0
 40
0.0
 40
0.0
 40
0.0
 40
0.0205464268
 40
0.0412395896
 40
0.0621689026
 40
0.083420442
 40
0.1050756658
 40
0.1272111222
 40
0.1731841751
 40
0.2218535951
 40
0.2736199878
 40
0.3287961724
 40
0.3876172514
 40
0.4502533883
 40
0.5168179848
 40
0.5873783934
 40
0.6619627973
 40
0.7405630832
 40
0.8231458601
 40
0.9096569449
 40
1.0
 40
1.0
 40
1.0
 40
1.0
 10
16.1125557431
 20
11.7857377367
 30
0.0
 10
16.1122016525
 20
11.7857377393
 30
0.0
 10
16.1114907135
 20
11.7857618874
 30
0.0
 10
16.1104240364
 20
11.7858700877
 30
0.0
 10
16.1093547893
 20
11.7860503009
 30
0.0
 10
16.1082832014
 20
11.7863024396
 30
0.0
 10
16.1072093679
 20
11.7866263522
 30
0.0
 10
16.1057566821
 20
11.7871603605
 30
0.0
 10
16.103930392
 20
11.7880160536
 30
0.0
 10
16.1017623262
 20
11.7893138297
 30
0.0
 10
16.099590649
 20
11.7908926366
 30
0.0
 10
16.0974164257
 20
11.7927495199
 30
0.0
 10
16.0952406667
 20
11.7948813938
 30
0.0
 10
16.0930648755
 20
11.7972848258
 30
0.0
 10
16.0908908261
 20
11.7999559176
 30
0.0
 10
16.0887206588
 20
11.8028903003
 30
0.0
 10
16.0865568357
 20
11.8060830596
 30
0.0
 10
16.0844020578
 20
11.8095287394
 30
0.0
 10
16.0822592877
 20
11.8132214669
 30
0.0
 10
16.0801318708
 20
11.8171546147
 30
0.0
 10
16.0787554198
 20
11.8198744031
 30
0.0
 10
16.0780695195
 20
11.8212721209
 30
0.0
  0
SPLINE
  5
436
100
AcDbEntity
  8
LAYER_FEATURE
100
AcDbSpline
 62
7
  6
CONTINUOUS
 70
0
 71
3
 72
39
 73
35
 74
0
 42
0.0000001
 43
0.0000001
 44
0.0000000001
 40
0.0
 40
0.0
 40
0.0
 40
0.0
 40
0.026212357
 40
0.0524644496
 40
0.0787957155
 40
0.1052450082
 40
0.1318503143
 40
0.158648498
 40
0.1856750763
 40
0.2129640036
 40
0.2405474958
 40
0.2684559
 40
0.2967175707
 40
0.3253587776
 40
0.3544036699
 40
0.3838742371
 40
0.4137902829
 40
0.4441694602
 40
0.4750272944
 40
0.5063771983
 40
0.5382305475
 40
0.5705967426
 40
0.6034832443
 40
0.6368956633
 40
0.6708378426
 40
0.7053119014
 40
0.7403183203
 40
0.7758560331
 40
0.8119224724
 40
0.8485136419
 40
0.8856242092
 40
0.9232475526
 40
0.9613758162
 40
1.0
 40
1.0
 40
1.0
 40
1.0
 10
14.0078651761
 20
12.6021915937
 30
0.0
 10
14.0057211852
 20
12.5952536261
 30
0.0
 10
14.0017595659
 20
12.5812628419
 30
0.0
 10
13.9968143469
 20
12.5599933838
 30
0.0
 10
13.9928677679
 20
12.5384490204
 30
0.0
 10
13.9899229542
 20
12.5166465335
 30
0.0
 10
13.9879819546
 20
12.4946021109
 30
0.0
 10
13.9870460992
 20
12.4723323084
 30
0.0
 10
13.9871159875
 20
12.4498537649
 30
0.0
 10
13.988191427
 20
12.4271832665
 30
0.0
 10
13.9902714341
 20
12.4043377041
 30
0.0
 10
13.993354331
 20
12.3813340726
 30
0.0
 10
13.9974376851
 20
12.3581894585
 30
0.0
 10
14.0025182775
 20
12.3349210173
 30
0.0
 10
14.0085922091
 20
12.3115459798
 30
0.0
 10
14.0156548645
 20
12.2880816424
 30
0.0
 10
14.0237008503
 20
12.2645453342
 30
0.0
 10
14.0327240992
 20
12.2409544336
 30
0.0
 10
14.0427178583
 20
12.2173263618
 30
0.0
 10
14.0536746114
 20
12.1936785377
 30
0.0
 10
14.0655861697
 20
12.1700283987
 30
0.0
 10
14.0784436826
 20
12.1463933994
 30
0.0
 10
14.0922375606
 20
12.122790958
 30
0.0
 10
14.1069575426
 20
12.0992384731
 30
0.0
 10
14.1225927266
 20
12.0757533301
 30
0.0
 10
14.1391315054
 20
12.0523528469
 30
0.0
 10
14.1565616044
 20
12.0290542761
 30
0.0
 10
14.1748701314
 20
12.0058748241
 30
0.0
 10
14.1940435269
 20
11.9828316001
 30
0.0
 10
14.2140675802
 20
11.9599415975
 30
0.0
 10
14.234927475
 20
11.9372217382
 30
0.0
 10
14.2566078193
 20
11.9146887752
 30
0.0
 10
14.2790924084
 20
11.8923594643
 30
0.0
 10
14.2945093126
 20
11.8777130503
 30
0.0
 10
14.3023454941
 20
11.8704269039
 30
0.0
  0
SPLINE
  5
437
100
AcDbEntity
  8
LAYER_FEATURE
100
AcDbSpline
 62
7
  6
CONTINUOUS
 70
0
 71
3
 72
23
 73
19
 74
0
 42
0.0000001
 43
0.0000001
 44
0.0000000001
 40
0.0
 40
0.0
 40
0.0
 40
0.0
 40
0.0585445284
 40
0.1171918619
 40
0.1760439145
 40
0.2352008468
 40
0.294760248
 40
0.3548163718
 40
0.4154594764
 40
0.4767752538
 40
0.5388443428
 40
0.601741935
 40
0.6655375153
 40
0.7302946762
 40
0.79607099
 40
0.8629179669
 40
0.9308811109
 40
1.0
 40
1.0
 40
1.0
 40
1.0
 10
14.2436377751
 20
13.3651520036
 30
0.0
 10
14.2413298509
 20
13.357683547
 30
0.0
 10
14.2370919232
 20
13.3426123956
 30
0.0
 10
14.2318913387
 20
13.3196794195
 30
0.0
 10
14.2278487569
 20
13.2964307166
 30
0.0
 10
14.2249678426
 20
13.2728873141
 30
0.0
 10
14.2232509188
 20
13.249069493
 30
0.0
 10
14.2226993002
 20
13.2249980071
 30
0.0
 10
14.2233132586
 20
13.2006937131
 30
0.0
 10
14.2250920659
 20
13.1761776422
 30
0.0
 10
14.2280339795
 20
13.15147096
 30
0.0
 10
14.2321362151
 20
13.1265949482
 30
0.0
 10
14.2373950172
 20
13.1015709942
 30
0.0
 10
14.2438056721
 20
13.0764205691
 30
0.0
 10
14.2513624638
 20
13.0511652568
 30
0.0
 10
14.2600587519
 20
13.0258265613
 30
0.0
 10
14.269886717
 20
13.0004265658
 30
0.0
 10
14.2771257153
 20
12.9836103207
 30
0.0
 10
14.2809257088
 20
12.9752001298
 30
0.0
  0
SPLINE
  5
438
100
AcDbEntity
  8
LAYER_FEATURE
100
AcDbSpline
 62
7
  6
CONTINUOUS
 70
0
 71
3
 72
39
 73
35
 74
0
 42
0.0000001
 43
0.0000001
 44
0.0000000001
 40
0.0
 40
0.0
 40
0.0
 40
0.0
 40
0.0262125184
 40
0.0524647703
 40
0.0787961926
 40
0.1052456368
 40
0.1318510863
 40
0.1586494059
 40
0.1856761117
 40
0.2129651534
 40
0.2405487484
 40
0.268457245
 40
0.2967189916
 40
0.3253602599
 40
0.3544052022
 40
0.3838758017
 40
0.4137918635
 40
0.4441710453
 40
0.4750288672
 40
0.5063787418
 40
0.5382320507
 40
0.5705981916
 40
0.6034846224
 40
0.6368969605
 40
0.6708390489
 40
0.7053130016
 40
0.7403193061
 40
0.7758568986
 40
0.8119232052
 40
0.8485142358
 40
0.8856246624
 40
0.9232478569
 40
0.9613759672
 40
1.0
 40
1.0
 40
1.0
 40
1.0
 10
16.6792218559
 20
11.7766799432
 30
0.0
 10
16.6770779193
 20
11.7697421513
 30
0.0
 10
16.6724557795
 20
11.7559558695
 30
0.0
 10
16.6645394776
 20
11.7356051218
 30
0.0
 10
16.6556435825
 20
11.7155907868
 30
0.0
 10
16.6457749903
 20
11.6959284811
 30
0.0
 10
16.6349411592
 20
11.676632715
 30
0.0
 10
16.6231503125
 20
11.6577179162
 30
0.0
 10
16.6104113368
 20
11.639198165
 30
0.0
 10
16.5967338833
 20
11.6210871952
 30
0.0
 10
16.5821282773
 20
11.6033984068
 30
0.0
 10
16.5666054824
 20
11.5861448933
 30
0.0
 10
16.5501771676
 20
11.5693393698
 30
0.0
 10
16.5328556574
 20
11.5529941922
 30
0.0
 10
16.5146538809
 20
11.5371213993
 30
0.0
 10
16.4955854232
 20
11.5217326478
 30
0.0
 10
16.4756645072
 20
11.5068392067
 30
0.0
 10
16.4549059354
 20
11.4924520156
 30
0.0
 10
16.4333251223
 20
11.4785816321
 30
0.0
 10
16.4109380995
 20
11.465238196
 30
0.0
 10
16.3877614547
 20
11.4524314993
 30
0.0
 10
16.3638123473
 20
11.4401709508
 30
0.0
 10
16.3391085245
 20
11.4284655126
 30
0.0
 10
16.3136682644
 20
11.4173237756
 30
0.0
 10
16.2875103767
 20
11.4067539422
 30
0.0
 10
16.2606542198
 20
11.3967637459
 30
0.0
 10
16.2331196535
 20
11.3873605212
 30
0.0
 10
16.2049270271
 20
11.3785512058
 30
0.0
 10
16.176097193
 20
11.3703422557
 30
0.0
 10
16.1466514654
 20
11.3627396973
 30
0.0
 10
16.1166116202
 20
11.3557491521
 30
0.0
 10
16.085999821
 20
11.3493757485
 30
0.0
 10
16.0548388961
 20
11.3436241851
 30
0.0
 10
16.033847526
 20
11.3402287895
 30
0.0
 10
16.0232672904
 20
11.3386337401
 30
0.0
  0
SPLINE
  5
439
100
AcDbEntity
  8
LAYER_FEATURE
100
AcDbSpline
 62
7
  6
CONTINUOUS
 70
0
 71
3
 72
23
 73
19
 74
0
 42
0.0000001
 43
0.0000001
 44
0.0000000001
 40
0.0
 40
0.0
 40
0.0
 40
0.0
 40
0.0585459415
 40
0.1171946471
 40
0.1760479913
 40
0.2352060979
 40
0.2947665165
 40
0.3548234663
 40
0.4154671778
 40
0.4767833181
 40
0.5388524952
 40
0.6017498821
 40
0.665544953
 40
0.7303012897
 40
0.7960764461
 40
0.8629219322
 40
0.9308832575
 40
1.0
 40
1.0
 40
1.0
 40
1.0
 10
16.9149944549
 20
12.5396403532
 30
0.0
 10
16.9126870163
 20
12.5321734679
 30
0.0
 10
16.9076845104
 20
12.5173420431
 30
0.0
 10
16.899042485
 20
12.4954777134
 30
0.0
 10
16.8892666896
 20
12.4740058407
 30
0.0
 10
16.8783659522
 20
12.4529458451
 30
0.0
 10
16.8663498047
 20
12.4323157642
 30
0.0
 10
16.8532288623
 20
12.4121334635
 30
0.0
 10
16.8390146514
 20
12.3924163099
 30
0.0
 10
16.823719622
 20
12.3731812538
 30
0.0
 10
16.8073571615
 20
12.3544447647
 30
0.0
 10
16.7899415585
 20
12.3362228382
 30
0.0
 10
16.7714879631
 20
12.3185310092
 30
0.0
 10
16.7520123655
 20
12.3013843427
 30
0.0
 10
16.7315316635
 20
12.2847974119
 30
0.0
 10
16.710063451
 20
12.2687842252
 30
0.0
 10
16.6876266243
 20
12.253358602
 30
0.0
 10
16.6721676956
 20
12.2435589032
 30
0.0
 10
16.6642880909
 20
12.2387591264
 30
0.0
  0
SPLINE
  5
43A
100
AcDbEntity
  8
LAYER_CUT_FEAT
100
AcDbSpline
 62
7
  6
CONTINUOUS
 70
0
 71
3
 72
29
 73
25
 74
0
 42
0.0000001
 43
0.0000001
 44
0.0000000001
 40
0.0
 40
0.0
 40
0.0
 40
0.0
 40
0.0287409247
 40
0.0574986233
 40
0.0862898181
 40
0.1151311418
 40
0.144039074
 40
0.1730299145
 40
0.2021197256
 40
0.2313242889
 40
0.2901334012
 40
0.3495826066
 40
0.4097846038
 40
0.4708445662
 40
0.5328594854
 40
0.5642554092
 40
0.5959224316
 40
0.6601033517
 40
0.7254772997
 40
0.7586331837
 40
0.7921095541
 40
0.8600444333
 40
0.9293295417
 40
1.0
 40
1.0
 40
1.0
 40
1.0
 10
16.3696654998
 20
11.8723400924
 30
0.0
 10
16.36864418
 20
11.8690350886
 30
0.0
 10
16.366503328
 20
11.8624528639
 30
0.0
 10
16.3630009775
 20
11.852674008
 30
0.0
 10
16.3592081433
 20
11.8429910375
 30
0.0
 10
16.3551258889
 20
11.8334068632
 30
0.0
 10
16.3507554409
 20
11.8239241612
 30
0.0
 10
16.3460980247
 20
11.814545695
 30
0.0
 10
16.3411549305
 20
11.8052740535
 30
0.0
 10
16.3341696864
 20
11.7930305675
 30
0.0
 10
16.3247182397
 20
11.7779959048
 30
0.0
 10
16.3122847094
 20
11.7604682764
 30
0.0
 10
16.2987469249
 20
11.7434313469
 30
0.0
 10
16.2841211685
 20
11.7269051288
 30
0.0
 10
16.2710937828
 20
11.7136286855
 30
0.0
 10
16.2601567712
 20
11.703282286
 30
0.0
 10
16.2487759681
 20
11.6930321975
 30
0.0
 10
16.2338901951
 20
11.6805724144
 30
0.0
 10
16.2183001495
 20
11.6687087475
 30
0.0
 10
16.2053417551
 20
11.6595138949
 30
0.0
 10
16.1919295677
 20
11.6504326277
 30
0.0
 10
16.174547448
 20
11.6394678833
 30
0.0
 10
16.1528453161
 20
11.6270017561
 30
0.0
 10
16.1379123008
 20
11.6191963793
 30
0.0
 10
16.1303009739
 20
11.6153995325
 30
0.0
  0
SPLINE
  5
43B
100
AcDbEntity
  8
02___PRT_ALL_AXES
100
AcDbSpline
 62
7
  6
CONTINUOUS
 70
0
 71
3
 72
50
 73
46
 74
0
 42
0.0000001
 43
0.0000001
 44
0.0000000001
 40
0.0
 40
0.0
 40
0.0
 40
0.0
 40
0.0134847673
 40
0.0269526536
 40
0.040410824
 40
0.0538666288
 40
0.0673276099
 40
0.0808014483
 40
0.0942959486
 40
0.1078189981
 40
0.1213785515
 40
0.1349825685
 40
0.1486389789
 40
0.1623556295
 40
0.1761402428
 40
0.1900003624
 40
0.2039433047
 40
0.2179761011
 40
0.2321054409
 40
0.2463376389
 40
0.2751281697
 40
0.3043946248
 40
0.3192193136
 40
0.3341743189
 40
0.3644801162
 40
0.3953293005
 40
0.4109606589
 40
0.4267276046
 40
0.4586580386
 40
0.4911050269
 40
0.5240386881
 40
0.5574192764
 40
0.5911976593
 40
0.6253158542
 40
0.6597076939
 40
0.6942994442
 40
0.7290106629
 40
0.7637550373
 40
0.7984414955
 40
0.8329754352
 40
0.8672601657
 40
0.9011986052
 40
0.9346951633
 40
0.9676576818
 40
1.0
 40
1.0
 40
1.0
 40
1.0
 10
15.1388176127
 20
12.5882498841
 30
0.0
 10
15.1394519329
 20
12.5869572779
 30
0.0
 10
15.1406639388
 20
12.5843458398
 30
0.0
 10
15.1423087396
 20
12.5803552852
 30
0.0
 10
15.1437766955
 20
12.576299537
 30
0.0
 10
15.1450654291
 20
12.572184122
 30
0.0
 10
15.1461729993
 20
12.5680145568
 30
0.0
 10
15.1470974862
 20
12.5637963849
 30
0.0
 10
15.1478373761
 20
12.559535224
 30
0.0
 10
15.148391202
 20
12.5552366859
 30
0.0
 10
15.1487579217
 20
12.5509064291
 30
0.0
 10
15.1489365575
 20
12.5465501004
 30
0.0
 10
15.1489265702
 20
12.5421733578
 30
0.0
 10
15.1487275047
 20
12.5377818424
 30
0.0
 10
15.1483393502
 20
12.5333811662
 30
0.0
 10
15.1477622043
 20
12.5289769151
 30
0.0
 10
15.1469965975
 20
12.5245746027
 30
0.0
 10
15.1460432077
 20
12.5201797258
 30
0.0
 10
15.1449030862
 20
12.5157975933
 30
0.0
 10
15.143129091
 20
12.509957171
 30
0.0
 10
15.1404448561
 20
12.5027110631
 30
0.0
 10
15.1371850639
 20
12.4956360838
 30
0.0
 10
15.1342332939
 20
12.4900636475
 30
0.0
 10
15.13102549
 20
12.4845059794
 30
0.0
 10
15.1265875191
 20
12.477689521
 30
0.0
 10
15.1216521445
 20
12.4711343655
 30
0.0
 10
15.1173999859
 20
12.4660246603
 30
0.0
 10
15.1129104877
 20
12.4609666904
 30
0.0
 10
15.1069318099
 20
12.4548359236
 30
0.0
 10
15.0992439828
 20
12.4478374269
 30
0.0
 10
15.0910512131
 20
12.4411891754
 30
0.0
 10
15.0823947628
 20
12.4349124555
 30
0.0
 10
15.0733174216
 20
12.429026284
 30
0.0
 10
15.0638636281
 20
12.4235479257
 30
0.0
 10
15.0540792485
 20
12.4184929818
 30
0.0
 10
15.0440114741
 20
12.4138755614
 30
0.0
 10
15.0337087057
 20
12.4097084002
 30
0.0
 10
15.0232204277
 20
12.4060029407
 30
0.0
 10
15.0125970593
 20
12.4027693823
 30
0.0
 10
15.0018897691
 20
12.400016691
 30
0.0
 10
14.9911502258
 20
12.3977525857
 30
0.0
 10
14.9804303511
 20
12.3959834948
 30
0.0
 10
14.9697818335
 20
12.3947145225
 30
0.0
 10
14.9592562955
 20
12.3939493765
 30
0.0
 10
14.9522821901
 20
12.3937749017
 30
0.0
 10
14.9488287849
 20
12.3937749017
 30
0.0
  0
SPLINE
  5
43C
100
AcDbEntity
  8
02___PRT_ALL_AXES
100
AcDbSpline
 62
7
  6
CONTINUOUS
 70
0
 71
3
 72
72
 73
68
 74
0
 42
0.0000001
 43
0.0000001
 44
0.0000000001
 40
0.0
 40
0.0
 40
0.0
 40
0.0
 40
0.0106253559
 40
0.0212733553
 40
0.031966404
 40
0.0427264401
 40
0.0535747197
 40
0.0645316226
 40
0.0756164847
 40
0.0868474578
 40
0.0982413996
 40
0.1098137918
 40
0.1215786866
 40
0.1335486761
 40
0.1396144689
 40
0.1457355835
 40
0.158147678
 40
0.1707938919
 40
0.1836810623
 40
0.1968146739
 40
0.2101989109
 40
0.2238367117
 40
0.2377298265
 40
0.2518788761
 40
0.2662834104
 40
0.2809419663
 40
0.2958521243
 40
0.3110105633
 40
0.3264131132
 40
0.3420548056
 40
0.3579299225
 40
0.374032043
 40
0.3903540879
 40
0.406888362
 40
0.4236265955
 40
0.4405599823
 40
0.4576792183
 40
0.4749745369
 40
0.4924357441
 40
0.5100522523
 40
0.5278131126
 40
0.545707047
 40
0.5637224785
 40
0.5818475618
 40
0.6000702124
 40
0.6183781354
 40
0.6367588541
 40
0.6551997379
 40
0.6736880299
 40
0.6922108743
 40
0.7107553436
 40
0.7293084655
 40
0.7478572497
 40
0.7663887148
 40
0.7848899155
 40
0.8033479692
 40
0.8217500831
 40
0.8400835816
 40
0.8583359338
 40
0.8764947813
 40
0.8945479665
 40
0.9124835612
 40
0.9302898968
 40
0.9479555893
 40
0.9654695892
 40
0.9828211485
 40
1.0
 40
1.0
 40
1.0
 40
1.0
 10
14.3154563297
 20
11.9819625285
 30
0.0
 10
14.3137809182
 20
11.9765408996
 30
0.0
 10
14.3107321272
 20
11.9655889324
 30
0.0
 10
14.3070847737
 20
11.9489023286
 30
0.0
 10
14.3043646498
 20
11.9319664375
 30
0.0
 10
14.3025747263
 20
11.914799911
 30
0.0
 10
14.3017166779
 20
11.8974207473
 30
0.0
 10
14.3017912303
 20
11.8798473581
 30
0.0
 10
14.3027980816
 20
11.8620982452
 30
0.0
 10
14.3047359426
 20
11.8441920531
 30
0.0
 10
14.3076025378
 20
11.826147549
 30
0.0
 10
14.3113946488
 20
11.8079835301
 30
0.0
 10
14.3161080213
 20
11.7897191231
 30
0.0
 10
14.3207785541
 20
11.7744985454
 30
0.0
 10
14.3249630431
 20
11.7622938525
 30
0.0
 10
14.3294892943
 20
11.7499598623
 30
0.0
 10
14.3357202792
 20
11.7345122773
 30
0.0
 10
14.3440583334
 20
11.7160361551
 30
0.0
 10
14.3532828925
 20
11.6975547145
 30
0.0
 10
14.3633841691
 20
11.6790873211
 30
0.0
 10
14.3743515917
 20
11.6606530368
 30
0.0
 10
14.386173676
 20
11.6422709708
 30
0.0
 10
14.3988380716
 20
11.6239601602
 30
0.0
 10
14.4123315624
 20
11.6057395794
 30
0.0
 10
14.4266400812
 20
11.5876281144
 30
0.0
 10
14.4417487215
 20
11.569644545
 30
0.0
 10
14.4576417509
 20
11.551807525
 30
0.0
 10
14.4743026262
 20
11.534135563
 30
0.0
 10
14.4917140089
 20
11.5166470025
 30
0.0
 10
14.5098577822
 20
11.4993600026
 30
0.0
 10
14.5287150682
 20
11.4822925181
 30
0.0
 10
14.5482662477
 20
11.4654622809
 30
0.0
 10
14.5684909799
 20
11.448886781
 30
0.0
 10
14.5893682233
 20
11.4325832476
 30
0.0
 10
14.6108762568
 20
11.4165686305
 30
0.0
 10
14.6329927024
 20
11.4008595828
 30
0.0
 10
14.655694548
 20
11.3854724423
 30
0.0
 10
14.6789581709
 20
11.3704232141
 30
0.0
 10
14.7027593627
 20
11.3557275539
 30
0.0
 10
14.7270733543
 20
11.3414007512
 30
0.0
 10
14.7518748421
 20
11.3274577133
 30
0.0
 10
14.777138014
 20
11.3139129498
 30
0.0
 10
14.8028365765
 20
11.3007805566
 30
0.0
 10
14.828943782
 20
11.2880742016
 30
0.0
 10
14.8554324565
 20
11.2758071102
 30
0.0
 10
14.8822750281
 20
11.2639920504
 30
0.0
 10
14.9094435555
 20
11.2526413205
 30
0.0
 10
14.9369097579
 20
11.2417667358
 30
0.0
 10
14.964645044
 20
11.2313796161
 30
0.0
 10
14.9926205421
 20
11.2214907745
 30
0.0
 10
15.02080713
 20
11.2121105051
 30
0.0
 10
15.0491754659
 20
11.2032485731
 30
0.0
 10
15.0776960183
 20
11.194914204
 30
0.0
 10
15.1063390973
 20
11.1871160733
 30
0.0
 10
15.1350748857
 20
11.1798622986
 30
0.0
 10
15.1638734702
 20
11.1731604309
 30
0.0
 10
15.1927048723
 20
11.1670174466
 30
0.0
 10
15.22153908
 20
11.1614397403
 30
0.0
 10
15.2503460792
 20
11.1564331184
 30
0.0
 10
15.2790958846
 20
11.1520027927
 30
0.0
 10
15.3077585716
 20
11.1481533751
 30
0.0
 10
15.3363043069
 20
11.1448888723
 30
0.0
 10
15.3647033828
 20
11.1422126834
 30
0.0
 10
15.3929262357
 20
11.1401275929
 30
0.0
 10
15.4209435277
 20
11.1386357773
 30
0.0
 10
15.4487259478
 20
11.1377387844
 30
0.0
 10
15.4671679147
 20
11.137536919
 30
0.0
 10
15.4763424853
 20
11.137536919
 30
0.0
  0
SPLINE
  5
43D
100
AcDbEntity
  8
02___PRT_ALL_AXES
100
AcDbSpline
 62
7
  6
CONTINUOUS
 70
0
 71
3
 72
44
 73
40
 74
0
 42
0.0000001
 43
0.0000001
 44
0.0000000001
 40
0.0
 40
0.0
 40
0.0
 40
0.0
 40
0.0123993417
 40
0.0248058637
 40
0.0372267258
 40
0.0496690472
 40
0.0621398854
 40
0.0746462182
 40
0.0871949242
 40
0.0997927642
 40
0.1251597126
 40
0.150800774
 40
0.1767642592
 40
0.2030952771
 40
0.2298354525
 40
0.2570227263
 40
0.2846912311
 40
0.3128712333
 40
0.3271623181
 40
0.3415908549
 40
0.3708692406
 40
0.4007269639
 40
0.43117926
 40
0.4622378794
 40
0.4939112368
 40
0.5262045682
 40
0.5591200915
 40
0.5926571677
 40
0.6268124597
 40
0.6615800873
 40
0.6969517801
 40
0.7329170223
 40
0.7694631925
 40
0.8065756976
 40
0.8442380996
 40
0.8824322313
 40
0.9211383507
 40
0.9603351032
 40
1.0
 40
1.0
 40
1.0
 40
1.0
 10
16.0753415225
 20
11.438116871
 30
0.0
 10
16.0744690838
 20
11.4352936611
 30
0.0
 10
16.0726406523
 20
11.4296708858
 30
0.0
 10
16.0696503154
 20
11.4213171062
 30
0.0
 10
16.0664127814
 20
11.4130449044
 30
0.0
 10
16.0629289889
 20
11.4048567317
 30
0.0
 10
16.0591999279
 20
11.3967548778
 30
0.0
 10
16.0552266756
 20
11.3887416677
 30
0.0
 10
16.0510103056
 20
11.3808193041
 30
0.0
 10
16.0450528444
 20
11.3703571568
 30
0.0
 10
16.0369934258
 20
11.3575087875
 30
0.0
 10
16.0263927408
 20
11.3425276179
 30
0.0
 10
16.0148521706
 20
11.3279636278
 30
0.0
 10
16.0023852857
 20
11.3138336051
 30
0.0
 10
15.9890064534
 20
11.3001533435
 30
0.0
 10
15.9747310337
 20
11.2869381628
 30
0.0
 10
15.9595755712
 20
11.2742029567
 30
0.0
 10
15.9462894538
 20
11.2640497944
 30
0.0
 10
15.9352463821
 20
11.256179054
 30
0.0
 10
15.9238172109
 20
11.2484046329
 30
0.0
 10
15.9090052565
 20
11.2390153601
 30
0.0
 10
15.8905113917
 20
11.2283359635
 30
0.0
 10
15.8712328539
 20
11.2182015864
 30
0.0
 10
15.8511916564
 20
11.2086236601
 30
0.0
 10
15.8304103722
 20
11.1996128142
 30
0.0
 10
15.8089124725
 20
11.1911791063
 30
0.0
 10
15.7867222053
 20
11.1833319441
 30
0.0
 10
15.7638645985
 20
11.1760800926
 30
0.0
 10
15.7403654279
 20
11.1694316574
 30
0.0
 10
15.7162511923
 20
11.1633940741
 30
0.0
 10
15.6915490843
 20
11.1579741008
 30
0.0
 10
15.6662869604
 20
11.1531778085
 30
0.0
 10
15.6404933109
 20
11.1490105733
 30
0.0
 10
15.6141972293
 20
11.1454770687
 30
0.0
 10
15.5874283767
 20
11.1425812587
 30
0.0
 10
15.5602169614
 20
11.1403263893
 30
0.0
 10
15.5325936539
 20
11.1387149952
 30
0.0
 10
15.5045897902
 20
11.1377488741
 30
0.0
 10
15.4857951923
 20
11.137536919
 30
0.0
 10
15.4763424853
 20
11.137536919
 30
0.0
  0
SPLINE
  5
43E
100
AcDbEntity
  8
LAYER_CHAMFER_FEAT
100
AcDbSpline
 62
7
  6
CONTINUOUS
 70
0
 71
3
 72
15
 73
11
 74
0
 42
0.0000001
 43
0.0000001
 44
0.0000000001
 40
0.0
 40
0.0
 40
0.0
 40
0.0
 40
0.1317625289
 40
0.2617726702
 40
0.389919117
 40
0.5161208389
 40
0.6402989068
 40
0.7623789653
 40
0.8822974848
 40
1.0
 40
1.0
 40
1.0
 40
1.0
 10
15.1076993895
 20
11.8887525656
 30
0.0
 10
15.1043799158
 20
11.8887525656
 30
0.0
 10
15.0977847804
 20
11.8886688734
 30
0.0
 10
15.0879679302
 20
11.8882869431
 30
0.0
 10
15.0783046078
 20
11.8876498443
 30
0.0
 10
15.0688089326
 20
11.8867585282
 30
0.0
 10
15.0594943022
 20
11.8856143108
 30
0.0
 10
15.0503740098
 20
11.8842187242
 30
0.0
 10
15.041461239
 20
11.8825738325
 30
0.0
 10
15.035610608
 20
11.8813004711
 30
0.0
 10
15.0327240958
 20
11.8806216302
 30
0.0
  0
SPLINE
  5
43F
100
AcDbEntity
  8
LAYER_CHAMFER_FEAT
100
AcDbSpline
 62
7
  6
CONTINUOUS
 70
0
 71
3
 72
35
 73
31
 74
0
 42
0.0000001
 43
0.0000001
 44
0.0000000001
 40
0.0
 40
0.0
 40
0.0
 40
0.0
 40
0.0305400969
 40
0.0614603693
 40
0.0927281652
 40
0.1243147984
 40
0.1561886563
 40
0.1883169165
 40
0.2206662818
 40
0.2532025699
 40
0.3186917163
 40
0.3845052288
 40
0.4503551367
 40
0.5159529971
 40
0.5485703362
 40
0.5810182256
 40
0.6132621606
 40
0.6452683379
 40
0.6770037378
 40
0.7084362942
 40
0.7395350237
 40
0.7702701119
 40
0.8006131214
 40
0.8305371115
 40
0.8600167447
 40
0.8890285344
 40
0.9175509588
 40
0.9455646046
 40
0.9730524534
 40
1.0
 40
1.0
 40
1.0
 40
1.0
 10
15.1076993895
 20
11.8887525656
 30
0.0
 10
15.1112881881
 20
11.8887525656
 30
0.0
 10
15.1185108148
 20
11.8886534843
 30
0.0
 10
15.1293997479
 20
11.8882147776
 30
0.0
 10
15.1403963913
 20
11.887485624
 30
0.0
 10
15.1514825038
 20
11.8864672678
 30
0.0
 10
15.1626402246
 20
11.8851613848
 30
0.0
 10
15.1738513174
 20
11.8835700789
 30
0.0
 10
15.1850975735
 20
11.8816959288
 30
0.0
 10
15.2001465268
 20
11.8788179911
 30
0.0
 10
15.2189242754
 20
11.8745325281
 30
0.0
 10
15.2412553677
 20
11.8683328758
 30
0.0
 10
15.2632886166
 20
11.8611050696
 30
0.0
 10
15.2813167803
 20
11.8542510862
 30
0.0
 10
15.2954687693
 20
11.848291754
 30
0.0
 10
15.3059003307
 20
11.8436050318
 30
0.0
 10
15.31615174
 20
11.838700643
 30
0.0
 10
15.3262063719
 20
11.8335865644
 30
0.0
 10
15.3360478095
 20
11.8282711079
 30
0.0
 10
15.3456600283
 20
11.8227629417
 30
0.0
 10
15.3550273772
 20
11.817071056
 30
0.0
 10
15.3641345778
 20
11.8112046886
 30
0.0
 10
15.3729668056
 20
11.8051734087
 30
0.0
 10
15.3815096842
 20
11.7989870458
 30
0.0
 10
15.3897492777
 20
11.7926556362
 30
0.0
 10
15.3976721864
 20
11.7861894993
 30
0.0
 10
15.4052655072
 20
11.7795991651
 30
0.0
 10
15.4125168795
 20
11.7728952824
 30
0.0
 10
15.4194144095
 20
11.7660888881
 30
0.0
 10
15.4238139465
 20
11.7614432459
 30
0.0
 10
15.4259500746
 20
11.7591056126
 30
0.0
  0
SPLINE
  5
440
100
AcDbEntity
  8
LAYER_FEATURE
100
AcDbSpline
 62
7
  6
CONTINUOUS
 70
0
 71
3
 72
78
 73
74
 74
0
 42
0.0000001
 43
0.0000001
 44
0.0000000001
 40
0.0
 40
0.0
 40
0.0
 40
0.0
 40
0.0171786494
 40
0.034530259
 40
0.052044083
 40
0.0697096926
 40
0.0875159169
 40
0.1054514052
 40
0.1235044838
 40
0.1416632229
 40
0.1599154662
 40
0.1782488551
 40
0.1966508594
 40
0.2151088034
 40
0.2336098939
 40
0.2521412485
 40
0.2706899221
 40
0.2892429336
 40
0.3077872924
 40
0.3263100264
 40
0.3447982082
 40
0.3632389822
 40
0.3816195916
 40
0.3999274055
 40
0.4181499471
 40
0.4362749223
 40
0.4542902467
 40
0.472184075
 40
0.4899448297
 40
0.5075612324
 40
0.5250223351
 40
0.5423175506
 40
0.5594366852
 40
0.5763699716
 40
0.5931081049
 40
0.60964228
 40
0.6259642276
 40
0.6420662527
 40
0.6579412756
 40
0.6735828743
 40
0.6889853316
 40
0.7041436801
 40
0.71905375
 40
0.7337122195
 40
0.748116668
 40
0.7622656323
 40
0.7761586636
 40
0.7897963834
 40
0.8031805416
 40
0.8163140755
 40
0.8292011685
 40
0.8418473065
 40
0.8542593269
 40
0.8603804056
 40
0.8664461623
 40
0.8784160809
 40
0.8901809052
 40
0.8959906881
 40
0.901754044
 40
0.9131479177
 40
0.9243788243
 40
0.9354636208
 40
0.9464204585
 40
0.9518573841
 40
0.9572696635
 40
0.9626598748
 40
0.9680306504
 40
0.9733846742
 40
0.9787246697
 40
0.9840533993
 40
0.9893736532
 40
0.9946882442
 40
1.0
 40
1.0
 40
1.0
 40
1.0
 10
15.1722328914
 20
13.8840730668
 30
0.0
 10
15.1861590316
 20
13.8840730668
 30
0.0
 10
15.214152419
 20
13.8837666388
 30
0.0
 10
15.2563237662
 20
13.8824051051
 30
0.0
 10
15.298851726
 20
13.8801406277
 30
0.0
 10
15.3416915832
 20
13.8769756557
 30
0.0
 10
15.3847989894
 20
13.8729134246
 30
0.0
 10
15.4281289947
 20
13.8679581856
 30
0.0
 10
15.4716365265
 20
13.8621150913
 30
0.0
 10
15.5152762963
 20
13.8553902304
 30
0.0
 10
15.559002881
 20
13.8477906047
 30
0.0
 10
15.6027707668
 20
13.8393241232
 30
0.0
 10
15.6465343935
 20
13.8299995944
 30
0.0
 10
15.6902482051
 20
13.8198267232
 30
0.0
 10
15.7338666976
 20
13.808816105
 30
0.0
 10
15.7773444656
 20
13.7969792033
 30
0.0
 10
15.8206362493
 20
13.7843283394
 30
0.0
 10
15.8636969814
 20
13.7708766798
 30
0.0
 10
15.9064818339
 20
13.7566382229
 30
0.0
 10
15.9489462696
 20
13.7416277964
 30
0.0
 10
15.9910460848
 20
13.7258610286
 30
0.0
 10
16.0327374549
 20
13.7093543322
 30
0.0
 10
16.07397698
 20
13.6921248884
 30
0.0
 10
16.1147217292
 20
13.6741906263
 30
0.0
 10
16.1549292915
 20
13.6555702171
 30
0.0
 10
16.1945578177
 20
13.6362830457
 30
0.0
 10
16.2335660605
 20
13.616349187
 30
0.0
 10
16.2719134185
 20
13.5957893866
 30
0.0
 10
16.3095599769
 20
13.5746250365
 30
0.0
 10
16.3464665542
 20
13.5528781601
 30
0.0
 10
16.3825947453
 20
13.5305713906
 30
0.0
 10
16.4179069548
 20
13.5077279371
 30
0.0
 10
16.4523664363
 20
13.4843715634
 30
0.0
 10
16.4859373298
 20
13.4605265615
 30
0.0
 10
16.518584701
 20
13.436217727
 30
0.0
 10
16.5502745859
 20
13.4114703423
 30
0.0
 10
16.5809740164
 20
13.3863101373
 30
0.0
 10
16.6106510534
 20
13.3607632643
 30
0.0
 10
16.6392748191
 20
13.3348562705
 30
0.0
 10
16.6668155278
 20
13.3086160669
 30
0.0
 10
16.6932445285
 20
13.2820699112
 30
0.0
 10
16.7185343254
 20
13.2552453694
 30
0.0
 10
16.742658601
 20
13.228170285
 30
0.0
 10
16.7655922421
 20
13.200872752
 30
0.0
 10
16.7873113618
 20
13.1733810819
 30
0.0
 10
16.8077933328
 20
13.1457237814
 30
0.0
 10
16.8270168091
 20
13.1179295207
 30
0.0
 10
16.8449617327
 20
13.0900271018
 30
0.0
 10
16.8616093565
 20
13.0620454211
 30
0.0
 10
16.8769422424
 20
13.034013483
 30
0.0
 10
16.8909443378
 20
13.0059602194
 30
0.0
 10
16.9036007945
 20
12.9779150317
 30
0.0
 10
16.9130589004
 20
12.9544669015
 30
0.0
 10
16.9199293709
 20
12.9357449585
 30
0.0
 10
16.9262810754
 20
12.9172192366
 30
0.0
 10
16.9333705069
 20
12.8941159178
 30
0.0
 10
16.9393574613
 20
12.8709161866
 30
0.0
 10
16.943437691
 20
12.8524404997
 30
0.0
 10
16.9470201606
 20
12.8341683336
 30
0.0
 10
16.9506324318
 20
12.8114302555
 30
0.0
 10
16.9535738889
 20
12.784250316
 30
0.0
 10
16.9551022482
 20
12.7573089316
 30
0.0
 10
16.9551967131
 20
12.735021786
 30
0.0
 10
16.9545597817
 20
12.7173540779
 30
0.0
 10
16.9537300234
 20
12.7042138256
 30
0.0
 10
16.9525471837
 20
12.6911545541
 30
0.0
 10
16.9510115248
 20
12.6781795695
 30
0.0
 10
16.9491235128
 20
12.6652922881
 30
0.0
 10
16.9468835584
 20
12.6524960811
 30
0.0
 10
16.9442922992
 20
12.6397943009
 30
0.0
 10
16.9413503857
 20
12.6271902371
 30
0.0
 10
16.9380585931
 20
12.6146873269
 30
0.0
 10
16.9356311113
 20
12.6064206039
 30
0.0
 10
16.9343597608
 20
12.602306506
 30
0.0
  0
SPLINE
  5
441
100
AcDbEntity
  8
LAYER_FEATURE
100
AcDbSpline
 62
7
  6
CONTINUOUS
 70
0
 71
3
 72
46
 73
42
 74
0
 42
0.0000001
 43
0.0000001
 44
0.0000000001
 40
0.0
 40
0.0
 40
0.0
 40
0.0
 40
0.0396645078
 40
0.0788613625
 40
0.1175671524
 40
0.1557611441
 40
0.1934233488
 40
0.2305356756
 40
0.2670816668
 40
0.3030467311
 40
0.3384182489
 40
0.373185705
 40
0.4073408296
 40
0.4408777429
 40
0.4737931061
 40
0.5060862783
 40
0.5377594784
 40
0.5688179438
 40
0.5992700904
 40
0.6291276687
 40
0.6584059125
 40
0.6728343747
 40
0.6871253929
 40
0.7153052552
 40
0.7429736226
 40
0.7701607626
 40
0.7969008076
 40
0.8232316975
 40
0.8491950558
 40
0.8620540739
 40
0.8748384068
 40
0.8875541856
 40
0.9002077255
 40
0.9128055046
 40
0.9253541479
 40
0.9378604202
 40
0.9503311966
 40
0.9627734571
 40
0.9751942581
 40
0.9876007192
 40
1.0
 40
1.0
 40
1.0
 40
1.0
 10
14.9364602924
 20
13.1211126569
 30
0.0
 10
14.922111954
 20
13.1211126569
 30
0.0
 10
14.8935833101
 20
13.1207909152
 30
0.0
 10
14.8510758299
 20
13.1193244497
 30
0.0
 10
14.8091459167
 20
13.1168784621
 30
0.0
 10
14.7678413296
 20
13.1134557774
 30
0.0
 10
14.7272084648
 20
13.1090601772
 30
0.0
 10
14.6872932423
 20
13.1036966219
 30
0.0
 10
14.6481406657
 20
13.097371112
 30
0.0
 10
14.6097949024
 20
13.0900907443
 30
0.0
 10
14.5722991962
 20
13.0818636815
 30
0.0
 10
14.53569583
 20
13.0726991401
 30
0.0
 10
14.5000260785
 20
13.0626073792
 30
0.0
 10
14.4653301649
 20
13.0515996862
 30
0.0
 10
14.4316472165
 20
13.0396883616
 30
0.0
 10
14.3990152266
 20
13.0268867053
 30
0.0
 10
14.3674710001
 20
13.0132090013
 30
0.0
 10
14.3370501622
 20
12.9986705179
 30
0.0
 10
14.307786974
 20
12.9832873927
 30
0.0
 10
14.2797148526
 20
12.967076973
 30
0.0
 10
14.2572315509
 20
12.9528248662
 30
0.0
 10
14.2398830503
 20
12.9410239328
 30
0.0
 10
14.2231205892
 20
12.9290768355
 30
0.0
 10
14.2029533986
 20
12.913665183
 30
0.0
 10
14.179948688
 20
12.8943342133
 30
0.0
 10
14.1582798257
 20
12.8742747076
 30
0.0
 10
14.1379718356
 20
12.8535091572
 30
0.0
 10
14.1190483458
 20
12.8320612544
 30
0.0
 10
14.1044031642
 20
12.8135792079
 30
0.0
 10
14.0934149302
 20
12.7984849051
 30
0.0
 10
14.085558271
 20
12.787045024
 30
0.0
 10
14.0780627309
 20
12.7754538445
 30
0.0
 10
14.0709303497
 20
12.7637145679
 30
0.0
 10
14.0641631624
 20
12.7518305522
 30
0.0
 10
14.0577631433
 20
12.7398051293
 30
0.0
 10
14.0517320468
 20
12.7276417489
 30
0.0
 10
14.0460716681
 20
12.7153438176
 30
0.0
 10
14.0407835598
 20
12.7029148665
 30
0.0
 10
14.0358692514
 20
12.6903583672
 30
0.0
 10
14.0313301907
 20
12.6776780312
 30
0.0
 10
14.0285547671
 20
12.6691431409
 30
0.0
 10
14.027230482
 20
12.6648577464
 30
0.0
  0
SPLINE
  5
442
100
AcDbEntity
  8
LAYER_FEATURE
100
AcDbSpline
 62
7
  6
CONTINUOUS
 70
0
 71
3
 72
46
 73
42
 74
0
 42
0.0000001
 43
0.0000001
 44
0.0000000001
 40
0.0
 40
0.0
 40
0.0
 40
0.0
 40
0.0396645078
 40
0.0788613625
 40
0.1175671524
 40
0.1557611441
 40
0.1934233488
 40
0.2305356756
 40
0.2670816668
 40
0.3030467311
 40
0.3384182489
 40
0.373185705
 40
0.4073408296
 40
0.4408777429
 40
0.4737931061
 40
0.5060862783
 40
0.5377594784
 40
0.5688179438
 40
0.5992700904
 40
0.6291276687
 40
0.6584059125
 40
0.6728343747
 40
0.6871253929
 40
0.7153052552
 40
0.7429736226
 40
0.7701607626
 40
0.7969008076
 40
0.8232316975
 40
0.8491950558
 40
0.8620540739
 40
0.8748384068
 40
0.8875541856
 40
0.9002077255
 40
0.9128055046
 40
0.9253541479
 40
0.9378604202
 40
0.9503311966
 40
0.9627734571
 40
0.9751942581
 40
0.9876007192
 40
1.0
 40
1.0
 40
1.0
 40
1.0
 10
15.1722328914
 20
13.8840730668
 30
0.0
 10
15.157884553
 20
13.8840730668
 30
0.0
 10
15.1293559091
 20
13.8837513252
 30
0.0
 10
15.0868484289
 20
13.8822848596
 30
0.0
 10
15.0449185157
 20
13.8798388721
 30
0.0
 10
15.0036139286
 20
13.8764161874
 30
0.0
 10
14.9629810638
 20
13.8720205872
 30
0.0
 10
14.9230658413
 20
13.8666570319
 30
0.0
 10
14.8839132647
 20
13.860331522
 30
0.0
 10
14.8455675014
 20
13.8530511543
 30
0.0
 10
14.8080717952
 20
13.8448240915
 30
0.0
 10
14.771468429
 20
13.8356595501
 30
0.0
 10
14.7357986775
 20
13.8255677892
 30
0.0
 10
14.7011027639
 20
13.8145600962
 30
0.0
 10
14.6674198155
 20
13.8026487716
 30
0.0
 10
14.6347878256
 20
13.7898471153
 30
0.0
 10
14.6032435991
 20
13.7761694113
 30
0.0
 10
14.5728227612
 20
13.7616309279
 30
0.0
 10
14.543559573
 20
13.7462478027
 30
0.0
 10
14.5154874516
 20
13.730037383
 30
0.0
 10
14.4930041499
 20
13.7157852762
 30
0.0
 10
14.4756556493
 20
13.7039843428
 30
0.0
 10
14.4588931882
 20
13.6920372454
 30
0.0
 10
14.4387259976
 20
13.6766255929
 30
0.0
 10
14.415721287
 20
13.6572946233
 30
0.0
 10
14.3940524247
 20
13.6372351176
 30
0.0
 10
14.3737444346
 20
13.6164695672
 30
0.0
 10
14.3548209448
 20
13.5950216644
 30
0.0
 10
14.3401757632
 20
13.5765396179
 30
0.0
 10
14.3291875292
 20
13.5614453151
 30
0.0
 10
14.32133087
 20
13.550005434
 30
0.0
 10
14.3138353299
 20
13.5384142545
 30
0.0
 10
14.3067029487
 20
13.5266749779
 30
0.0
 10
14.2999357614
 20
13.5147909622
 30
0.0
 10
14.2935357423
 20
13.5027655393
 30
0.0
 10
14.2875046458
 20
13.4906021589
 30
0.0
 10
14.2818442671
 20
13.4783042275
 30
0.0
 10
14.2765561588
 20
13.4658752765
 30
0.0
 10
14.2716418504
 20
13.4533187772
 30
0.0
 10
14.2671027897
 20
13.4406384412
 30
0.0
 10
14.2643273661
 20
13.4321035509
 30
0.0
 10
14.263003081
 20
13.4278181564
 30
0.0
  0
SPLINE
  5
443
100
AcDbEntity
  8
LAYER_FEATURE
100
AcDbSpline
 62
7
  6
CONTINUOUS
 70
0
 71
3
 72
78
 73
74
 74
0
 42
0.0000001
 43
0.0000001
 44
0.0000000001
 40
0.0
 40
0.0
 40
0.0
 40
0.0
 40
0.0171786494
 40
0.034530259
 40
0.052044083
 40
0.0697096926
 40
0.0875159169
 40
0.1054514052
 40
0.1235044838
 40
0.1416632229
 40
0.1599154662
 40
0.1782488551
 40
0.1966508594
 40
0.2151088034
 40
0.2336098939
 40
0.2521412485
 40
0.2706899221
 40
0.2892429336
 40
0.3077872924
 40
0.3263100264
 40
0.3447982082
 40
0.3632389822
 40
0.3816195916
 40
0.3999274055
 40
0.4181499471
 40
0.4362749223
 40
0.4542902467
 40
0.472184075
 40
0.4899448297
 40
0.5075612324
 40
0.5250223351
 40
0.5423175506
 40
0.5594366852
 40
0.5763699716
 40
0.5931081049
 40
0.60964228
 40
0.6259642276
 40
0.6420662527
 40
0.6579412756
 40
0.6735828743
 40
0.6889853316
 40
0.7041436801
 40
0.71905375
 40
0.7337122195
 40
0.748116668
 40
0.7622656323
 40
0.7761586636
 40
0.7897963834
 40
0.8031805416
 40
0.8163140755
 40
0.8292011685
 40
0.8418473065
 40
0.8542593269
 40
0.8603804056
 40
0.8664461623
 40
0.8784160809
 40
0.8901809052
 40
0.8959906881
 40
0.901754044
 40
0.9131479177
 40
0.9243788243
 40
0.9354636208
 40
0.9464204585
 40
0.9518573841
 40
0.9572696635
 40
0.9626598748
 40
0.9680306504
 40
0.9733846742
 40
0.9787246697
 40
0.9840533993
 40
0.9893736532
 40
0.9946882442
 40
1.0
 40
1.0
 40
1.0
 40
1.0
 10
14.9364602924
 20
13.1211126569
 30
0.0
 10
14.9503864326
 20
13.1211126569
 30
0.0
 10
14.97837982
 20
13.1208062288
 30
0.0
 10
15.0205511673
 20
13.1194446951
 30
0.0
 10
15.063079127
 20
13.1171802177
 30
0.0
 10
15.1059189842
 20
13.1140152458
 30
0.0
 10
15.1490263904
 20
13.1099530147
 30
0.0
 10
15.1923563957
 20
13.1049977756
 30
0.0
 10
15.2358639276
 20
13.0991546813
 30
0.0
 10
15.2795036973
 20
13.0924298204
 30
0.0
 10
15.323230282
 20
13.0848301947
 30
0.0
 10
15.3669981678
 20
13.0763637132
 30
0.0
 10
15.4107617945
 20
13.0670391844
 30
0.0
 10
15.4544756061
 20
13.0568663132
 30
0.0
 10
15.4980940986
 20
13.045855695
 30
0.0
 10
15.5415718666
 20
13.0340187933
 30
0.0
 10
15.5848636503
 20
13.0213679294
 30
0.0
 10
15.6279243824
 20
13.0079162698
 30
0.0
 10
15.6707092349
 20
12.9936778129
 30
0.0
 10
15.7131736706
 20
12.9786673865
 30
0.0
 10
15.7552734858
 20
12.9629006186
 30
0.0
 10
15.7969648559
 20
12.9463939222
 30
0.0
 10
15.838204381
 20
12.9291644784
 30
0.0
 10
15.8789491302
 20
12.9112302163
 30
0.0
 10
15.9191566925
 20
12.8926098071
 30
0.0
 10
15.9587852187
 20
12.8733226357
 30
0.0
 10
15.9977934615
 20
12.8533887771
 30
0.0
 10
16.0361408195
 20
12.8328289766
 30
0.0
 10
16.0737873779
 20
12.8116646265
 30
0.0
 10
16.1106939552
 20
12.7899177501
 30
0.0
 10
16.1468221463
 20
12.7676109806
 30
0.0
 10
16.1821343558
 20
12.7447675271
 30
0.0
 10
16.2165938373
 20
12.7214111535
 30
0.0
 10
16.2501647308
 20
12.6975661515
 30
0.0
 10
16.282812102
 20
12.673257317
 30
0.0
 10
16.3145019869
 20
12.6485099323
 30
0.0
 10
16.3452014174
 20
12.6233497273
 30
0.0
 10
16.3748784544
 20
12.5978028544
 30
0.0
 10
16.4035022201
 20
12.5718958605
 30
0.0
 10
16.4310429288
 20
12.545655657
 30
0.0
 10
16.4574719295
 20
12.5191095013
 30
0.0
 10
16.4827617264
 20
12.4922849594
 30
0.0
 10
16.506886002
 20
12.465209875
 30
0.0
 10
16.5298196431
 20
12.437912342
 30
0.0
 10
16.5515387628
 20
12.4104206719
 30
0.0
 10
16.5720207338
 20
12.3827633714
 30
0.0
 10
16.5912442101
 20
12.3549691107
 30
0.0
 10
16.6091891337
 20
12.3270666918
 30
0.0
 10
16.6258367575
 20
12.2990850111
 30
0.0
 10
16.6411696434
 20
12.271053073
 30
0.0
 10
16.6551717388
 20
12.2429998094
 30
0.0
 10
16.6678281955
 20
12.2149546217
 30
0.0
 10
16.6772863014
 20
12.1915064915
 30
0.0
 10
16.6841567719
 20
12.1727845486
 30
0.0
 10
16.6905084764
 20
12.1542588267
 30
0.0
 10
16.6975979079
 20
12.1311555078
 30
0.0
 10
16.7035848623
 20
12.1079557766
 30
0.0
 10
16.707665092
 20
12.0894800898
 30
0.0
 10
16.7112475616
 20
12.0712079237
 30
0.0
 10
16.7148598328
 20
12.0484698455
 30
0.0
 10
16.7178012899
 20
12.021289906
 30
0.0
 10
16.7193296492
 20
11.9943485216
 30
0.0
 10
16.7194241141
 20
11.9720613761
 30
0.0
 10
16.7187871827
 20
11.9543936679
 30
0.0
 10
16.7179574244
 20
11.9412534156
 30
0.0
 10
16.7167745847
 20
11.9281941442
 30
0.0
 10
16.7152389258
 20
11.9152191596
 30
0.0
 10
16.7133509138
 20
11.9023318781
 30
0.0
 10
16.7111109594
 20
11.8895356711
 30
0.0
 10
16.7085197002
 20
11.8768338909
 30
0.0
 10
16.7055777867
 20
11.8642298272
 30
0.0
 10
16.7022859941
 20
11.8517269169
 30
0.0
 10
16.6998585123
 20
11.8434601939
 30
0.0
 10
16.6985871618
 20
11.839346096
 30
0.0
  0
SPLINE
  5
444
100
AcDbEntity
  8
LAYER_CUT_FEAT
100
AcDbSpline
 62
7
  6
CONTINUOUS
 70
0
 71
3
 72
22
 73
18
 74
0
 42
0.0000001
 43
0.0000001
 44
0.0000000001
 40
0.0
 40
0.0
 40
0.0
 40
0.0
 40
0.1381197631
 40
0.2053664309
 40
0.2714549167
 40
0.336437138
 40
0.400372579
 40
0.4633278437
 40
0.5253764097
 40
0.5865986125
 40
0.6470813093
 40
0.7069174431
 40
0.7662055021
 40
0.8250488573
 40
0.8835549588
 40
0.9418344159
 40
1.0
 40
1.0
 40
1.0
 40
1.0
 10
16.3327630236
 20
12.1894357684
 30
0.0
 10
16.3393971251
 20
12.1759168909
 30
0.0
 10
16.3485383969
 20
12.1554452151
 30
0.0
 10
16.3589643021
 20
12.1277398803
 30
0.0
 10
16.3657437396
 20
12.1072009547
 30
0.0
 10
16.3715448198
 20
12.0867397448
 30
0.0
 10
16.3763620657
 20
12.0663752266
 30
0.0
 10
16.3801905986
 20
12.0461270262
 30
0.0
 10
16.383026523
 20
12.0260144903
 30
0.0
 10
16.3848668776
 20
12.0060569418
 30
0.0
 10
16.385709687
 20
11.9862735841
 30
0.0
 10
16.3855539227
 20
11.9666835079
 30
0.0
 10
16.3843995092
 20
11.9473056514
 30
0.0
 10
16.3822474041
 20
11.9281588586
 30
0.0
 10
16.3790995073
 20
11.9092615453
 30
0.0
 10
16.3749589911
 20
11.8906327991
 30
0.0
 10
16.3715378582
 20
11.8783990681
 30
0.0
 10
16.3696654998
 20
11.8723400924
 30
0.0
  0
SPLINE
  5
445
100
AcDbEntity
  8
02___PRT_ALL_AXES
100
AcDbSpline
 62
7
  6
CONTINUOUS
 70
0
 71
3
 72
29
 73
25
 74
0
 42
0.0000001
 43
0.0000001
 44
0.0000000001
 40
0.0
 40
0.0
 40
0.0
 40
0.0
 40
0.0683797289
 40
0.1022480202
 40
0.1358951864
 40
0.2025203845
 40
0.268265626
 40
0.3008151673
 40
0.333149164
 40
0.3971724058
 40
0.4603707753
 40
0.5227786401
 40
0.584437575
 40
0.6453959931
 40
0.6756344302
 40
0.7057189194
 40
0.7356573193
 40
0.7654579075
 40
0.8246701372
 40
0.8834398276
 40
0.9126889051
 40
0.9418579187
 40
0.9709578376
 40
1.0
 40
1.0
 40
1.0
 40
1.0
 10
15.0282265389
 20
12.6507061281
 30
0.0
 10
15.0312776438
 20
12.6507061281
 30
0.0
 10
15.0358415835
 20
12.6505718609
 30
0.0
 10
15.0418888532
 20
12.6501171488
 30
0.0
 10
15.0478416261
 20
12.6494853446
 30
0.0
 10
15.0551688008
 20
12.6483616808
 30
0.0
 10
15.0623622725
 20
12.6467853824
 30
0.0
 10
15.0679890022
 20
12.645260914
 30
0.0
 10
15.0734891769
 20
12.6435752067
 30
0.0
 10
15.0801897541
 20
12.6411524196
 30
0.0
 10
15.0879400744
 20
12.6377414935
 30
0.0
 10
15.0953440587
 20
12.6338538128
 30
0.0
 10
15.1023721603
 20
12.6295092497
 30
0.0
 10
15.1079082991
 20
12.6255145762
 30
0.0
 10
15.1121183452
 20
12.6221128949
 30
0.0
 10
15.1151571999
 20
12.6194684062
 30
0.0
 10
15.1180823813
 20
12.6167271744
 30
0.0
 10
15.1218187895
 20
12.6129561405
 30
0.0
 10
15.1261953877
 20
12.6080150942
 30
0.0
 10
15.1301710216
 20
12.6027766492
 30
0.0
 10
15.133088136
 20
12.598435761
 30
0.0
 10
15.1351404925
 20
12.5951123184
 30
0.0
 10
15.1370582665
 20
12.5917201632
 30
0.0
 10
15.1382467294
 20
12.5894132199
 30
0.0
 10
15.1388176127
 20
12.5882498841
 30
0.0
  0
SPLINE
  5
446
100
AcDbEntity
  8
02___PRT_ALL_AXES
100
AcDbSpline
 62
7
  6
CONTINUOUS
 70
0
 71
3
 72
64
 73
60
 74
0
 42
0.0000001
 43
0.0000001
 44
0.0000000001
 40
0.0
 40
0.0
 40
0.0
 40
0.0
 40
0.0142296756
 40
0.0288708641
 40
0.0439182263
 40
0.0593673229
 40
0.0752115332
 40
0.0914418146
 40
0.1080475996
 40
0.1250169125
 40
0.1423362364
 40
0.159990771
 40
0.1779644508
 40
0.1962401113
 40
0.2147995367
 40
0.2336235411
 40
0.2526920645
 40
0.2719841932
 40
0.3111505537
 40
0.3509426837
 40
0.3911691236
 40
0.4316298436
 40
0.4721174329
 40
0.5124184366
 40
0.5523148506
 40
0.5915860325
 40
0.6300109614
 40
0.6673711076
 40
0.6855854242
 40
0.7034543683
 40
0.7209528954
 40
0.7380566688
 40
0.7547424577
 40
0.7709880343
 40
0.7867724684
 40
0.8020762356
 40
0.8168812606
 40
0.8311713424
 40
0.8449319629
 40
0.85815088
 40
0.8708179806
 40
0.8829258293
 40
0.8944698288
 40
0.9054485588
 40
0.9158644414
 40
0.9257239878
 40
0.9350388774
 40
0.9438264279
 40
0.9521109346
 40
0.9599246182
 40
0.967308972
 40
0.9743159234
 40
0.9810085462
 40
0.9842611351
 40
0.9874639213
 40
0.9906277375
 40
0.9937638903
 40
0.9968840251
 40
1.0
 40
1.0
 40
1.0
 40
1.0
 10
16.1574672736
 20
12.0782033473
 30
0.0
 10
16.158121788
 20
12.0768695872
 30
0.0
 10
16.1593954472
 20
12.0741365404
 30
0.0
 10
16.1611761845
 20
12.0699099681
 30
0.0
 10
16.1628519336
 20
12.0655041975
 30
0.0
 10
16.1644205946
 20
12.060926293
 30
0.0
 10
16.1658804955
 20
12.0561832369
 30
0.0
 10
16.1672302042
 20
12.0512823428
 30
0.0
 10
16.1684687477
 20
12.046231206
 30
0.0
 10
16.1695953513
 20
12.0410375734
 30
0.0
 10
16.1706097485
 20
12.0357094059
 30
0.0
 10
16.1715118249
 20
12.030254803
 30
0.0
 10
16.1723019155
 20
12.0246820307
 30
0.0
 10
16.1729805748
 20
12.0189994686
 30
0.0
 10
16.1735486623
 20
12.013215607
 30
0.0
 10
16.1740073441
 20
12.0073390393
 30
0.0
 10
16.1743579676
 20
12.0013784136
 30
0.0
 10
16.1746852238
 20
11.9932901723
 30
0.0
 10
16.1748288373
 20
11.9830308172
 30
0.0
 10
16.1746007149
 20
11.9705870431
 30
0.0
 10
16.1739927102
 20
11.9580208903
 30
0.0
 10
16.1730268051
 20
11.945404571
 30
0.0
 10
16.1717266095
 20
11.9328106358
 30
0.0
 10
16.1701169076
 20
11.9203120334
 30
0.0
 10
16.1682231763
 20
11.9079818692
 30
0.0
 10
16.1660711399
 20
11.8958931031
 30
0.0
 10
16.1636863058
 20
11.8841182275
 30
0.0
 10
16.1615077335
 20
11.8745476356
 30
0.0
 10
16.1596652638
 20
11.8671039774
 30
0.0
 10
16.1582516135
 20
11.8616909638
 30
0.0
 10
16.1567972756
 20
11.8564089099
 30
0.0
 10
16.155304896
 20
11.8512659707
 30
0.0
 10
16.1537769934
 20
11.846270104
 30
0.0
 10
16.1522159723
 20
11.8414290063
 30
0.0
 10
16.1506240941
 20
11.8367501148
 30
0.0
 10
16.1490034842
 20
11.8322405825
 30
0.0
 10
16.1473561245
 20
11.8279072483
 30
0.0
 10
16.1456838487
 20
11.823756646
 30
0.0
 10
16.1439883415
 20
11.819794958
 30
0.0
 10
16.142271143
 20
11.8160280404
 30
0.0
 10
16.1405336404
 20
11.8124613831
 30
0.0
 10
16.138777076
 20
11.8091001268
 30
0.0
 10
16.1370025537
 20
11.8059490445
 30
0.0
 10
16.1352110139
 20
11.8030125538
 30
0.0
 10
16.1334032892
 20
11.800294703
 30
0.0
 10
16.1315800151
 20
11.7977992031
 30
0.0
 10
16.1297417388
 20
11.7955294031
 30
0.0
 10
16.127888794
 20
11.793488363
 30
0.0
 10
16.1260214017
 20
11.7916788402
 30
0.0
 10
16.1241396302
 20
11.7901033877
 30
0.0
 10
16.1222433582
 20
11.7887644127
 30
0.0
 10
16.1203327459
 20
11.7876642812
 30
0.0
 10
16.118712887
 20
11.7869416387
 30
0.0
 10
16.117415694
 20
11.786490467
 30
0.0
 10
16.1164489889
 20
11.7862159504
 30
0.0
 10
16.1154794771
 20
11.7860023268
 30
0.0
 10
16.1145072176
 20
11.7858496646
 30
0.0
 10
16.1135323657
 20
11.7857580496
 30
0.0
 10
16.1128810777
 20
11.7857377344
 30
0.0
 10
16.1125557431
 20
11.7857377367
 30
0.0
  0
SPLINE
  5
447
100
AcDbEntity
  8
LAYER_CHAMFER_FEAT
100
AcDbSpline
 62
7
  6
CONTINUOUS
 70
0
 71
3
 72
73
 73
69
 74
0
 42
0.0000001
 43
0.0000001
 44
0.0000000001
 40
0.0
 40
0.0
 40
0.0
 40
0.0
 40
0.015758178
 40
0.0311478675
 40
0.04616539
 40
0.060809806
 40
0.0750831728
 40
0.0889907508
 40
0.102541201
 40
0.1091868352
 40
0.1157481204
 40
0.1286249884
 40
0.1411931654
 40
0.1534767113
 40
0.1655037197
 40
0.1773062002
 40
0.188919821
 40
0.2003835283
 40
0.2117390185
 40
0.2230300438
 40
0.2343016143
 40
0.245599127
 40
0.2569674638
 40
0.2684501282
 40
0.2800884638
 40
0.2919209775
 40
0.3039828314
 40
0.3163054863
 40
0.3289164665
 40
0.3353382823
 40
0.3418406562
 40
0.3550947216
 40
0.3686956206
 40
0.3826551072
 40
0.3969813387
 40
0.4116791021
 40
0.4267500179
 40
0.44219274
 40
0.4580032071
 40
0.4741748539
 40
0.4906987815
 40
0.5075639569
 40
0.5247574133
 40
0.5422644052
 40
0.5600685441
 40
0.5781519764
 40
0.5964955256
 40
0.6150788065
 40
0.6338803552
 40
0.6528777698
 40
0.672047818
 40
0.6913665383
 40
0.7108093661
 40
0.7303512421
 40
0.7499667073
 40
0.7696300109
 40
0.7893152192
 40
0.8089963103
 40
0.8286472771
 40
0.848242233
 40
0.8677555126
 40
0.8871617696
 40
0.9064360697
 40
0.9255540846
 40
0.9444920361
 40
0.9632266993
 40
0.981736966
 40
1.0
 40
1.0
 40
1.0
 40
1.0
 10
15.0327240958
 20
11.8806216302
 30
0.0
 10
15.0294122036
 20
11.8798427498
 30
0.0
 10
15.0228945144
 20
11.8781777237
 30
0.0
 10
15.013342681
 20
11.8753205155
 30
0.0
 10
15.0041478919
 20
11.8721381812
 30
0.0
 10
14.9953283759
 20
11.8686368835
 30
0.0
 10
14.9869013306
 20
11.8648233286
 30
0.0
 10
14.9788834649
 20
11.8607049512
 30
0.0
 10
14.9725149703
 20
11.8570016336
 30
0.0
 10
14.9676451964
 20
11.8538924497
 30
0.0
 10
14.9629854346
 20
11.8507288472
 30
0.0
 10
14.9574374785
 20
11.846601797
 30
0.0
 10
14.9512054702
 20
11.8413482824
 30
0.0
 10
14.9454531561
 20
11.8358347809
 30
0.0
 10
14.9401922811
 20
11.8300720374
 30
0.0
 10
14.9354335193
 20
11.8240712494
 30
0.0
 10
14.9311866772
 20
11.8178441844
 30
0.0
 10
14.927460592
 20
11.8114031574
 30
0.0
 10
14.9242630111
 20
11.8047610698
 30
0.0
 10
14.9216005972
 20
11.7979313278
 30
0.0
 10
14.9194788932
 20
11.7909277994
 30
0.0
 10
14.917902224
 20
11.7837647717
 30
0.0
 10
14.9168736584
 20
11.7764568654
 30
0.0
 10
14.9163950804
 20
11.7690189408
 30
0.0
 10
14.916467206
 20
11.761466039
 30
0.0
 10
14.9170895227
 20
11.7538133417
 30
0.0
 10
14.9182604279
 20
11.7460760576
 30
0.0
 10
14.9199771988
 20
11.7382696532
 30
0.0
 10
14.9218483773
 20
11.7317587945
 30
0.0
 10
14.9236083267
 20
11.7265334149
 30
0.0
 10
14.9255696936
 20
11.7212318958
 30
0.0
 10
14.9283606772
 20
11.7145882276
 30
0.0
 10
14.9322135814
 20
11.7066587093
 30
0.0
 10
14.9365837003
 20
11.6987368112
 30
0.0
 10
14.94146225
 20
11.6908381266
 30
0.0
 10
14.9468395955
 20
11.6829779771
 30
0.0
 10
14.9527051308
 20
11.6751716942
 30
0.0
 10
14.9590472835
 20
11.6674344732
 30
0.0
 10
14.9658535819
 20
11.6597814068
 30
0.0
 10
14.9731106735
 20
11.6522274513
 30
0.0
 10
14.9808043062
 20
11.6447873665
 30
0.0
 10
14.9889193669
 20
11.6374756925
 30
0.0
 10
14.9974399369
 20
11.6303067447
 30
0.0
 10
15.0063493086
 20
11.623294579
 30
0.0
 10
15.0156299833
 20
11.6164529213
 30
0.0
 10
15.0252637428
 20
11.6097951809
 30
0.0
 10
15.0352316872
 20
11.6033344293
 30
0.0
 10
15.0455142488
 20
11.5970833455
 30
0.0
 10
15.0560912282
 20
11.5910541829
 30
0.0
 10
15.0669418585
 20
11.5852587798
 30
0.0
 10
15.0780448405
 20
11.5797085332
 30
0.0
 10
15.08937836
 20
11.5744143294
 30
0.0
 10
15.1009201523
 20
11.5693865591
 30
0.0
 10
15.1126475513
 20
11.564635109
 30
0.0
 10
15.1245375225
 20
11.5601693217
 30
0.0
 10
15.1365667009
 20
11.5559979522
 30
0.0
 10
15.1487114553
 20
11.5521291951
 30
0.0
 10
15.1609479321
 20
11.5485706696
 30
0.0
 10
15.1732520888
 20
11.5453293578
 30
0.0
 10
15.1855997509
 20
11.5424116151
 30
0.0
 10
15.1979666646
 20
11.5398231818
 30
0.0
 10
15.2103285358
 20
11.5375691596
 30
0.0
 10
15.2226610846
 20
11.5356539499
 30
0.0
 10
15.234940093
 20
11.5340813202
 30
0.0
 10
15.2471413899
 20
11.5328543856
 30
0.0
 10
15.2592412096
 20
11.5319755024
 30
0.0
 10
15.2712154553
 20
11.53144649
 30
0.0
 10
15.2791554084
 20
11.5313268339
 30
0.0
 10
15.2830984628
 20
11.5313268339
 30
0.0
  0
SPLINE
  5
448
100
AcDbEntity
  8
02___PRT_ALL_AXES
100
AcDbSpline
 62
7
  6
CONTINUOUS
 70
0
 71
3
 72
72
 73
68
 74
0
 42
0.0000001
 43
0.0000001
 44
0.0000000001
 40
0.0
 40
0.0
 40
0.0
 40
0.0
 40
0.0171788515
 40
0.0345304108
 40
0.0520444107
 40
0.0697101032
 40
0.0875164388
 40
0.1054520335
 40
0.1235052187
 40
0.1416640662
 40
0.1599164184
 40
0.1782499169
 40
0.1966520308
 40
0.2151100845
 40
0.2336112852
 40
0.2521427503
 40
0.2706915345
 40
0.2892446564
 40
0.3077891257
 40
0.3263119701
 40
0.3448002621
 40
0.3632411459
 40
0.3816218646
 40
0.3999297876
 40
0.4181524382
 40
0.4362775215
 40
0.454292953
 40
0.4721868874
 40
0.4899477477
 40
0.5075642559
 40
0.5250254631
 40
0.5423207817
 40
0.5594400177
 40
0.5763734045
 40
0.593111638
 40
0.6096459121
 40
0.625967957
 40
0.6420700775
 40
0.6579451944
 40
0.6735868868
 40
0.6889894367
 40
0.7041478757
 40
0.7190580337
 40
0.7337165896
 40
0.7481211239
 40
0.7622701735
 40
0.7761632883
 40
0.7898010891
 40
0.8031853261
 40
0.8163189377
 40
0.8292061081
 40
0.841852322
 40
0.8542644165
 40
0.8603855311
 40
0.8664513239
 40
0.8784213134
 40
0.8901862082
 40
0.9017586004
 40
0.9131525422
 40
0.9243835153
 40
0.9354683774
 40
0.9464252803
 40
0.9572735599
 40
0.968033596
 40
0.9787266447
 40
0.9893746441
 40
1.0
 40
1.0
 40
1.0
 40
1.0
 10
14.9144553669
 20
12.2825424805
 30
0.0
 10
14.9236299375
 20
12.2825424805
 30
0.0
 10
14.9420719045
 20
12.2823406151
 30
0.0
 10
14.9698543245
 20
12.2814436223
 30
0.0
 10
14.9978716165
 20
12.2799518067
 30
0.0
 10
15.0260944694
 20
12.2778667162
 30
0.0
 10
15.0544935453
 20
12.2751905272
 30
0.0
 10
15.0830392806
 20
12.2719260244
 30
0.0
 10
15.1117019677
 20
12.2680766068
 30
0.0
 10
15.140451773
 20
12.2636462811
 30
0.0
 10
15.1692587722
 20
12.2586396592
 30
0.0
 10
15.1980929799
 20
12.2530619529
 30
0.0
 10
15.226924382
 20
12.2469189686
 30
0.0
 10
15.2557229665
 20
12.2402171009
 30
0.0
 10
15.284458755
 20
12.2329633262
 30
0.0
 10
15.313101834
 20
12.2251651956
 30
0.0
 10
15.3416223864
 20
12.2168308264
 30
0.0
 10
15.3699907222
 20
12.2079688944
 30
0.0
 10
15.3981773102
 20
12.198588625
 30
0.0
 10
15.4261528082
 20
12.1886997834
 30
0.0
 10
15.4538880943
 20
12.1783126637
 30
0.0
 10
15.4813542967
 20
12.167438079
 30
0.0
 10
15.5085228241
 20
12.1560873491
 30
0.0
 10
15.5353653957
 20
12.1442722893
 30
0.0
 10
15.5618540703
 20
12.1320051979
 30
0.0
 10
15.5879612757
 20
12.119298843
 30
0.0
 10
15.6136598382
 20
12.1061664497
 30
0.0
 10
15.6389230101
 20
12.0926216862
 30
0.0
 10
15.6637244979
 20
12.0786786483
 30
0.0
 10
15.6880384895
 20
12.0643518456
 30
0.0
 10
15.7118396813
 20
12.0496561854
 30
0.0
 10
15.7351033042
 20
12.0346069572
 30
0.0
 10
15.7578051499
 20
12.0192198167
 30
0.0
 10
15.7799215954
 20
12.003510769
 30
0.0
 10
15.8014296289
 20
11.987496152
 30
0.0
 10
15.8223068723
 20
11.9711926185
 30
0.0
 10
15.8425316045
 20
11.9546171186
 30
0.0
 10
15.862082784
 20
11.9377868814
 30
0.0
 10
15.88094007
 20
11.920719397
 30
0.0
 10
15.8990838433
 20
11.9034323971
 30
0.0
 10
15.9164952261
 20
11.8859438366
 30
0.0
 10
15.9331561013
 20
11.8682718745
 30
0.0
 10
15.9490491307
 20
11.8504348545
 30
0.0
 10
15.964157771
 20
11.8324512851
 30
0.0
 10
15.9784662898
 20
11.8143398201
 30
0.0
 10
15.9919597806
 20
11.7961192394
 30
0.0
 10
16.0046241762
 20
11.7778084287
 30
0.0
 10
16.0164462605
 20
11.7594263627
 30
0.0
 10
16.0274136831
 20
11.7409920784
 30
0.0
 10
16.0375149597
 20
11.722524685
 30
0.0
 10
16.0467395189
 20
11.7040432444
 30
0.0
 10
16.055077573
 20
11.6855671222
 30
0.0
 10
16.061308558
 20
11.6701195372
 30
0.0
 10
16.0658348091
 20
11.657785547
 30
0.0
 10
16.0700192982
 20
11.6455808542
 30
0.0
 10
16.0746898309
 20
11.6303602764
 30
0.0
 10
16.0794032034
 20
11.6120958694
 30
0.0
 10
16.0831953145
 20
11.5939318505
 30
0.0
 10
16.0860619096
 20
11.5758873464
 30
0.0
 10
16.0879997706
 20
11.5579811543
 30
0.0
 10
16.0890066219
 20
11.5402320414
 30
0.0
 10
16.0890811744
 20
11.5226586522
 30
0.0
 10
16.0882231259
 20
11.5052794885
 30
0.0
 10
16.0864332025
 20
11.488112962
 30
0.0
 10
16.0837130786
 20
11.4711770709
 30
0.0
 10
16.080065725
 20
11.4544904671
 30
0.0
 10
16.077016934
 20
11.4435384999
 30
0.0
 10
16.0753415225
 20
11.438116871
 30
0.0
  0
SPLINE
  5
449
100
AcDbEntity
  8
LAYER_CHAMFER_FEAT
100
AcDbSpline
 62
7
  6
CONTINUOUS
 70
0
 71
3
 72
51
 73
47
 74
0
 42
0.0000001
 43
0.0000001
 44
0.0000000001
 40
0.0
 40
0.0
 40
0.0
 40
0.0
 40
0.0357329113
 40
0.0703696349
 40
0.1039007303
 40
0.1363312941
 40
0.1676824062
 40
0.1979925533
 40
0.2273189231
 40
0.2416393771
 40
0.2557444199
 40
0.2696468676
 40
0.2833607216
 40
0.2969012771
 40
0.3102849543
 40
0.323529337
 40
0.3366530035
 40
0.3496754832
 40
0.3626170876
 40
0.3754987926
 40
0.3883420635
 40
0.40116869
 40
0.4140005992
 40
0.4268596794
 40
0.4397675794
 40
0.4527455596
 40
0.4658142819
 40
0.4789937142
 40
0.4923029237
 40
0.5057600417
 40
0.5193820807
 40
0.533184945
 40
0.5471832948
 40
0.5758130796
 40
0.6053701005
 40
0.6359264412
 40
0.6675346792
 40
0.7002289829
 40
0.7340264513
 40
0.7689285457
 40
0.8049225452
 40
0.8419828913
 40
0.8800726328
 40
0.9191442666
 40
0.9591417854
 40
1.0
 40
1.0
 40
1.0
 40
1.0
 10
15.4259500746
 20
11.7591056126
 30
0.0
 10
15.4289289767
 20
11.7558457046
 30
0.0
 10
15.4346372919
 20
11.7492788301
 30
0.0
 10
15.4425342455
 20
11.7391460253
 30
0.0
 10
15.4496088645
 20
11.728914147
 30
0.0
 10
15.4558371136
 20
11.7186171153
 30
0.0
 10
15.461198029
 20
11.7082884356
 30
0.0
 10
15.4656730811
 20
11.6979624739
 30
0.0
 10
15.4686748208
 20
11.6893190065
 30
0.0
 10
15.4706066178
 20
11.6824465301
 30
0.0
 10
15.4718143617
 20
11.6773552375
 30
0.0
 10
15.4727913535
 20
11.6722909999
 30
0.0
 10
15.4735366549
 20
11.6672579431
 30
0.0
 10
15.4740496969
 20
11.6622603189
 30
0.0
 10
15.474329911
 20
11.6573022979
 30
0.0
 10
15.4743771037
 20
11.6523880553
 30
0.0
 10
15.474191128
 20
11.6475217244
 30
0.0
 10
15.4737721531
 20
11.6427074119
 30
0.0
 10
15.4731204748
 20
11.6379491868
 30
0.0
 10
15.4722366237
 20
11.6332510788
 30
0.0
 10
15.4711213485
 20
11.6286170636
 30
0.0
 10
15.4697755441
 20
11.6240510816
 30
0.0
 10
15.4682004087
 20
11.6195569839
 30
0.0
 10
15.4663972064
 20
11.615138606
 30
0.0
 10
15.4643675678
 20
11.6107996462
 30
0.0
 10
15.462113131
 20
11.606543816
 30
0.0
 10
15.4596359306
 20
11.6023746424
 30
0.0
 10
15.4569379825
 20
11.598295691
 30
0.0
 10
15.4540216921
 20
11.5943103116
 30
0.0
 10
15.4508894511
 20
11.5904218972
 30
0.0
 10
15.4475440207
 20
11.5866336375
 30
0.0
 10
15.4439881021
 20
11.5829486819
 30
0.0
 10
15.4389330774
 20
11.5781416983
 30
0.0
 10
15.4320854548
 20
11.5724072154
 30
0.0
 10
15.4231426965
 20
11.5660409816
 30
0.0
 10
15.4134424567
 20
11.5601578752
 30
0.0
 10
15.4030177221
 20
11.5547770447
 30
0.0
 10
15.3919031636
 20
11.5499155511
 30
0.0
 10
15.3801357582
 20
11.5455889995
 30
0.0
 10
15.3677545335
 20
11.5418112963
 30
0.0
 10
15.3548005375
 20
11.5385946513
 30
0.0
 10
15.3413166981
 20
11.5359494862
 30
0.0
 10
15.3273477622
 20
11.5338844255
 30
0.0
 10
15.3129399629
 20
11.5324061724
 30
0.0
 10
15.2981414637
 20
11.5315195946
 30
0.0
 10
15.2881478402
 20
11.5313268339
 30
0.0
 10
15.2830984628
 20
11.5313268339
 30
0.0
  0
SPLINE
  5
44A
100
AcDbEntity
  8
LAYER_FEATURE
100
AcDbSpline
 62
7
  6
CONTINUOUS
 70
0
 71
3
 72
80
 73
76
 74
0
 42
0.0000001
 43
0.0000001
 44
0.0000000001
 40
0.0
 40
0.0
 40
0.0
 40
0.0
 40
0.005354095
 40
0.0107128794
 40
0.016081022
 40
0.0214631515
 40
0.026863837
 40
0.0322875689
 40
0.0377387416
 40
0.0432216369
 40
0.0487404093
 40
0.054299072
 40
0.0599014848
 40
0.0655513445
 40
0.0712521748
 40
0.0770073207
 40
0.0828199409
 40
0.0886930059
 40
0.100630124
 40
0.1128399036
 40
0.1190529642
 40
0.125340226
 40
0.1381426333
 40
0.1512590077
 40
0.1646973085
 40
0.1784628141
 40
0.1925582767
 40
0.2069840815
 40
0.2217384053
 40
0.2368173707
 40
0.2522151958
 40
0.2679243362
 40
0.2839356199
 40
0.3002383757
 40
0.3168205532
 40
0.3336688375
 40
0.350768757
 40
0.3681047856
 40
0.3856604408
 40
0.4034183763
 40
0.4213604718
 40
0.4394679185
 40
0.4577213026
 40
0.4761006857
 40
0.4945856837
 40
0.5131555436
 40
0.5317892189
 40
0.5504654444
 40
0.5691628098
 40
0.5878598332
 40
0.6065350335
 40
0.6251670039
 40
0.6437344852
 40
0.6622164391
 40
0.680592123
 40
0.6988411659
 40
0.7169436448
 40
0.734880164
 40
0.7526319353
 40
0.7701808617
 40
0.787509623
 40
0.8046017656
 40
0.8214417956
 40
0.8380152765
 40
0.8543089319
 40
0.8703107538
 40
0.8860101164
 40
0.9013978979
 40
0.9164666077
 40
0.9312105223
 40
0.9456258271
 40
0.9597107683
 40
0.9734657993
 40
0.9868937615
 40
1.0
 40
1.0
 40
1.0
 40
1.0
 10
14.3287986495
 20
12.5433478092
 30
0.0
 10
14.3300500666
 20
12.5473974111
 30
0.0
 10
14.332700643
 20
12.5554556786
 30
0.0
 10
14.3371131036
 20
12.5673998113
 30
0.0
 10
14.341961119
 20
12.5791980549
 30
0.0
 10
14.3472424949
 20
12.5908451346
 30
0.0
 10
14.3529549865
 20
12.6023360852
 30
0.0
 10
14.3590960936
 20
12.6136659627
 30
0.0
 10
14.3656631735
 20
12.6248298969
 30
0.0
 10
14.3726533685
 20
12.6358231049
 30
0.0
 10
14.380063662
 20
12.64664087
 30
0.0
 10
14.3878908422
 20
12.6572785645
 30
0.0
 10
14.396131529
 20
12.6677316375
 30
0.0
 10
14.4047821621
 20
12.6779956207
 30
0.0
 10
14.413839013
 20
12.6880661412
 30
0.0
 10
14.423298158
 20
12.6979388772
 30
0.0
 10
14.4331556134
 20
12.7076097076
 30
0.0
 10
14.4468976233
 20
12.7202971636
 30
0.0
 10
14.4650739468
 20
12.7356299506
 30
0.0
 10
14.484305795
 20
12.7500662609
 30
0.0
 10
14.5004139843
 20
12.7611686164
 30
0.0
 10
14.5172039347
 20
12.7720962883
 30
0.0
 10
14.539109099
 20
12.7851655968
 30
0.0
 10
14.5666299093
 20
12.7997972137
 30
0.0
 10
14.5954959335
 20
12.8134469709
 30
0.0
 10
14.6256573911
 20
12.8260917188
 30
0.0
 10
14.6570629684
 20
12.8377103572
 30
0.0
 10
14.6896590914
 20
12.8482833645
 30
0.0
 10
14.7233902232
 20
12.8577929769
 30
0.0
 10
14.7581988859
 20
12.8662231861
 30
0.0
 10
14.7940257671
 20
12.8735597834
 30
0.0
 10
14.8308098106
 20
12.8797903882
 30
0.0
 10
14.8684883179
 20
12.8849044763
 30
0.0
 10
14.9069970523
 20
12.888893403
 30
0.0
 10
14.9462703473
 20
12.8917504235
 30
0.0
 10
14.9862412184
 20
12.8934707083
 30
0.0
 10
15.0268414774
 20
12.8940513554
 30
0.0
 10
15.0680018492
 20
12.8934913984
 30
0.0
 10
15.1096520912
 20
12.8917918107
 30
0.0
 10
15.1517211137
 20
12.8889555058
 30
0.0
 10
15.1941371026
 20
12.8849873342
 30
0.0
 10
15.2368276429
 20
12.8798940763
 30
0.0
 10
15.2797198436
 20
12.8736844323
 30
0.0
 10
15.322740463
 20
12.8663690078
 30
0.0
 10
15.365816035
 20
12.8579602964
 30
0.0
 10
15.4088729953
 20
12.8484726589
 30
0.0
 10
15.4518378083
 20
12.837922299
 30
0.0
 10
15.4946370931
 20
12.8263272359
 30
0.0
 10
15.5371977502
 20
12.8137072734
 30
0.0
 10
15.5794470869
 20
12.8000839661
 30
0.0
 10
15.6213129421
 20
12.7854805824
 30
0.0
 10
15.6627238107
 20
12.7699220644
 30
0.0
 10
15.7036089661
 20
12.7534349849
 30
0.0
 10
15.7438985816
 20
12.7360475016
 30
0.0
 10
15.7835238509
 20
12.7177893084
 30
0.0
 10
15.8224171054
 20
12.6986915837
 30
0.0
 10
15.8605119309
 20
12.6787869363
 30
0.0
 10
15.8977432813
 20
12.658109349
 30
0.0
 10
15.93404759
 20
12.6366941185
 30
0.0
 10
15.9693628789
 20
12.6145777943
 30
0.0
 10
16.0036288639
 20
12.5917981145
 30
0.0
 10
16.0367870583
 20
12.568393939
 30
0.0
 10
16.0687808717
 20
12.5444051811
 30
0.0
 10
16.099555706
 20
12.5198727368
 30
0.0
 10
16.1290590472
 20
12.4948384122
 30
0.0
 10
16.157240553
 20
12.4693448488
 30
0.0
 10
16.1840521361
 20
12.4434354474
 30
0.0
 10
16.2094480414
 20
12.4171542912
 30
0.0
 10
16.2333849208
 20
12.3905460647
 30
0.0
 10
16.2558218948
 20
12.3636559834
 30
0.0
 10
16.276720632
 20
12.336529682
 30
0.0
 10
16.2960453388
 20
12.3092132547
 30
0.0
 10
16.3137630321
 20
12.2817527468
 30
0.0
 10
16.3298428021
 20
12.2541956299
 30
0.0
 10
16.3395692853
 20
12.2355665573
 30
0.0
 10
16.3441401408
 20
12.2262521332
 30
0.0
  0
SPLINE
  5
44B
100
AcDbEntity
  8
LAYER_CUT_FEAT
100
AcDbSpline
 62
7
  6
CONTINUOUS
 70
0
 71
3
 72
80
 73
76
 74
0
 42
0.0000001
 43
0.0000001
 44
0.0000000001
 40
0.0
 40
0.0
 40
0.0
 40
0.0
 40
0.005354095
 40
0.0107128794
 40
0.016081022
 40
0.0214631515
 40
0.026863837
 40
0.0322875689
 40
0.0377387416
 40
0.0432216369
 40
0.0487404093
 40
0.054299072
 40
0.0599014848
 40
0.0655513445
 40
0.0712521748
 40
0.0770073207
 40
0.0828199409
 40
0.0886930059
 40
0.100630124
 40
0.1128399036
 40
0.1190529642
 40
0.125340226
 40
0.1381426333
 40
0.1512590077
 40
0.1646973085
 40
0.1784628141
 40
0.1925582767
 40
0.2069840815
 40
0.2217384053
 40
0.2368173707
 40
0.2522151958
 40
0.2679243362
 40
0.2839356199
 40
0.3002383757
 40
0.3168205532
 40
0.3336688375
 40
0.350768757
 40
0.3681047856
 40
0.3856604408
 40
0.4034183763
 40
0.4213604718
 40
0.4394679185
 40
0.4577213026
 40
0.4761006857
 40
0.4945856837
 40
0.5131555436
 40
0.5317892188
 40
0.5504654443
 40
0.5691628098
 40
0.5878598332
 40
0.6065350334
 40
0.6251670039
 40
0.6437344852
 40
0.662216439
 40
0.680592123
 40
0.6988411658
 40
0.7169436448
 40
0.734880164
 40
0.7526319353
 40
0.7701808617
 40
0.787509623
 40
0.8046017656
 40
0.8214417956
 40
0.8380152765
 40
0.8543089319
 40
0.8703107538
 40
0.8860101164
 40
0.9013978979
 40
0.9164666076
 40
0.9312105223
 40
0.9456258271
 40
0.9597107683
 40
0.9734657993
 40
0.9868937615
 40
1.0
 40
1.0
 40
1.0
 40
1.0
 10
14.3174215323
 20
12.5065314445
 30
0.0
 10
14.3186729494
 20
12.5105810463
 30
0.0
 10
14.3213235258
 20
12.5186393138
 30
0.0
 10
14.3257359864
 20
12.5305834465
 30
0.0
 10
14.3305840018
 20
12.5423816901
 30
0.0
 10
14.3358653777
 20
12.5540287699
 30
0.0
 10
14.3415778693
 20
12.5655197205
 30
0.0
 10
14.3477189764
 20
12.5768495979
 30
0.0
 10
14.3542860563
 20
12.5880135322
 30
0.0
 10
14.3612762513
 20
12.5990067401
 30
0.0
 10
14.3686865448
 20
12.6098245052
 30
0.0
 10
14.376513725
 20
12.6204621997
 30
0.0
 10
14.3847544118
 20
12.6309152728
 30
0.0
 10
14.3934050449
 20
12.641179256
 30
0.0
 10
14.4024618958
 20
12.6512497765
 30
0.0
 10
14.4119210408
 20
12.6611225125
 30
0.0
 10
14.4217784962
 20
12.6707933428
 30
0.0
 10
14.4355205061
 20
12.6834807989
 30
0.0
 10
14.4536968296
 20
12.6988135858
 30
0.0
 10
14.4729286778
 20
12.7132498962
 30
0.0
 10
14.4890368671
 20
12.7243522516
 30
0.0
 10
14.5058268175
 20
12.7352799235
 30
0.0
 10
14.5277319818
 20
12.748349232
 30
0.0
 10
14.5552527921
 20
12.762980849
 30
0.0
 10
14.5841188163
 20
12.7766306061
 30
0.0
 10
14.6142802739
 20
12.7892753541
 30
0.0
 10
14.6456858512
 20
12.8008939924
 30
0.0
 10
14.6782819742
 20
12.8114669997
 30
0.0
 10
14.712013106
 20
12.8209766122
 30
0.0
 10
14.7468217687
 20
12.8294068213
 30
0.0
 10
14.7826486499
 20
12.8367434186
 30
0.0
 10
14.8194326934
 20
12.8429740235
 30
0.0
 10
14.8571112007
 20
12.8480881115
 30
0.0
 10
14.8956199351
 20
12.8520770382
 30
0.0
 10
14.9348932301
 20
12.8549340587
 30
0.0
 10
14.9748641012
 20
12.8566543435
 30
0.0
 10
15.0154643601
 20
12.8572349906
 30
0.0
 10
15.056624732
 20
12.8566750337
 30
0.0
 10
15.098274974
 20
12.854975446
 30
0.0
 10
15.1403439965
 20
12.8521391411
 30
0.0
 10
15.1827599853
 20
12.8481709694
 30
0.0
 10
15.2254505256
 20
12.8430777116
 30
0.0
 10
15.2683427263
 20
12.8368680676
 30
0.0
 10
15.3113633457
 20
12.829552643
 30
0.0
 10
15.3544389177
 20
12.8211439316
 30
0.0
 10
15.3974958781
 20
12.8116562941
 30
0.0
 10
15.440460691
 20
12.8011059342
 30
0.0
 10
15.4832599758
 20
12.7895108712
 30
0.0
 10
15.525820633
 20
12.7768909087
 30
0.0
 10
15.5680699696
 20
12.7632676014
 30
0.0
 10
15.6099358249
 20
12.7486642177
 30
0.0
 10
15.6513466935
 20
12.7331056996
 30
0.0
 10
15.6922318488
 20
12.7166186201
 30
0.0
 10
15.7325214644
 20
12.6992311369
 30
0.0
 10
15.7721467337
 20
12.6809729436
 30
0.0
 10
15.8110399882
 20
12.6618752189
 30
0.0
 10
15.8491348137
 20
12.6419705716
 30
0.0
 10
15.8863661641
 20
12.6212929842
 30
0.0
 10
15.9226704728
 20
12.5998777537
 30
0.0
 10
15.9579857616
 20
12.5777614296
 30
0.0
 10
15.9922517467
 20
12.5549817498
 30
0.0
 10
16.0254099411
 20
12.5315775743
 30
0.0
 10
16.0574037545
 20
12.5075888163
 30
0.0
 10
16.0881785887
 20
12.483056372
 30
0.0
 10
16.11768193
 20
12.4580220474
 30
0.0
 10
16.1458634358
 20
12.432528484
 30
0.0
 10
16.1726750189
 20
12.4066190826
 30
0.0
 10
16.1980709242
 20
12.3803379264
 30
0.0
 10
16.2220078036
 20
12.3537296999
 30
0.0
 10
16.2444447775
 20
12.3268396187
 30
0.0
 10
16.2653435148
 20
12.2997133172
 30
0.0
 10
16.2846682216
 20
12.2723968899
 30
0.0
 10
16.3023859149
 20
12.244936382
 30
0.0
 10
16.3184656849
 20
12.2173792651
 30
0.0
 10
16.3281921681
 20
12.1987501926
 30
0.0
 10
16.3327630236
 20
12.1894357684
 30
0.0
  0
SPLINE
  5
44C
100
AcDbEntity
  8
LAYER_FEATURE
100
AcDbSpline
 62
7
  6
CONTINUOUS
 70
0
 71
3
 72
18
 73
14
 74
0
 42
0.0000001
 43
0.0000001
 44
0.0000000001
 40
0.0
 40
0.0
 40
0.0
 40
0.0
 40
0.059432355
 40
0.1190516222
 40
0.1789134059
 40
0.2390715167
 40
0.2995778197
 40
0.3604817037
 40
0.4836394898
 40
0.6089117539
 40
0.7365850035
 40
0.8668899582
 40
1.0
 40
1.0
 40
1.0
 40
1.0
 10
14.8478845633
 20
12.4375714359
 30
0.0
 10
14.8474341268
 20
12.4387871462
 30
0.0
 10
14.8465868197
 20
12.441243163
 30
0.0
 10
14.8454806553
 20
12.4449872848
 30
0.0
 10
14.8445388353
 20
12.4487924718
 30
0.0
 10
14.8437623087
 20
12.4526544787
 30
0.0
 10
14.8431519817
 20
12.4565692719
 30
0.0
 10
14.8425583828
 20
12.4618726018
 30
0.0
 10
14.8422390773
 20
12.4686216678
 30
0.0
 10
14.842529388
 20
12.4768296904
 30
0.0
 10
14.8434897602
 20
12.4851433957
 30
0.0
 10
14.8451154456
 20
12.4935261541
 30
0.0
 10
14.8466217225
 20
12.4990774528
 30
0.0
 10
14.8474790321
 20
12.5018517079
 30
0.0
  0
SPLINE
  5
44D
100
AcDbEntity
  8
02___PRT_ALL_AXES
100
AcDbSpline
 62
7
  6
CONTINUOUS
 70
0
 71
3
 72
46
 73
42
 74
0
 42
0.0000001
 43
0.0000001
 44
0.0000000001
 40
0.0
 40
0.0
 40
0.0
 40
0.0
 40
0.0116245011
 40
0.0232982201
 40
0.0350410842
 40
0.0468723357
 40
0.0588101905
 40
0.0708718468
 40
0.0830731408
 40
0.0954286595
 40
0.1079514306
 40
0.1206530935
 40
0.1466262112
 40
0.1734154866
 40
0.2010582731
 40
0.2295690263
 40
0.2589414321
 40
0.2891508551
 40
0.3201570747
 40
0.3519070371
 40
0.3843375307
 40
0.4173777637
 40
0.4509516034
 40
0.4849796797
 40
0.5193810671
 40
0.5540747891
 40
0.5889809996
 40
0.6240219257
 40
0.6591226906
 40
0.6942118607
 40
0.729222033
 40
0.7640901992
 40
0.7814542565
 40
0.7987614266
 40
0.8331762024
 40
0.8672902348
 40
0.8842230343
 40
0.9010655384
 40
0.9344589606
 40
0.96744474
 40
1.0
 40
1.0
 40
1.0
 40
1.0
 10
14.844361644
 20
12.4437518825
 30
0.0
 10
14.8438204295
 20
12.4448547593
 30
0.0
 10
14.8427919638
 20
12.4470932942
 30
0.0
 10
14.8414179006
 20
12.4505338066
 30
0.0
 10
14.8402110134
 20
12.4540596414
 30
0.0
 10
14.8391724529
 20
12.4576676677
 30
0.0
 10
14.8383029693
 20
12.4613547162
 30
0.0
 10
14.8376033251
 20
12.465117464
 30
0.0
 10
14.837073952
 20
12.4689524345
 30
0.0
 10
14.8367152645
 20
12.4728559893
 30
0.0
 10
14.8365273672
 20
12.4768244251
 30
0.0
 10
14.8365044387
 20
12.4822364976
 30
0.0
 10
14.8369123291
 20
12.4891513125
 30
0.0
 10
14.8380775492
 20
12.4975765091
 30
0.0
 10
14.8399149943
 20
12.5061550896
 30
0.0
 10
14.8424149598
 20
12.5148481397
 30
0.0
 10
14.8455650792
 20
12.5236154743
 30
0.0
 10
14.849350402
 20
12.5324151768
 30
0.0
 10
14.8537534873
 20
12.5412041269
 30
0.0
 10
14.8587545423
 20
12.5499383065
 30
0.0
 10
14.8643315924
 20
12.5585731884
 30
0.0
 10
14.8704606607
 20
12.5670640875
 30
0.0
 10
14.8771159467
 20
12.5753665009
 30
0.0
 10
14.884269981
 20
12.5834363988
 30
0.0
 10
14.8918937493
 20
12.5912304924
 30
0.0
 10
14.8999567742
 20
12.5987064613
 30
0.0
 10
14.9084271521
 20
12.6058231635
 30
0.0
 10
14.9172715589
 20
12.6125408387
 30
0.0
 10
14.9264551916
 20
12.6188212971
 30
0.0
 10
14.9359417991
 20
12.6246281798
 30
0.0
 10
14.9456933103
 20
12.6299270517
 30
0.0
 10
14.9540194925
 20
12.6338984979
 30
0.0
 10
14.960776317
 20
12.6367910835
 30
0.0
 10
14.9675652108
 20
12.6394800555
 30
0.0
 10
14.9761353366
 20
12.6424692418
 30
0.0
 10
14.9848242333
 20
12.6449542361
 30
0.0
 10
14.9918036898
 20
12.6466209854
 30
0.0
 10
14.9987550451
 20
12.6480636893
 30
0.0
 10
15.0074446318
 20
12.6494609053
 30
0.0
 10
15.0178573901
 20
12.650476301
 30
0.0
 10
15.0247859919
 20
12.6507061281
 30
0.0
 10
15.0282265389
 20
12.6507061281
 30
0.0
  0
SPLINE
  5
44E
100
AcDbEntity
  8
LAYER_FEATURE
100
AcDbSpline
 62
7
  6
CONTINUOUS
 70
0
 71
3
 72
11
 73
7
 74
0
 42
0.0000001
 43
0.0000001
 44
0.0000000001
 40
0.0
 40
0.0
 40
0.0
 40
0.0
 40
0.242910385
 40
0.4895300431
 40
0.7414558151
 40
1.0
 40
1.0
 40
1.0
 40
1.0
 10
15.0570335623
 20
13.6831780371
 30
0.0
 10
15.0571235671
 20
13.6834692878
 30
0.0
 10
15.0573388396
 20
13.6840463225
 30
0.0
 10
15.0577600158
 20
13.6848780457
 30
0.0
 10
15.0582788167
 20
13.685676053
 30
0.0
 10
15.0586821411
 20
13.6861753813
 30
0.0
 10
15.058897927
 20
13.6864176848
 30
0.0
  0
SPLINE
  5
44F
100
AcDbEntity
  8
LAYER_FEATURE
100
AcDbSpline
 62
7
  6
CONTINUOUS
 70
0
 71
3
 72
11
 73
7
 74
0
 42
0.0000001
 43
0.0000001
 44
0.0000000001
 40
0.0
 40
0.0
 40
0.0
 40
0.0
 40
0.2466165326
 40
0.496874165
 40
0.7487017404
 40
1.0
 40
1.0
 40
1.0
 40
1.0
 10
16.6985386899
 20
12.8118693554
 30
0.0
 10
16.7010090549
 20
12.8105858234
 30
0.0
 10
16.7060765167
 20
12.8081700254
 30
0.0
 10
16.7139321738
 20
12.8050372338
 30
0.0
 10
16.722022344
 20
12.8023970719
 30
0.0
 10
16.7275273913
 20
12.8009816498
 30
0.0
 10
16.7302962675
 20
12.8003647781
 30
0.0
  0
SPLINE
  5
450
100
AcDbEntity
  8
LAYER_FEATURE
100
AcDbSpline
 62
7
  6
CONTINUOUS
 70
0
 71
3
 72
17
 73
13
 74
0
 42
0.0000001
 43
0.0000001
 44
0.0000000001
 40
0.0
 40
0.0
 40
0.0
 40
0.0
 40
0.0588089279
 40
0.1186234033
 40
0.1793464965
 40
0.2408753789
 40
0.3658995552
 40
0.4928044522
 40
0.6206377356
 40
0.748426144
 40
0.8751952452
 40
1.0
 40
1.0
 40
1.0
 40
1.0
 10
16.6155842735
 20
12.9615350936
 30
0.0
 10
16.6165981184
 20
12.9608080425
 30
0.0
 10
16.6186705414
 20
12.9593793382
 30
0.0
 10
16.6218782577
 20
12.9573319243
 30
0.0
 10
16.6252041447
 20
12.9553665351
 30
0.0
 10
16.6298076538
 20
12.9528496975
 30
0.0
 10
16.6357963479
 20
12.9499477105
 30
0.0
 10
16.6432566874
 20
12.9468933153
 30
0.0
 10
16.6509456478
 20
12.9442826053
 30
0.0
 10
16.6587764258
 20
12.9421451174
 30
0.0
 10
16.6666603988
 20
12.9405049046
 30
0.0
 10
16.6719477304
 20
12.9397474459
 30
0.0
 10
16.6745795896
 20
12.9394587256
 30
0.0
  0
SPLINE
  5
451
100
AcDbEntity
  8
LAYER_FEATURE
100
AcDbSpline
 62
7
  6
CONTINUOUS
 70
0
 71
3
 72
23
 73
19
 74
0
 42
0.0000001
 43
0.0000001
 44
0.0000000001
 40
0.0
 40
0.0
 40
0.0
 40
0.0
 40
0.0552966188
 40
0.1125738348
 40
0.1716760035
 40
0.2324179104
 40
0.2945895813
 40
0.3579606731
 40
0.4222845355
 40
0.4873020257
 40
0.5527451461
 40
0.6183405546
 40
0.6838130291
 40
0.7488888325
 40
0.8132993238
 40
0.8767839948
 40
0.9390952435
 40
1.0
 40
1.0
 40
1.0
 40
1.0
 10
16.497407839
 20
13.1102553228
 30
0.0
 10
16.4985971038
 20
13.1090453553
 30
0.0
 10
16.5011016907
 20
13.1066629487
 30
0.0
 10
16.5051354819
 20
13.1032713553
 30
0.0
 10
16.5094907622
 20
13.1000164415
 30
0.0
 10
16.5141403042
 20
13.0969185381
 30
0.0
 10
16.5190553231
 20
13.0939967622
 30
0.0
 10
16.5242052859
 20
13.0912692515
 30
0.0
 10
16.5295582035
 20
13.0887529368
 30
0.0
 10
16.5350808036
 20
13.0864634563
 30
0.0
 10
16.5407387486
 20
13.0844150446
 30
0.0
 10
16.5464968519
 20
13.0826204407
 30
0.0
 10
16.5523192989
 20
13.0810908075
 30
0.0
 10
16.5581698853
 20
13.0798356547
 30
0.0
 10
16.5640122113
 20
13.0788627938
 30
0.0
 10
16.5698100366
 20
13.0781782625
 30
0.0
 10
16.5755271068
 20
13.0777863358
 30
0.0
 10
16.5793090438
 20
13.0777209235
 30
0.0
 10
16.5811775935
 20
13.0777395054
 30
0.0
  0
SPLINE
  5
452
100
AcDbEntity
  8
LAYER_FEATURE
100
AcDbSpline
 62
7
  6
CONTINUOUS
 70
0
 71
3
 72
33
 73
29
 74
0
 42
0.0000001
 43
0.0000001
 44
0.0000000001
 40
0.0
 40
0.0
 40
0.0
 40
0.0
 40
0.0251443136
 40
0.0510489178
 40
0.0777111668
 40
0.1051206649
 40
0.1332600528
 40
0.1621053926
 40
0.19162706
 40
0.2217902594
 40
0.2525553942
 40
0.2838788283
 40
0.3157131968
 40
0.3480078234
 40
0.4137533409
 40
0.4806697006
 40
0.5482754061
 40
0.6160736154
 40
0.6835632557
 40
0.7502500476
 40
0.7831466904
 40
0.815666162
 40
0.8477536553
 40
0.8793571557
 40
0.9104269976
 40
0.9409174958
 40
0.9707896626
 40
1.0
 40
1.0
 40
1.0
 40
1.0
 10
16.3485233715
 20
13.2527339803
 30
0.0
 10
16.3490490168
 20
13.2518941211
 30
0.0
 10
16.3501651208
 20
13.2502191855
 30
0.0
 10
16.3519964991
 20
13.2477634666
 30
0.0
 10
16.354005077
 20
13.2453334692
 30
0.0
 10
16.3561852507
 20
13.2429359091
 30
0.0
 10
16.3585310777
 20
13.2405773168
 30
0.0
 10
16.3610360888
 20
13.2382641157
 30
0.0
 10
16.3636934151
 20
13.2360026272
 30
0.0
 10
16.3664957806
 20
13.2337990621
 30
0.0
 10
16.3694354751
 20
13.231659424
 30
0.0
 10
16.3725044321
 20
13.2295895995
 30
0.0
 10
16.3756942663
 20
13.2275952465
 30
0.0
 10
16.3801228363
 20
13.225028988
 30
0.0
 10
16.3859046923
 20
13.2220485421
 30
0.0
 10
16.3931354115
 20
13.2188757321
 30
0.0
 10
16.4006213771
 20
13.2161198654
 30
0.0
 10
16.4082806503
 20
13.2138111421
 30
0.0
 10
16.4160293851
 20
13.2119747994
 30
0.0
 10
16.4225206109
 20
13.2108496419
 30
0.0
 10
16.4276867176
 20
13.2102051925
 30
0.0
 10
16.4315132796
 20
13.2098527439
 30
0.0
 10
16.4352985285
 20
13.2096300055
 30
0.0
 10
16.4390321035
 20
13.2095375984
 30
0.0
 10
16.442703727
 20
13.209575738
 30
0.0
 10
16.4463034437
 20
13.2097443656
 30
0.0
 10
16.4498211664
 20
13.2100430415
 30
0.0
 10
16.4521320733
 20
13.2103316048
 30
0.0
 10
16.4532709723
 20
13.2104981313
 30
0.0
  0
LINE
  5
453
100
AcDbEntity
  8
LAYER_FEATURE
100
AcDbLine
 62
7
  6
CONTINUOUS
 10
16.1846693165
 20
13.4183820323
 11
16.1850056414
 21
13.4202559741
  0
SPLINE
  5
454
100
AcDbEntity
  8
LAYER_FEATURE
100
AcDbSpline
 62
7
  6
CONTINUOUS
 70
0
 71
3
 72
39
 73
35
 74
0
 42
0.0000001
 43
0.0000001
 44
0.0000000001
 40
0.0
 40
0.0
 40
0.0
 40
0.0
 40
0.0228519656
 40
0.0465686539
 40
0.0712134663
 40
0.0968277378
 40
0.1234324432
 40
0.1510300872
 40
0.1796066128
 40
0.2091332035
 40
0.2395680266
 40
0.2708578356
 40
0.3029394064
 40
0.3357408486
 40
0.369182795
 40
0.4031795489
 40
0.4376401636
 40
0.4724694368
 40
0.5075688592
 40
0.5428375333
 40
0.5781730934
 40
0.6134726077
 40
0.6486334558
 40
0.6835542087
 40
0.7181355325
 40
0.7522811317
 40
0.7858986833
 40
0.8189008308
 40
0.8512061823
 40
0.8827404377
 40
0.9134378312
 40
0.943241243
 40
0.97210724
 40
1.0
 40
1.0
 40
1.0
 40
1.0
 10
16.1741392136
 20
13.3844492634
 30
0.0
 10
16.174415241
 20
13.3834005758
 30
0.0
 10
16.1750796486
 20
13.3812892261
 30
0.0
 10
16.1763714278
 20
13.3781625398
 30
0.0
 10
16.1779699378
 20
13.3750331897
 30
0.0
 10
16.1798678931
 20
13.3719148043
 30
0.0
 10
16.182056947
 20
13.3688204687
 30
0.0
 10
16.1845275499
 20
13.3657633396
 30
0.0
 10
16.1872690032
 20
13.3627564189
 30
0.0
 10
16.1902694589
 20
13.3598125392
 30
0.0
 10
16.1935159675
 20
13.3569442943
 30
0.0
 10
16.1969945279
 20
13.3541639871
 30
0.0
 10
16.2006901396
 20
13.3514835676
 30
0.0
 10
16.2045868632
 20
13.3489145792
 30
0.0
 10
16.208667879
 20
13.3464680941
 30
0.0
 10
16.2129155624
 20
13.3441546625
 30
0.0
 10
16.2173115661
 20
13.3419842717
 30
0.0
 10
16.2218368979
 20
13.3399662977
 30
0.0
 10
16.2264720033
 20
13.3381094657
 30
0.0
 10
16.2311968472
 20
13.3364218029
 30
0.0
 10
16.2359910019
 20
13.3349105995
 30
0.0
 10
16.2408337416
 20
13.3335823871
 30
0.0
 10
16.245704132
 20
13.332442908
 30
0.0
 10
16.250581121
 20
13.3314970923
 30
0.0
 10
16.2554436304
 20
13.3307490313
 30
0.0
 10
16.2602706495
 20
13.3302019524
 30
0.0
 10
16.2650413296
 20
13.329858219
 30
0.0
 10
16.2697350747
 20
13.3297193223
 30
0.0
 10
16.2743316279
 20
13.3297858766
 30
0.0
 10
16.2788111802
 20
13.3300576131
 30
0.0
 10
16.2831543843
 20
13.3305333982
 30
0.0
 10
16.2873426781
 20
13.3312111997
 30
0.0
 10
16.2913577408
 20
13.3320881743
 30
0.0
 10
16.29395301
 20
13.3328158841
 30
0.0
 10
16.2952154326
 20
13.3332136677
 30
0.0
  0
SPLINE
  5
455
100
AcDbEntity
  8
02___PRT_ALL_AXES
100
AcDbSpline
 62
7
  6
CONTINUOUS
 70
0
 71
3
 72
40
 73
36
 74
0
 42
0.0000001
 43
0.0000001
 44
0.0000000001
 40
0.0
 40
0.0
 40
0.0
 40
0.0
 40
0.0248034546
 40
0.049664248
 40
0.0746390663
 40
0.0997833135
 40
0.1251505275
 40
0.1507918574
 40
0.1767556158
 40
0.2030869115
 40
0.2298273685
 40
0.2570149276
 40
0.2846837213
 40
0.3128640179
 40
0.3271552563
 40
0.3415839409
 40
0.3708626359
 40
0.4007206744
 40
0.4311732902
 40
0.4622322343
 40
0.4939059225
 40
0.5261995923
 40
0.5591154628
 40
0.5926528929
 40
0.6268085439
 40
0.6615765358
 40
0.6969485987
 40
0.7329142173
 40
0.7694607716
 40
0.8065736704
 40
0.8442364555
 40
0.8824310358
 40
0.9211374221
 40
0.960334881
 40
1.0
 40
1.0
 40
1.0
 40
1.0
 10
14.4636009187
 20
12.4613585975
 30
0.0
 10
14.4653461096
 20
12.4670060456
 30
0.0
 10
14.46917388
 20
12.4782140531
 30
0.0
 10
14.4759030162
 20
12.4946898508
 30
0.0
 10
14.4836148838
 20
12.5108197985
 30
0.0
 10
14.4923002204
 20
12.5265846214
 30
0.0
 10
14.5019489291
 20
12.5419665087
 30
0.0
 10
14.5125497237
 20
12.5569478984
 30
0.0
 10
14.5240902646
 20
12.5715118281
 30
0.0
 10
14.5365571612
 20
12.5856418651
 30
0.0
 10
14.5499359934
 20
12.5993221205
 30
0.0
 10
14.5642114129
 20
12.6125373031
 30
0.0
 10
14.5793668739
 20
12.6252725087
 30
0.0
 10
14.5926529851
 20
12.6354256799
 30
0.0
 10
14.6036960656
 20
12.643296407
 30
0.0
 10
14.6151252281
 20
12.6510708416
 30
0.0
 10
14.6299371886
 20
12.6604601051
 30
0.0
 10
14.648431054
 20
12.6711395018
 30
0.0
 10
14.6677095922
 20
12.6812738783
 30
0.0
 10
14.6877507879
 20
12.6908518062
 30
0.0
 10
14.7085320702
 20
12.6998626541
 30
0.0
 10
14.7300299691
 20
12.7082963633
 30
0.0
 10
14.7522202377
 20
12.7161435235
 30
0.0
 10
14.775077846
 20
12.7233953728
 30
0.0
 10
14.7985770171
 20
12.7300438075
 30
0.0
 10
14.8226912519
 20
12.7360813916
 30
0.0
 10
14.8473933588
 20
12.7415013665
 30
0.0
 10
14.8726554818
 20
12.7462976602
 30
0.0
 10
14.8984491321
 20
12.7504648953
 30
0.0
 10
14.9247452121
 20
12.7539983963
 30
0.0
 10
14.9515140737
 20
12.7568942102
 30
0.0
 10
14.9787254648
 20
12.759149069
 30
0.0
 10
15.0063488196
 20
12.7607604814
 30
0.0
 10
15.0343526746
 20
12.7617265864
 30
0.0
 10
15.0531472962
 20
12.7619385492
 30
0.0
 10
15.0625999569
 20
12.7619385492
 30
0.0
  0
SPLINE
  5
456
100
AcDbEntity
  8
LAYER_CHAMFER_FEAT
100
AcDbSpline
 62
7
  6
CONTINUOUS
 70
0
 71
3
 72
44
 73
40
 74
0
 42
0.0000001
 43
0.0000001
 44
0.0000000001
 40
0.0
 40
0.0
 40
0.0
 40
0.0
 40
0.0106260959
 40
0.0212748375
 40
0.0319686312
 40
0.0427294168
 40
0.0535784528
 40
0.0645361183
 40
0.075621754
 40
0.0868535082
 40
0.0982482459
 40
0.1098214423
 40
0.1335519248
 40
0.1581465024
 40
0.183676803
 40
0.2101921586
 40
0.2377211135
 40
0.2662732102
 40
0.2958408542
 40
0.3264011376
 40
0.357917558
 40
0.3903416089
 40
0.4236142386
 40
0.4576671854
 40
0.492424206
 40
0.5278022127
 40
0.563712334
 40
0.6000609162
 40
0.6367504765
 40
0.6736806196
 40
0.7107489283
 40
0.747851836
 40
0.7848854901
 40
0.8217466109
 40
0.8583333604
 40
0.8945462102
 40
0.9302888671
 40
0.9654691316
 40
1.0
 40
1.0
 40
1.0
 40
1.0
 10
14.9656212071
 20
11.8132263002
 30
0.0
 10
14.9651664215
 20
11.8117546328
 30
0.0
 10
14.9643388571
 20
11.8087817828
 30
0.0
 10
14.9633487949
 20
11.8042523054
 30
0.0
 10
14.9626104417
 20
11.7996551566
 30
0.0
 10
14.962124569
 20
11.7949954057
 30
0.0
 10
14.9618916656
 20
11.790277934
 30
0.0
 10
14.9619118926
 20
11.7855077427
 30
0.0
 10
14.9621852077
 20
11.7806898472
 30
0.0
 10
14.9627112128
 20
11.7758293337
 30
0.0
 10
14.9634893653
 20
11.7709311947
 30
0.0
 10
14.9648731676
 20
11.7643025975
 30
0.0
 10
14.9672470685
 20
11.7559370899
 30
0.0
 10
14.9710602707
 20
11.7459202562
 30
0.0
 10
14.9758446301
 20
11.7358810376
 30
0.0
 10
14.9815791734
 20
11.7258609976
 30
0.0
 10
14.988239504
 20
11.7159007028
 30
0.0
 10
14.9957976127
 20
11.7060407987
 30
0.0
 10
15.0042219665
 20
11.6963215558
 30
0.0
 10
15.0134775541
 20
11.6867828059
 30
0.0
 10
15.0235259839
 20
11.6774637425
 30
0.0
 10
15.0343256056
 20
11.6684027515
 30
0.0
 10
15.04583166
 20
11.6596372314
 30
0.0
 10
15.0579964497
 20
11.6512034215
 30
0.0
 10
15.070769529
 20
11.6431362364
 30
0.0
 10
15.0840979095
 20
11.6354691076
 30
0.0
 10
15.0979262788
 20
11.6282338344
 30
0.0
 10
15.1121972314
 20
11.6214604431
 30
0.0
 10
15.1268515087
 20
11.6151770556
 30
0.0
 10
15.1418282476
 20
11.6094097672
 30
0.0
 10
15.1570652371
 20
11.6041825346
 30
0.0
 10
15.1724991797
 20
11.5995170728
 30
0.0
 10
15.1880659586
 20
11.5954327635
 30
0.0
 10
15.2037009059
 20
11.5919465731
 30
0.0
 10
15.2193390863
 20
11.5890729827
 30
0.0
 10
15.234915528
 20
11.5868239266
 30
0.0
 10
15.2503656632
 20
11.5852087496
 30
0.0
 10
15.2656249813
 20
11.584234164
 30
0.0
 10
15.2757313596
 20
11.5840119668
 30
0.0
 10
15.2807368799
 20
11.5840119668
 30
0.0
  0
SPLINE
  5
457
100
AcDbEntity
  8
LAYER_CHAMFER_FEAT
100
AcDbSpline
 62
7
  6
CONTINUOUS
 70
0
 71
3
 72
29
 73
25
 74
0
 42
0.0000001
 43
0.0000001
 44
0.0000000001
 40
0.0
 40
0.0
 40
0.0
 40
0.0
 40
0.0248056148
 40
0.0496685706
 40
0.0746455629
 40
0.0997920002
 40
0.1251614194
 40
0.1508049872
 40
0.1767709964
 40
0.203104594
 40
0.2298473637
 40
0.2570373059
 40
0.2847084902
 40
0.3128912613
 40
0.3708798346
 40
0.4311838459
 40
0.4939113744
 40
0.5591171839
 40
0.6268077415
 40
0.6969463549
 40
0.7694579634
 40
0.844234029
 40
0.9211358024
 40
1.0
 40
1.0
 40
1.0
 40
1.0
 10
15.4433316194
 20
11.6656026175
 30
0.0
 10
15.4428578913
 20
11.6640696531
 30
0.0
 10
15.4418188744
 20
11.6610273031
 30
0.0
 10
15.4399922857
 20
11.6565550471
 30
0.0
 10
15.4378989515
 20
11.6521766651
 30
0.0
 10
15.4355413588
 20
11.6478974028
 30
0.0
 10
15.4329222854
 20
11.6437220728
 30
0.0
 10
15.4300447475
 20
11.6396554747
 30
0.0
 10
15.4269121526
 20
11.6357021677
 30
0.0
 10
15.423528072
 20
11.6318666702
 30
0.0
 10
15.4198964802
 20
11.6281532223
 30
0.0
 10
15.4160215061
 20
11.6245660759
 30
0.0
 10
15.4119075778
 20
11.6211090984
 30
0.0
 10
15.4060550117
 20
11.6166366188
 30
0.0
 10
15.3981452714
 20
11.6113977745
 30
0.0
 10
15.3878731926
 20
11.6057533922
 30
0.0
 10
15.3767767783
 20
11.6007150147
 30
0.0
 10
15.364906522
 20
11.5963045978
 30
0.0
 10
15.3523154847
 20
11.5925409614
 30
0.0
 10
15.3390600931
 20
11.5894404265
 30
0.0
 10
15.3251997172
 20
11.5870164652
 30
0.0
 10
15.310796395
 20
11.5852796975
 30
0.0
 10
15.2959151039
 20
11.5842377093
 30
0.0
 10
15.285838026
 20
11.5840119668
 30
0.0
 10
15.2807368799
 20
11.5840119668
 30
0.0
  0
SPLINE
  5
458
100
AcDbEntity
  8
LAYER_FEATURE
100
AcDbSpline
 62
7
  6
CONTINUOUS
 70
0
 71
3
 72
12
 73
8
 74
0
 42
0.0000001
 43
0.0000001
 44
0.0000000001
 40
0.0
 40
0.0
 40
0.0
 40
0.0
 40
0.2723193801
 40
0.5289987174
 40
0.6518118916
 40
0.7711322305
 40
1.0
 40
1.0
 40
1.0
 40
1.0
 10
16.1145591185
 20
11.801116644
 30
0.0
 10
16.1135403878
 20
11.7998961453
 30
0.0
 10
16.1114804154
 20
11.7975910842
 30
0.0
 10
16.1087271773
 20
11.7949575724
 30
0.0
 10
16.1064916829
 20
11.7930897748
 30
0.0
 10
16.1043009009
 20
11.7914270972
 30
0.0
 10
16.1025919265
 20
11.790317532
 30
0.0
 10
16.1014318965
 20
11.7896545477
 30
0.0
  0
SPLINE
  5
459
100
AcDbEntity
  8
02___PRT_ALL_AXES
100
AcDbSpline
 62
7
  6
CONTINUOUS
 70
0
 71
3
 72
44
 73
40
 74
0
 42
0.0000001
 43
0.0000001
 44
0.0000000001
 40
0.0
 40
0.0
 40
0.0
 40
0.0
 40
0.0396648968
 40
0.0788616493
 40
0.1175677687
 40
0.1557619004
 40
0.1934243024
 40
0.2305368075
 40
0.2670829777
 40
0.3030482199
 40
0.3384199127
 40
0.3731875403
 40
0.4073428323
 40
0.4408799085
 40
0.4737954318
 40
0.5060887632
 40
0.5377621206
 40
0.56882074
 40
0.5992730361
 40
0.6291307594
 40
0.6584091451
 40
0.6728376819
 40
0.6871287667
 40
0.7153087689
 40
0.7429772737
 40
0.7701645475
 40
0.7969047229
 40
0.8232357408
 40
0.849199226
 40
0.8748402874
 40
0.9002072358
 40
0.9128050758
 40
0.9253537818
 40
0.9378601146
 40
0.9503309528
 40
0.9627732742
 40
0.9751941363
 40
0.9876006583
 40
1.0
 40
1.0
 40
1.0
 40
1.0
 10
14.9144553669
 20
12.2825424805
 30
0.0
 10
14.90500266
 20
12.2825424805
 30
0.0
 10
14.8862080621
 20
12.2823305254
 30
0.0
 10
14.8582041984
 20
12.2813644044
 30
0.0
 10
14.8305808908
 20
12.2797530103
 30
0.0
 10
14.8033694755
 20
12.2774981408
 30
0.0
 10
14.7766006229
 20
12.2746023308
 30
0.0
 10
14.7503045413
 20
12.2710688262
 30
0.0
 10
14.7245108918
 20
12.266901591
 30
0.0
 10
14.699248768
 20
12.2621052987
 30
0.0
 10
14.6745466599
 20
12.2566853255
 30
0.0
 10
14.6504324243
 20
12.2506477421
 30
0.0
 10
14.6269332537
 20
12.2439993069
 30
0.0
 10
14.6040756469
 20
12.2367474554
 30
0.0
 10
14.5818853797
 20
12.2289002932
 30
0.0
 10
14.5603874801
 20
12.2204665853
 30
0.0
 10
14.5396061958
 20
12.2114557394
 30
0.0
 10
14.5195649983
 20
12.2018778131
 30
0.0
 10
14.5002864605
 20
12.191743436
 30
0.0
 10
14.4817925957
 20
12.1810640394
 30
0.0
 10
14.4669806414
 20
12.1716747666
 30
0.0
 10
14.4555514701
 20
12.1639003455
 30
0.0
 10
14.4445083984
 20
12.1560296051
 30
0.0
 10
14.4312222811
 20
12.1458764428
 30
0.0
 10
14.4160668186
 20
12.1331412367
 30
0.0
 10
14.4017913988
 20
12.119926056
 30
0.0
 10
14.3884125666
 20
12.1062457944
 30
0.0
 10
14.3759456816
 20
12.0921157717
 30
0.0
 10
14.3644051115
 20
12.0775517816
 30
0.0
 10
14.3538044265
 20
12.062570612
 30
0.0
 10
14.3457450079
 20
12.0497222427
 30
0.0
 10
14.3397875466
 20
12.0392600954
 30
0.0
 10
14.3355711766
 20
12.0313377318
 30
0.0
 10
14.3315979243
 20
12.0233245217
 30
0.0
 10
14.3278688633
 20
12.0152226678
 30
0.0
 10
14.3243850709
 20
12.0070344951
 30
0.0
 10
14.3211475368
 20
11.9987622933
 30
0.0
 10
14.3181571999
 20
11.9904085137
 30
0.0
 10
14.3163287684
 20
11.9847857384
 30
0.0
 10
14.3154563297
 20
11.9819625285
 30
0.0
  0
SPLINE
  5
45A
100
AcDbEntity
  8
LAYER_FEATURE
100
AcDbSpline
 62
7
  6
CONTINUOUS
 70
0
 71
3
 72
40
 73
36
 74
0
 42
0.0000001
 43
0.0000001
 44
0.0000000001
 40
0.0
 40
0.0
 40
0.0
 40
0.0
 40
0.0475531159
 40
0.0938226453
 40
0.1387498811
 40
0.1822938682
 40
0.2244186789
 40
0.2650921917
 40
0.3042902716
 40
0.3419970538
 40
0.3782059727
 40
0.4129201139
 40
0.4461547195
 40
0.4779377344
 40
0.50831225
 40
0.5373380112
 40
0.5650935092
 40
0.5785276574
 40
0.5916833956
 40
0.6172186475
 40
0.6418496133
 40
0.6657441719
 40
0.6890916859
 40
0.712098797
 40
0.7349838362
 40
0.7579694531
 40
0.7812747358
 40
0.8051077332
 40
0.8296596957
 40
0.8551006711
 40
0.8815780231
 40
0.9092154607
 40
0.9381144777
 40
0.9683555033
 40
1.0
 40
1.0
 40
1.0
 40
1.0
 10
16.0777469037
 20
12.0312929619
 30
0.0
 10
16.0781832616
 20
12.0327050168
 30
0.0
 10
16.0790774915
 20
12.0354808737
 30
0.0
 10
16.0805040162
 20
12.0395509063
 30
0.0
 10
16.0819954691
 20
12.0434646079
 30
0.0
 10
16.0835491458
 20
12.047215009
 30
0.0
 10
16.085162381
 20
12.0507957216
 30
0.0
 10
16.0868324122
 20
12.0542005538
 30
0.0
 10
16.0885563232
 20
12.0574236004
 30
0.0
 10
16.0903311906
 20
12.060459278
 30
0.0
 10
16.0921539234
 20
12.0633023835
 30
0.0
 10
16.0940214889
 20
12.065947981
 30
0.0
 10
16.0959306789
 20
12.0683915462
 30
0.0
 10
16.0978783445
 20
12.0706288245
 30
0.0
 10
16.0998612638
 20
12.072655971
 30
0.0
 10
16.1018761081
 20
12.0744693505
 30
0.0
 10
16.1035975453
 20
12.0758140876
 30
0.0
 10
16.1049866861
 20
12.076775599
 30
0.0
 10
16.1063546155
 20
12.077644174
 30
0.0
 10
16.1080800201
 20
12.0785962218
 30
0.0
 10
16.1101896474
 20
12.0795250142
 30
0.0
 10
16.1123142457
 20
12.0802265665
 30
0.0
 10
16.1144497964
 20
12.080699138
 30
0.0
 10
16.1165921717
 20
12.0809413611
 30
0.0
 10
16.1187369851
 20
12.0809525518
 30
0.0
 10
16.1208797897
 20
12.0807326806
 30
0.0
 10
16.1230161893
 20
12.0802823585
 30
0.0
 10
16.1251420141
 20
12.0796029165
 30
0.0
 10
16.1272532942
 20
12.07869601
 30
0.0
 10
16.1293463795
 20
12.0775638511
 30
0.0
 10
16.1314177177
 20
12.0762087651
 30
0.0
 10
16.1334639671
 20
12.0746334995
 30
0.0
 10
16.135481804
 20
12.0728409348
 30
0.0
 10
16.1374679062
 20
12.0708343948
 30
0.0
 10
16.1387393839
 20
12.0693896496
 30
0.0
 10
16.1393696148
 20
12.0686346072
 30
0.0
  0
SPLINE
  5
45B
100
AcDbEntity
  8
LAYER_FEATURE
100
AcDbSpline
 62
7
  6
CONTINUOUS
 70
0
 71
3
 72
56
 73
52
 74
0
 42
0.0000001
 43
0.0000001
 44
0.0000000001
 40
0.0
 40
0.0
 40
0.0
 40
0.0
 40
0.0146674868
 40
0.0291023566
 40
0.0433116702
 40
0.0573086213
 40
0.0711077876
 40
0.0847262818
 40
0.0981838987
 40
0.1115026535
 40
0.1247066082
 40
0.1378215772
 40
0.1508747724
 40
0.1638943902
 40
0.1769091664
 40
0.1899479142
 40
0.2030390614
 40
0.2162102006
 40
0.2294876531
 40
0.2428961077
 40
0.2564583097
 40
0.2701947691
 40
0.2841235836
 40
0.2982603203
 40
0.3126178901
 40
0.3272065406
 40
0.342033894
 40
0.357104942
 40
0.3879765457
 40
0.4037838898
 40
0.4198306801
 40
0.452607075
 40
0.4862393787
 40
0.5206268725
 40
0.5556471623
 40
0.5911606298
 40
0.627014794
 40
0.6630485253
 40
0.6990962223
 40
0.7349919373
 40
0.7705735046
 40
0.8056866965
 40
0.8230258359
 40
0.8401958881
 40
0.8739625833
 40
0.8905399084
 40
0.9068959979
 40
0.9389020245
 40
0.9545476347
 40
0.9699473476
 40
1.0
 40
1.0
 40
1.0
 40
1.0
 10
14.8676844595
 20
12.5222405149
 30
0.0
 10
14.8671690783
 20
12.5205727408
 30
0.0
 10
14.8662327719
 20
12.517236178
 30
0.0
 10
14.8651114724
 20
12.5122024836
 30
0.0
 10
14.8642875411
 20
12.5071922333
 30
0.0
 10
14.8637630798
 20
12.5022178253
 30
0.0
 10
14.8635394046
 20
12.4972910984
 30
0.0
 10
14.8636171795
 20
12.4924239842
 30
0.0
 10
14.8639963442
 20
12.4876282731
 30
0.0
 10
14.8646760462
 20
12.4829155923
 30
0.0
 10
14.8656547149
 20
12.4782973954
 30
0.0
 10
14.8669300892
 20
12.4737849426
 30
0.0
 10
14.8684990865
 20
12.4693892336
 30
0.0
 10
14.8703579063
 20
12.4651209903
 30
0.0
 10
14.8725020723
 20
12.4609906514
 30
0.0
 10
14.8749263167
 20
12.4570082785
 30
0.0
 10
14.8776246877
 20
12.4531835544
 30
0.0
 10
14.8805906058
 20
12.4495257956
 30
0.0
 10
14.8838167745
 20
12.4460438434
 30
0.0
 10
14.8872952792
 20
12.4427460835
 30
0.0
 10
14.8910176476
 20
12.4396404792
 30
0.0
 10
14.8949747828
 20
12.4367344581
 30
0.0
 10
14.8991570458
 20
12.4340349431
 30
0.0
 10
14.9035543045
 20
12.4315484032
 30
0.0
 10
14.9081559092
 20
12.4292807327
 30
0.0
 10
14.9129506788
 20
12.4272373006
 30
0.0
 10
14.9179272377
 20
12.4254229418
 30
0.0
 10
14.9248430219
 20
12.4232982862
 30
0.0
 10
14.93202388
 20
12.4216723392
 30
0.0
 10
14.9394035339
 20
12.4205340368
 30
0.0
 10
14.9470531339
 20
12.4197072705
 30
0.0
 10
14.9568710855
 20
12.4193032518
 30
0.0
 10
14.9688690585
 20
12.4198099548
 30
0.0
 10
14.9810537496
 20
12.4212991716
 30
0.0
 10
14.9933082953
 20
12.4237562515
 30
0.0
 10
15.0055159127
 20
12.4271573775
 30
0.0
 10
15.0175599517
 20
12.4314698913
 30
0.0
 10
15.0293253463
 20
12.4366524543
 30
0.0
 10
15.0406996075
 20
12.4426554376
 30
0.0
 10
15.051574055
 20
12.4494215908
 30
0.0
 10
15.0618443277
 20
12.4568859917
 30
0.0
 10
15.0698522485
 20
12.4636582363
 30
0.0
 10
15.0758644662
 20
12.4693625228
 30
0.0
 10
15.0815395557
 20
12.4751800191
 30
0.0
 10
15.0868091563
 20
12.4812593427
 30
0.0
 10
15.0916256374
 20
12.4875717301
 30
0.0
 10
15.096049789
 20
12.493910812
 30
0.0
 10
15.1000010255
 20
12.5004377756
 30
0.0
 10
15.1034299204
 20
12.5071151659
 30
0.0
 10
15.1064395215
 20
12.5137364248
 30
0.0
 10
15.1083148844
 20
12.5188233627
 30
0.0
 10
15.1093708643
 20
12.5222405149
 30
0.0
  0
SPLINE
  5
45C
100
AcDbEntity
  8
LAYER_FEATURE
100
AcDbSpline
 62
7
  6
CONTINUOUS
 70
0
 71
3
 72
15
 73
11
 74
0
 42
0.0000001
 43
0.0000001
 44
0.0000000001
 40
0.0
 40
0.0
 40
0.0
 40
0.0
 40
0.1111929896
 40
0.2257287663
 40
0.3439651479
 40
0.4662130457
 40
0.5927375043
 40
0.7237614575
 40
0.8594667094
 40
1.0
 40
1.0
 40
1.0
 40
1.0
 10
16.0989014971
 20
12.1111298656
 30
0.0
 10
16.0995863517
 20
12.1108124419
 30
0.0
 10
16.1009540444
 20
12.1101182075
 30
0.0
 10
16.1029626284
 20
12.1089244466
 30
0.0
 10
16.1049546651
 20
12.107565231
 30
0.0
 10
16.1069280173
 20
12.1060421265
 30
0.0
 10
16.1088807793
 20
12.1043567858
 30
0.0
 10
16.1108109768
 20
12.1025109671
 30
0.0
 10
16.1127166875
 20
12.10050669
 30
0.0
 10
16.1139477833
 20
12.0990912292
 30
0.0
 10
16.114559118
 20
12.0983588214
 30
0.0
  0
SPLINE
  5
45D
100
AcDbEntity
  8
LAYER_FEATURE
100
AcDbSpline
 62
7
  6
CONTINUOUS
 70
0
 71
3
 72
62
 73
58
 74
0
 42
0.0000001
 43
0.0000001
 44
0.0000000001
 40
0.0
 40
0.0
 40
0.0
 40
0.0
 40
0.0176369723
 40
0.0357029934
 40
0.0541721709
 40
0.073021606
 40
0.0922270502
 40
0.1117621972
 40
0.1517110523
 40
0.1926448726
 40
0.2343275524
 40
0.2765151183
 40
0.3189583471
 40
0.3614053955
 40
0.4036043796
 40
0.4453059599
 40
0.4862659543
 40
0.5262480228
 40
0.5458022239
 40
0.5650283271
 40
0.5839003171
 40
0.6023931887
 40
0.6204831112
 40
0.6381475878
 40
0.6553654518
 40
0.6721172361
 40
0.6883850417
 40
0.7041530402
 40
0.7194073703
 40
0.7341366151
 40
0.7483319248
 40
0.7619873496
 40
0.7751003071
 40
0.787671777
 40
0.7997071026
 40
0.8112161897
 40
0.8222144903
 40
0.8327234034
 40
0.8427712008
 40
0.8476339604
 40
0.8523955518
 40
0.8616365063
 40
0.8705483467
 40
0.879191766
 40
0.8876352971
 40
0.8959537832
 40
0.9042263865
 40
0.9125338915
 40
0.920955836
 40
0.9295678046
 40
0.9384392797
 40
0.9476320711
 40
0.9571997399
 40
0.9671872337
 40
0.9776314551
 40
0.9885615923
 40
1.0
 40
1.0
 40
1.0
 40
1.0
 10
16.0777469037
 20
12.0312929619
 30
0.0
 10
16.0772983393
 20
12.0298414072
 30
0.0
 10
16.076426316
 20
12.0268917417
 30
0.0
 10
16.0752066351
 20
12.0223870746
 30
0.0
 10
16.0740613357
 20
12.0177552558
 30
0.0
 10
16.0729924338
 20
12.0130045889
 30
0.0
 10
16.0720017565
 20
12.0081432485
 30
0.0
 10
16.0707784513
 20
12.001475721
 30
0.0
 10
16.0694610252
 20
11.9929242624
 30
0.0
 10
16.0682275518
 20
11.9824364464
 30
0.0
 10
16.0673386801
 20
11.9717203213
 30
0.0
 10
16.0668006676
 20
11.9608507748
 30
0.0
 10
16.0666173089
 20
11.9499036412
 30
0.0
 10
16.066789897
 20
11.9389553494
 30
0.0
 10
16.0673172155
 20
11.9280823362
 30
0.0
 10
16.0681955461
 20
11.9173604622
 30
0.0
 10
16.0694187011
 20
11.9068646518
 30
0.0
 10
16.0707276609
 20
11.8983050634
 30
0.0
 10
16.07194432
 20
11.8916299354
 30
0.0
 10
16.0729302092
 20
11.8867621503
 30
0.0
 10
16.0739944318
 20
11.8820045262
 30
0.0
 10
16.0751351493
 20
11.8773653618
 30
0.0
 10
16.0763503632
 20
11.8728527657
 30
0.0
 10
16.0776379259
 20
11.8684746135
 30
0.0
 10
16.0789956213
 20
11.864238554
 30
0.0
 10
16.0804210264
 20
11.8601519664
 30
0.0
 10
16.0819117061
 20
11.8562219875
 30
0.0
 10
16.0834650074
 20
11.852455449
 30
0.0
 10
16.085078268
 20
11.8488589172
 30
0.0
 10
16.0867486586
 20
11.845438636
 30
0.0
 10
16.0884732914
 20
11.8422005442
 30
0.0
 10
16.0902492067
 20
11.8391502638
 30
0.0
 10
16.0920733183
 20
11.8362930582
 30
0.0
 10
16.0939425672
 20
11.8336338998
 30
0.0
 10
16.0958537276
 20
11.8311773496
 30
0.0
 10
16.0978036506
 20
11.8289277126
 30
0.0
 10
16.0997890714
 20
11.8268888479
 30
0.0
 10
16.1018066766
 20
11.8250644514
 30
0.0
 10
16.1035306746
 20
11.8237109722
 30
0.0
 10
16.1049220016
 20
11.8227428667
 30
0.0
 10
16.1062920191
 20
11.8218681561
 30
0.0
 10
16.1080201284
 20
11.8209088871
 30
0.0
 10
16.1101333158
 20
11.8199720802
 30
0.0
 10
16.1122616385
 20
11.8192633291
 30
0.0
 10
16.1144010585
 20
11.8187843826
 30
0.0
 10
16.1165474335
 20
11.8185366619
 30
0.0
 10
16.1186963492
 20
11.8185208263
 30
0.0
 10
16.1208433305
 20
11.8187369699
 30
0.0
 10
16.122983956
 20
11.8191844392
 30
0.0
 10
16.1251140183
 20
11.8198619455
 30
0.0
 10
16.1272295287
 20
11.8207677969
 30
0.0
 10
16.1293268088
 20
11.8218997867
 30
0.0
 10
16.1314022823
 20
11.8232555774
 30
0.0
 10
16.1334525998
 20
11.8248323942
 30
0.0
 10
16.1354744002
 20
11.8266273618
 30
0.0
 10
16.1374643679
 20
11.8286371144
 30
0.0
 10
16.1387382151
 20
11.8300844214
 30
0.0
 10
16.1393696144
 20
11.8308408628
 30
0.0
  0
SPLINE
  5
45E
100
AcDbEntity
  8
LAYER_FEATURE
100
AcDbSpline
 62
7
  6
CONTINUOUS
 70
0
 71
3
 72
28
 73
24
 74
0
 42
0.0000001
 43
0.0000001
 44
0.0000000001
 40
0.0
 40
0.0
 40
0.0
 40
0.0
 40
0.0272344782
 40
0.0549175092
 40
0.0830495783
 40
0.111630886
 40
0.1700990247
 40
0.1999781093
 40
0.2302613386
 40
0.2919459064
 40
0.3233119283
 40
0.3549868464
 40
0.4191311635
 40
0.4841311026
 40
0.549704929
 40
0.6155563881
 40
0.6813823343
 40
0.7468802544
 40
0.8117557979
 40
0.8757303985
 40
0.9073049568
 40
0.9385606267
 40
1.0
 40
1.0
 40
1.0
 40
1.0
 10
14.8474790321
 20
12.5018517079
 30
0.0
 10
14.8481338402
 20
12.5039706676
 30
0.0
 10
14.8495679926
 20
12.5082091815
 30
0.0
 10
14.8520602518
 20
12.514499181
 30
0.0
 10
14.8549053023
 20
12.5207586081
 30
0.0
 10
14.8591912551
 20
12.529105008
 30
0.0
 10
14.864130403
 20
12.5372638532
 30
0.0
 10
14.8696605587
 20
12.5451876877
 30
0.0
 10
14.8756811588
 20
12.5530781822
 30
0.0
 10
14.8822681711
 20
12.5606773218
 30
0.0
 10
14.8893620235
 20
12.5679492037
 30
0.0
 10
14.8968773044
 20
12.5750795528
 30
0.0
 10
14.9068872005
 20
12.5835448636
 30
0.0
 10
14.9197250384
 20
12.5928753717
 30
0.0
 10
14.9333181084
 20
12.6013330419
 30
0.0
 10
14.9475359274
 20
12.6088368012
 30
0.0
 10
14.9622426547
 20
12.6153149761
 30
0.0
 10
14.9772977999
 20
12.6207056488
 30
0.0
 10
14.9925569539
 20
12.6249569835
 30
0.0
 10
15.0053792362
 20
12.6275278896
 30
0.0
 10
15.0156063212
 20
12.6289731795
 30
0.0
 10
15.0256758086
 20
12.6299984347
 30
0.0
 10
15.0332286218
 20
12.6303173211
 30
0.0
 10
15.0382319122
 20
12.6303173211
 30
0.0
  0
SPLINE
  5
45F
100
AcDbEntity
  8
LAYER_FEATURE
100
AcDbSpline
 62
7
  6
CONTINUOUS
 70
0
 71
3
 72
22
 73
18
 74
0
 42
0.0000001
 43
0.0000001
 44
0.0000000001
 40
0.0
 40
0.0
 40
0.0
 40
0.0
 40
0.1404541167
 40
0.2089760096
 40
0.2762995971
 40
0.3424050811
 40
0.4072889184
 40
0.4709630695
 40
0.5334562786
 40
0.5948145203
 40
0.6551013436
 40
0.7143978532
 40
0.7728022946
 40
0.8304291722
 40
0.8874078427
 40
0.9438805616
 40
1.0
 40
1.0
 40
1.0
 40
1.0
 10
15.0382319122
 20
12.6303173211
 30
0.0
 10
15.0438495988
 20
12.6303173211
 30
0.0
 10
15.0522169014
 20
12.6299207652
 30
0.0
 10
15.06318542
 20
12.6285430655
 30
0.0
 10
15.0711391524
 20
12.6271113864
 30
0.0
 10
15.0788602685
 20
12.6252774087
 30
0.0
 10
15.0863244104
 20
12.6230468598
 30
0.0
 10
15.0935075171
 20
12.6204267166
 30
0.0
 10
15.1003865226
 20
12.617425196
 30
0.0
 10
15.1069392605
 20
12.6140517291
 30
0.0
 10
15.113144572
 20
12.6103169449
 30
0.0
 10
15.1189823534
 20
12.6062326486
 30
0.0
 10
15.1244336319
 20
12.6018117878
 30
0.0
 10
15.1294805983
 20
12.5970684859
 30
0.0
 10
15.1341067999
 20
12.5920178083
 30
0.0
 10
15.1382967638
 20
12.5866764895
 30
0.0
 10
15.1407962155
 20
12.5829240005
 30
0.0
 10
15.141966315
 20
12.5810085278
 30
0.0
  0
SPLINE
  5
460
100
AcDbEntity
  8
LAYER_FEATURE
100
AcDbSpline
 62
7
  6
CONTINUOUS
 70
0
 71
3
 72
56
 73
52
 74
0
 42
0.0000001
 43
0.0000001
 44
0.0000000001
 40
0.0
 40
0.0
 40
0.0
 40
0.0
 40
0.0300526524
 40
0.0454523653
 40
0.0610979755
 40
0.0931040021
 40
0.1094600916
 40
0.1260374167
 40
0.1598041119
 40
0.1769741641
 40
0.1943133035
 40
0.2294264954
 40
0.2650080627
 40
0.3009037777
 40
0.3369514747
 40
0.372985206
 40
0.4088393702
 40
0.4443528377
 40
0.4793731275
 40
0.5137606213
 40
0.547392925
 40
0.5801693199
 40
0.5962161102
 40
0.6120234543
 40
0.642895058
 40
0.657966106
 40
0.6727934594
 40
0.6873821099
 40
0.7017396797
 40
0.7158764164
 40
0.7298052309
 40
0.7435416903
 40
0.7571038923
 40
0.7705123469
 40
0.7837897994
 40
0.7969609386
 40
0.8100520858
 40
0.8230908336
 40
0.8361056098
 40
0.8491252276
 40
0.8621784228
 40
0.8752933918
 40
0.8884973465
 40
0.9018161013
 40
0.9152737182
 40
0.9288922124
 40
0.9426913787
 40
0.9566883298
 40
0.9708976434
 40
0.9853325132
 40
1.0
 40
1.0
 40
1.0
 40
1.0
 10
14.8676844595
 20
12.5222405149
 30
0.0
 10
14.8687404394
 20
12.5256576671
 30
0.0
 10
14.8706158023
 20
12.530744605
 30
0.0
 10
14.8736254034
 20
12.5373658639
 30
0.0
 10
14.8770542983
 20
12.5440432542
 30
0.0
 10
14.8810055348
 20
12.5505702177
 30
0.0
 10
14.8854296864
 20
12.5569092997
 30
0.0
 10
14.8902461675
 20
12.563221687
 30
0.0
 10
14.8955157681
 20
12.5693010106
 30
0.0
 10
14.9011908576
 20
12.575118507
 30
0.0
 10
14.9072030753
 20
12.5808227935
 30
0.0
 10
14.9152109961
 20
12.5875950381
 30
0.0
 10
14.9254812688
 20
12.595059439
 30
0.0
 10
14.9363557163
 20
12.6018255921
 30
0.0
 10
14.9477299775
 20
12.6078285754
 30
0.0
 10
14.9594953722
 20
12.6130111385
 30
0.0
 10
14.9715394111
 20
12.6173236523
 30
0.0
 10
14.9837470285
 20
12.6207247782
 30
0.0
 10
14.9960015742
 20
12.6231818581
 30
0.0
 10
15.0081862654
 20
12.6246710749
 30
0.0
 10
15.0201842383
 20
12.625177778
 30
0.0
 10
15.03000219
 20
12.6247737593
 30
0.0
 10
15.0376517899
 20
12.6239469929
 30
0.0
 10
15.0450314439
 20
12.6228086906
 30
0.0
 10
15.0522123019
 20
12.6211827435
 30
0.0
 10
15.0591280861
 20
12.619058088
 30
0.0
 10
15.064104645
 20
12.6172437291
 30
0.0
 10
15.0688994147
 20
12.615200297
 30
0.0
 10
15.0735010193
 20
12.6129326266
 30
0.0
 10
15.077898278
 20
12.6104460867
 30
0.0
 10
15.082080541
 20
12.6077465716
 30
0.0
 10
15.0860376762
 20
12.6048405505
 30
0.0
 10
15.0897600446
 20
12.6017349463
 30
0.0
 10
15.0932385493
 20
12.5984371864
 30
0.0
 10
15.096464718
 20
12.5949552341
 30
0.0
 10
15.0994306361
 20
12.5912974753
 30
0.0
 10
15.1021290071
 20
12.5874727513
 30
0.0
 10
15.1045532515
 20
12.5834903783
 30
0.0
 10
15.1066974175
 20
12.5793600395
 30
0.0
 10
15.1085562373
 20
12.5750917961
 30
0.0
 10
15.1101252346
 20
12.5706960872
 30
0.0
 10
15.1114006089
 20
12.5661836343
 30
0.0
 10
15.1123792777
 20
12.5615654375
 30
0.0
 10
15.1130589796
 20
12.5568527566
 30
0.0
 10
15.1134381444
 20
12.5520570455
 30
0.0
 10
15.1135159192
 20
12.5471899313
 30
0.0
 10
15.113292244
 20
12.5422632044
 30
0.0
 10
15.1127677827
 20
12.5372887965
 30
0.0
 10
15.1119438514
 20
12.5322785461
 30
0.0
 10
15.1108225519
 20
12.5272448518
 30
0.0
 10
15.1098862455
 20
12.523908289
 30
0.0
 10
15.1093708643
 20
12.5222405149
 30
0.0
  0
SPLINE
  5
461
100
AcDbEntity
  8
LAYER_FEATURE
100
AcDbSpline
 62
7
  6
CONTINUOUS
 70
0
 71
3
 72
22
 73
18
 74
0
 42
0.0000001
 43
0.0000001
 44
0.0000000001
 40
0.0
 40
0.0
 40
0.0
 40
0.0
 40
0.1381197631
 40
0.2053664309
 40
0.2714549167
 40
0.336437138
 40
0.400372579
 40
0.4633278437
 40
0.5253764097
 40
0.5865986125
 40
0.6470813093
 40
0.7069174431
 40
0.7662055021
 40
0.8250488573
 40
0.8835549588
 40
0.9418344159
 40
1.0
 40
1.0
 40
1.0
 40
1.0
 10
16.3441401408
 20
12.2262521332
 30
0.0
 10
16.3507742423
 20
12.2127332557
 30
0.0
 10
16.3599155141
 20
12.1922615798
 30
0.0
 10
16.3703414193
 20
12.1645562451
 30
0.0
 10
16.3771208568
 20
12.1440173194
 30
0.0
 10
16.382921937
 20
12.1235561095
 30
0.0
 10
16.3877391829
 20
12.1031915913
 30
0.0
 10
16.3915677158
 20
12.082943391
 30
0.0
 10
16.3944036402
 20
12.062830855
 30
0.0
 10
16.3962439948
 20
12.0428733066
 30
0.0
 10
16.3970868042
 20
12.0230899488
 30
0.0
 10
16.3969310399
 20
12.0034998727
 30
0.0
 10
16.3957766264
 20
11.9841220162
 30
0.0
 10
16.3936245213
 20
11.9649752233
 30
0.0
 10
16.3904766245
 20
11.9460779101
 30
0.0
 10
16.3863361083
 20
11.9274491638
 30
0.0
 10
16.3829149754
 20
11.9152154329
 30
0.0
 10
16.381042617
 20
11.9091564572
 30
0.0
  0
SPLINE
  5
462
100
AcDbEntity
  8
LAYER_FEATURE
100
AcDbSpline
 62
7
  6
CONTINUOUS
 70
0
 71
3
 72
11
 73
7
 74
0
 42
0.0000001
 43
0.0000001
 44
0.0000000001
 40
0.0
 40
0.0
 40
0.0
 40
0.0
 40
0.2695393316
 40
0.5266079441
 40
0.7702981114
 40
1.0
 40
1.0
 40
1.0
 40
1.0
 10
15.7655157931
 20
13.6024694904
 30
0.0
 10
15.7659681418
 20
13.6020389607
 30
0.0
 10
15.7668229778
 20
13.6011666381
 30
0.0
 10
15.7679727497
 20
13.5997993222
 30
0.0
 10
15.7689527441
 20
13.5984171643
 30
0.0
 10
15.7695044938
 20
13.5974669507
 30
0.0
 10
15.7697473789
 20
13.5969934262
 30
0.0
  0
SPLINE
  5
463
100
AcDbEntity
  8
02___PRT_ALL_AXES
100
AcDbSpline
 62
7
  6
CONTINUOUS
 70
0
 71
3
 72
24
 73
20
 74
0
 42
0.0000001
 43
0.0000001
 44
0.0000000001
 40
0.0
 40
0.0
 40
0.0
 40
0.0
 40
0.0533254693
 40
0.1067617664
 40
0.160595555
 40
0.2151076399
 40
0.2705677068
 40
0.3272296861
 40
0.3853280151
 40
0.4450750206
 40
0.4756314101
 40
0.5066685963
 40
0.5702544738
 40
0.6359817409
 40
0.7039663924
 40
0.7742996145
 40
0.8470528376
 40
0.922280523
 40
1.0
 40
1.0
 40
1.0
 40
1.0
 10
16.1125557432
 20
12.1137377315
 30
0.0
 10
16.1136289512
 20
12.1137377264
 30
0.0
 10
16.1157788446
 20
12.1136419167
 30
0.0
 10
16.1189859971
 20
12.1132095438
 30
0.0
 10
16.1221656837
 20
12.1124893278
 30
0.0
 10
16.1253091129
 20
12.111482407
 30
0.0
 10
16.1284081744
 20
12.1101906141
 30
0.0
 10
16.1314549073
 20
12.1086161783
 30
0.0
 10
16.1344415719
 20
12.1067619208
 30
0.0
 10
16.1368562918
 20
12.1049994239
 30
0.0
 10
16.1387502772
 20
12.1034572118
 30
0.0
 10
16.1406481708
 20
12.1017997476
 30
0.0
 10
16.1429699971
 20
12.0995548002
 30
0.0
 10
16.1456464613
 20
12.0966184126
 30
0.0
 10
16.148229499
 20
12.0934230632
 30
0.0
 10
16.1507134574
 20
12.0899745483
 30
0.0
 10
16.1530930987
 20
12.0862788026
 30
0.0
 10
16.1553634254
 20
12.0823426353
 30
0.0
 10
16.1567781976
 20
12.0796075365
 30
0.0
 10
16.1574672736
 20
12.0782033473
 30
0.0
  0
SPLINE
  5
464
100
AcDbEntity
  8
LAYER_FEATURE
100
AcDbSpline
 62
7
  6
CONTINUOUS
 70
0
 71
3
 72
78
 73
74
 74
0
 42
0.0000001
 43
0.0000001
 44
0.0000000001
 40
0.0
 40
0.0
 40
0.0
 40
0.0
 40
0.0171786494
 40
0.034530259
 40
0.052044083
 40
0.0697096926
 40
0.0875159169
 40
0.1054514052
 40
0.1235044838
 40
0.1416632229
 40
0.1599154662
 40
0.1782488551
 40
0.1966508594
 40
0.2151088034
 40
0.2336098939
 40
0.2521412485
 40
0.2706899221
 40
0.2892429336
 40
0.3077872924
 40
0.3263100264
 40
0.3447982082
 40
0.3632389822
 40
0.3816195916
 40
0.3999274055
 40
0.4181499471
 40
0.4362749223
 40
0.4542902467
 40
0.472184075
 40
0.4899448297
 40
0.5075612324
 40
0.5250223351
 40
0.5423175506
 40
0.5594366852
 40
0.5763699716
 40
0.5931081049
 40
0.60964228
 40
0.6259642276
 40
0.6420662527
 40
0.6579412756
 40
0.6735828743
 40
0.6889853316
 40
0.7041436801
 40
0.71905375
 40
0.7337122195
 40
0.748116668
 40
0.7622656323
 40
0.7761586636
 40
0.7897963834
 40
0.8031805416
 40
0.8163140755
 40
0.8292011685
 40
0.8418473065
 40
0.8542593269
 40
0.8603804056
 40
0.8664461623
 40
0.8784160809
 40
0.8901809052
 40
0.8959906881
 40
0.901754044
 40
0.9131479177
 40
0.9243788243
 40
0.9354636208
 40
0.9464204585
 40
0.9518573841
 40
0.9572696635
 40
0.9626598748
 40
0.9680306504
 40
0.9733846742
 40
0.9787246697
 40
0.9840533993
 40
0.9893736532
 40
0.9946882442
 40
1.0
 40
1.0
 40
1.0
 40
1.0
 10
15.1528675855
 20
13.8214069141
 30
0.0
 10
15.1667937257
 20
13.8214069141
 30
0.0
 10
15.1947871131
 20
13.821100486
 30
0.0
 10
15.2369584604
 20
13.8197389523
 30
0.0
 10
15.2794864201
 20
13.8174744749
 30
0.0
 10
15.3223262774
 20
13.814309503
 30
0.0
 10
15.3654336835
 20
13.8102472719
 30
0.0
 10
15.4087636888
 20
13.8052920329
 30
0.0
 10
15.4522712207
 20
13.7994489385
 30
0.0
 10
15.4959109904
 20
13.7927240776
 30
0.0
 10
15.5396375751
 20
13.7851244519
 30
0.0
 10
15.5834054609
 20
13.7766579704
 30
0.0
 10
15.6271690877
 20
13.7673334416
 30
0.0
 10
15.6708828992
 20
13.7571605704
 30
0.0
 10
15.7145013918
 20
13.7461499523
 30
0.0
 10
15.7579791598
 20
13.7343130505
 30
0.0
 10
15.8012709435
 20
13.7216621866
 30
0.0
 10
15.8443316755
 20
13.708210527
 30
0.0
 10
15.887116528
 20
13.6939720701
 30
0.0
 10
15.9295809637
 20
13.6789616437
 30
0.0
 10
15.9716807789
 20
13.6631948758
 30
0.0
 10
16.013372149
 20
13.6466881794
 30
0.0
 10
16.0546116741
 20
13.6294587356
 30
0.0
 10
16.0953564233
 20
13.6115244735
 30
0.0
 10
16.1355639857
 20
13.5929040643
 30
0.0
 10
16.1751925118
 20
13.5736168929
 30
0.0
 10
16.2142007546
 20
13.5536830343
 30
0.0
 10
16.2525481127
 20
13.5331232339
 30
0.0
 10
16.290194671
 20
13.5119588837
 30
0.0
 10
16.3271012483
 20
13.4902120073
 30
0.0
 10
16.3632294394
 20
13.4679052378
 30
0.0
 10
16.3985416489
 20
13.4450617843
 30
0.0
 10
16.4330011305
 20
13.4217054107
 30
0.0
 10
16.4665720239
 20
13.3978604087
 30
0.0
 10
16.4992193951
 20
13.3735515742
 30
0.0
 10
16.53090928
 20
13.3488041895
 30
0.0
 10
16.5616087105
 20
13.3236439845
 30
0.0
 10
16.5912857475
 20
13.2980971116
 30
0.0
 10
16.6199095132
 20
13.2721901177
 30
0.0
 10
16.6474502219
 20
13.2459499142
 30
0.0
 10
16.6738792226
 20
13.2194037585
 30
0.0
 10
16.6991690195
 20
13.1925792166
 30
0.0
 10
16.7232932952
 20
13.1655041322
 30
0.0
 10
16.7462269363
 20
13.1382065993
 30
0.0
 10
16.7679460559
 20
13.1107149291
 30
0.0
 10
16.788428027
 20
13.0830576286
 30
0.0
 10
16.8076515033
 20
13.0552633679
 30
0.0
 10
16.8255964269
 20
13.027360949
 30
0.0
 10
16.8422440506
 20
12.9993792683
 30
0.0
 10
16.8575769365
 20
12.9713473302
 30
0.0
 10
16.871579032
 20
12.9432940666
 30
0.0
 10
16.8842354886
 20
12.9152488789
 30
0.0
 10
16.8936935945
 20
12.8918007487
 30
0.0
 10
16.900564065
 20
12.8730788058
 30
0.0
 10
16.9069157695
 20
12.8545530839
 30
0.0
 10
16.9140052011
 20
12.831449765
 30
0.0
 10
16.9199921555
 20
12.8082500338
 30
0.0
 10
16.9240723851
 20
12.789774347
 30
0.0
 10
16.9276548547
 20
12.7715021809
 30
0.0
 10
16.9312671259
 20
12.7487641027
 30
0.0
 10
16.934208583
 20
12.7215841632
 30
0.0
 10
16.9357369423
 20
12.6946427788
 30
0.0
 10
16.9358314072
 20
12.6723556333
 30
0.0
 10
16.9351944758
 20
12.6546879251
 30
0.0
 10
16.9343647176
 20
12.6415476728
 30
0.0
 10
16.9331818778
 20
12.6284884014
 30
0.0
 10
16.9316462189
 20
12.6155134168
 30
0.0
 10
16.929758207
 20
12.6026261353
 30
0.0
 10
16.9275182525
 20
12.5898299283
 30
0.0
 10
16.9249269933
 20
12.5771281481
 30
0.0
 10
16.9219850798
 20
12.5645240844
 30
0.0
 10
16.9186932872
 20
12.5520211741
 30
0.0
 10
16.9162658055
 20
12.5437544511
 30
0.0
 10
16.9149944549
 20
12.5396403532
 30
0.0
  0
SPLINE
  5
465
100
AcDbEntity
  8
LAYER_FEATURE
100
AcDbSpline
 62
7
  6
CONTINUOUS
 70
0
 71
3
 72
11
 73
7
 74
0
 42
0.0000001
 43
0.0000001
 44
0.0000000001
 40
0.0
 40
0.0
 40
0.0
 40
0.0
 40
0.2316761843
 40
0.4762684461
 40
0.7327781902
 40
1.0
 40
1.0
 40
1.0
 40
1.0
 10
15.9247444721
 20
13.5432461365
 30
0.0
 10
15.9252757961
 20
13.5434504755
 30
0.0
 10
15.9263871859
 20
13.5438220117
 30
0.0
 10
15.9281358727
 20
13.5442576674
 30
0.0
 10
15.9299974377
 20
13.5445807308
 30
0.0
 10
15.9312784494
 20
13.5447145032
 30
0.0
 10
15.9319333317
 20
13.5447620103
 30
0.0
  0
SPLINE
  5
466
100
AcDbEntity
  8
LAYER_FEATURE
100
AcDbSpline
 62
7
  6
CONTINUOUS
 70
0
 71
3
 72
11
 73
7
 74
0
 42
0.0000001
 43
0.0000001
 44
0.0000000001
 40
0.0
 40
0.0
 40
0.0
 40
0.0
 40
0.2716538175
 40
0.5288846863
 40
0.7715509264
 40
1.0
 40
1.0
 40
1.0
 40
1.0
 10
15.9816708366
 20
13.5244846787
 30
0.0
 10
15.9820162953
 20
13.5240317201
 30
0.0
 10
15.982652471
 20
13.5231211474
 30
0.0
 10
15.9834524861
 20
13.5217118932
 30
0.0
 10
15.9840670319
 20
13.5203105639
 30
0.0
 10
15.984358396
 20
13.5193635222
 30
0.0
 10
15.9844687219
 20
13.5188973393
 30
0.0
  0
SPLINE
  5
467
100
AcDbEntity
  8
LAYER_FEATURE
100
AcDbSpline
 62
7
  6
CONTINUOUS
 70
0
 71
3
 72
11
 73
7
 74
0
 42
0.0000001
 43
0.0000001
 44
0.0000000001
 40
0.0
 40
0.0
 40
0.0
 40
0.0
 40
0.2356041668
 40
0.481734926
 40
0.7370250544
 40
1.0
 40
1.0
 40
1.0
 40
1.0
 10
16.1300203219
 20
13.4501148494
 30
0.0
 10
16.1306336385
 20
13.450236782
 30
0.0
 10
16.131896851
 20
13.4504416161
 30
0.0
 10
16.1338451248
 20
13.4506299362
 30
0.0
 10
16.1358738137
 20
13.4507018588
 30
0.0
 10
16.1372498775
 20
13.4506700076
 30
0.0
 10
16.1379469223
 20
13.4506341797
 30
0.0
  0
SPLINE
  5
468
100
AcDbEntity
  8
LAYER_FEATURE
100
AcDbSpline
 62
7
  6
CONTINUOUS
 70
0
 71
3
 72
11
 73
7
 74
0
 42
0.0000001
 43
0.0000001
 44
0.0000000001
 40
0.0
 40
0.0
 40
0.0
 40
0.0
 40
0.2702902793
 40
0.5262093294
 40
0.7688560038
 40
1.0
 40
1.0
 40
1.0
 40
1.0
 10
16.1837379163
 20
13.4257681531
 30
0.0
 10
16.1839661151
 20
13.4253065625
 30
0.0
 10
16.1843645799
 20
13.4243840996
 30
0.0
 10
16.1847862375
 20
13.4229776437
 30
0.0
 10
16.1850121535
 20
13.4216019415
 30
0.0
 10
16.185031103
 20
13.4206956033
 30
0.0
 10
16.1850056447
 20
13.4202559977
 30
0.0
  0
SPLINE
  5
469
100
AcDbEntity
  8
LAYER_FEATURE
100
AcDbSpline
 62
7
  6
CONTINUOUS
 70
0
 71
3
 72
11
 73
7
 74
0
 42
0.0000001
 43
0.0000001
 44
0.0000000001
 40
0.0
 40
0.0
 40
0.0
 40
0.0
 40
0.2399786495
 40
0.4876841936
 40
0.7415573644
 40
1.0
 40
1.0
 40
1.0
 40
1.0
 10
16.3161551663
 20
13.3387806127
 30
0.0
 10
16.3168281587
 20
13.3388167745
 30
0.0
 10
16.3181982452
 20
13.3388500216
 30
0.0
 10
16.3202808392
 20
13.3387856099
 30
0.0
 10
16.3224086505
 20
13.3386052487
 30
0.0
 10
16.3238346554
 20
13.3384079065
 30
0.0
 10
16.3245507544
 20
13.3382895253
 30
0.0
  0
SPLINE
  5
46A
100
AcDbEntity
  8
LAYER_FEATURE
100
AcDbSpline
 62
7
  6
CONTINUOUS
 70
0
 71
3
 72
11
 73
7
 74
0
 42
0.0000001
 43
0.0000001
 44
0.0000000001
 40
0.0
 40
0.0
 40
0.0
 40
0.0
 40
0.2626512666
 40
0.5155287339
 40
0.760520405
 40
1.0
 40
1.0
 40
1.0
 40
1.0
 10
16.36483588
 20
13.3096815865
 30
0.0
 10
16.3649277386
 20
13.3092772531
 30
0.0
 10
16.3650636825
 20
13.3084725758
 30
0.0
 10
16.3651165244
 20
13.3072699453
 30
0.0
 10
16.3650140196
 20
13.3061070137
 30
0.0
 10
16.364841037
 20
13.3053589031
 30
0.0
 10
16.3647294191
 20
13.3049976995
 30
0.0
  0
LINE
  5
46B
100
AcDbEntity
  8
LAYER_FEATURE
100
AcDbLine
 62
7
  6
CONTINUOUS
 10
16.5187976539
 20
13.1801781676
 11
16.5184369324
 21
13.1781579193
  0
SPLINE
  5
46C
100
AcDbEntity
  8
LAYER_FEATURE
100
AcDbSpline
 62
7
  6
CONTINUOUS
 70
0
 71
3
 72
11
 73
7
 74
0
 42
0.0000001
 43
0.0000001
 44
0.0000000001
 40
0.0
 40
0.0
 40
0.0
 40
0.0
 40
0.2490741472
 40
0.4998667646
 40
0.7507098686
 40
1.0
 40
1.0
 40
1.0
 40
1.0
 10
16.6065151209
 20
13.077159476
 30
0.0
 10
16.6072355477
 20
13.0770264789
 30
0.0
 10
16.6086753493
 20
13.0767257053
 30
0.0
 10
16.6108139887
 20
13.0761731885
 30
0.0
 10
16.6129242842
 20
13.0755184464
 30
0.0
 10
16.6143065006
 20
13.0750128082
 30
0.0
 10
16.6149882374
 20
13.0747428655
 30
0.0
  0
SPLINE
  5
46D
100
AcDbEntity
  8
LAYER_FEATURE
100
AcDbSpline
 62
7
  6
CONTINUOUS
 70
0
 71
3
 72
9
 73
5
 74
0
 42
0.0000001
 43
0.0000001
 44
0.0000000001
 40
0.0
 40
0.0
 40
0.0
 40
0.0
 40
0.4949972693
 40
1.0
 40
1.0
 40
1.0
 40
1.0
 10
16.7718880485
 20
12.6558004037
 30
0.0
 10
16.7709378406
 20
12.6563278857
 30
0.0
 10
16.7689698773
 20
12.6573082139
 30
0.0
 10
16.766927489
 20
12.6581213516
 30
0.0
 10
16.7658816439
 20
12.6584895521
 30
0.0
  0
SPLINE
  5
46E
100
AcDbEntity
  8
LAYER_FEATURE
100
AcDbSpline
 62
7
  6
CONTINUOUS
 70
0
 71
3
 72
11
 73
7
 74
0
 42
0.0000001
 43
0.0000001
 44
0.0000000001
 40
0.0
 40
0.0
 40
0.0
 40
0.0
 40
0.2537058132
 40
0.5060078798
 40
0.7552767267
 40
1.0
 40
1.0
 40
1.0
 40
1.0
 10
16.7008523711
 20
12.93578177
 30
0.0
 10
16.7015597428
 20
12.9355711155
 30
0.0
 10
16.7029613257
 20
12.9351191213
 30
0.0
 10
16.7050195676
 20
12.9343477603
 30
0.0
 10
16.7070136883
 20
12.9334870017
 30
0.0
 10
16.7083024752
 20
12.9328492827
 30
0.0
 10
16.7089313882
 20
12.9325156254
 30
0.0
  0
SPLINE
  5
46F
100
AcDbEntity
  8
LAYER_FEATURE
100
AcDbSpline
 62
7
  6
CONTINUOUS
 70
0
 71
3
 72
11
 73
7
 74
0
 42
0.0000001
 43
0.0000001
 44
0.0000000001
 40
0.0
 40
0.0
 40
0.0
 40
0.0
 40
0.2584118935
 40
0.5122019056
 40
0.7598458132
 40
1.0
 40
1.0
 40
1.0
 40
1.0
 10
16.7566096152
 20
12.7937161105
 30
0.0
 10
16.7572801238
 20
12.7934359051
 30
0.0
 10
16.7585966835
 20
12.7928500287
 30
0.0
 10
16.7605050671
 20
12.7918867487
 30
0.0
 10
16.762315898
 20
12.7908503102
 30
0.0
 10
16.7634665336
 20
12.7901016433
 30
0.0
 10
16.7640205893
 20
12.7897154676
 30
0.0
  0
SPLINE
  5
470
100
AcDbEntity
  8
LAYER_FEATURE
100
AcDbSpline
 62
7
  6
CONTINUOUS
 70
0
 71
3
 72
9
 73
5
 74
0
 42
0.0000001
 43
0.0000001
 44
0.0000000001
 40
0.0
 40
0.0
 40
0.0
 40
0.0
 40
0.5038160757
 40
1.0
 40
1.0
 40
1.0
 40
1.0
 10
16.7008522921
 20
12.9357817912
 30
0.0
 10
16.6997855959
 20
12.936099452
 30
0.0
 10
16.6976419998
 20
12.9366446686
 30
0.0
 10
16.6954606237
 20
12.9370119579
 30
0.0
 10
16.6943728095
 20
12.9371467277
 30
0.0
  0
SPLINE
  5
471
100
AcDbEntity
  8
LAYER_FEATURE
100
AcDbSpline
 62
7
  6
CONTINUOUS
 70
0
 71
3
 72
11
 73
7
 74
0
 42
0.0000001
 43
0.0000001
 44
0.0000000001
 40
0.0
 40
0.0
 40
0.0
 40
0.0
 40
0.26316765
 40
0.5183939206
 40
0.7643566204
 40
1.0
 40
1.0
 40
1.0
 40
1.0
 10
16.771888107
 20
12.6558003734
 30
0.0
 10
16.7724994708
 20
12.6554609914
 30
0.0
 10
16.7736876762
 20
12.6547629048
 30
0.0
 10
16.7753819109
 20
12.6536410766
 30
0.0
 10
16.776948664
 20
12.6524651329
 30
0.0
 10
16.7779204946
 20
12.6516307402
 30
0.0
 10
16.778379844
 20
12.6512052801
 30
0.0
  0
SPLINE
  5
472
100
AcDbEntity
  8
LAYER_FEATURE
100
AcDbSpline
 62
7
  6
CONTINUOUS
 70
0
 71
3
 72
10
 73
6
 74
0
 42
0.0000001
 43
0.0000001
 44
0.0000000001
 40
0.0
 40
0.0
 40
0.0
 40
0.0
 40
0.5081526264
 40
0.7565194619
 40
1.0
 40
1.0
 40
1.0
 40
1.0
 10
16.6065151079
 20
13.077159478
 30
0.0
 10
16.6054449803
 20
13.0773570329
 30
0.0
 10
16.6038384535
 20
13.0775858168
 30
0.0
 10
16.6017025267
 20
13.0777466549
 30
0.0
 10
16.6006492104
 20
13.077777843
 30
0.0
 10
16.6001278042
 20
13.0777807287
 30
0.0
  0
SPLINE
  5
473
100
AcDbEntity
  8
LAYER_FEATURE
100
AcDbSpline
 62
7
  6
CONTINUOUS
 70
0
 71
3
 72
11
 73
7
 74
0
 42
0.0000001
 43
0.0000001
 44
0.0000000001
 40
0.0
 40
0.0
 40
0.0
 40
0.0
 40
0.2663946329
 40
0.5222523435
 40
0.7669290323
 40
1.0
 40
1.0
 40
1.0
 40
1.0
 10
16.7468533704
 20
12.5262204546
 30
0.0
 10
16.7473129031
 20
12.5258693251
 30
0.0
 10
16.7481963615
 20
12.5251576739
 30
0.0
 10
16.7494314548
 20
12.5240396488
 30
0.0
 10
16.7505422004
 20
12.5228967246
 30
0.0
 10
16.7512106962
 20
12.5221021713
 30
0.0
 10
16.7515201652
 20
12.5217018613
 30
0.0
  0
SPLINE
  5
474
100
AcDbEntity
  8
LAYER_FEATURE
100
AcDbSpline
 62
7
  6
CONTINUOUS
 70
0
 71
3
 72
11
 73
7
 74
0
 42
0.0000001
 43
0.0000001
 44
0.0000000001
 40
0.0
 40
0.0
 40
0.0
 40
0.0
 40
0.2590498888
 40
0.5125305987
 40
0.7597249171
 40
1.0
 40
1.0
 40
1.0
 40
1.0
 10
16.4768103207
 20
13.2130347838
 30
0.0
 10
16.4762858833
 20
13.2130716218
 30
0.0
 10
16.475246494
 20
13.2131214281
 30
0.0
 10
16.4737040966
 20
13.2131232481
 30
0.0
 10
16.4722014909
 20
13.2130513449
 30
0.0
 10
16.4712165287
 20
13.2129530768
 30
0.0
 10
16.4707328471
 20
13.2128911721
 30
0.0
  0
SPLINE
  5
475
100
AcDbEntity
  8
LAYER_FEATURE
100
AcDbSpline
 62
7
  6
CONTINUOUS
 70
0
 71
3
 72
11
 73
7
 74
0
 42
0.0000001
 43
0.0000001
 44
0.0000000001
 40
0.0
 40
0.0
 40
0.0
 40
0.0
 40
0.2621618773
 40
0.5165443168
 40
0.7626213526
 40
1.0
 40
1.0
 40
1.0
 40
1.0
 10
16.316155164
 20
13.3387806125
 30
0.0
 10
16.3156625454
 20
13.3387541428
 30
0.0
 10
16.314693019
 20
13.3386777678
 30
0.0
 10
16.313269733
 20
13.3384886656
 30
0.0
 10
16.3119052979
 20
13.3382274955
 30
0.0
 10
16.3110231621
 20
13.3380020778
 30
0.0
 10
16.3105943282
 20
13.3378770337
 30
0.0
  0
SPLINE
  5
476
100
AcDbEntity
  8
LAYER_FEATURE
100
AcDbSpline
 62
7
  6
CONTINUOUS
 70
0
 71
3
 72
11
 73
7
 74
0
 42
0.0000001
 43
0.0000001
 44
0.0000000001
 40
0.0
 40
0.0
 40
0.0
 40
0.0
 40
0.2646755284
 40
0.5196540721
 40
0.7647548728
 40
1.0
 40
1.0
 40
1.0
 40
1.0
 10
16.1300202471
 20
13.4501148313
 30
0.0
 10
16.1295757108
 20
13.4500264537
 30
0.0
 10
16.1287077233
 20
13.449827392
 30
0.0
 10
16.1274516437
 20
13.4494535749
 30
0.0
 10
16.1262714501
 20
13.4490116889
 30
0.0
 10
16.1255239075
 20
13.4486661229
 30
0.0
 10
16.1251655728
 20
13.4484820701
 30
0.0
  0
SPLINE
  5
477
100
AcDbEntity
  8
LAYER_FEATURE
100
AcDbSpline
 62
7
  6
CONTINUOUS
 70
0
 71
3
 72
43
 73
39
 74
0
 42
0.0000001
 43
0.0000001
 44
0.0000000001
 40
0.0
 40
0.0
 40
0.0
 40
0.0
 40
0.0106916893
 40
0.021437847
 40
0.0322713146
 40
0.0432262149
 40
0.0543353003
 40
0.0656281952
 40
0.0771318862
 40
0.088870603
 40
0.1131264197
 40
0.1385409897
 40
0.1652027657
 40
0.193157396
 40
0.2224122999
 40
0.2529414584
 40
0.2846899853
 40
0.3175783029
 40
0.3515058888
 40
0.3863546341
 40
0.4219918734
 40
0.4582731555
 40
0.4950448145
 40
0.5321463965
 40
0.5694129837
 40
0.6066774557
 40
0.6437727203
 40
0.6805339444
 40
0.7168008165
 40
0.7524198733
 40
0.7872469287
 40
0.82114965
 40
0.8540103339
 40
0.8857289445
 40
0.9162264795
 40
0.9454487289
 40
0.9733704605
 40
1.0
 40
1.0
 40
1.0
 40
1.0
 10
15.9816252124
 20
13.5035035451
 30
0.0
 10
15.9814672541
 20
13.5029278986
 30
0.0
 10
15.9811917486
 20
13.5017619166
 30
0.0
 10
15.9809025467
 20
13.4999821058
 30
0.0
 10
15.9807373693
 20
13.4981717173
 30
0.0
 10
15.9806963988
 20
13.4963340791
 30
0.0
 10
15.9807796982
 20
13.4944722456
 30
0.0
 10
15.9809869656
 20
13.492589363
 30
0.0
 10
15.9813179178
 20
13.4906885737
 30
0.0
 10
15.9819296811
 20
13.488106852
 30
0.0
 10
15.9830117614
 20
13.4848453755
 30
0.0
 10
15.9847754238
 20
13.4809581657
 30
0.0
 10
15.9870056705
 20
13.4770791336
 30
0.0
 10
15.9896869702
 20
13.4732336742
 30
0.0
 10
15.9928012455
 20
13.4694464872
 30
0.0
 10
15.9963277094
 20
13.4657422009
 30
0.0
 10
16.000242952
 20
13.462144997
 30
0.0
 10
16.0045210219
 20
13.4586784889
 30
0.0
 10
16.0091335643
 20
13.4553655195
 30
0.0
 10
16.0140499896
 20
13.4522279879
 30
0.0
 10
16.0192376676
 20
13.4492866804
 30
0.0
 10
16.0246621427
 20
13.4465611153
 30
0.0
 10
16.0302873637
 20
13.4440693997
 30
0.0
 10
16.0360759278
 20
13.4418280995
 30
0.0
 10
16.041989334
 20
13.4398521221
 30
0.0
 10
16.0479882444
 20
13.4381546123
 30
0.0
 10
16.0540327527
 20
13.4367468624
 30
0.0
 10
16.0600826555
 20
13.4356382356
 30
0.0
 10
16.0660977278
 20
13.434836105
 30
0.0
 10
16.0720379982
 20
13.4343458072
 30
0.0
 10
16.0778640227
 20
13.4341706134
 30
0.0
 10
16.0835371574
 20
13.434311718
 30
0.0
 10
16.0890198175
 20
13.4347682441
 30
0.0
 10
16.0942757526
 20
13.4355372833
 30
0.0
 10
16.0992702146
 20
13.4366139087
 30
0.0
 10
16.103970423
 20
13.437991392
 30
0.0
 10
16.1083448716
 20
13.4396608108
 30
0.0
 10
16.1110893981
 20
13.4409929811
 30
0.0
 10
16.1123933662
 20
13.4417071841
 30
0.0
  0
SPLINE
  5
478
100
AcDbEntity
  8
LAYER_FEATURE
100
AcDbSpline
 62
7
  6
CONTINUOUS
 70
0
 71
3
 72
11
 73
7
 74
0
 42
0.0000001
 43
0.0000001
 44
0.0000000001
 40
0.0
 40
0.0
 40
0.0
 40
0.0
 40
0.2420812361
 40
0.4880186181
 40
0.7400163316
 40
1.0
 40
1.0
 40
1.0
 40
1.0
 10
15.9845206906
 20
13.5149458203
 30
0.0
 10
15.9845933484
 20
13.515259076
 30
0.0
 10
15.9847005871
 20
13.5159003614
 30
0.0
 10
15.9847442845
 20
13.5168846292
 30
0.0
 10
15.9846716267
 20
13.5178909032
 30
0.0
 10
15.9845482612
 20
13.5185612348
 30
0.0
 10
15.9844687276
 20
13.5188973044
 30
0.0
  0
SPLINE
  5
479
100
AcDbEntity
  8
LAYER_FEATURE
100
AcDbSpline
 62
7
  6
CONTINUOUS
 70
0
 71
3
 72
10
 73
6
 74
0
 42
0.0000001
 43
0.0000001
 44
0.0000000001
 40
0.0
 40
0.0
 40
0.0
 40
0.0
 40
0.2658141932
 40
0.5208494179
 40
1.0
 40
1.0
 40
1.0
 40
1.0
 10
15.9247444717
 20
13.5432461363
 30
0.0
 10
15.9243622637
 20
13.543099145
 30
0.0
 10
15.9236230735
 20
13.5427842961
 30
0.0
 10
15.9222567816
 20
13.5420710575
 30
0.0
 10
15.921320578
 20
13.5414213128
 30
0.0
 10
15.9207611346
 20
13.5409397592
 30
0.0
  0
SPLINE
  5
47A
100
AcDbEntity
  8
LAYER_FEATURE
100
AcDbSpline
 62
7
  6
CONTINUOUS
 70
0
 71
3
 72
40
 73
36
 74
0
 42
0.0000001
 43
0.0000001
 44
0.0000000001
 40
0.0
 40
0.0
 40
0.0
 40
0.0
 40
0.0111251083
 40
0.0224489535
 40
0.0457740947
 40
0.070155711
 40
0.0957154812
 40
0.1225298081
 40
0.1506337006
 40
0.1800254352
 40
0.2106712867
 40
0.2425099762
 40
0.2754567064
 40
0.3094067789
 40
0.3442388376
 40
0.3798178057
 40
0.4159975805
 40
0.4526235455
 40
0.4895349498
 40
0.5265671978
 40
0.563554084
 40
0.6003300059
 40
0.6367321853
 40
0.6726029287
 40
0.707791961
 40
0.7421588719
 40
0.7755757204
 40
0.8079298544
 40
0.8391270061
 40
0.8690947318
 40
0.8977862542
 40
0.9251847289
 40
0.9513078744
 40
0.9762127284
 40
1.0
 40
1.0
 40
1.0
 40
1.0
 10
15.7717762761
 20
13.5805723263
 30
0.0
 10
15.7718047322
 20
13.5799476591
 30
0.0
 10
15.7719041222
 20
13.5786886909
 30
0.0
 10
15.7722697968
 20
13.5761405642
 30
0.0
 10
15.7730466983
 20
13.5729059843
 30
0.0
 10
15.7744568226
 20
13.5690286237
 30
0.0
 10
15.7763432271
 20
13.5651408687
 30
0.0
 10
15.7786923703
 20
13.5612682483
 30
0.0
 10
15.7814881399
 20
13.5574355413
 30
0.0
 10
15.7847117301
 20
13.5536675696
 30
0.0
 10
15.7883416717
 20
13.5499888257
 30
0.0
 10
15.7923538814
 20
13.5464233717
 30
0.0
 10
15.7967217684
 20
13.5429946355
 30
0.0
 10
15.8014163792
 20
13.5397252318
 30
0.0
 10
15.806406574
 20
13.5366367859
 30
0.0
 10
15.8116592262
 20
13.5337497689
 30
0.0
 10
15.8171394426
 20
13.531083345
 30
0.0
 10
15.8228107966
 20
13.5286552327
 30
0.0
 10
15.8286355749
 20
13.5264815772
 30
0.0
 10
15.8345750334
 20
13.5245768369
 30
0.0
 10
15.8405896604
 20
13.5229536829
 30
0.0
 10
15.846639446
 20
13.5216229124
 30
0.0
 10
15.8526841547
 20
13.5205933765
 30
0.0
 10
15.8586836009
 20
13.5198719221
 30
0.0
 10
15.8645979242
 20
13.519463351
 30
0.0
 10
15.8703878626
 20
13.5193703944
 30
0.0
 10
15.8760150229
 20
13.5195937066
 30
0.0
 10
15.8814421424
 20
13.5201318779
 30
0.0
 10
15.8866333425
 20
13.5209814712
 30
0.0
 10
15.891554356
 20
13.5221370746
 30
0.0
 10
15.8961727575
 20
13.5235914068
 30
0.0
 10
15.9004580504
 20
13.5253353421
 30
0.0
 10
15.9043820537
 20
13.5273582916
 30
0.0
 10
15.9079179692
 20
13.5296473508
 30
0.0
 10
15.9100463588
 20
13.5313790873
 30
0.0
 10
15.9110305592
 20
13.5322840639
 30
0.0
  0
SPLINE
  5
47B
100
AcDbEntity
  8
LAYER_FEATURE
100
AcDbSpline
 62
7
  6
CONTINUOUS
 70
0
 71
3
 72
11
 73
7
 74
0
 42
0.0000001
 43
0.0000001
 44
0.0000000001
 40
0.0
 40
0.0
 40
0.0
 40
0.0
 40
0.236304586
 40
0.4809372751
 40
0.7351849491
 40
1.0
 40
1.0
 40
1.0
 40
1.0
 10
15.7709891781
 20
13.5928751638
 30
0.0
 10
15.7709612278
 20
13.593214866
 30
0.0
 10
15.7708647308
 20
13.5939034886
 30
0.0
 10
15.7706073016
 20
13.5949340041
 30
0.0
 10
15.7702364776
 20
13.5959729755
 30
0.0
 10
15.7699217288
 20
13.596653511
 30
0.0
 10
15.769747398
 20
13.5969933832
 30
0.0
  0
SPLINE
  5
47C
100
AcDbEntity
  8
LAYER_FEATURE
100
AcDbSpline
 62
7
  6
CONTINUOUS
 70
0
 71
3
 72
11
 73
7
 74
0
 42
0.0000001
 43
0.0000001
 44
0.0000000001
 40
0.0
 40
0.0
 40
0.0
 40
0.0
 40
0.2636212251
 40
0.5172409159
 40
0.762155534
 40
1.0
 40
1.0
 40
1.0
 40
1.0
 10
15.7073179907
 20
13.6150029633
 30
0.0
 10
15.7070099239
 20
13.6148021081
 30
0.0
 10
15.7064224141
 20
13.6143810802
 30
0.0
 10
15.7056211798
 20
13.6136794573
 30
0.0
 10
15.7049222699
 20
13.6129239597
 30
0.0
 10
15.7045220955
 20
13.6123800826
 30
0.0
 10
15.7043417618
 20
13.6121015654
 30
0.0
  0
SPLINE
  5
47D
100
AcDbEntity
  8
LAYER_FEATURE
100
AcDbSpline
 62
7
  6
CONTINUOUS
 70
0
 71
3
 72
41
 73
37
 74
0
 42
0.0000001
 43
0.0000001
 44
0.0000000001
 40
0.0
 40
0.0
 40
0.0
 40
0.0
 40
0.0247151155
 40
0.0506342771
 40
0.0778227968
 40
0.1063057064
 40
0.1360724956
 40
0.1670817984
 40
0.1992657466
 40
0.2325338998
 40
0.2667767651
 40
0.3018689589
 40
0.337672079
 40
0.3740373506
 40
0.4108081032
 40
0.4478221265
 40
0.4849139454
 40
0.52191705
 40
0.5586661108
 40
0.5949992107
 40
0.6307601242
 40
0.6658006798
 40
0.6999832468
 40
0.7331833938
 40
0.765292778
 40
0.7962223288
 40
0.8259057923
 40
0.8543036904
 40
0.8814076996
 40
0.9072453525
 40
0.9318847627
 40
0.9554387411
 40
0.9668619999
 40
0.9780784132
 40
0.9891153343
 40
1.0
 40
1.0
 40
1.0
 40
1.0
 10
15.5549859058
 20
13.6349955849
 30
0.0
 10
15.5554223515
 20
13.6336789347
 30
0.0
 10
15.5564694928
 20
13.6310303384
 30
0.0
 10
15.5584775209
 20
13.6271446009
 30
0.0
 10
15.5609445292
 20
13.6232798283
 30
0.0
 10
15.5638534796
 20
13.6194616228
 30
0.0
 10
15.5671849367
 20
13.6157145044
 30
0.0
 10
15.570916725
 20
13.6120629373
 30
0.0
 10
15.5750241024
 20
13.6085308175
 30
0.0
 10
15.5794798468
 20
13.6051413843
 30
0.0
 10
15.5842544185
 20
13.6019170102
 30
0.0
 10
15.5893161405
 20
13.5988790357
 30
0.0
 10
15.5946314052
 20
13.5960476063
 30
0.0
 10
15.6001648973
 20
13.593441523
 30
0.0
 10
15.6058798316
 20
13.5910781069
 30
0.0
 10
15.6117382016
 20
13.5889730747
 30
0.0
 10
15.6177010381
 20
13.5871404291
 30
0.0
 10
15.6237286735
 20
13.5855923616
 30
0.0
 10
15.629781013
 20
13.5843391697
 30
0.0
 10
15.6358178076
 20
13.583389188
 30
0.0
 10
15.6417989297
 20
13.582748735
 30
0.0
 10
15.6476846484
 20
13.5824220753
 30
0.0
 10
15.6534359019
 20
13.5824114
 30
0.0
 10
15.6590145662
 20
13.5827168245
 30
0.0
 10
15.6643837148
 20
13.5833364072
 30
0.0
 10
15.6695078673
 20
13.5842661916
 30
0.0
 10
15.6743532141
 20
13.5855002675
 30
0.0
 10
15.6788878275
 20
13.5870308742
 30
0.0
 10
15.6830817712
 20
13.5888484572
 30
0.0
 10
15.6869073416
 20
13.5909419507
 30
0.0
 10
15.6903385633
 20
13.5932982445
 30
0.0
 10
15.6928760239
 20
13.5954919545
 30
0.0
 10
15.6946746656
 20
13.5973610886
 30
0.0
 10
15.6958978813
 20
13.5988037111
 30
0.0
 10
15.6970064682
 20
13.6002986127
 30
0.0
 10
15.6976720154
 20
13.6013347145
 30
0.0
 10
15.6979841806
 20
13.6018598201
 30
0.0
  0
SPLINE
  5
47E
100
AcDbEntity
  8
LAYER_FEATURE
100
AcDbSpline
 62
7
  6
CONTINUOUS
 70
0
 71
3
 72
10
 73
6
 74
0
 42
0.0000001
 43
0.0000001
 44
0.0000000001
 40
0.0
 40
0.0
 40
0.0
 40
0.0
 40
0.47915036
 40
0.7343030031
 40
1.0
 40
1.0
 40
1.0
 40
1.0
 10
15.5505430353
 20
13.6477400263
 30
0.0
 10
15.5502796808
 20
13.6484601535
 30
0.0
 10
15.5497680832
 20
13.6495264859
 30
0.0
 10
15.54891315
 20
13.6508799766
 30
0.0
 10
15.5484174508
 20
13.6515512352
 30
0.0
 10
15.5481537223
 20
13.6518847499
 30
0.0
  0
SPLINE
  5
47F
100
AcDbEntity
  8
LAYER_FEATURE
100
AcDbSpline
 62
7
  6
CONTINUOUS
 70
0
 71
3
 72
11
 73
7
 74
0
 42
0.0000001
 43
0.0000001
 44
0.0000000001
 40
0.0
 40
0.0
 40
0.0
 40
0.0
 40
0.2569967706
 40
0.5080925077
 40
0.7550812583
 40
1.0
 40
1.0
 40
1.0
 40
1.0
 10
15.4851452184
 20
13.6629418414
 30
0.0
 10
15.4849399538
 20
13.6627140901
 30
0.0
 10
15.4845560074
 20
13.6622434232
 30
0.0
 10
15.4840622094
 20
13.6614879745
 30
0.0
 10
15.4836606359
 20
13.6606957624
 30
0.0
 10
15.4834553255
 20
13.6601444183
 30
0.0
 10
15.4833690488
 20
13.6598652546
 30
0.0
  0
SPLINE
  5
480
100
AcDbEntity
  8
LAYER_FEATURE
100
AcDbSpline
 62
7
  6
CONTINUOUS
 70
0
 71
3
 72
41
 73
37
 74
0
 42
0.0000001
 43
0.0000001
 44
0.0000000001
 40
0.0
 40
0.0
 40
0.0
 40
0.0
 40
0.0270758381
 40
0.0553353311
 40
0.0847644896
 40
0.1153269645
 40
0.1469648669
 40
0.1796028675
 40
0.2131502746
 40
0.2475035458
 40
0.2825483611
 40
0.3181616075
 40
0.3542132162
 40
0.3905679118
 40
0.4270868935
 40
0.4636294741
 40
0.5000546961
 40
0.5362229463
 40
0.5719975849
 40
0.6072466107
 40
0.6418443838
 40
0.6756734328
 40
0.7086263766
 40
0.7406079955
 40
0.7715374928
 40
0.8013509881
 40
0.8300042804
 40
0.8574759005
 40
0.8837704287
 40
0.9089219681
 40
0.9329975184
 40
0.9560997747
 40
0.9673327835
 40
0.9783780585
 40
0.9892587634
 40
1.0
 40
1.0
 40
1.0
 40
1.0
 10
15.3386366375
 20
13.6649200024
 30
0.0
 10
15.3393777379
 20
13.6636973616
 30
0.0
 10
15.3409982768
 20
13.6612616266
 30
0.0
 10
15.3437541364
 20
13.6577300969
 30
0.0
 10
15.3468715698
 20
13.6542616274
 30
0.0
 10
15.3503324835
 20
13.6508760718
 30
0.0
 10
15.354117227
 20
13.6475924412
 30
0.0
 10
15.3582041796
 20
13.6444293636
 30
0.0
 10
15.3625700406
 20
13.6414048049
 30
0.0
 10
15.3671898873
 20
13.6385359879
 30
0.0
 10
15.3720373373
 20
13.635839275
 30
0.0
 10
15.3770846901
 20
13.6333300658
 30
0.0
 10
15.3823030899
 20
13.6310227015
 30
0.0
 10
15.3876626916
 20
13.6289303773
 30
0.0
 10
15.3931328348
 20
13.627065063
 30
0.0
 10
15.398682222
 20
13.6254374315
 30
0.0
 10
15.4042791018
 20
13.6240567955
 30
0.0
 10
15.4098914539
 20
13.6229310533
 30
0.0
 10
15.4154871772
 20
13.6220666443
 30
0.0
 10
15.4210342776
 20
13.6214685131
 30
0.0
 10
15.4265010562
 20
13.6211400847
 30
0.0
 10
15.4318562953
 20
13.621083249
 30
0.0
 10
15.4370694424
 20
13.6212983578
 30
0.0
 10
15.4421107885
 20
13.6217842333
 30
0.0
 10
15.4469516406
 20
13.6225381898
 30
0.0
 10
15.4515644837
 20
13.6235560714
 30
0.0
 10
15.4559231256
 20
13.6248322986
 30
0.0
 10
15.4600028306
 20
13.6263599439
 30
0.0
 10
15.4637803815
 20
13.6281307636
 30
0.0
 10
15.4672342503
 20
13.6301354011
 30
0.0
 10
15.4703442065
 20
13.6323629458
 30
0.0
 10
15.4726559498
 20
13.6344149001
 30
0.0
 10
15.4743065111
 20
13.6361536516
 30
0.0
 10
15.4754364081
 20
13.6374926308
 30
0.0
 10
15.4764678671
 20
13.6388764964
 30
0.0
 10
15.4770924991
 20
13.6398332695
 30
0.0
 10
15.4773872288
 20
13.6403178603
 30
0.0
  0
SPLINE
  5
481
100
AcDbEntity
  8
LAYER_FEATURE
100
AcDbSpline
 62
7
  6
CONTINUOUS
 70
0
 71
3
 72
11
 73
7
 74
0
 42
0.0000001
 43
0.0000001
 44
0.0000000001
 40
0.0
 40
0.0
 40
0.0
 40
0.0
 40
0.2358687441
 40
0.4812886839
 40
0.7361080712
 40
1.0
 40
1.0
 40
1.0
 40
1.0
 10
15.3306892911
 20
13.677672051
 30
0.0
 10
15.3304636308
 20
13.6780244635
 30
0.0
 10
15.3299754033
 20
13.678726083
 30
0.0
 10
15.3291564086
 20
13.679744519
 30
0.0
 10
15.3282402
 20
13.6807449028
 30
0.0
 10
15.3275788547
 20
13.6813857077
 30
0.0
 10
15.3272337962
 20
13.6817021477
 30
0.0
  0
SPLINE
  5
482
100
AcDbEntity
  8
LAYER_FEATURE
100
AcDbSpline
 62
7
  6
CONTINUOUS
 70
0
 71
3
 72
38
 73
34
 74
0
 42
0.0000001
 43
0.0000001
 44
0.0000000001
 40
0.0
 40
0.0
 40
0.0
 40
0.0
 40
0.0283796884
 40
0.0576198823
 40
0.0876792207
 40
0.1185143279
 40
0.1500707991
 40
0.1822881892
 40
0.2151002475
 40
0.2484355548
 40
0.2822184478
 40
0.3163696631
 40
0.3508071124
 40
0.3854465466
 40
0.4202021837
 40
0.4549873783
 40
0.4897152858
 40
0.5242994752
 40
0.5586545674
 40
0.5926969294
 40
0.6263453205
 40
0.6595215462
 40
0.6921511931
 40
0.7241644242
 40
0.75549671
 40
0.7860896391
 40
0.8158918746
 40
0.8448601712
 40
0.8729603547
 40
0.9001684522
 40
0.9264720151
 40
0.9518714681
 40
1.0
 40
1.0
 40
1.0
 40
1.0
 10
15.130095986
 20
13.6693265384
 30
0.0
 10
15.1309374219
 20
13.6683799665
 30
0.0
 10
15.1326988616
 20
13.6665047006
 30
0.0
 10
15.1355201561
 20
13.6637913357
 30
0.0
 10
15.1385508367
 20
13.6611442911
 30
0.0
 10
15.1417794575
 20
13.6585734382
 30
0.0
 10
15.1451942036
 20
13.6560882166
 30
0.0
 10
15.1487823927
 20
13.6536978123
 30
0.0
 10
15.1525307456
 20
13.6514110529
 30
0.0
 10
15.1564253913
 20
13.6492364064
 30
0.0
 10
15.1604519078
 20
13.6471819312
 30
0.0
 10
15.1645953718
 20
13.6452552252
 30
0.0
 10
15.1688404295
 20
13.6434634248
 30
0.0
 10
15.1731713517
 20
13.6418131763
 30
0.0
 10
15.1775720886
 20
13.640310604
 30
0.0
 10
15.1820263233
 20
13.6389612654
 30
0.0
 10
15.1865175451
 20
13.6377701602
 30
0.0
 10
15.1910291085
 20
13.6367417108
 30
0.0
 10
15.1955442931
 20
13.6358797356
 30
0.0
 10
15.200046364
 20
13.6351874166
 30
0.0
 10
15.2045186416
 20
13.634667318
 30
0.0
 10
15.2089445606
 20
13.6343213772
 30
0.0
 10
15.2133077322
 20
13.6341508841
 30
0.0
 10
15.2175920076
 20
13.6341564632
 30
0.0
 10
15.2217815392
 20
13.634338103
 30
0.0
 10
15.2258608353
 20
13.6346951585
 30
0.0
 10
15.2298148257
 20
13.6352263405
 30
0.0
 10
15.2336289037
 20
13.635929705
 30
0.0
 10
15.2372890386
 20
13.6368027301
 30
0.0
 10
15.2407815826
 20
13.6378422083
 30
0.0
 10
15.2440941687
 20
13.6390446839
 30
0.0
 10
15.2481792107
 20
13.6408264322
 30
0.0
 10
15.2510546313
 20
13.642438608
 30
0.0
 10
15.2528373708
 20
13.6436365197
 30
0.0
  0
SPLINE
  5
483
100
AcDbEntity
  8
LAYER_FEATURE
100
AcDbSpline
 62
7
  6
CONTINUOUS
 70
0
 71
3
 72
11
 73
7
 74
0
 42
0.0000001
 43
0.0000001
 44
0.0000000001
 40
0.0
 40
0.0
 40
0.0
 40
0.0
 40
0.2383571584
 40
0.4848245394
 40
0.7389080347
 40
1.0
 40
1.0
 40
1.0
 40
1.0
 10
15.1189148011
 20
13.6816519386
 30
0.0
 10
15.1186010797
 20
13.6819909062
 30
0.0
 10
15.1179412591
 20
13.6826605566
 30
0.0
 10
15.1168791209
 20
13.6836217354
 30
0.0
 10
15.1157326876
 20
13.6845521782
 30
0.0
 10
15.1149263147
 20
13.6851414404
 30
0.0
 10
15.1145108447
 20
13.6854301254
 30
0.0
  0
SPLINE
  5
484
100
AcDbEntity
  8
LAYER_FEATURE
100
AcDbSpline
 62
7
  6
CONTINUOUS
 70
0
 71
3
 72
28
 73
24
 74
0
 42
0.0000001
 43
0.0000001
 44
0.0000000001
 40
0.0
 40
0.0
 40
0.0
 40
0.0
 40
0.0296221382
 40
0.0598013116
 40
0.1216628335
 40
0.185284475
 40
0.250317621
 40
0.3163871865
 40
0.3830980375
 40
0.4500432517
 40
0.5168116188
 40
0.582995161
 40
0.6481966872
 40
0.7120375536
 40
0.7433402912
 40
0.774173658
 40
0.8044992019
 40
0.8342814407
 40
0.863487911
 40
0.8920896384
 40
0.9200615727
 40
0.9473827094
 40
1.0
 40
1.0
 40
1.0
 40
1.0
 10
14.9364655532
 20
13.6480651338
 30
0.0
 10
14.9372938391
 20
13.6473758299
 30
0.0
 10
14.9389911984
 20
13.6460142531
 30
0.0
 10
14.9425369802
 20
13.6433644673
 30
0.0
 10
14.9472403279
 20
13.6402032925
 30
0.0
 10
14.9532246476
 20
13.6366994185
 30
0.0
 10
14.9595417471
 20
13.6334855471
 30
0.0
 10
14.9661340337
 20
13.6305909458
 30
0.0
 10
14.9729416979
 20
13.628041878
 30
0.0
 10
14.9799028568
 20
13.6258615193
 30
0.0
 10
14.9869542254
 20
13.6240696849
 30
0.0
 10
14.9940317714
 20
13.6226826491
 30
0.0
 10
15.0010710018
 20
13.621713046
 30
0.0
 10
15.0068900638
 20
13.6212572079
 30
0.0
 10
15.0114711774
 20
13.6211123185
 30
0.0
 10
15.0148353357
 20
13.6211128373
 30
0.0
 10
15.0181423879
 20
13.6212218645
 30
0.0
 10
15.021384822
 20
13.6214391161
 30
0.0
 10
15.0245552498
 20
13.621764129
 30
0.0
 10
15.0276463994
 20
13.6221961637
 30
0.0
 10
15.0306514012
 20
13.6227342523
 30
0.0
 10
15.0344851943
 20
13.6235807813
 30
0.0
 10
15.0372850673
 20
13.6243846579
 30
0.0
 10
15.0390975212
 20
13.6250001236
 30
0.0
  0
SPLINE
  5
485
100
AcDbEntity
  8
LAYER_FEATURE
100
AcDbSpline
 62
7
  6
CONTINUOUS
 70
0
 71
3
 72
11
 73
7
 74
0
 42
0.0000001
 43
0.0000001
 44
0.0000000001
 40
0.0
 40
0.0
 40
0.0
 40
0.0
 40
0.241389444
 40
0.4889914063
 40
0.7421153556
 40
1.0
 40
1.0
 40
1.0
 40
1.0
 10
14.9224312916
 20
13.6595441587
 30
0.0
 10
14.9220410948
 20
13.6598578689
 30
0.0
 10
14.9212338057
 20
13.6604726577
 30
0.0
 10
14.9199644712
 20
13.6613442855
 30
0.0
 10
14.9186266058
 20
13.6621734519
 30
0.0
 10
14.9177011635
 20
13.6626909192
 30
0.0
 10
14.9172287821
 20
13.6629418223
 30
0.0
  0
SPLINE
  5
486
100
AcDbEntity
  8
LAYER_FEATURE
100
AcDbSpline
 62
7
  6
CONTINUOUS
 70
0
 71
3
 72
23
 73
19
 74
0
 42
0.0000001
 43
0.0000001
 44
0.0000000001
 40
0.0
 40
0.0
 40
0.0
 40
0.0
 40
0.0614046669
 40
0.1238981488
 40
0.1872877502
 40
0.2513792135
 40
0.3159667218
 40
0.3808413398
 40
0.4457907643
 40
0.510602099
 40
0.5750637677
 40
0.6389676239
 40
0.7021110634
 40
0.7642991871
 40
0.8253470545
 40
0.8850820507
 40
0.9433464198
 40
1.0
 40
1.0
 40
1.0
 40
1.0
 10
14.7643391912
 20
13.6018598201
 30
0.0
 10
14.7657591436
 20
13.6009587997
 30
0.0
 10
14.7686664814
 20
13.5992065417
 30
0.0
 10
14.7731727488
 20
13.5967533013
 30
0.0
 10
14.7778452915
 20
13.594461325
 30
0.0
 10
14.7826611838
 20
13.5923418027
 30
0.0
 10
14.7875971209
 20
13.5904050283
 30
0.0
 10
14.7926290592
 20
13.5886604167
 30
0.0
 10
14.7977325434
 20
13.5871164576
 30
0.0
 10
14.8028827496
 20
13.5857806601
 30
0.0
 10
14.8080546325
 20
13.584659518
 30
0.0
 10
14.813223045
 20
13.5837584812
 30
0.0
 10
14.8183628626
 20
13.5830819296
 30
0.0
 10
14.8234491136
 20
13.5826331545
 30
0.0
 10
14.8284570797
 20
13.5824143408
 30
0.0
 10
14.833362504
 20
13.5824265731
 30
0.0
 10
14.8381414038
 20
13.5826697864
 30
0.0
 10
14.8412740851
 20
13.5829899293
 30
0.0
 10
14.8428127117
 20
13.5831899839
 30
0.0
  0
SPLINE
  5
487
100
AcDbEntity
  8
LAYER_FEATURE
100
AcDbSpline
 62
7
  6
CONTINUOUS
 70
0
 71
3
 72
10
 73
6
 74
0
 42
0.0000001
 43
0.0000001
 44
0.0000000001
 40
0.0
 40
0.0
 40
0.0
 40
0.0
 40
0.2446380313
 40
0.493409065
 40
1.0
 40
1.0
 40
1.0
 40
1.0
 10
14.7479297728
 20
13.6121015654
 30
0.0
 10
14.7474771243
 20
13.6123794454
 30
0.0
 10
14.746551087
 20
13.6129189058
 30
0.0
 10
14.744628387
 20
13.6139283141
 30
0.0
 10
14.7431279547
 20
13.6145966369
 30
0.0
 10
14.7421059001
 20
13.6150029827
 30
0.0
  0
SPLINE
  5
488
100
AcDbEntity
  8
LAYER_FEATURE
100
AcDbSpline
 62
7
  6
CONTINUOUS
 70
0
 71
3
 72
15
 73
11
 74
0
 42
0.0000001
 43
0.0000001
 44
0.0000000001
 40
0.0
 40
0.0
 40
0.0
 40
0.0
 40
0.1251460808
 40
0.2515655363
 40
0.378604514
 40
0.5055950579
 40
0.6318723254
 40
0.7567818011
 40
0.8796909779
 40
1.0
 40
1.0
 40
1.0
 40
1.0
 10
14.6195784567
 20
13.5322840639
 30
0.0
 10
14.6215741623
 20
13.5313194889
 30
0.0
 10
14.6256382552
 20
13.5294870014
 30
0.0
 10
14.6318877901
 20
13.5270480375
 30
0.0
 10
14.6382841256
 20
13.5249188141
 30
0.0
 10
14.6447773547
 20
13.5231160051
 30
0.0
 10
14.6513170155
 20
13.5216535872
 30
0.0
 10
14.6578523604
 20
13.5205429369
 30
0.0
 10
14.66433233
 20
13.5197926881
 30
0.0
 10
14.6686351301
 20
13.5195334986
 30
0.0
 10
14.6707650241
 20
13.5194676897
 30
0.0
  0
SPLINE
  5
489
100
AcDbEntity
  8
LAYER_FEATURE
100
AcDbSpline
 62
7
  6
CONTINUOUS
 70
0
 71
3
 72
9
 73
5
 74
0
 42
0.0000001
 43
0.0000001
 44
0.0000000001
 40
0.0
 40
0.0
 40
0.0
 40
0.0
 40
0.5065726743
 40
1.0
 40
1.0
 40
1.0
 40
1.0
 10
14.4108169155
 20
13.3378770337
 30
0.0
 10
14.409743772
 20
13.3381203261
 30
0.0
 10
14.4076048482
 20
13.338514698
 30
0.0
 10
14.4054397292
 20
13.3387259731
 30
0.0
 10
14.4043693006
 20
13.3387806089
 30
0.0
  0
SPLINE
  5
48A
100
AcDbEntity
  8
LAYER_FEATURE
100
AcDbSpline
 62
7
  6
CONTINUOUS
 70
0
 71
3
 72
11
 73
7
 74
0
 42
0.0000001
 43
0.0000001
 44
0.0000000001
 40
0.0
 40
0.0
 40
0.0
 40
0.0
 40
0.2340866831
 40
0.4794400488
 40
0.7351498221
 40
1.0
 40
1.0
 40
1.0
 40
1.0
 10
14.3966346473
 20
13.3382895253
 30
0.0
 10
14.397228435
 20
13.338411745
 30
0.0
 10
14.3984550599
 20
13.3386129687
 30
0.0
 10
14.4003520224
 20
13.3387895814
 30
0.0
 10
14.4023357897
 20
13.3388502114
 30
0.0
 10
14.4036842381
 20
13.3388155766
 30
0.0
 10
14.404369253
 20
13.3387806127
 30
0.0
  0
SPLINE
  5
48B
100
AcDbEntity
  8
LAYER_FEATURE
100
AcDbSpline
 62
7
  6
CONTINUOUS
 70
0
 71
3
 72
11
 73
7
 74
0
 42
0.0000001
 43
0.0000001
 44
0.0000000001
 40
0.0
 40
0.0
 40
0.0
 40
0.0
 40
0.2385326545
 40
0.4855834367
 40
0.7398944644
 40
1.0
 40
1.0
 40
1.0
 40
1.0
 10
14.4729769815
 20
13.4506341797
 30
0.0
 10
14.4736350217
 20
13.4506711764
 30
0.0
 10
14.4749774318
 20
13.4507014055
 30
0.0
 10
14.4770214308
 20
13.4506255967
 30
0.0
 10
14.4791175549
 20
13.4504334393
 30
0.0
 10
14.4805253372
 20
13.4502327823
 30
0.0
 10
14.4812342817
 20
13.4501148494
 30
0.0
  0
SPLINE
  5
48C
100
AcDbEntity
  8
LAYER_FEATURE
100
AcDbSpline
 62
7
  6
CONTINUOUS
 70
0
 71
3
 72
11
 73
7
 74
0
 42
0.0000001
 43
0.0000001
 44
0.0000000001
 40
0.0
 40
0.0
 40
0.0
 40
0.0
 40
0.2430941256
 40
0.4917902435
 40
0.7446257442
 40
1.0
 40
1.0
 40
1.0
 40
1.0
 10
14.5866081116
 20
13.5447620103
 30
0.0
 10
14.5873069413
 20
13.5447129727
 30
0.0
 10
14.5887180543
 20
13.5445722405
 30
0.0
 10
14.5908397912
 20
13.5442454241
 30
0.0
 10
14.5929772073
 20
13.5438061904
 30
0.0
 10
14.5943969081
 20
13.5434440411
 30
0.0
 10
14.595105736
 20
13.5432461365
 30
0.0
  0
SPLINE
  5
48D
100
AcDbEntity
  8
LAYER_FEATURE
100
AcDbSpline
 62
7
  6
CONTINUOUS
 70
0
 71
3
 72
11
 73
7
 74
0
 42
0.0000001
 43
0.0000001
 44
0.0000000001
 40
0.0
 40
0.0
 40
0.0
 40
0.0
 40
0.2476628267
 40
0.4979498274
 40
0.7492825523
 40
1.0
 40
1.0
 40
1.0
 40
1.0
 10
14.7336584657
 20
13.6174676068
 30
0.0
 10
14.7343737307
 20
13.6173347015
 30
0.0
 10
14.7358049061
 20
13.6170287981
 30
0.0
 10
14.7379322466
 20
13.6164608268
 30
0.0
 10
14.7400383447
 20
13.6157885844
 30
0.0
 10
14.7414214848
 20
13.615275092
 30
0.0
 10
14.7421058603
 20
13.6150029998
 30
0.0
  0
SPLINE
  5
48E
100
AcDbEntity
  8
LAYER_FEATURE
100
AcDbSpline
 62
7
  6
CONTINUOUS
 70
0
 71
3
 72
11
 73
7
 74
0
 42
0.0000001
 43
0.0000001
 44
0.0000000001
 40
0.0
 40
0.0
 40
0.0
 40
0.0
 40
0.2568099078
 40
0.510156084
 40
0.7584195569
 40
1.0
 40
1.0
 40
1.0
 40
1.0
 10
15.1070188294
 20
13.6895223123
 30
0.0
 10
15.1076938749
 20
13.6892391908
 30
0.0
 10
15.1090205124
 20
13.688641831
 30
0.0
 10
15.110944068
 20
13.6876532134
 30
0.0
 10
15.1127762655
 20
13.6865880504
 30
0.0
 10
15.1139452867
 20
13.6858231007
 30
0.0
 10
15.1145107803
 20
13.6854301733
 30
0.0
  0
SPLINE
  5
48F
100
AcDbEntity
  8
LAYER_FEATURE
100
AcDbSpline
 62
7
  6
CONTINUOUS
 70
0
 71
3
 72
11
 73
7
 74
0
 42
0.0000001
 43
0.0000001
 44
0.0000000001
 40
0.0
 40
0.0
 40
0.0
 40
0.0
 40
0.2334105968
 40
0.4764469083
 40
0.7314317527
 40
1.0
 40
1.0
 40
1.0
 40
1.0
 10
15.2657918459
 20
13.6854301733
 30
0.0
 10
15.2659716314
 20
13.6858229552
 30
0.0
 10
15.2664047832
 20
13.6865958478
 30
0.0
 10
15.2672386917
 20
13.6876677799
 30
0.0
 10
15.2682581788
 20
13.6886601693
 30
0.0
 10
15.2690337848
 20
13.6892453951
 30
0.0
 10
15.2694465373
 20
13.6895223123
 30
0.0
  0
SPLINE
  5
490
100
AcDbEntity
  8
LAYER_FEATURE
100
AcDbSpline
 62
7
  6
CONTINUOUS
 70
0
 71
3
 72
11
 73
7
 74
0
 42
0.0000001
 43
0.0000001
 44
0.0000000001
 40
0.0
 40
0.0
 40
0.0
 40
0.0
 40
0.26137445
 40
0.516173514
 40
0.7628657202
 40
1.0
 40
1.0
 40
1.0
 40
1.0
 10
15.3206144995
 20
13.6864176848
 30
0.0
 10
15.321234821
 20
13.6860731358
 30
0.0
 10
15.3224415066
 20
13.6853589918
 30
0.0
 10
15.3241626413
 20
13.6842051094
 30
0.0
 10
15.3257616736
 20
13.6829932761
 30
0.0
 10
15.3267593026
 20
13.6821372894
 30
0.0
 10
15.3272337731
 20
13.6817021706
 30
0.0
  0
SPLINE
  5
491
100
AcDbEntity
  8
LAYER_FEATURE
100
AcDbSpline
 62
7
  6
CONTINUOUS
 70
0
 71
3
 72
11
 73
7
 74
0
 42
0.0000001
 43
0.0000001
 44
0.0000000001
 40
0.0
 40
0.0
 40
0.0
 40
0.0
 40
0.2288468155
 40
0.4713503295
 40
0.7283197186
 40
1.0
 40
1.0
 40
1.0
 40
1.0
 10
15.4851452215
 20
13.6629418454
 30
0.0
 10
15.4854552307
 20
13.663285816
 30
0.0
 10
15.4861448321
 20
13.6639494159
 30
0.0
 10
15.4873279793
 20
13.6648333954
 30
0.0
 10
15.4886768341
 20
13.6656235782
 30
0.0
 10
15.4896514262
 20
13.6660691439
 30
0.0
 10
15.4901611279
 20
13.6662750674
 30
0.0
  0
SPLINE
  5
492
100
AcDbEntity
  8
LAYER_FEATURE
100
AcDbSpline
 62
7
  6
CONTINUOUS
 70
0
 71
3
 72
11
 73
7
 74
0
 42
0.0000001
 43
0.0000001
 44
0.0000000001
 40
0.0
 40
0.0
 40
0.0
 40
0.0
 40
0.2657684995
 40
0.5218792629
 40
0.7670087895
 40
1.0
 40
1.0
 40
1.0
 40
1.0
 10
15.5426336864
 20
13.6570669089
 30
0.0
 10
15.5431788144
 20
13.656672755
 30
0.0
 10
15.5442261902
 20
13.6558661662
 30
0.0
 10
15.5456864265
 20
13.6545847292
 30
0.0
 10
15.5469981441
 20
13.6532661926
 30
0.0
 10
15.5477879035
 20
13.6523473731
 30
0.0
 10
15.5481536936
 20
13.6518847898
 30
0.0
  0
SPLINE
  5
493
100
AcDbEntity
  8
LAYER_FEATURE
100
AcDbSpline
 62
7
  6
CONTINUOUS
 70
0
 71
3
 72
11
 73
7
 74
0
 42
0.0000001
 43
0.0000001
 44
0.0000000001
 40
0.0
 40
0.0
 40
0.0
 40
0.0
 40
0.2289354042
 40
0.472189687
 40
0.7294390457
 40
1.0
 40
1.0
 40
1.0
 40
1.0
 10
15.7073180398
 20
13.6150029998
 30
0.0
 10
15.7077471491
 20
13.6152827728
 30
0.0
 10
15.7086655905
 20
13.6158096914
 30
0.0
 10
15.7101564347
 20
13.6164794863
 30
0.0
 10
15.7117887997
 20
13.6170444119
 30
0.0
 10
15.7129340105
 20
13.6173387177
 30
0.0
 10
15.7135255283
 20
13.6174676068
 30
0.0
  0
SPLINE
  5
494
100
AcDbEntity
  8
LAYER_FEATURE
100
AcDbSpline
 62
7
  6
CONTINUOUS
 70
0
 71
3
 72
46
 73
42
 74
0
 42
0.0000001
 43
0.0000001
 44
0.0000000001
 40
0.0
 40
0.0
 40
0.0
 40
0.0
 40
0.0396645078
 40
0.0788613625
 40
0.1175671524
 40
0.1557611441
 40
0.1934233488
 40
0.2305356756
 40
0.2670816668
 40
0.3030467311
 40
0.3384182489
 40
0.373185705
 40
0.4073408296
 40
0.4408777429
 40
0.4737931061
 40
0.5060862783
 40
0.5377594784
 40
0.5688179438
 40
0.5992700904
 40
0.6291276687
 40
0.6584059125
 40
0.6728343747
 40
0.6871253929
 40
0.7153052552
 40
0.7429736226
 40
0.7701607626
 40
0.7969008076
 40
0.8232316975
 40
0.8491950558
 40
0.8620540739
 40
0.8748384068
 40
0.8875541856
 40
0.9002077255
 40
0.9128055046
 40
0.9253541479
 40
0.9378604202
 40
0.9503311966
 40
0.9627734571
 40
0.9751942581
 40
0.9876007192
 40
1.0
 40
1.0
 40
1.0
 40
1.0
 10
14.9170949865
 20
13.0584465041
 30
0.0
 10
14.9027466481
 20
13.0584465041
 30
0.0
 10
14.8742180042
 20
13.0581247624
 30
0.0
 10
14.831710524
 20
13.0566582969
 30
0.0
 10
14.7897806108
 20
13.0542123093
 30
0.0
 10
14.7484760237
 20
13.0507896247
 30
0.0
 10
14.7078431589
 20
13.0463940244
 30
0.0
 10
14.6679279364
 20
13.0410304692
 30
0.0
 10
14.6287753598
 20
13.0347049592
 30
0.0
 10
14.5904295965
 20
13.0274245915
 30
0.0
 10
14.5529338904
 20
13.0191975287
 30
0.0
 10
14.5163305241
 20
13.0100329874
 30
0.0
 10
14.4806607727
 20
12.9999412265
 30
0.0
 10
14.445964859
 20
12.9889335334
 30
0.0
 10
14.4122819106
 20
12.9770222088
 30
0.0
 10
14.3796499208
 20
12.9642205526
 30
0.0
 10
14.3481056942
 20
12.9505428485
 30
0.0
 10
14.3176848563
 20
12.9360043651
 30
0.0
 10
14.2884216681
 20
12.92062124
 30
0.0
 10
14.2603495467
 20
12.9044108202
 30
0.0
 10
14.237866245
 20
12.8901587134
 30
0.0
 10
14.2205177444
 20
12.8783577801
 30
0.0
 10
14.2037552833
 20
12.8664106827
 30
0.0
 10
14.1835880927
 20
12.8509990302
 30
0.0
 10
14.1605833822
 20
12.8316680606
 30
0.0
 10
14.1389145198
 20
12.8116085548
 30
0.0
 10
14.1186065297
 20
12.7908430044
 30
0.0
 10
14.0996830399
 20
12.7693951017
 30
0.0
 10
14.0850378583
 20
12.7509130551
 30
0.0
 10
14.0740496243
 20
12.7358187524
 30
0.0
 10
14.0661929651
 20
12.7243788712
 30
0.0
 10
14.0586974251
 20
12.7127876918
 30
0.0
 10
14.0515650438
 20
12.7010484151
 30
0.0
 10
14.0447978565
 20
12.6891643995
 30
0.0
 10
14.0383978375
 20
12.6771389766
 30
0.0
 10
14.0323667409
 20
12.6649755961
 30
0.0
 10
14.0267063623
 20
12.6526776648
 30
0.0
 10
14.021418254
 20
12.6402487137
 30
0.0
 10
14.0165039455
 20
12.6276922144
 30
0.0
 10
14.0119648848
 20
12.6150118785
 30
0.0
 10
14.0091894612
 20
12.6064769881
 30
0.0
 10
14.0078651761
 20
12.6021915937
 30
0.0
  0
SPLINE
  5
495
100
AcDbEntity
  8
02___PRT_ALL_AXES
100
AcDbSpline
 62
7
  6
CONTINUOUS
 70
0
 71
3
 72
72
 73
68
 74
0
 42
0.0000001
 43
0.0000001
 44
0.0000000001
 40
0.0
 40
0.0
 40
0.0
 40
0.0
 40
0.0171787517
 40
0.0345304647
 40
0.0520443931
 40
0.0697101079
 40
0.0875164383
 40
0.1054520335
 40
0.1235052196
 40
0.1416640668
 40
0.1599164188
 40
0.178249917
 40
0.196652031
 40
0.2151100848
 40
0.2336112856
 40
0.2521427506
 40
0.2706915347
 40
0.2892446567
 40
0.3077891261
 40
0.3263119704
 40
0.3448002623
 40
0.3632411461
 40
0.381621865
 40
0.399929788
 40
0.4181524382
 40
0.4362775214
 40
0.4542929531
 40
0.472186888
 40
0.4899477485
 40
0.5075642561
 40
0.5250254628
 40
0.5423207814
 40
0.559440018
 40
0.5763734053
 40
0.5931116383
 40
0.6096459119
 40
0.6259679567
 40
0.6420700777
 40
0.6579451952
 40
0.6735868871
 40
0.6889894362
 40
0.704147875
 40
0.7190580337
 40
0.7337165906
 40
0.7481211248
 40
0.7622701734
 40
0.7761632875
 40
0.7898010885
 40
0.8031853264
 40
0.8163189386
 40
0.8292061084
 40
0.8418523217
 40
0.8542644161
 40
0.8603855312
 40
0.866451324
 40
0.878421314
 40
0.8901862084
 40
0.9017586001
 40
0.9131525417
 40
0.9243835152
 40
0.9354683778
 40
0.9464252807
 40
0.9572735599
 40
0.9680335958
 40
0.9787266445
 40
0.989374644
 40
1.0
 40
1.0
 40
1.0
 40
1.0
 10
15.0625999569
 20
12.7619385492
 30
0.0
 10
15.0717744742
 20
12.7619385492
 30
0.0
 10
15.0902164697
 20
12.761736675
 30
0.0
 10
15.1179988809
 20
12.7608396989
 30
0.0
 10
15.1460162277
 20
12.7593478651
 30
0.0
 10
15.1742390522
 20
12.757262787
 30
0.0
 10
15.2026381373
 20
12.7545865961
 30
0.0
 10
15.2311838705
 20
12.7513220931
 30
0.0
 10
15.2598465577
 20
12.7474726726
 30
0.0
 10
15.2885963631
 20
12.7430423458
 30
0.0
 10
15.3174033621
 20
12.7380357254
 30
0.0
 10
15.3462375701
 20
12.732458022
 30
0.0
 10
15.3750689723
 20
12.7263150384
 30
0.0
 10
15.4038675562
 20
12.7196131683
 30
0.0
 10
15.4326033443
 20
12.712359392
 30
0.0
 10
15.4612464232
 20
12.7045612614
 30
0.0
 10
15.489766976
 20
12.696226894
 30
0.0
 10
15.5181353123
 20
12.6873649637
 30
0.0
 10
15.5463218997
 20
12.6779846928
 30
0.0
 10
15.574297397
 20
12.6680958496
 30
0.0
 10
15.602032683
 20
12.65770873
 30
0.0
 10
15.6294988861
 20
12.6468341468
 30
0.0
 10
15.6566674144
 20
12.6354834188
 30
0.0
 10
15.6835099852
 20
12.6236683577
 30
0.0
 10
15.7099986583
 20
12.6114012641
 30
0.0
 10
15.7361058632
 20
12.5986949087
 30
0.0
 10
15.7618044267
 20
12.5855625168
 30
0.0
 10
15.7870676003
 20
12.5720177556
 30
0.0
 10
15.8118690883
 20
12.558074718
 30
0.0
 10
15.8361830781
 20
12.5437479132
 30
0.0
 10
15.8599842683
 20
12.5290522518
 30
0.0
 10
15.8832478914
 20
12.5140030238
 30
0.0
 10
15.9059497387
 20
12.498615885
 30
0.0
 10
15.9280661856
 20
12.4829068386
 30
0.0
 10
15.9495742177
 20
12.4668922202
 30
0.0
 10
15.9704514595
 20
12.4505886856
 30
0.0
 10
15.9906761916
 20
12.4340131858
 30
0.0
 10
16.0102273726
 20
12.4171829497
 30
0.0
 10
16.0290846603
 20
12.4001154667
 30
0.0
 10
16.047228432
 20
12.3828284656
 30
0.0
 10
16.0646398122
 20
12.3653399038
 30
0.0
 10
16.081300687
 20
12.3476679417
 30
0.0
 10
16.0971937184
 20
12.3298309226
 30
0.0
 10
16.1123023618
 20
12.3118473547
 30
0.0
 10
16.1266108805
 20
12.2937358896
 30
0.0
 10
16.1401043679
 20
12.2755153075
 30
0.0
 10
16.1527687611
 20
12.2572044963
 30
0.0
 10
16.1645908459
 20
12.2388224306
 30
0.0
 10
16.1755582719
 20
12.2203881474
 30
0.0
 10
16.1856595508
 20
12.2019207546
 30
0.0
 10
16.1948841072
 20
12.183439313
 30
0.0
 10
16.2032221593
 20
12.1649631907
 30
0.0
 10
16.2094531427
 20
12.1495156052
 30
0.0
 10
16.2139793979
 20
12.1371816163
 30
0.0
 10
16.2181638858
 20
12.1249769226
 30
0.0
 10
16.2228344221
 20
12.1097563459
 30
0.0
 10
16.2275477915
 20
12.0914919383
 30
0.0
 10
16.2313398996
 20
12.0733279194
 30
0.0
 10
16.2342064944
 20
12.0552834155
 30
0.0
 10
16.2361443582
 20
12.0373772234
 30
0.0
 10
16.2371512137
 20
12.0196281103
 30
0.0
 10
16.2372257652
 20
12.0020547209
 30
0.0
 10
16.2363677119
 20
11.9846755579
 30
0.0
 10
16.2345777861
 20
11.9675090321
 30
0.0
 10
16.2318576631
 20
11.950573141
 30
0.0
 10
16.2282103166
 20
11.9338865355
 30
0.0
 10
16.2251615213
 20
11.9229345694
 30
0.0
 10
16.2234861134
 20
11.9175129394
 30
0.0
  0
SPLINE
  5
496
100
AcDbEntity
  8
LAYER_FEATURE
100
AcDbSpline
 62
7
  6
CONTINUOUS
 70
0
 71
3
 72
46
 73
42
 74
0
 42
0.0000001
 43
0.0000001
 44
0.0000000001
 40
0.0
 40
0.0
 40
0.0
 40
0.0
 40
0.0396645078
 40
0.0788613625
 40
0.1175671524
 40
0.1557611441
 40
0.1934233488
 40
0.2305356756
 40
0.2670816668
 40
0.3030467311
 40
0.3384182489
 40
0.373185705
 40
0.4073408296
 40
0.4408777429
 40
0.4737931061
 40
0.5060862783
 40
0.5377594784
 40
0.5688179438
 40
0.5992700904
 40
0.6291276687
 40
0.6584059125
 40
0.6728343747
 40
0.6871253929
 40
0.7153052552
 40
0.7429736226
 40
0.7701607626
 40
0.7969008076
 40
0.8232316975
 40
0.8491950558
 40
0.8620540739
 40
0.8748384068
 40
0.8875541856
 40
0.9002077255
 40
0.9128055046
 40
0.9253541479
 40
0.9378604202
 40
0.9503311966
 40
0.9627734571
 40
0.9751942581
 40
0.9876007192
 40
1.0
 40
1.0
 40
1.0
 40
1.0
 10
15.1528675855
 20
13.8214069141
 30
0.0
 10
15.1385192471
 20
13.8214069141
 30
0.0
 10
15.1099906032
 20
13.8210851724
 30
0.0
 10
15.067483123
 20
13.8196187069
 30
0.0
 10
15.0255532098
 20
13.8171727193
 30
0.0
 10
14.9842486227
 20
13.8137500346
 30
0.0
 10
14.9436157579
 20
13.8093544344
 30
0.0
 10
14.9037005354
 20
13.8039908791
 30
0.0
 10
14.8645479588
 20
13.7976653692
 30
0.0
 10
14.8262021955
 20
13.7903850015
 30
0.0
 10
14.7887064894
 20
13.7821579387
 30
0.0
 10
14.7521031231
 20
13.7729933973
 30
0.0
 10
14.7164333717
 20
13.7629016364
 30
0.0
 10
14.681737458
 20
13.7518939434
 30
0.0
 10
14.6480545096
 20
13.7399826188
 30
0.0
 10
14.6154225198
 20
13.7271809625
 30
0.0
 10
14.5838782932
 20
13.7135032585
 30
0.0
 10
14.5534574553
 20
13.6989647751
 30
0.0
 10
14.5241942671
 20
13.6835816499
 30
0.0
 10
14.4961221457
 20
13.6673712302
 30
0.0
 10
14.473638844
 20
13.6531191234
 30
0.0
 10
14.4562903434
 20
13.64131819
 30
0.0
 10
14.4395278823
 20
13.6293710927
 30
0.0
 10
14.4193606917
 20
13.6139594402
 30
0.0
 10
14.3963559812
 20
13.5946284705
 30
0.0
 10
14.3746871188
 20
13.5745689648
 30
0.0
 10
14.3543791287
 20
13.5538034144
 30
0.0
 10
14.3354556389
 20
13.5323555116
 30
0.0
 10
14.3208104573
 20
13.5138734651
 30
0.0
 10
14.3098222233
 20
13.4987791623
 30
0.0
 10
14.3019655641
 20
13.4873392812
 30
0.0
 10
14.2944700241
 20
13.4757481017
 30
0.0
 10
14.2873376428
 20
13.4640088251
 30
0.0
 10
14.2805704555
 20
13.4521248094
 30
0.0
 10
14.2741704365
 20
13.4400993865
 30
0.0
 10
14.2681393399
 20
13.4279360061
 30
0.0
 10
14.2624789613
 20
13.4156380748
 30
0.0
 10
14.257190853
 20
13.4032091237
 30
0.0
 10
14.2522765445
 20
13.3906526244
 30
0.0
 10
14.2477374838
 20
13.3779722884
 30
0.0
 10
14.2449620602
 20
13.3694373981
 30
0.0
 10
14.2436377751
 20
13.3651520036
 30
0.0
  0
SPLINE
  5
497
100
AcDbEntity
  8
LAYER_FEATURE
100
AcDbSpline
 62
7
  6
CONTINUOUS
 70
0
 71
3
 72
95
 73
91
 74
0
 42
0.0000001
 43
0.0000001
 44
0.0000000001
 40
0.0
 40
0.0
 40
0.0
 40
0.0
 40
0.0182636242
 40
0.0367724121
 40
0.0555055432
 40
0.0744410595
 40
0.0935562321
 40
0.1128275564
 40
0.1322309013
 40
0.1517416037
 40
0.1713345765
 40
0.1909844099
 40
0.2106654725
 40
0.2303520124
 40
0.2500182561
 40
0.2696385087
 40
0.2891872542
 40
0.3086392555
 40
0.3279696572
 40
0.3471540883
 40
0.3661687682
 40
0.3849906144
 40
0.4035973537
 40
0.4219676377
 40
0.4400811612
 40
0.4579187879
 40
0.47546268
 40
0.4926964366
 40
0.5096052384
 40
0.5261760021
 40
0.5423975433
 40
0.5582607506
 40
0.5737587697
 40
0.5888871984
 40
0.6036442909
 40
0.6180311705
 40
0.6320520469
 40
0.6457144319
 40
0.6590293473
 40
0.6720115124
 40
0.6846794971
 40
0.6909033314
 40
0.697057404
 40
0.7031451517
 40
0.7091702544
 40
0.7151366353
 40
0.7210484458
 40
0.7269100663
 40
0.7327260841
 40
0.7385012903
 40
0.7442406538
 40
0.7499493111
 40
0.7556325398
 40
0.7612957399
 40
0.7669444073
 40
0.7725841089
 40
0.7782204559
 40
0.7838590758
 40
0.7895055848
 40
0.7951655609
 40
0.8008445151
 40
0.8065478685
 40
0.8122809232
 40
0.8180488453
 40
0.823856637
 40
0.8297091248
 40
0.835610937
 40
0.8415664934
 40
0.8475799922
 40
0.8536553987
 40
0.8597964427
 40
0.8660066052
 40
0.8722891264
 40
0.8786469895
 40
0.8850829374
 40
0.8915994566
 40
0.8981987962
 40
0.904882957
 40
0.9116537073
 40
0.91851258
 40
0.925460882
 40
0.9324997015
 40
0.9396299078
 40
0.9468521692
 40
0.9541669445
 40
0.9615745079
 40
0.9690749361
 40
0.9766681351
 40
0.9843538281
 40
1.0
 40
1.0
 40
1.0
 40
1.0
 10
14.9675174626
 20
13.0156967929
 30
0.0
 10
14.9848509728
 20
13.0156967929
 30
0.0
 10
15.0197527031
 20
13.0151734694
 30
0.0
 10
15.0723874327
 20
13.0128590443
 30
0.0
 10
15.1255721378
 20
13.009014211
 30
0.0
 10
15.1792028329
 20
13.003646429
 30
0.0
 10
15.2331753467
 20
12.9967661667
 30
0.0
 10
15.2873846741
 20
12.9883868011
 30
0.0
 10
15.3417253767
 20
12.9785246386
 30
0.0
 10
15.3960917424
 20
12.9671988639
 30
0.0
 10
15.4503780053
 20
12.9544315114
 30
0.0
 10
15.5044785497
 20
12.94024742
 30
0.0
 10
15.558288118
 20
12.9246741855
 30
0.0
 10
15.6117020169
 20
12.9077421072
 30
0.0
 10
15.6646163226
 20
12.8894841282
 30
0.0
 10
15.7169280845
 20
12.8699357717
 30
0.0
 10
15.7685355272
 20
12.849135071
 30
0.0
 10
15.8193382494
 20
12.8271224936
 30
0.0
 10
15.8692374204
 20
12.8039408618
 30
0.0
 10
15.9181359736
 20
12.7796352677
 30
0.0
 10
15.9659387961
 20
12.7542529839
 30
0.0
 10
16.0125529148
 20
12.7278433691
 30
0.0
 10
16.0578876777
 20
12.7004577703
 30
0.0
 10
16.1018549307
 20
12.672149419
 30
0.0
 10
16.1443691888
 20
12.6429733253
 30
0.0
 10
16.1853478023
 20
12.6129861662
 30
0.0
 10
16.2247111159
 20
12.582246171
 30
0.0
 10
16.2623826224
 20
12.5508130036
 30
0.0
 10
16.2982891078
 20
12.5187476406
 30
0.0
 10
16.3323607887
 20
12.4861122459
 30
0.0
 10
16.3645314404
 20
12.4529700439
 30
0.0
 10
16.3947385163
 20
12.41938519
 30
0.0
 10
16.4229232567
 20
12.3854226402
 30
0.0
 10
16.4490307868
 20
12.351148022
 30
0.0
 10
16.4730102026
 20
12.3166275024
 30
0.0
 10
16.4948146436
 20
12.2819276735
 30
0.0
 10
16.5144013624
 20
12.2471153976
 30
0.0
 10
16.5317317469
 20
12.2122578274
 30
0.0
 10
16.5467714718
 20
12.1774218431
 30
0.0
 10
16.5594901499
 20
12.1426756462
 30
0.0
 10
16.5681845374
 20
12.1136796393
 30
0.0
 10
16.5739317629
 20
12.0906110426
 30
0.0
 10
16.5776232694
 20
12.0734757465
 30
0.0
 10
16.5807189876
 20
12.0564145622
 30
0.0
 10
16.5832173877
 20
12.0394356229
 30
0.0
 10
16.5851172353
 20
12.0225472669
 30
0.0
 10
16.5864174879
 20
12.0057577191
 30
0.0
 10
16.5871175449
 20
11.9890751963
 30
0.0
 10
16.5872169208
 20
11.9725078528
 30
0.0
 10
16.5867156213
 20
11.9560638039
 30
0.0
 10
16.5856137534
 20
11.9397511099
 30
0.0
 10
16.5839119057
 20
11.9235777691
 30
0.0
 10
16.5816108093
 20
11.9075517267
 30
0.0
 10
16.5787116166
 20
11.8916808498
 30
0.0
 10
16.5752157033
 20
11.8759729415
 30
0.0
 10
16.5711247746
 20
11.8604357249
 30
0.0
 10
16.5664408558
 20
11.8450768311
 30
0.0
 10
16.5611662034
 20
11.8299038251
 30
0.0
 10
16.5553034808
 20
11.8149241385
 30
0.0
 10
16.5488555024
 20
11.8001451601
 30
0.0
 10
16.5418255432
 20
11.7855741018
 30
0.0
 10
16.534216988
 20
11.7712181521
 30
0.0
 10
16.526033687
 20
11.7570842936
 30
0.0
 10
16.5172796087
 20
11.7431794851
 30
0.0
 10
16.5079591415
 20
11.7295104792
 30
0.0
 10
16.498076842
 20
11.716083976
 30
0.0
 10
16.4876376104
 20
11.7029064995
 30
0.0
 10
16.4766465831
 20
11.6899844676
 30
0.0
 10
16.4651091572
 20
11.677324175
 30
0.0
 10
16.4530310312
 20
11.6649317424
 30
0.0
 10
16.4404180937
 20
11.6528132274
 30
0.0
 10
16.4272765798
 20
11.6409744493
 30
0.0
 10
16.4136128714
 20
11.6294212121
 30
0.0
 10
16.3994337115
 20
11.6181590389
 30
0.0
 10
16.3847459791
 20
11.6071934553
 30
0.0
 10
16.3695568968
 20
11.5965297008
 30
0.0
 10
16.3538738416
 20
11.5861729939
 30
0.0
 10
16.3377044926
 20
11.5761283013
 30
0.0
 10
16.321056718
 20
11.5664005114
 30
0.0
 10
16.3039386379
 20
11.5569943214
 30
0.0
 10
16.2863585963
 20
11.547914274
 30
0.0
 10
16.2683251442
 20
11.5391647916
 30
0.0
 10
16.2498470813
 20
11.5307500652
 30
0.0
 10
16.2309333804
 20
11.5226742272
 30
0.0
 10
16.2115932761
 20
11.5149411208
 30
0.0
 10
16.1918361443
 20
11.5075545622
 30
0.0
 10
16.1716716707
 20
11.5005180711
 30
0.0
 10
16.1511094683
 20
11.4938350672
 30
0.0
 10
16.123011009
 20
11.48535008
 30
0.0
 10
16.1016175938
 20
11.4796045815
 30
0.0
 10
16.0872047349
 20
11.4760306603
 30
0.0
  0
SPLINE
  5
498
100
AcDbEntity
  8
LAYER_FEATURE
100
AcDbSpline
 62
7
  6
CONTINUOUS
 70
0
 71
3
 72
71
 73
67
 74
0
 42
0.0000001
 43
0.0000001
 44
0.0000000001
 40
0.0
 40
0.0
 40
0.0
 40
0.0
 40
0.0205563271
 40
0.0409079471
 40
0.0610453067
 40
0.0809607077
 40
0.1006463097
 40
0.120094834
 40
0.1392995874
 40
0.1582543938
 40
0.1769536846
 40
0.1953925149
 40
0.2135665955
 40
0.2314723462
 40
0.2491069248
 40
0.2664682617
 40
0.283555113
 40
0.3003671032
 40
0.3169047574
 40
0.333169551
 40
0.3491639638
 40
0.3648915108
 40
0.3803567836
 40
0.3955655038
 40
0.4105245524
 40
0.4252419953
 40
0.4397271195
 40
0.4539904525
 40
0.4680437606
 40
0.4819000496
 40
0.4955735552
 40
0.5090797008
 40
0.5224350463
 40
0.5356572262
 40
0.5487648566
 40
0.5617774236
 40
0.5747151593
 40
0.587598898
 40
0.6004499133
 40
0.6132897495
 40
0.6261400442
 40
0.6390223477
 40
0.6519579466
 40
0.6649676909
 40
0.6780718346
 40
0.6912898933
 40
0.7046405136
 40
0.7181413607
 40
0.7318090345
 40
0.7456589998
 40
0.7597055267
 40
0.7739616636
 40
0.7884392234
 40
0.8031487708
 40
0.8180996304
 40
0.8332999147
 40
0.848756544
 40
0.8644752706
 40
0.8804607277
 40
0.8967164702
 40
0.9132450038
 40
0.9300478373
 40
0.9471255335
 40
0.9644777423
 40
0.9821032432
 40
1.0
 40
1.0
 40
1.0
 40
1.0
 10
14.9675174626
 20
13.0156967929
 30
0.0
 10
14.9563900724
 20
13.0156967929
 30
0.0
 10
14.934245467
 20
13.0154835636
 30
0.0
 10
14.9012130512
 20
13.0145135686
 30
0.0
 10
14.8685531887
 20
13.0128956683
 30
0.0
 10
14.836293133
 20
13.0106312546
 30
0.0
 10
14.8044591319
 20
13.0077221472
 30
0.0
 10
14.7730773933
 20
13.00417074
 30
0.0
 10
14.7421736922
 20
12.9999799366
 30
0.0
 10
14.7117733971
 20
12.9951531454
 30
0.0
 10
14.6819014692
 20
12.9896943366
 30
0.0
 10
14.6525824335
 20
12.9836079712
 30
0.0
 10
14.6238403661
 20
12.9768989983
 30
0.0
 10
14.5956988587
 20
12.9695729167
 30
0.0
 10
14.5681810096
 20
12.9616357162
 30
0.0
 10
14.5413094158
 20
12.9530938535
 30
0.0
 10
14.515106138
 20
12.9439542975
 30
0.0
 10
14.4895926816
 20
12.9342245182
 30
0.0
 10
14.4647900009
 20
12.9239124334
 30
0.0
 10
14.4407184756
 20
12.9130264241
 30
0.0
 10
14.4173978714
 20
12.9015753759
 30
0.0
 10
14.3948473553
 20
12.8895686067
 30
0.0
 10
14.3730854886
 20
12.877015858
 30
0.0
 10
14.3521301751
 20
12.8639273533
 30
0.0
 10
14.3319986705
 20
12.8503137459
 30
0.0
 10
14.312707594
 20
12.8361860878
 30
0.0
 10
14.294272886
 20
12.8215558677
 30
0.0
 10
14.2767097839
 20
12.8064350141
 30
0.0
 10
14.2600328553
 20
12.7908358377
 30
0.0
 10
14.2442559787
 20
12.7747710443
 30
0.0
 10
14.2293922757
 20
12.7582537806
 30
0.0
 10
14.215454155
 20
12.7412975693
 30
0.0
 10
14.2024533135
 20
12.723916303
 30
0.0
 10
14.1904006541
 20
12.7061242889
 30
0.0
 10
14.1793062984
 20
12.6879362111
 30
0.0
 10
14.1691796141
 20
12.6693670995
 30
0.0
 10
14.1600291544
 20
12.6504323477
 30
0.0
 10
14.1518626069
 20
12.6311477087
 30
0.0
 10
14.1446868539
 20
12.6115292398
 30
0.0
 10
14.1385079501
 20
12.5915932966
 30
0.0
 10
14.1333310262
 20
12.5713565356
 30
0.0
 10
14.1291603616
 20
12.5508358589
 30
0.0
 10
14.1259994002
 20
12.5300483945
 30
0.0
 10
14.1238506704
 20
12.5090114881
 30
0.0
 10
14.1227158117
 20
12.4877426676
 30
0.0
 10
14.1225956388
 20
12.466259619
 30
0.0
 10
14.123490105
 20
12.444580176
 30
0.0
 10
14.1253982604
 20
12.422722296
 30
0.0
 10
14.1283183488
 20
12.4007040447
 30
0.0
 10
14.1322478076
 20
12.3785435912
 30
0.0
 10
14.1371831919
 20
12.356259182
 30
0.0
 10
14.1431202541
 20
12.3338691357
 30
0.0
 10
14.1500539731
 20
12.3113918429
 30
0.0
 10
14.1579784956
 20
12.2888457411
 30
0.0
 10
14.1668871506
 20
12.2662493007
 30
0.0
 10
14.1767725119
 20
12.2436210329
 30
0.0
 10
14.1876263726
 20
12.2209794733
 30
0.0
 10
14.1994397018
 20
12.1983431439
 30
0.0
 10
14.212202722
 20
12.175730571
 30
0.0
 10
14.2259049123
 20
12.1531602757
 30
0.0
 10
14.2405349519
 20
12.1306507262
 30
0.0
 10
14.2560807761
 20
12.1082203411
 30
0.0
 10
14.272529591
 20
12.0858875107
 30
0.0
 10
14.2898679062
 20
12.0636704832
 30
0.0
 10
14.3080812832
 20
12.0415876251
 30
0.0
 10
14.3207016341
 20
12.0270768204
 30
0.0
 10
14.3271507596
 20
12.0198476477
 30
0.0
  0
SPLINE
  5
499
100
AcDbEntity
  8
LAYER_FEATURE
100
AcDbSpline
 62
7
  6
CONTINUOUS
 70
0
 71
3
 72
78
 73
74
 74
0
 42
0.0000001
 43
0.0000001
 44
0.0000000001
 40
0.0
 40
0.0
 40
0.0
 40
0.0
 40
0.0171786494
 40
0.034530259
 40
0.052044083
 40
0.0697096926
 40
0.0875159169
 40
0.1054514052
 40
0.1235044838
 40
0.1416632229
 40
0.1599154662
 40
0.1782488551
 40
0.1966508594
 40
0.2151088034
 40
0.2336098939
 40
0.2521412485
 40
0.2706899221
 40
0.2892429336
 40
0.3077872924
 40
0.3263100264
 40
0.3447982082
 40
0.3632389822
 40
0.3816195916
 40
0.3999274055
 40
0.4181499471
 40
0.4362749223
 40
0.4542902467
 40
0.472184075
 40
0.4899448297
 40
0.5075612324
 40
0.5250223351
 40
0.5423175506
 40
0.5594366852
 40
0.5763699716
 40
0.5931081049
 40
0.60964228
 40
0.6259642276
 40
0.6420662527
 40
0.6579412756
 40
0.6735828743
 40
0.6889853316
 40
0.7041436801
 40
0.71905375
 40
0.7337122195
 40
0.748116668
 40
0.7622656323
 40
0.7761586636
 40
0.7897963834
 40
0.8031805416
 40
0.8163140755
 40
0.8292011685
 40
0.8418473065
 40
0.8542593269
 40
0.8603804056
 40
0.8664461623
 40
0.8784160809
 40
0.8901809052
 40
0.8959906881
 40
0.901754044
 40
0.9131479177
 40
0.9243788243
 40
0.9354636208
 40
0.9464204585
 40
0.9518573841
 40
0.9572696635
 40
0.9626598748
 40
0.9680306504
 40
0.9733846742
 40
0.9787246697
 40
0.9840533993
 40
0.9893736532
 40
0.9946882442
 40
1.0
 40
1.0
 40
1.0
 40
1.0
 10
14.9170949865
 20
13.0584465041
 30
0.0
 10
14.9310211268
 20
13.0584465041
 30
0.0
 10
14.9590145141
 20
13.0581400761
 30
0.0
 10
15.0011858614
 20
13.0567785423
 30
0.0
 10
15.0437138211
 20
13.054514065
 30
0.0
 10
15.0865536784
 20
13.051349093
 30
0.0
 10
15.1296610845
 20
13.0472868619
 30
0.0
 10
15.1729910898
 20
13.0423316229
 30
0.0
 10
15.2164986217
 20
13.0364885285
 30
0.0
 10
15.2601383914
 20
13.0297636676
 30
0.0
 10
15.3038649761
 20
13.0221640419
 30
0.0
 10
15.3476328619
 20
13.0136975604
 30
0.0
 10
15.3913964887
 20
13.0043730316
 30
0.0
 10
15.4351103002
 20
12.9942001604
 30
0.0
 10
15.4787287928
 20
12.9831895423
 30
0.0
 10
15.5222065608
 20
12.9713526405
 30
0.0
 10
15.5654983445
 20
12.9587017767
 30
0.0
 10
15.6085590765
 20
12.945250117
 30
0.0
 10
15.651343929
 20
12.9310116601
 30
0.0
 10
15.6938083647
 20
12.9160012337
 30
0.0
 10
15.7359081799
 20
12.9002344658
 30
0.0
 10
15.77759955
 20
12.8837277695
 30
0.0
 10
15.8188390751
 20
12.8664983256
 30
0.0
 10
15.8595838243
 20
12.8485640636
 30
0.0
 10
15.8997913867
 20
12.8299436543
 30
0.0
 10
15.9394199128
 20
12.810656483
 30
0.0
 10
15.9784281556
 20
12.7907226243
 30
0.0
 10
16.0167755137
 20
12.7701628239
 30
0.0
 10
16.054422072
 20
12.7489984737
 30
0.0
 10
16.0913286493
 20
12.7272515973
 30
0.0
 10
16.1274568404
 20
12.7049448278
 30
0.0
 10
16.1627690499
 20
12.6821013744
 30
0.0
 10
16.1972285315
 20
12.6587450007
 30
0.0
 10
16.2307994249
 20
12.6348999987
 30
0.0
 10
16.2634467961
 20
12.6105911642
 30
0.0
 10
16.295136681
 20
12.5858437795
 30
0.0
 10
16.3258361115
 20
12.5606835746
 30
0.0
 10
16.3555131485
 20
12.5351367016
 30
0.0
 10
16.3841369142
 20
12.5092297078
 30
0.0
 10
16.4116776229
 20
12.4829895042
 30
0.0
 10
16.4381066236
 20
12.4564433485
 30
0.0
 10
16.4633964205
 20
12.4296188066
 30
0.0
 10
16.4875206962
 20
12.4025437223
 30
0.0
 10
16.5104543373
 20
12.3752461893
 30
0.0
 10
16.5321734569
 20
12.3477545192
 30
0.0
 10
16.552655428
 20
12.3200972186
 30
0.0
 10
16.5718789043
 20
12.292302958
 30
0.0
 10
16.5898238279
 20
12.264400539
 30
0.0
 10
16.6064714516
 20
12.2364188583
 30
0.0
 10
16.6218043375
 20
12.2083869202
 30
0.0
 10
16.635806433
 20
12.1803336567
 30
0.0
 10
16.6484628896
 20
12.1522884689
 30
0.0
 10
16.6579209955
 20
12.1288403387
 30
0.0
 10
16.664791466
 20
12.1101183958
 30
0.0
 10
16.6711431705
 20
12.0915926739
 30
0.0
 10
16.6782326021
 20
12.0684893551
 30
0.0
 10
16.6842195565
 20
12.0452896238
 30
0.0
 10
16.6882997861
 20
12.026813937
 30
0.0
 10
16.6918822557
 20
12.0085417709
 30
0.0
 10
16.6954945269
 20
11.9858036928
 30
0.0
 10
16.698435984
 20
11.9586237533
 30
0.0
 10
16.6999643434
 20
11.9316823688
 30
0.0
 10
16.7000588082
 20
11.9093952233
 30
0.0
 10
16.6994218768
 20
11.8917275151
 30
0.0
 10
16.6985921186
 20
11.8785872628
 30
0.0
 10
16.6974092788
 20
11.8655279914
 30
0.0
 10
16.6958736199
 20
11.8525530068
 30
0.0
 10
16.693985608
 20
11.8396657253
 30
0.0
 10
16.6917456535
 20
11.8268695183
 30
0.0
 10
16.6891543943
 20
11.8141677381
 30
0.0
 10
16.6862124808
 20
11.8015636744
 30
0.0
 10
16.6829206882
 20
11.7890607641
 30
0.0
 10
16.6804932065
 20
11.7807940411
 30
0.0
 10
16.6792218559
 20
11.7766799432
 30
0.0
  0
ENDSEC
  0
SECTION
  2
OBJECTS
  0
DICTIONARY
  5
C
100
AcDbDictionary
280
0
281
1
  3
ACAD_GROUP
350
D
  3
ACAD_MLINESTYLE
350
17
  3
ACAD_LAYOUT
350
1A
  3
ACAD_PLOTSETTINGS
350
19
  3
ACAD_PLOTSTYLENAME
350
E
  0
DICTIONARY
  5
D
102
{ACAD_REACTORS
330
C
102
}
100
AcDbDictionary
280
0
281
1
  0
ACDBDICTIONARYWDFLT
  5
E
102
{ACAD_REACTORS
330
C
102
}
100
AcDbDictionary
281
1
  3
Normal
350
F
100
AcDbDictionaryWithDefault
340
F
  0
DICTIONARY
  5
17
102
{ACAD_REACTORS
330
C
102
}
100
AcDbDictionary
280
0
281
1
  3
Standard
350
18
  0
DICTIONARY
  5
19
102
{ACAD_REACTORS
330
C
102
}
100
AcDbDictionary
281
1
  0
DICTIONARY
  5
1A
102
{ACAD_REACTORS
330
C
102
}
100
AcDbDictionary
281
1
  3
Model
350
49A
  3
Layout1
350
49B
  0
ACDBPLACEHOLDER
  5
F
102
{ACAD_REACTORS
330
E
102
}
  0
MLINESTYLE
  5
18
102
{ACAD_REACTORS
330
17
102
}
100
AcDbMlineStyle
  2
STANDARD
 70
0
  3

 62
256
 51
90.0
 52
90.0
 71
2
 49
0.5
 62
256
  6
BYLAYER
 49
-0.5
 62
256
  6
BYLAYER
  0
LAYOUT
  5
49A
102
{ACAD_REACTORS
330
1A
102
}
100
AcDbPlotSettings
  1

  2
none_device
  4
ANSI_C_(22.00_x_17.00_Inches)
  6

 40
0.0
 41
0.0
 42
0.0
 43
0.0
 44
558.8
 45
431.8
 46
0.0
 47
0.0
 48
0.0
 49
0.0
140
0.0
141
0.0
142
1.0
143
1.0
 70
1024
 72
0
 73
0
 74
0
  7

 75
0
147
1.0
148
0.0
149
0.0
100
AcDbLayout
  1
Model
 70
0
 71
0
 10
0.0
 20
0.0
 11
22.0
 21
17.0
 12
0.0
 22
0.0
 32
0.0
 14
0.0
 24
0.0
 34
0.0
 15
0.0
 25
0.0
 35
0.0
146
0.0
 13
0.0
 23
0.0
 33
0.0
 16
1.0
 26
0.0
 36
0.0
 17
0.0
 27
1.0
 37
0.0
 76
0
330
222
345
0
346
0
  0
LAYOUT
  5
49B
102
{ACAD_REACTORS
330
1A
102
}
100
AcDbPlotSettings
  1

  2
none_device
  4
ANSI_C_(22.00_x_17.00_Inches)
  6

 40
0.0
 41
0.0
 42
0.0
 43
0.0
 44
558.8
 45
431.8
 46
0.0
 47
0.0
 48
0.0
 49
0.0
140
0.0
141
0.0
142
1.0
143
1.0
 70
0
 72
0
 73
0
 74
0
  7

 75
0
147
1.0
148
0.0
149
0.0
100
AcDbLayout
  1
Layout1
 70
0
 71
1
 10
0.0
 20
0.0
 11
22.0
 21
17.0
 12
0.0
 22
0.0
 32
0.0
 14
0.0
 24
0.0
 34
0.0
 15
0.0
 25
0.0
 35
0.0
146
0.0
 13
0.0
 23
0.0
 33
0.0
 16
1.0
 26
0.0
 36
0.0
 17
0.0
 27
1.0
 37
0.0
 76
0
330
223
345
0
346
0
  0
ENDSEC
  0
EOF