999
DXF file: _cgs_temp_output.dxf
999
Pro/ENGINEER 2016360 by Parametric Technology Corporation
  0
SECTION
  2
HEADER
  9
$ACADVER
  1
AC1021
  9
$DWGCODEPAGE
  3
ANSI_1252
  9
$EXTMAX
 10
22.0
 20
17.0
 30
0.0
  9
$EXTMIN
 10
0.0
 20
0.0
 30
0.0
  9
$LIMMIN
 10
0.0
 20
0.0
  9
$LIMMAX
 10
22.0
 20
17.0
  9
$VIEWCTR
 10
11.0
 20
8.5
  9
$VIEWSIZE
 40
17.0
  9
$CLAYER
  8
0
  9
$LTSCALE
 40
1.21
  9
$CELTYPE
  6
BYLAYER
  9
$DIMSCALE
 40
1.0
  9
$DIMASZ
 40
0.1875
  9
$DIMEXO
 40
0.0625
  9
$DIMDLI
 40
0.836
  9
$DIMEXE
 40
0.125
  9
$DIMCEN
 40
0.198
  9
$DIMLFAC
 40
1.0
  9
$DIMBLK
  1
_CLOSED
  9
$DIMALT
 70
0
  9
$DIMALTF
 40
25.4
  9
$DIMTXT
 40
0.15625
  9
$DIMTOL
 70
0
  9
$DIMLIM
 70
0
  9
$DIMTFAC
 40
1.0
  9
$DIMGAP
 40
0.09
  9
$DIMDSEP
 70
46
  9
$AUNITS
 70
0
  9
$PDMODE
 70
3
  9
$PDSIZE
 40
0.3125
  9
$HANDSEED
  5
35F
  9
$TILEMODE
 70
1
  9
$MEASUREMENT
 70
0
  9
$INSUNITS
 70
1
  0
ENDSEC
  0
SECTION
  2
CLASSES
  0
CLASS
  1
ACDBDICTIONARYWDFLT
  2
AcDbDictionaryWithDefault
  3
AutoCAD 2000
 90
0
 91
1
280
0
281
0
  0
CLASS
  1
ACDBPLACEHOLDER
  2
AcDbPlaceHolder
  3
AutoCAD 2000
 90
0
 91
1
280
0
281
0
  0
CLASS
  1
LAYOUT
  2
AcDbLayout
  3
AutoCAD 2000
 90
0
 91
0
280
0
281
0
  0
ENDSEC
  0
SECTION
  2
TABLES
  0
TABLE
  2
VPORT
  5
8
100
AcDbSymbolTable
 70
2
  0
VPORT
  5
1F4
100
AcDbSymbolTableRecord
100
AcDbViewportTableRecord
  2
*ACTIVE
 70
0
 10
0.0
 20
0.0
 11
1.0
 21
1.0
 12
11.0
 22
8.5
 13
0.0
 23
0.0
 14
1.0
 24
1.0
 15
0.0
 25
0.0
 16
0.0
 26
0.0
 36
1.0
 17
0.0
 27
0.0
 37
0.0
 40
17.0
 41
1.2941176471
 42
50.0
 43
0.0
 44
0.0
 50
0.0
 51
0.0
 71
0
 72
100
 73
1
 74
1
 75
0
 76
0
 77
0
 78
0
  0
ENDTAB
  0
TABLE
  2
LTYPE
  5
5
100
AcDbSymbolTable
 70
6
  0
LTYPE
  5
14
100
AcDbSymbolTableRecord
100
AcDbLinetypeTableRecord
  2
BYBLOCK
 70
0
  3

 72
65
 73
0
 40
0.0
  0
LTYPE
  5
15
100
AcDbSymbolTableRecord
100
AcDbLinetypeTableRecord
  2
BYLAYER
 70
0
  3

 72
65
 73
0
 40
0.0
  0
LTYPE
  5
16
100
AcDbSymbolTableRecord
100
AcDbLinetypeTableRecord
  2
CONTINUOUS
 70
64
  3
Solid line
 72
65
 73
0
 40
0.0
  0
LTYPE
  5
1F5
100
AcDbSymbolTableRecord
100
AcDbLinetypeTableRecord
  2
CENTER
 70
64
  3
____ _ ____ _ ____ _ ____ _ ____ _ ____ _ ____
 72
65
 73
4
 40
0.6
 49
0.375
 74
0
 49
-0.075
 74
0
 49
0.075
 74
0
 49
-0.075
 74
0
  0
LTYPE
  5
1F6
100
AcDbSymbolTableRecord
100
AcDbLinetypeTableRecord
  2
HIDDEN
 70
64
  3
- - - - - - - - - - - - - - - - - - - -
 72
65
 73
2
 40
0.2
 49
0.1
 74
0
 49
-0.1
 74
0
  0
LTYPE
  5
1F7
100
AcDbSymbolTableRecord
100
AcDbLinetypeTableRecord
  2
PHANTOM
 70
64
  3
_____ _ _ _____ _ _ _____ _ _ _____
 72
65
 73
6
 40
0.8
 49
0.45
 74
0
 49
-0.05
 74
0
 49
0.1
 74
0
 49
-0.05
 74
0
 49
0.1
 74
0
 49
-0.05
 74
0
  0
LTYPE
  5
1F8
100
AcDbSymbolTableRecord
100
AcDbLinetypeTableRecord
  2
DOT
 70
64
  3
. . . . . . . . . . . . . . . . . . . .
 72
65
 73
2
 40
0.2
 49
0.1
 74
0
 49
-0.1
 74
0
  0
LTYPE
  5
1F9
100
AcDbSymbolTableRecord
100
AcDbLinetypeTableRecord
  2
DASHED
 70
64
  3
- - - - - - - - - - - - - - - - - - - -
 72
65
 73
2
 40
0.2
 49
0.1
 74
0
 49
-0.1
 74
0
  0
ENDTAB
  0
TABLE
  2
LAYER
  5
2
100
AcDbSymbolTable
 70
36
  0
LAYER
  5
10
100
AcDbSymbolTableRecord
100
AcDbLayerTableRecord
  2
0
 70
0
 62
7
  6
CONTINUOUS
370
-3
390
F
  0
LAYER
  5
1FA
100
AcDbSymbolTableRecord
100
AcDbLayerTableRecord
  2
DEFAULT_1
 70
0
 62
7
  6
CENTER
370
-3
390
F
  0
LAYER
  5
1FB
100
AcDbSymbolTableRecord
100
AcDbLayerTableRecord
  2
DEFAULT_2
 70
0
 62
8
  6
HIDDEN
370
-3
390
F
  0
LAYER
  5
1FC
100
AcDbSymbolTableRecord
100
AcDbLayerTableRecord
  2
DEFAULT_3
 70
0
 62
7
  6
PHANTOM
370
-3
390
F
  0
LAYER
  5
1FD
100
AcDbSymbolTableRecord
100
AcDbLayerTableRecord
  2
01_ALL_DTM_PLN
 70
0
 62
7
  6
CONTINUOUS
370
-3
390
F
  0
LAYER
  5
1FE
100
AcDbSymbolTableRecord
100
AcDbLayerTableRecord
  2
01__ASM_ALL_DTM_PLN
 70
0
 62
7
  6
CONTINUOUS
370
-3
390
F
  0
LAYER
  5
1FF
100
AcDbSymbolTableRecord
100
AcDbLayerTableRecord
  2
01__ASM_DEF_DTM_PLN
 70
0
 62
7
  6
CONTINUOUS
370
-3
390
F
  0
LAYER
  5
200
100
AcDbSymbolTableRecord
100
AcDbLayerTableRecord
  2
01___PRT_ALL_DTM_PLN
 70
0
 62
7
  6
CONTINUOUS
370
-3
390
F
  0
LAYER
  5
201
100
AcDbSymbolTableRecord
100
AcDbLayerTableRecord
  2
01___PRT_DEF_DTM_PLN
 70
0
 62
7
  6
CONTINUOUS
370
-3
390
F
  0
LAYER
  5
202
100
AcDbSymbolTableRecord
100
AcDbLayerTableRecord
  2
02_ALL_AXES
 70
0
 62
7
  6
CONTINUOUS
370
-3
390
F
  0
LAYER
  5
203
100
AcDbSymbolTableRecord
100
AcDbLayerTableRecord
  2
02__ASM_ALL_AXES
 70
0
 62
7
  6
CONTINUOUS
370
-3
390
F
  0
LAYER
  5
204
100
AcDbSymbolTableRecord
100
AcDbLayerTableRecord
  2
02___PRT_ALL_AXES
 70
0
 62
7
  6
CONTINUOUS
370
-3
390
F
  0
LAYER
  5
205
100
AcDbSymbolTableRecord
100
AcDbLayerTableRecord
  2
03_ALL_CURVES
 70
0
 62
7
  6
CONTINUOUS
370
-3
390
F
  0
LAYER
  5
206
100
AcDbSymbolTableRecord
100
AcDbLayerTableRecord
  2
03__ASM_ALL_CURVES
 70
0
 62
7
  6
CONTINUOUS
370
-3
390
F
  0
LAYER
  5
207
100
AcDbSymbolTableRecord
100
AcDbLayerTableRecord
  2
03___PRT_ALL_CURVES
 70
0
 62
7
  6
CONTINUOUS
370
-3
390
F
  0
LAYER
  5
208
100
AcDbSymbolTableRecord
100
AcDbLayerTableRecord
  2
04_ALL_DTM_PNT
 70
0
 62
7
  6
CONTINUOUS
370
-3
390
F
  0
LAYER
  5
209
100
AcDbSymbolTableRecord
100
AcDbLayerTableRecord
  2
04__ASM_ALL_DTM_PNT
 70
0
 62
7
  6
CONTINUOUS
370
-3
390
F
  0
LAYER
  5
20A
100
AcDbSymbolTableRecord
100
AcDbLayerTableRecord
  2
04___PRT_ALL_DTM_PNT
 70
0
 62
7
  6
CONTINUOUS
370
-3
390
F
  0
LAYER
  5
20B
100
AcDbSymbolTableRecord
100
AcDbLayerTableRecord
  2
05_ALL_DTM_CSYS
 70
0
 62
7
  6
CONTINUOUS
370
-3
390
F
  0
LAYER
  5
20C
100
AcDbSymbolTableRecord
100
AcDbLayerTableRecord
  2
05__ASM_ALL_DTM_CSYS
 70
0
 62
7
  6
CONTINUOUS
370
-3
390
F
  0
LAYER
  5
20D
100
AcDbSymbolTableRecord
100
AcDbLayerTableRecord
  2
05__ASM_DEF_DTM_CSYS
 70
0
 62
7
  6
CONTINUOUS
370
-3
390
F
  0
LAYER
  5
20E
100
AcDbSymbolTableRecord
100
AcDbLayerTableRecord
  2
05___PRT_ALL_DTM_CSYS
 70
0
 62
7
  6
CONTINUOUS
370
-3
390
F
  0
LAYER
  5
20F
100
AcDbSymbolTableRecord
100
AcDbLayerTableRecord
  2
05___PRT_DEF_DTM_CSYS
 70
0
 62
7
  6
CONTINUOUS
370
-3
390
F
  0
LAYER
  5
210
100
AcDbSymbolTableRecord
100
AcDbLayerTableRecord
  2
06_ALL_SURFS
 70
0
 62
7
  6
CONTINUOUS
370
-3
390
F
  0
LAYER
  5
211
100
AcDbSymbolTableRecord
100
AcDbLayerTableRecord
  2
06__ASM_ALL_SURFS
 70
0
 62
7
  6
CONTINUOUS
370
-3
390
F
  0
LAYER
  5
212
100
AcDbSymbolTableRecord
100
AcDbLayerTableRecord
  2
06___PRT_ALL_SURFS
 70
0
 62
7
  6
CONTINUOUS
370
-3
390
F
  0
LAYER
  5
213
100
AcDbSymbolTableRecord
100
AcDbLayerTableRecord
  2
07__ASM_ALL_SKELETONS
 70
0
 62
7
  6
CONTINUOUS
370
-3
390
F
  0
LAYER
  5
214
100
AcDbSymbolTableRecord
100
AcDbLayerTableRecord
  2
LAYER_AXIS
 70
0
 62
7
  6
CONTINUOUS
370
-3
390
F
  0
LAYER
  5
215
100
AcDbSymbolTableRecord
100
AcDbLayerTableRecord
  2
LAYER_CHAMFER_FEAT
 70
0
 62
7
  6
CONTINUOUS
370
-3
390
F
  0
LAYER
  5
216
100
AcDbSymbolTableRecord
100
AcDbLayerTableRecord
  2
LAYER_CUT_FEAT
 70
0
 62
7
  6
CONTINUOUS
370
-3
390
F
  0
LAYER
  5
217
100
AcDbSymbolTableRecord
100
AcDbLayerTableRecord
  2
LAYER_DATUM
 70
0
 62
7
  6
CONTINUOUS
370
-3
390
F
  0
LAYER
  5
218
100
AcDbSymbolTableRecord
100
AcDbLayerTableRecord
  2
LAYER_DIM
 70
0
 62
7
  6
CONTINUOUS
370
-3
390
F
  0
LAYER
  5
219
100
AcDbSymbolTableRecord
100
AcDbLayerTableRecord
  2
LAYER_FEATURE
 70
0
 62
7
  6
CONTINUOUS
370
-3
390
F
  0
LAYER
  5
21A
100
AcDbSymbolTableRecord
100
AcDbLayerTableRecord
  2
LAYER_GEOM_FEAT
 70
0
 62
7
  6
CONTINUOUS
370
-3
390
F
  0
LAYER
  5
21B
100
AcDbSymbolTableRecord
100
AcDbLayerTableRecord
  2
LAYER_NOGEOM_FEAT
 70
0
 62
7
  6
CONTINUOUS
370
-3
390
F
  0
LAYER
  5
21C
100
AcDbSymbolTableRecord
100
AcDbLayerTableRecord
  2
LAYER_PARAMETER_DIM
 70
0
 62
7
  6
CONTINUOUS
370
-3
390
F
  0
LAYER
  5
21D
100
AcDbSymbolTableRecord
100
AcDbLayerTableRecord
  2
LAYER_PROTRUSION_FEAT
 70
0
 62
7
  6
CONTINUOUS
370
-3
390
F
  0
LAYER
  5
21E
100
AcDbSymbolTableRecord
100
AcDbLayerTableRecord
  2
LAYER_QUILT
 70
0
 62
7
  6
CONTINUOUS
370
-3
390
F
  0
LAYER
  5
21F
100
AcDbSymbolTableRecord
100
AcDbLayerTableRecord
  2
LAYER_ROUND_FEAT
 70
0
 62
7
  6
CONTINUOUS
370
-3
390
F
  0
ENDTAB
  0
TABLE
  2
STYLE
  5
3
100
AcDbSymbolTable
 70
1
  0
STYLE
  5
11
100
AcDbSymbolTableRecord
100
AcDbTextStyleTableRecord
  2
STANDARD
 70
0
 40
0.0
 41
0.8
 50
0.0
 71
0
 42
0.2
  3
txt
  4

  0
STYLE
  5
220
100
AcDbSymbolTableRecord
100
AcDbTextStyleTableRecord
  2
TEXTSTYLE_1
 70
0
 40
0.0
 41
0.8
 50
0.0
 71
0
 42
0.2
  3
gdt
  4

  0
ENDTAB
  0
TABLE
  2
VIEW
  5
6
100
AcDbSymbolTable
 70
0
  0
ENDTAB
  0
TABLE
  2
UCS
  5
7
100
AcDbSymbolTable
 70
0
  0
ENDTAB
  0
TABLE
  2
APPID
  5
9
100
AcDbSymbolTable
 70
1
  0
APPID
  5
221
100
AcDbSymbolTableRecord
100
AcDbRegAppTableRecord
  2
ACAD
 70
0
  0
ENDTAB
  0
TABLE
  2
BLOCK_RECORD
  5
1
100
AcDbSymbolTable
 70
0
  0
BLOCK_RECORD
  5
222
100
AcDbSymbolTableRecord
100
AcDbBlockTableRecord
  2
*Model_Space
  0
BLOCK_RECORD
  5
223
100
AcDbSymbolTableRecord
100
AcDbBlockTableRecord
  2
*Paper_Space
  0
ENDTAB
  0
TABLE
  2
DIMSTYLE
  5
A
100
AcDbSymbolTable
 70
1
100
AcDbDimStyleTable
 71
0
  0
DIMSTYLE
105
224
100
AcDbSymbolTableRecord
100
AcDbDimStyleTableRecord
  2
STANDARD
 70
0
  3

  4

 40
1.0
 41
0.1875
 42
0.0625
 43
0.38
 44
0.125
 45
0.0
 46
0.0
 47
0.0001
 48
0.0001
140
0.15625
141
0.09
142
0.0
143
25.4
144
1.0
145
0.0
146
1.0
147
0.09
 71
0.0
 72
0.0
 73
1
 74
1
 75
0
 76
0
 77
0
 78
4
 79
1
170
0
171
3
172
0
173
0
174
0
175
0
176
0
177
0
178
0
270
2
179
4
271
4
272
4
273
2
274
2
275
0
280
0
281
0
282
0
283
1
284
4
285
0
286
0
287
3
288
0
340
11
278
46
  0
ENDTAB
  0
ENDSEC
  0
SECTION
  2
BLOCKS
  0
BLOCK
  5
20
100
AcDbEntity
  8
0
100
AcDbBlockBegin
  2
*Model_Space
 70
0
 10
0.0
 20
0.0
 30
0.0
  3
*Model_Space
  1

  0
ENDBLK
  5
21
100
AcDbEntity
  8
0
100
AcDbBlockEnd
  0
BLOCK
  5
1C
100
AcDbEntity
  8
0
100
AcDbBlockBegin
  2
*Paper_Space
 70
0
 10
0.0
 20
0.0
 30
0.0
  3
*Paper_Space
  1

  0
ENDBLK
  5
1D
100
AcDbEntity
  8
0
100
AcDbBlockEnd
  0
ENDSEC
  0
SECTION
  2
ENTITIES
  0
MTEXT
  5
225
100
AcDbEntity
  8
0
100
AcDbMText
 62
7
  6
CONTINUOUS
  7
STANDARD
 71
1
 72
1
 10
15.9560215477
 20
0.9479130325
 30
0.0
 11
1.0
 21
0.0
 31
0.0
 44
0.9
  1
SCALE: 1:2.000
 40
0.3
 41
3.36
  0
LINE
  5
226
100
AcDbEntity
  8
0
100
AcDbLine
 62
7
  6
CONTINUOUS
 10
0.0
 20
0.0
 11
0.0
 21
17.0
  0
LINE
  5
227
100
AcDbEntity
  8
0
100
AcDbLine
 62
7
  6
CONTINUOUS
 10
0.0
 20
0.0
 11
22.0
 21
0.0
  0
LINE
  5
228
100
AcDbEntity
  8
0
100
AcDbLine
 62
7
  6
CONTINUOUS
 10
0.0
 20
17.0
 11
22.0
 21
17.0
  0
LINE
  5
229
100
AcDbEntity
  8
0
100
AcDbLine
 62
7
  6
CONTINUOUS
 10
22.0
 20
0.0
 11
22.0
 21
17.0
  0
LINE
  5
22A
100
AcDbEntity
  8
LAYER_FEATURE
100
AcDbLine
 62
7
  6
CONTINUOUS
 10
5.9991672762
 20
6.1451198968
 11
5.9809836381
 21
6.1269362587
  0
LINE
  5
22B
100
AcDbEntity
  8
LAYER_FEATURE
100
AcDbLine
 62
7
  6
CONTINUOUS
 10
6.7553672762
 20
5.3889198968
 11
6.7371836381
 21
5.3707362587
  0
LINE
  5
22C
100
AcDbEntity
  8
LAYER_FEATURE
100
AcDbLine
 62
7
  6
CONTINUOUS
 10
6.2615672762
 20
6.1451198968
 11
6.2797509142
 21
6.1269362587
  0
LINE
  5
22D
100
AcDbEntity
  8
LAYER_FEATURE
100
AcDbLine
 62
7
  6
CONTINUOUS
 10
6.7553672762
 20
5.6513198968
 11
6.7371836381
 21
5.6695035348
  0
LINE
  5
22E
100
AcDbEntity
  8
LAYER_FEATURE
100
AcDbLine
 62
7
  6
CONTINUOUS
 10
6.7553672762
 20
5.6513198968
 11
6.7553672762
 21
5.3889198968
  0
LINE
  5
22F
100
AcDbEntity
  8
LAYER_FEATURE
100
AcDbLine
 62
7
  6
CONTINUOUS
 10
5.9991672762
 20
6.1451198968
 11
6.2615672762
 21
6.1451198968
  0
LINE
  5
230
100
AcDbEntity
  8
LAYER_FEATURE
100
AcDbLine
 62
7
  6
CONTINUOUS
 10
5.0468720839
 20
12.1730477814
 11
5.0468720839
 21
12.2370477814
  0
LINE
  5
231
100
AcDbEntity
  8
LAYER_FEATURE
100
AcDbLine
 62
7
  6
CONTINUOUS
 10
5.0468720839
 20
13.5930477814
 11
5.0468720839
 21
13.6570477814
  0
LINE
  5
232
100
AcDbEntity
  8
02___PRT_ALL_AXES
100
AcDbLine
 62
7
  6
CONTINUOUS
 10
5.4458720839
 20
11.5430477814
 11
6.6958720839
 21
11.5430477814
  0
LINE
  5
233
100
AcDbEntity
  8
LAYER_FEATURE
100
AcDbLine
 62
7
  6
CONTINUOUS
 10
5.2031882651
 20
12.2790477814
 11
5.2031882651
 21
13.5510477814
  0
LINE
  5
234
100
AcDbEntity
  8
LAYER_FEATURE
100
AcDbLine
 62
7
  6
CONTINUOUS
 10
5.2103263555
 20
12.2790477814
 11
5.2103263555
 21
13.5510477814
  0
LINE
  5
235
100
AcDbEntity
  8
LAYER_FEATURE
100
AcDbLine
 62
7
  6
CONTINUOUS
 10
5.2551813931
 20
12.2790477814
 11
5.2551813931
 21
13.5510477814
  0
LINE
  5
236
100
AcDbEntity
  8
LAYER_FEATURE
100
AcDbLine
 62
7
  6
CONTINUOUS
 10
5.2761092151
 20
12.2790477814
 11
5.2761092151
 21
13.5510477814
  0
LINE
  5
237
100
AcDbEntity
  8
LAYER_CUT_FEAT
100
AcDbLine
 62
7
  6
CONTINUOUS
 10
6.0235293618
 20
11.7760477814
 11
6.1182148059
 21
11.7760477814
  0
LINE
  5
238
100
AcDbEntity
  8
LAYER_FEATURE
100
AcDbLine
 62
7
  6
CONTINUOUS
 10
5.3627624936
 20
12.2790477814
 11
5.3627624936
 21
13.5510477814
  0
LINE
  5
239
100
AcDbEntity
  8
LAYER_FEATURE
100
AcDbLine
 62
7
  6
CONTINUOUS
 10
5.3960538508
 20
12.2790477814
 11
5.3960538508
 21
13.5510477814
  0
LINE
  5
23A
100
AcDbEntity
  8
02___PRT_ALL_AXES
100
AcDbLine
 62
7
  6
CONTINUOUS
 10
5.4458720839
 20
11.5430477814
 11
5.4458720839
 21
12.1730477814
  0
LINE
  5
23B
100
AcDbEntity
  8
LAYER_CUT_FEAT
100
AcDbLine
 62
7
  6
CONTINUOUS
 10
6.1182148059
 20
11.9400477814
 11
6.0235293618
 21
11.9400477814
  0
LINE
  5
23C
100
AcDbEntity
  8
LAYER_CUT_FEAT
100
AcDbLine
 62
7
  6
CONTINUOUS
 10
5.5185293659
 20
13.5510477814
 11
5.5185293659
 21
12.2790477814
  0
LINE
  5
23D
100
AcDbEntity
  8
LAYER_FEATURE
100
AcDbLine
 62
7
  6
CONTINUOUS
 10
5.5186000926
 20
12.2790477814
 11
5.5186000926
 21
13.5510477814
  0
LINE
  5
23E
100
AcDbEntity
  8
LAYER_FEATURE
100
AcDbLine
 62
7
  6
CONTINUOUS
 10
5.561986234
 20
12.2790477814
 11
5.561986234
 21
13.5510477814
  0
LINE
  5
23F
100
AcDbEntity
  8
LAYER_FEATURE
100
AcDbLine
 62
7
  6
CONTINUOUS
 10
5.0468720839
 20
12.1730477814
 11
7.0948720839
 21
12.1730477814
  0
LINE
  5
240
100
AcDbEntity
  8
LAYER_CUT_FEAT
100
AcDbLine
 62
7
  6
CONTINUOUS
 10
5.9761866397
 20
11.8580477814
 11
6.0235293618
 21
11.7760477814
  0
LINE
  5
241
100
AcDbEntity
  8
LAYER_CUT_FEAT
100
AcDbLine
 62
7
  6
CONTINUOUS
 10
5.7107291137
 20
13.5510477814
 11
5.7107291137
 21
12.2790477814
  0
LINE
  5
242
100
AcDbEntity
  8
LAYER_FEATURE
100
AcDbLine
 62
7
  6
CONTINUOUS
 10
5.712074115
 20
12.2790477814
 11
5.712074115
 21
13.5510477814
  0
LINE
  5
243
100
AcDbEntity
  8
LAYER_FEATURE
100
AcDbLine
 62
7
  6
CONTINUOUS
 10
5.7625983468
 20
12.2790477814
 11
5.7625983468
 21
13.5510477814
  0
LINE
  5
244
100
AcDbEntity
  8
LAYER_FEATURE
100
AcDbLine
 62
7
  6
CONTINUOUS
 10
7.0576082449
 20
13.5718980349
 11
7.0948720839
 21
13.5930477814
  0
LINE
  5
245
100
AcDbEntity
  8
LAYER_FEATURE
100
AcDbLine
 62
7
  6
CONTINUOUS
 10
5.0468720839
 20
12.2370477814
 11
7.0948720839
 21
12.2370477814
  0
LINE
  5
246
100
AcDbEntity
  8
LAYER_FEATURE
100
AcDbLine
 62
7
  6
CONTINUOUS
 10
6.9786312962
 20
12.2790477814
 11
5.1631128715
 21
12.2790477814
  0
LINE
  5
247
100
AcDbEntity
  8
LAYER_CUT_FEAT
100
AcDbLine
 62
7
  6
CONTINUOUS
 10
6.165557528
 20
11.8580477814
 11
6.1182148059
 21
11.9400477814
  0
LINE
  5
248
100
AcDbEntity
  8
LAYER_FEATURE
100
AcDbLine
 62
7
  6
CONTINUOUS
 10
5.0468720839
 20
12.2370477814
 11
5.0841359228
 21
12.2581975278
  0
LINE
  5
249
100
AcDbEntity
  8
LAYER_FEATURE
100
AcDbLine
 62
7
  6
CONTINUOUS
 10
5.9299996261
 20
12.2790477814
 11
5.9299996261
 21
13.5510477814
  0
LINE
  5
24A
100
AcDbEntity
  8
LAYER_FEATURE
100
AcDbLine
 62
7
  6
CONTINUOUS
 10
5.9842188053
 20
12.2790477814
 11
5.9842188053
 21
13.5510477814
  0
LINE
  5
24B
100
AcDbEntity
  8
LAYER_FEATURE
100
AcDbLine
 62
7
  6
CONTINUOUS
 10
6.6894729461
 20
11.9956469192
 11
6.6958720839
 21
11.9892477814
  0
LINE
  5
24C
100
AcDbEntity
  8
LAYER_FEATURE
100
AcDbLine
 62
7
  6
CONTINUOUS
 10
6.1575253624
 20
12.2790477814
 11
6.1575253624
 21
13.5510477814
  0
LINE
  5
24D
100
AcDbEntity
  8
LAYER_FEATURE
100
AcDbLine
 62
7
  6
CONTINUOUS
 10
6.2117445416
 20
12.2790477814
 11
6.2117445416
 21
13.5510477814
  0
LINE
  5
24E
100
AcDbEntity
  8
LAYER_FEATURE
100
AcDbLine
 62
7
  6
CONTINUOUS
 10
7.0948720839
 20
12.2370477814
 11
7.0576082449
 21
12.2581975278
  0
LINE
  5
24F
100
AcDbEntity
  8
LAYER_CUT_FEAT
100
AcDbLine
 62
7
  6
CONTINUOUS
 10
6.0235293618
 20
11.9400477814
 11
5.9761866397
 21
11.8580477814
  0
LINE
  5
250
100
AcDbEntity
  8
LAYER_FEATURE
100
AcDbLine
 62
7
  6
CONTINUOUS
 10
6.3791458209
 20
12.2790477814
 11
6.3791458209
 21
13.5510477814
  0
LINE
  5
251
100
AcDbEntity
  8
LAYER_FEATURE
100
AcDbLine
 62
7
  6
CONTINUOUS
 10
6.4296700527
 20
12.2790477814
 11
6.4296700527
 21
13.5510477814
  0
LINE
  5
252
100
AcDbEntity
  8
LAYER_CUT_FEAT
100
AcDbLine
 62
7
  6
CONTINUOUS
 10
6.4310150541
 20
13.5510477814
 11
6.4310150541
 21
12.2790477814
  0
LINE
  5
253
100
AcDbEntity
  8
LAYER_FEATURE
100
AcDbLine
 62
7
  6
CONTINUOUS
 10
5.0841359228
 20
13.5718980349
 11
5.0468720839
 21
13.5930477814
  0
LINE
  5
254
100
AcDbEntity
  8
LAYER_CUT_FEAT
100
AcDbLine
 62
7
  6
CONTINUOUS
 10
6.1182148059
 20
11.7760477814
 11
6.165557528
 21
11.8580477814
  0
LINE
  5
255
100
AcDbEntity
  8
LAYER_FEATURE
100
AcDbLine
 62
7
  6
CONTINUOUS
 10
6.5797579338
 20
12.2790477814
 11
6.5797579338
 21
13.5510477814
  0
LINE
  5
256
100
AcDbEntity
  8
LAYER_FEATURE
100
AcDbLine
 62
7
  6
CONTINUOUS
 10
6.6231440752
 20
12.2790477814
 11
6.6231440752
 21
13.5510477814
  0
LINE
  5
257
100
AcDbEntity
  8
LAYER_CUT_FEAT
100
AcDbLine
 62
7
  6
CONTINUOUS
 10
6.6232148018
 20
13.5510477814
 11
6.6232148018
 21
12.2790477814
  0
LINE
  5
258
100
AcDbEntity
  8
02___PRT_ALL_AXES
100
AcDbLine
 62
7
  6
CONTINUOUS
 10
6.6958720839
 20
11.5430477814
 11
6.6958720839
 21
11.6940477814
  0
LINE
  5
259
100
AcDbEntity
  8
LAYER_FEATURE
100
AcDbLine
 62
7
  6
CONTINUOUS
 10
6.6958720839
 20
11.7268477814
 11
6.6958720839
 21
11.9892477814
  0
LINE
  5
25A
100
AcDbEntity
  8
02___PRT_ALL_AXES
100
AcDbLine
 62
7
  6
CONTINUOUS
 10
6.6958720839
 20
12.0220477814
 11
6.6958720839
 21
12.1730477814
  0
LINE
  5
25B
100
AcDbEntity
  8
LAYER_FEATURE
100
AcDbLine
 62
7
  6
CONTINUOUS
 10
6.7456903169
 20
12.2790477814
 11
6.7456903169
 21
13.5510477814
  0
LINE
  5
25C
100
AcDbEntity
  8
LAYER_FEATURE
100
AcDbLine
 62
7
  6
CONTINUOUS
 10
6.7789816741
 20
12.2790477814
 11
6.7789816741
 21
13.5510477814
  0
LINE
  5
25D
100
AcDbEntity
  8
LAYER_FEATURE
100
AcDbLine
 62
7
  6
CONTINUOUS
 10
6.8656349526
 20
12.2790477814
 11
6.8656349526
 21
13.5510477814
  0
LINE
  5
25E
100
AcDbEntity
  8
LAYER_FEATURE
100
AcDbLine
 62
7
  6
CONTINUOUS
 10
6.8865627746
 20
12.2790477814
 11
6.8865627746
 21
13.5510477814
  0
LINE
  5
25F
100
AcDbEntity
  8
LAYER_FEATURE
100
AcDbLine
 62
7
  6
CONTINUOUS
 10
6.9314178122
 20
12.2790477814
 11
6.9314178122
 21
13.5510477814
  0
LINE
  5
260
100
AcDbEntity
  8
LAYER_FEATURE
100
AcDbLine
 62
7
  6
CONTINUOUS
 10
6.9385559026
 20
12.2790477814
 11
6.9385559026
 21
13.5510477814
  0
LINE
  5
261
100
AcDbEntity
  8
LAYER_FEATURE
100
AcDbLine
 62
7
  6
CONTINUOUS
 10
6.9786312962
 20
13.5510477814
 11
5.1631128715
 21
13.5510477814
  0
LINE
  5
262
100
AcDbEntity
  8
LAYER_FEATURE
100
AcDbLine
 62
7
  6
CONTINUOUS
 10
5.0468720839
 20
13.5930477814
 11
7.0948720839
 21
13.5930477814
  0
LINE
  5
263
100
AcDbEntity
  8
LAYER_FEATURE
100
AcDbLine
 62
7
  6
CONTINUOUS
 10
7.0948720839
 20
12.1730477814
 11
7.0948720839
 21
12.2370477814
  0
LINE
  5
264
100
AcDbEntity
  8
LAYER_FEATURE
100
AcDbLine
 62
7
  6
CONTINUOUS
 10
7.0948720839
 20
13.5930477814
 11
7.0948720839
 21
13.6570477814
  0
LINE
  5
265
100
AcDbEntity
  8
LAYER_FEATURE
100
AcDbLine
 62
7
  6
CONTINUOUS
 10
6.6894729465
 20
11.720448644
 11
6.6958720839
 21
11.7268477814
  0
LINE
  5
266
100
AcDbEntity
  8
LAYER_FEATURE
100
AcDbLine
 62
7
  6
CONTINUOUS
 10
5.0468720839
 20
13.6570477814
 11
7.0948720839
 21
13.6570477814
  0
LINE
  5
267
100
AcDbEntity
  8
02___PRT_ALL_AXES
100
AcDbLine
 62
7
  6
CONTINUOUS
 10
14.5033552569
 20
6.0856247044
 11
14.5033552569
 21
4.8356247044
  0
LINE
  5
268
100
AcDbEntity
  8
LAYER_FEATURE
100
AcDbLine
 62
7
  6
CONTINUOUS
 10
14.6807564365
 20
6.079225884
 11
14.6871552569
 21
6.0856247044
  0
LINE
  5
269
100
AcDbEntity
  8
LAYER_FEATURE
100
AcDbLine
 62
7
  6
CONTINUOUS
 10
16.6173552569
 20
4.4366247044
 11
16.5533552569
 21
4.4366247044
  0
LINE
  5
26A
100
AcDbEntity
  8
LAYER_FEATURE
100
AcDbLine
 62
7
  6
CONTINUOUS
 10
15.1973552569
 20
4.4366247044
 11
15.1333552569
 21
4.4366247044
  0
LINE
  5
26B
100
AcDbEntity
  8
LAYER_CUT_FEAT
100
AcDbLine
 62
7
  6
CONTINUOUS
 10
14.7363552569
 20
5.5079674265
 11
14.7363552569
 21
5.4132819824
  0
LINE
  5
26C
100
AcDbEntity
  8
LAYER_FEATURE
100
AcDbLine
 62
7
  6
CONTINUOUS
 10
15.2393552569
 20
4.5929408857
 11
16.5113552569
 21
4.5929408857
  0
LINE
  5
26D
100
AcDbEntity
  8
LAYER_FEATURE
100
AcDbLine
 62
7
  6
CONTINUOUS
 10
15.2393552569
 20
4.6000789761
 11
16.5113552569
 21
4.6000789761
  0
LINE
  5
26E
100
AcDbEntity
  8
LAYER_FEATURE
100
AcDbLine
 62
7
  6
CONTINUOUS
 10
15.2393552569
 20
4.6449340137
 11
16.5113552569
 21
4.6449340137
  0
LINE
  5
26F
100
AcDbEntity
  8
LAYER_FEATURE
100
AcDbLine
 62
7
  6
CONTINUOUS
 10
15.2393552569
 20
4.6658618357
 11
16.5113552569
 21
4.6658618357
  0
LINE
  5
270
100
AcDbEntity
  8
LAYER_FEATURE
100
AcDbLine
 62
7
  6
CONTINUOUS
 10
15.2393552569
 20
4.7525151142
 11
16.5113552569
 21
4.7525151142
  0
LINE
  5
271
100
AcDbEntity
  8
LAYER_FEATURE
100
AcDbLine
 62
7
  6
CONTINUOUS
 10
15.2393552569
 20
4.7858064714
 11
16.5113552569
 21
4.7858064714
  0
LINE
  5
272
100
AcDbEntity
  8
LAYER_CUT_FEAT
100
AcDbLine
 62
7
  6
CONTINUOUS
 10
14.9003552569
 20
5.4132819824
 11
14.9003552569
 21
5.5079674265
  0
LINE
  5
273
100
AcDbEntity
  8
02___PRT_ALL_AXES
100
AcDbLine
 62
7
  6
CONTINUOUS
 10
15.1333552569
 20
4.8356247044
 11
14.5033552569
 21
4.8356247044
  0
LINE
  5
274
100
AcDbEntity
  8
LAYER_CUT_FEAT
100
AcDbLine
 62
7
  6
CONTINUOUS
 10
16.5113552569
 20
4.9082819865
 11
15.2393552569
 21
4.9082819865
  0
LINE
  5
275
100
AcDbEntity
  8
LAYER_FEATURE
100
AcDbLine
 62
7
  6
CONTINUOUS
 10
15.2393552569
 20
4.9083527131
 11
16.5113552569
 21
4.9083527131
  0
LINE
  5
276
100
AcDbEntity
  8
LAYER_FEATURE
100
AcDbLine
 62
7
  6
CONTINUOUS
 10
15.2393552569
 20
4.9517388545
 11
16.5113552569
 21
4.9517388545
  0
LINE
  5
277
100
AcDbEntity
  8
LAYER_FEATURE
100
AcDbLine
 62
7
  6
CONTINUOUS
 10
15.1333552569
 20
6.4846247044
 11
15.1333552569
 21
4.4366247044
  0
LINE
  5
278
100
AcDbEntity
  8
LAYER_CUT_FEAT
100
AcDbLine
 62
7
  6
CONTINUOUS
 10
14.8183552569
 20
5.5553101486
 11
14.7363552569
 21
5.5079674265
  0
LINE
  5
279
100
AcDbEntity
  8
LAYER_CUT_FEAT
100
AcDbLine
 62
7
  6
CONTINUOUS
 10
14.7363552569
 20
5.4132819824
 11
14.8183552569
 21
5.3659392603
  0
LINE
  5
27A
100
AcDbEntity
  8
LAYER_FEATURE
100
AcDbLine
 62
7
  6
CONTINUOUS
 10
15.1973552569
 20
6.4846247044
 11
15.1973552569
 21
4.4366247044
  0
LINE
  5
27B
100
AcDbEntity
  8
LAYER_FEATURE
100
AcDbLine
 62
7
  6
CONTINUOUS
 10
15.2393552569
 20
4.5528654265
 11
15.2393552569
 21
6.3683839824
  0
LINE
  5
27C
100
AcDbEntity
  8
LAYER_CUT_FEAT
100
AcDbLine
 62
7
  6
CONTINUOUS
 10
14.8183552569
 20
5.3659392603
 11
14.9003552569
 21
5.4132819824
  0
LINE
  5
27D
100
AcDbEntity
  8
LAYER_CUT_FEAT
100
AcDbLine
 62
7
  6
CONTINUOUS
 10
16.5113552569
 20
5.1004817343
 11
15.2393552569
 21
5.1004817343
  0
LINE
  5
27E
100
AcDbEntity
  8
LAYER_FEATURE
100
AcDbLine
 62
7
  6
CONTINUOUS
 10
15.2393552569
 20
5.1018267356
 11
16.5113552569
 21
5.1018267356
  0
LINE
  5
27F
100
AcDbEntity
  8
LAYER_FEATURE
100
AcDbLine
 62
7
  6
CONTINUOUS
 10
15.2393552569
 20
5.1523509674
 11
16.5113552569
 21
5.1523509674
  0
LINE
  5
280
100
AcDbEntity
  8
LAYER_CUT_FEAT
100
AcDbLine
 62
7
  6
CONTINUOUS
 10
14.9003552569
 20
5.5079674265
 11
14.8183552569
 21
5.5553101486
  0
LINE
  5
281
100
AcDbEntity
  8
LAYER_FEATURE
100
AcDbLine
 62
7
  6
CONTINUOUS
 10
15.2393552569
 20
5.3197522467
 11
16.5113552569
 21
5.3197522467
  0
LINE
  5
282
100
AcDbEntity
  8
LAYER_FEATURE
100
AcDbLine
 62
7
  6
CONTINUOUS
 10
15.2393552569
 20
5.3739714259
 11
16.5113552569
 21
5.3739714259
  0
LINE
  5
283
100
AcDbEntity
  8
LAYER_FEATURE
100
AcDbLine
 62
7
  6
CONTINUOUS
 10
14.9559540781
 20
6.0792258833
 11
14.9495552569
 21
6.0856247044
  0
LINE
  5
284
100
AcDbEntity
  8
LAYER_FEATURE
100
AcDbLine
 62
7
  6
CONTINUOUS
 10
15.2393552569
 20
5.547277983
 11
16.5113552569
 21
5.547277983
  0
LINE
  5
285
100
AcDbEntity
  8
LAYER_FEATURE
100
AcDbLine
 62
7
  6
CONTINUOUS
 10
15.2185050034
 20
4.4738885434
 11
15.1973552569
 21
4.4366247044
  0
LINE
  5
286
100
AcDbEntity
  8
LAYER_FEATURE
100
AcDbLine
 62
7
  6
CONTINUOUS
 10
15.2393552569
 20
5.6014971622
 11
16.5113552569
 21
5.6014971622
  0
LINE
  5
287
100
AcDbEntity
  8
LAYER_FEATURE
100
AcDbLine
 62
7
  6
CONTINUOUS
 10
15.2185050034
 20
6.4473608655
 11
15.1973552569
 21
6.4846247044
  0
LINE
  5
288
100
AcDbEntity
  8
LAYER_FEATURE
100
AcDbLine
 62
7
  6
CONTINUOUS
 10
16.5533552569
 20
6.4846247044
 11
16.5322055105
 21
6.4473608655
  0
LINE
  5
289
100
AcDbEntity
  8
LAYER_FEATURE
100
AcDbLine
 62
7
  6
CONTINUOUS
 10
15.2393552569
 20
5.7688984415
 11
16.5113552569
 21
5.7688984415
  0
LINE
  5
28A
100
AcDbEntity
  8
LAYER_FEATURE
100
AcDbLine
 62
7
  6
CONTINUOUS
 10
15.2393552569
 20
5.8194226733
 11
16.5113552569
 21
5.8194226733
  0
LINE
  5
28B
100
AcDbEntity
  8
LAYER_CUT_FEAT
100
AcDbLine
 62
7
  6
CONTINUOUS
 10
16.5113552569
 20
5.8207676746
 11
15.2393552569
 21
5.8207676746
  0
LINE
  5
28C
100
AcDbEntity
  8
LAYER_FEATURE
100
AcDbLine
 62
7
  6
CONTINUOUS
 10
16.5533552569
 20
4.4366247044
 11
16.5322055105
 21
4.4738885434
  0
LINE
  5
28D
100
AcDbEntity
  8
LAYER_FEATURE
100
AcDbLine
 62
7
  6
CONTINUOUS
 10
15.2393552569
 20
5.9695105543
 11
16.5113552569
 21
5.9695105543
  0
LINE
  5
28E
100
AcDbEntity
  8
LAYER_FEATURE
100
AcDbLine
 62
7
  6
CONTINUOUS
 10
15.2393552569
 20
6.0128966958
 11
16.5113552569
 21
6.0128966958
  0
LINE
  5
28F
100
AcDbEntity
  8
LAYER_CUT_FEAT
100
AcDbLine
 62
7
  6
CONTINUOUS
 10
16.5113552569
 20
6.0129674224
 11
15.2393552569
 21
6.0129674224
  0
LINE
  5
290
100
AcDbEntity
  8
02___PRT_ALL_AXES
100
AcDbLine
 62
7
  6
CONTINUOUS
 10
15.1333552569
 20
6.0856247044
 11
14.9823552569
 21
6.0856247044
  0
LINE
  5
291
100
AcDbEntity
  8
02___PRT_ALL_AXES
100
AcDbLine
 62
7
  6
CONTINUOUS
 10
14.6543552569
 20
6.0856247044
 11
14.5033552569
 21
6.0856247044
  0
LINE
  5
292
100
AcDbEntity
  8
LAYER_FEATURE
100
AcDbLine
 62
7
  6
CONTINUOUS
 10
14.68715533
 20
6.0856247044
 11
14.9495551839
 21
6.0856247044
  0
LINE
  5
293
100
AcDbEntity
  8
LAYER_FEATURE
100
AcDbLine
 62
7
  6
CONTINUOUS
 10
15.2393552569
 20
6.1354429375
 11
16.5113552569
 21
6.1354429375
  0
LINE
  5
294
100
AcDbEntity
  8
LAYER_FEATURE
100
AcDbLine
 62
7
  6
CONTINUOUS
 10
15.2393552569
 20
6.1687342947
 11
16.5113552569
 21
6.1687342947
  0
LINE
  5
295
100
AcDbEntity
  8
LAYER_FEATURE
100
AcDbLine
 62
7
  6
CONTINUOUS
 10
15.2393552569
 20
6.2553875732
 11
16.5113552569
 21
6.2553875732
  0
LINE
  5
296
100
AcDbEntity
  8
LAYER_FEATURE
100
AcDbLine
 62
7
  6
CONTINUOUS
 10
15.2393552569
 20
6.2763153952
 11
16.5113552569
 21
6.2763153952
  0
LINE
  5
297
100
AcDbEntity
  8
LAYER_FEATURE
100
AcDbLine
 62
7
  6
CONTINUOUS
 10
15.2393552569
 20
6.3211704328
 11
16.5113552569
 21
6.3211704328
  0
LINE
  5
298
100
AcDbEntity
  8
LAYER_FEATURE
100
AcDbLine
 62
7
  6
CONTINUOUS
 10
15.2393552569
 20
6.3283085232
 11
16.5113552569
 21
6.3283085232
  0
LINE
  5
299
100
AcDbEntity
  8
LAYER_FEATURE
100
AcDbLine
 62
7
  6
CONTINUOUS
 10
16.5113552569
 20
4.5528654265
 11
16.5113552569
 21
6.3683839824
  0
LINE
  5
29A
100
AcDbEntity
  8
LAYER_FEATURE
100
AcDbLine
 62
7
  6
CONTINUOUS
 10
16.5533552569
 20
6.4846247044
 11
16.5533552569
 21
4.4366247044
  0
LINE
  5
29B
100
AcDbEntity
  8
LAYER_FEATURE
100
AcDbLine
 62
7
  6
CONTINUOUS
 10
16.6173552569
 20
6.4846247044
 11
16.6173552569
 21
4.4366247044
  0
LINE
  5
29C
100
AcDbEntity
  8
LAYER_FEATURE
100
AcDbLine
 62
7
  6
CONTINUOUS
 10
16.6173552569
 20
6.4846247044
 11
16.5533552569
 21
6.4846247044
  0
LINE
  5
29D
100
AcDbEntity
  8
LAYER_FEATURE
100
AcDbLine
 62
7
  6
CONTINUOUS
 10
15.1973552569
 20
6.4846247044
 11
15.1333552569
 21
6.4846247044
  0
LINE
  5
29E
100
AcDbEntity
  8
LAYER_FEATURE
100
AcDbLine
 62
7
  6
CONTINUOUS
 10
14.313148312
 20
12.3546465222
 11
14.3286405567
 21
12.4047794444
  0
LINE
  5
29F
100
AcDbEntity
  8
LAYER_FEATURE
100
AcDbLine
 62
7
  6
CONTINUOUS
 10
14.6568824912
 20
13.4669707339
 11
14.6723747359
 21
13.5171036561
  0
LINE
  5
2A0
100
AcDbEntity
  8
LAYER_FEATURE
100
AcDbLine
 62
7
  6
CONTINUOUS
 10
14.5672334892
 20
12.6546299053
 11
14.7835931701
 21
13.3547700893
  0
LINE
  5
2A1
100
AcDbEntity
  8
LAYER_FEATURE
100
AcDbLine
 62
7
  6
CONTINUOUS
 10
14.5733213116
 20
12.6575055373
 11
14.8176230376
 21
13.4480662123
  0
LINE
  5
2A2
100
AcDbEntity
  8
LAYER_FEATURE
100
AcDbLine
 62
7
  6
CONTINUOUS
 10
14.5839591589
 20
12.662499326
 11
14.8350518186
 21
13.4750354703
  0
LINE
  5
2A3
100
AcDbEntity
  8
LAYER_FEATURE
100
AcDbLine
 62
7
  6
CONTINUOUS
 10
14.6430753858
 20
12.6856870598
 11
14.9105426474
 21
13.5512114357
  0
LINE
  5
2A4
100
AcDbEntity
  8
LAYER_FEATURE
100
AcDbLine
 62
7
  6
CONTINUOUS
 10
14.6690911329
 20
12.6941159563
 11
14.9403486722
 21
13.5719056752
  0
LINE
  5
2A5
100
AcDbEntity
  8
LAYER_CUT_FEAT
100
AcDbLine
 62
7
  6
CONTINUOUS
 10
14.6188829822
 20
12.2601673633
 11
14.6290497677
 21
12.2930670935
  0
LINE
  5
2A6
100
AcDbEntity
  8
LAYER_FEATURE
100
AcDbLine
 62
7
  6
CONTINUOUS
 10
14.7720587649
 20
12.7193755966
 11
15.0521558873
 21
13.6257702169
  0
LINE
  5
2A7
100
AcDbEntity
  8
LAYER_CUT_FEAT
100
AcDbLine
 62
7
  6
CONTINUOUS
 10
15.8197945105
 20
11.7467078214
 11
15.7684241888
 21
11.7467078214
  0
LINE
  5
2A8
100
AcDbEntity
  8
LAYER_FEATURE
100
AcDbLine
 62
7
  6
CONTINUOUS
 10
14.8101629531
 20
12.7257576974
 11
15.0923079246
 21
13.6387791597
  0
LINE
  5
2A9
100
AcDbEntity
  8
02___PRT_ALL_AXES
100
AcDbLine
 62
7
  6
CONTINUOUS
 10
14.5418594451
 20
11.7433468679
 11
14.6943612288
 21
12.236842821
  0
LINE
  5
2AA
100
AcDbEntity
  8
LAYER_CUT_FEAT
100
AcDbLine
 62
7
  6
CONTINUOUS
 10
15.8252024367
 20
11.8403693359
 11
15.7606396457
 21
11.8403693359
  0
LINE
  5
2AB
100
AcDbEntity
  8
LAYER_CUT_FEAT
100
AcDbLine
 62
7
  6
CONTINUOUS
 10
14.9373861287
 20
12.1940714675
 11
14.9689070119
 21
12.1298386609
  0
LINE
  5
2AC
100
AcDbEntity
  8
LAYER_CUT_FEAT
100
AcDbLine
 62
7
  6
CONTINUOUS
 10
14.9373861287
 20
12.1940714675
 11
14.9611422248
 21
12.1298386609
  0
LINE
  5
2AD
100
AcDbEntity
  8
LAYER_CUT_FEAT
100
AcDbLine
 62
7
  6
CONTINUOUS
 10
15.2322627418
 20
13.6653334746
 11
14.9456930231
 21
12.7379935251
  0
LINE
  5
2AE
100
AcDbEntity
  8
LAYER_FEATURE
100
AcDbLine
 62
7
  6
CONTINUOUS
 10
14.9458338009
 20
12.7379995475
 11
15.2328120489
 21
13.6666614982
  0
LINE
  5
2AF
100
AcDbEntity
  8
LAYER_FEATURE
100
AcDbLine
 62
7
  6
CONTINUOUS
 10
14.9925165758
 20
12.7389450757
 11
15.2805738036
 21
13.6710986063
  0
LINE
  5
2B0
100
AcDbEntity
  8
LAYER_CUT_FEAT
100
AcDbLine
 62
7
  6
CONTINUOUS
 10
15.0008411019
 20
12.2583042741
 11
15.050867968
 21
12.1563602393
  0
LINE
  5
2B1
100
AcDbEntity
  8
LAYER_CUT_FEAT
100
AcDbLine
 62
7
  6
CONTINUOUS
 10
15.4372560508
 20
13.6669217882
 11
15.1479938036
 21
12.7308688132
  0
LINE
  5
2B2
100
AcDbEntity
  8
LAYER_FEATURE
100
AcDbLine
 62
7
  6
CONTINUOUS
 10
15.1496001679
 20
12.7307181327
 11
15.4401997133
 21
13.6710986063
  0
LINE
  5
2B3
100
AcDbEntity
  8
LAYER_CUT_FEAT
100
AcDbLine
 62
7
  6
CONTINUOUS
 10
14.9611422248
 20
12.1298386609
 11
15.0483532941
 21
12.1298386609
  0
LINE
  5
2B4
100
AcDbEntity
  8
LAYER_CUT_FEAT
100
AcDbLine
 62
7
  6
CONTINUOUS
 10
15.0745537069
 20
12.1563602393
 11
15.050867968
 21
12.1563602393
  0
LINE
  5
2B5
100
AcDbEntity
  8
LAYER_CUT_FEAT
100
AcDbLine
 62
7
  6
CONTINUOUS
 10
15.1118082673
 20
12.1940714675
 11
15.0880521712
 21
12.2583042741
  0
LINE
  5
2B6
100
AcDbEntity
  8
LAYER_FEATURE
100
AcDbLine
 62
7
  6
CONTINUOUS
 10
15.2011688389
 20
12.7245079662
 11
15.4923163008
 21
13.6666614982
  0
LINE
  5
2B7
100
AcDbEntity
  8
LAYER_CUT_FEAT
100
AcDbLine
 62
7
  6
CONTINUOUS
 10
15.0880521712
 20
12.2583042741
 11
15.0008411019
 21
12.2583042741
  0
LINE
  5
2B8
100
AcDbEntity
  8
LAYER_FEATURE
100
AcDbLine
 62
7
  6
CONTINUOUS
 10
15.367975421
 20
12.6931861757
 11
15.6601857539
 21
13.6387791597
  0
LINE
  5
2B9
100
AcDbEntity
  8
LAYER_CUT_FEAT
100
AcDbLine
 62
7
  6
CONTINUOUS
 10
15.0008411019
 20
12.2583042741
 11
14.9373861287
 21
12.1940714675
  0
LINE
  5
2BA
100
AcDbEntity
  8
LAYER_FEATURE
100
AcDbLine
 62
7
  6
CONTINUOUS
 10
15.7877022085
 20
11.9541863313
 11
15.8125127045
 21
11.9244621125
  0
LINE
  5
2BB
100
AcDbEntity
  8
LAYER_FEATURE
100
AcDbLine
 62
7
  6
CONTINUOUS
 10
15.4207426408
 20
12.6796836094
 11
15.713105515
 21
13.6257702169
  0
LINE
  5
2BC
100
AcDbEntity
  8
LAYER_CUT_FEAT
100
AcDbLine
 62
7
  6
CONTINUOUS
 10
15.050867968
 20
12.1563602393
 11
15.0246675552
 21
12.1298386609
  0
LINE
  5
2BD
100
AcDbEntity
  8
LAYER_CUT_FEAT
100
AcDbLine
 62
7
  6
CONTINUOUS
 10
15.0483532941
 20
12.1298386609
 11
15.1118082673
 21
12.1940714675
  0
LINE
  5
2BE
100
AcDbEntity
  8
LAYER_CUT_FEAT
100
AcDbLine
 62
7
  6
CONTINUOUS
 10
15.7566205351
 20
11.7707611387
 11
15.7855035597
 21
11.7119037227
  0
LINE
  5
2BF
100
AcDbEntity
  8
LAYER_FEATURE
100
AcDbLine
 62
7
  6
CONTINUOUS
 10
15.5855430267
 20
12.6262313834
 11
15.8777784857
 21
13.5719056752
  0
LINE
  5
2C0
100
AcDbEntity
  8
LAYER_FEATURE
100
AcDbLine
 62
7
  6
CONTINUOUS
 10
15.6359040231
 20
12.606328204
 11
15.927895026
 21
13.5512114357
  0
LINE
  5
2C1
100
AcDbEntity
  8
LAYER_CUT_FEAT
100
AcDbLine
 62
7
  6
CONTINUOUS
 10
15.9293279866
 20
13.5431087047
 11
15.6394043757
 21
12.604915556
  0
LINE
  5
2C2
100
AcDbEntity
  8
LAYER_CUT_FEAT
100
AcDbLine
 62
7
  6
CONTINUOUS
 10
15.8252024367
 20
11.8403693359
 11
15.7963194121
 21
11.8992267518
  0
LINE
  5
2C3
100
AcDbEntity
  8
LAYER_CUT_FEAT
100
AcDbLine
 62
7
  6
CONTINUOUS
 10
15.7620284613
 20
11.8644226532
 11
15.7566205351
 21
11.7707611387
  0
LINE
  5
2C4
100
AcDbEntity
  8
LAYER_FEATURE
100
AcDbLine
 62
7
  6
CONTINUOUS
 10
15.7875067912
 20
12.5345158911
 11
16.0781493235
 21
13.4750354703
  0
LINE
  5
2C5
100
AcDbEntity
  8
LAYER_FEATURE
100
AcDbLine
 62
7
  6
CONTINUOUS
 10
15.8320331438
 20
12.5095801117
 11
16.1220472836
 21
13.4480662123
  0
LINE
  5
2C6
100
AcDbEntity
  8
LAYER_CUT_FEAT
100
AcDbLine
 62
7
  6
CONTINUOUS
 10
16.1219068354
 20
13.4437876472
 11
15.8330325567
 21
12.5089901388
  0
LINE
  5
2C7
100
AcDbEntity
  8
LAYER_CUT_FEAT
100
AcDbLine
 62
7
  6
CONTINUOUS
 10
15.8197945105
 20
11.7467078214
 11
15.8252024367
 21
11.8403693359
  0
LINE
  5
2C8
100
AcDbEntity
  8
LAYER_FEATURE
100
AcDbLine
 62
7
  6
CONTINUOUS
 10
16.2821634065
 20
13.3227260682
 11
16.2823311324
 21
13.3233637232
  0
LINE
  5
2C9
100
AcDbEntity
  8
LAYER_FEATURE
100
AcDbLine
 62
7
  6
CONTINUOUS
 10
15.9605807296
 20
12.4258351873
 11
16.2476433259
 21
13.3547700893
  0
LINE
  5
2CA
100
AcDbEntity
  8
LAYER_FEATURE
100
AcDbLine
 62
7
  6
CONTINUOUS
 10
15.9965139295
 20
12.3984589155
 11
16.2823311324
 21
13.3233637232
  0
LINE
  5
2CB
100
AcDbEntity
  8
LAYER_CUT_FEAT
100
AcDbLine
 62
7
  6
CONTINUOUS
 10
16.282163451
 20
13.3227260545
 11
15.9965374932
 21
12.3984401163
  0
LINE
  5
2CC
100
AcDbEntity
  8
02___PRT_ALL_AXES
100
AcDbLine
 62
7
  6
CONTINUOUS
 10
15.7361355004
 20
11.3742876536
 11
15.8886372842
 21
11.8677836067
  0
LINE
  5
2CD
100
AcDbEntity
  8
LAYER_FEATURE
100
AcDbLine
 62
7
  6
CONTINUOUS
 10
16.0944067949
 20
12.3122447025
 11
16.3747097567
 21
13.2193054193
  0
LINE
  5
2CE
100
AcDbEntity
  8
LAYER_CUT_FEAT
100
AcDbLine
 62
7
  6
CONTINUOUS
 10
15.9641155309
 20
11.8444590643
 11
15.9742823164
 21
11.8773587945
  0
LINE
  5
2CF
100
AcDbEntity
  8
LAYER_FEATURE
100
AcDbLine
 62
7
  6
CONTINUOUS
 10
16.1198573518
 20
12.2861034746
 11
16.3978234929
 21
13.185602237
  0
LINE
  5
2D0
100
AcDbEntity
  8
LAYER_CUT_FEAT
100
AcDbLine
 62
7
  6
CONTINUOUS
 10
15.7963194121
 20
11.8992267518
 11
15.7620284613
 21
11.8644226532
  0
LINE
  5
2D1
100
AcDbEntity
  8
LAYER_FEATURE
100
AcDbLine
 62
7
  6
CONTINUOUS
 10
16.1828519852
 20
12.2111514518
 11
16.4506892486
 21
13.0778731536
  0
LINE
  5
2D2
100
AcDbEntity
  8
LAYER_FEATURE
100
AcDbLine
 62
7
  6
CONTINUOUS
 10
16.1971061588
 20
12.1913296483
 11
16.4606537516
 21
13.0441699713
  0
LINE
  5
2D3
100
AcDbEntity
  8
LAYER_FEATURE
100
AcDbLine
 62
7
  6
CONTINUOUS
 10
16.2254856653
 20
12.1475558893
 11
16.4704039248
 21
12.9401116674
  0
LINE
  5
2D4
100
AcDbEntity
  8
LAYER_FEATURE
100
AcDbLine
 62
7
  6
CONTINUOUS
 10
16.2293028693
 20
12.1410052435
 11
16.4665401302
 21
12.9087053013
  0
LINE
  5
2D5
100
AcDbEntity
  8
LAYER_FEATURE
100
AcDbLine
 62
7
  6
CONTINUOUS
 10
15.7877022085
 20
11.6569441433
 11
15.8125127045
 21
11.6866683621
  0
LINE
  5
2D6
100
AcDbEntity
  8
LAYER_CUT_FEAT
100
AcDbLine
 62
7
  6
CONTINUOUS
 10
15.7855035597
 20
11.7119037227
 11
15.8197945105
 21
11.7467078214
  0
LINE
  5
2D7
100
AcDbEntity
  8
LAYER_FEATURE
100
AcDbLine
 62
7
  6
CONTINUOUS
 10
16.269850201
 20
11.7499799054
 11
16.2853424457
 21
11.8001128276
  0
LINE
  5
2D8
100
AcDbEntity
  8
LAYER_FEATURE
100
AcDbLine
 62
7
  6
CONTINUOUS
 10
16.6135843803
 20
12.8623041171
 11
16.629076625
 21
12.9124370393
  0
CIRCLE
  5
2D9
100
AcDbEntity
  8
LAYER_FEATURE
100
AcDbCircle
 62
7
  6
CONTINUOUS
 10
6.1303672762
 20
5.5201198968
 40
1.024
  0
CIRCLE
  5
2DA
100
AcDbEntity
  8
LAYER_FEATURE
100
AcDbCircle
 62
7
  6
CONTINUOUS
 10
6.1303672762
 20
5.5201198968
 40
0.95
  0
CIRCLE
  5
2DB
100
AcDbEntity
  8
LAYER_CUT_FEAT
100
AcDbCircle
 62
7
  6
CONTINUOUS
 10
6.1303672762
 20
5.5201198968
 40
0.704
  0
CIRCLE
  5
2DC
100
AcDbEntity
  8
02___PRT_ALL_AXES
100
AcDbCircle
 62
7
  6
CONTINUOUS
 10
6.1303672762
 20
5.5201198968
 40
0.625
  0
CIRCLE
  5
2DD
100
AcDbEntity
  8
LAYER_CHAMFER_FEAT
100
AcDbCircle
 62
7
  6
CONTINUOUS
 10
6.1303672762
 20
5.5201198968
 40
0.2875
  0
CIRCLE
  5
2DE
100
AcDbEntity
  8
LAYER_CHAMFER_FEAT
100
AcDbCircle
 62
7
  6
CONTINUOUS
 10
6.1303672762
 20
5.5201198968
 40
0.25
  0
CIRCLE
  5
2DF
100
AcDbEntity
  8
02___PRT_ALL_AXES
100
AcDbCircle
 62
7
  6
CONTINUOUS
 10
6.0708720839
 20
11.8580477814
 40
0.164
  0
ARC
  5
2E0
100
AcDbEntity
  8
LAYER_FEATURE
100
AcDbCircle
 62
7
  6
CONTINUOUS
 10
6.9786313618
 20
12.1190477814
 40
0.16
100
AcDbArc
 50
60.4221613187
 51
90.0
  0
ARC
  5
2E1
100
AcDbEntity
  8
LAYER_FEATURE
100
AcDbCircle
 62
7
  6
CONTINUOUS
 10
5.1631128059
 20
12.1190477814
 40
0.16
100
AcDbArc
 50
90.0
 51
119.5778386813
  0
ARC
  5
2E2
100
AcDbEntity
  8
LAYER_FEATURE
100
AcDbCircle
 62
7
  6
CONTINUOUS
 10
6.9786313618
 20
13.7110477814
 40
0.16
100
AcDbArc
 50
270.0
 51
299.5778386813
  0
ARC
  5
2E3
100
AcDbEntity
  8
LAYER_FEATURE
100
AcDbCircle
 62
7
  6
CONTINUOUS
 10
5.1631128059
 20
13.7110477814
 40
0.16
100
AcDbArc
 50
240.4221613187
 51
270.0
  0
CIRCLE
  5
2E4
100
AcDbEntity
  8
LAYER_FEATURE
100
AcDbCircle
 62
7
  6
CONTINUOUS
 10
6.0708720839
 20
11.8580477814
 40
0.1312
  0
CIRCLE
  5
2E5
100
AcDbEntity
  8
02___PRT_ALL_AXES
100
AcDbCircle
 62
7
  6
CONTINUOUS
 10
14.8183552569
 20
5.4606247044
 40
0.164
  0
ARC
  5
2E6
100
AcDbEntity
  8
LAYER_FEATURE
100
AcDbCircle
 62
7
  6
CONTINUOUS
 10
15.0793552569
 20
4.5528654265
 40
0.16
100
AcDbArc
 50
330.4221613187
 51
360.0
  0
ARC
  5
2E7
100
AcDbEntity
  8
LAYER_FEATURE
100
AcDbCircle
 62
7
  6
CONTINUOUS
 10
15.0793552569
 20
6.3683839824
 40
0.16
100
AcDbArc
 50
0.0
 51
29.5778386813
  0
ARC
  5
2E8
100
AcDbEntity
  8
LAYER_FEATURE
100
AcDbCircle
 62
7
  6
CONTINUOUS
 10
16.6713552569
 20
4.5528654265
 40
0.16
100
AcDbArc
 50
180.0
 51
209.5778386813
  0
ARC
  5
2E9
100
AcDbEntity
  8
LAYER_FEATURE
100
AcDbCircle
 62
7
  6
CONTINUOUS
 10
16.6713552569
 20
6.3683839824
 40
0.16
100
AcDbArc
 50
150.4221613187
 51
180.0
  0
CIRCLE
  5
2EA
100
AcDbEntity
  8
LAYER_FEATURE
100
AcDbCircle
 62
7
  6
CONTINUOUS
 10
14.8183552569
 20
5.4606247044
 40
0.1312
  0
ARC
  5
2EB
100
AcDbEntity
  8
LAYER_FEATURE
100
AcDbCircle
 62
7
  6
CONTINUOUS
 10
14.3797399836
 20
11.9733118402
 40
1.5713676048
100
AcDbArc
 50
71.9113090308
 51
72.6622391788
  0
ARC
  5
2EC
100
AcDbEntity
  8
LAYER_FEATURE
100
AcDbCircle
 62
7
  6
CONTINUOUS
 10
15.9511277545
 20
11.461792039
 40
1.5690092972
100
AcDbArc
 50
71.1113357245
 51
71.8630416298
  0
ARC
  5
2ED
100
AcDbEntity
  8
LAYER_FEATURE
100
AcDbCircle
 62
7
  6
CONTINUOUS
 10
15.327399573
 20
12.1708787829
 40
1.5051505434
100
AcDbArc
 50
75.1518961206
 51
77.2264521565
  0
ARC
  5
2EE
100
AcDbEntity
  8
LAYER_FEATURE
100
AcDbCircle
 62
7
  6
CONTINUOUS
 10
16.1720415285
 20
11.608564424
 40
1.4976620906
100
AcDbArc
 50
79.7683111539
 51
80.5434452633
  0
ARC
  5
2EF
100
AcDbEntity
  8
LAYER_FEATURE
100
AcDbCircle
 62
7
  6
CONTINUOUS
 10
15.3355340212
 20
12.187685872
 40
1.4866383295
100
AcDbArc
 50
66.5182651847
 51
68.6080861166
  0
ARC
  5
2F0
100
AcDbEntity
  8
LAYER_FEATURE
100
AcDbCircle
 62
7
  6
CONTINUOUS
 10
14.3150912917
 20
12.2635493708
 40
1.4522666527
100
AcDbArc
 50
63.1419197292
 51
63.9336305361
  0
ARC
  5
2F1
100
AcDbEntity
  8
LAYER_FEATURE
100
AcDbCircle
 62
7
  6
CONTINUOUS
 10
15.3536908785
 20
12.3467092946
 40
1.327211674
100
AcDbArc
 50
84.0046000972
 51
86.2627607409
  0
ARC
  5
2F2
100
AcDbEntity
  8
LAYER_FEATURE
100
AcDbCircle
 62
7
  6
CONTINUOUS
 10
15.4337090687
 20
12.3768666399
 40
1.2732941616
100
AcDbArc
 50
57.2757537246
 51
59.5942392619
  0
ARC
  5
2F3
100
AcDbEntity
  8
LAYER_FEATURE
100
AcDbCircle
 62
7
  6
CONTINUOUS
 10
16.3419529024
 20
11.9766960398
 40
1.2453323329
100
AcDbArc
 50
89.0927490062
 51
89.9690474772
  0
ARC
  5
2F4
100
AcDbEntity
  8
LAYER_FEATURE
100
AcDbCircle
 62
7
  6
CONTINUOUS
 10
14.4223729884
 20
12.6828758436
 40
1.1696225166
100
AcDbArc
 50
53.4246664224
 51
54.3395763998
  0
ARC
  5
2F5
100
AcDbEntity
  8
LAYER_FEATURE
100
AcDbCircle
 62
7
  6
CONTINUOUS
 10
15.3517239387
 20
12.6459507519
 40
1.027613967
100
AcDbArc
 50
93.9702327816
 51
96.6449532874
  0
ARC
  5
2F6
100
AcDbEntity
  8
LAYER_FEATURE
100
AcDbCircle
 62
7
  6
CONTINUOUS
 10
15.6248891579
 20
12.6320892834
 40
0.9539865309
100
AcDbArc
 50
46.4369596254
 51
49.2476091865
  0
ARC
  5
2F7
100
AcDbEntity
  8
LAYER_FEATURE
100
AcDbCircle
 62
7
  6
CONTINUOUS
 10
16.3939883436
 20
12.4631776599
 40
0.9060591874
100
AcDbArc
 50
100.1013675138
 51
101.1843110876
  0
ARC
  5
2F8
100
AcDbEntity
  8
LAYER_FEATURE
100
AcDbCircle
 62
7
  6
CONTINUOUS
 10
14.684075553
 20
13.1025064037
 40
0.8266858463
100
AcDbArc
 50
41.6365518531
 51
42.7899464281
  0
ARC
  5
2F9
100
AcDbEntity
  8
LAYER_FEATURE
100
AcDbCircle
 62
7
  6
CONTINUOUS
 10
15.2879203668
 20
12.9665533262
 40
0.7001084193
100
AcDbArc
 50
106.2245813458
 51
109.6792478
  0
ARC
  5
2FA
100
AcDbEntity
  8
LAYER_FEATURE
100
AcDbCircle
 62
7
  6
CONTINUOUS
 10
15.862389734
 20
12.8431775978
 40
0.6355658453
100
AcDbArc
 50
32.600035287
 51
36.2848408495
  0
ARC
  5
2FB
100
AcDbEntity
  8
LAYER_FEATURE
100
AcDbCircle
 62
7
  6
CONTINUOUS
 10
16.3097391222
 20
12.9337165719
 40
0.591692834
100
AcDbArc
 50
114.2301641818
 51
115.6686294693
  0
ARC
  5
2FC
100
AcDbEntity
  8
LAYER_FEATURE
100
AcDbCircle
 62
7
  6
CONTINUOUS
 10
15.0297202731
 20
13.4113760779
 40
0.5313732862
100
AcDbArc
 50
26.191549848
 51
27.7403696981
  0
ARC
  5
2FD
100
AcDbEntity
  8
LAYER_FEATURE
100
AcDbCircle
 62
7
  6
CONTINUOUS
 10
15.178990547
 20
13.1963764866
 40
0.4449405757
100
AcDbArc
 50
122.435205886
 51
127.1090725918
  0
ARC
  5
2FE
100
AcDbEntity
  8
LAYER_FEATURE
100
AcDbCircle
 62
7
  6
CONTINUOUS
 10
16.0683065772
 20
12.9464953163
 40
0.4043224499
100
AcDbArc
 50
13.9795838462
 51
18.9615354445
  0
ARC
  5
2FF
100
AcDbEntity
  8
LAYER_FEATURE
100
AcDbCircle
 62
7
  6
CONTINUOUS
 10
16.1292221453
 20
13.2911347246
 40
0.3802879454
100
AcDbArc
 50
133.2556641225
 51
135.1874831292
  0
ARC
  5
300
100
AcDbEntity
  8
LAYER_FEATURE
100
AcDbCircle
 62
7
  6
CONTINUOUS
 10
15.3715004608
 20
13.5720172132
 40
0.3492887184
100
AcDbArc
 50
5.4219286987
 51
7.4700298774
  0
ARC
  5
301
100
AcDbEntity
  8
LAYER_FEATURE
100
AcDbCircle
 62
7
  6
CONTINUOUS
 10
15.0850495196
 20
13.2943591303
 40
0.3084522497
100
AcDbArc
 50
144.1439086177
 51
150.1112664372
  0
ARC
  5
302
100
AcDbEntity
  8
LAYER_FEATURE
100
AcDbCircle
 62
7
  6
CONTINUOUS
 10
15.9280747707
 20
13.5201327435
 40
0.2967031878
100
AcDbArc
 50
157.6040308289
 51
159.8852551342
  0
ARC
  5
303
100
AcDbEntity
  8
LAYER_FEATURE
100
AcDbCircle
 62
7
  6
CONTINUOUS
 10
16.175915142
 20
12.9604005411
 40
0.2951868588
100
AcDbArc
 50
349.9139411809
 51
356.0588216418
  0
ARC
  5
304
100
AcDbEntity
  8
LAYER_FEATURE
100
AcDbCircle
 62
7
  6
CONTINUOUS
 10
16.4807862617
 20
13.0787826189
 40
0.132518449
100
AcDbArc
 50
248.9250099671
 51
251.8672264336
  0
ARC
  5
305
100
AcDbEntity
  8
LAYER_FEATURE
100
AcDbCircle
 62
7
  6
CONTINUOUS
 10
14.908758767
 20
13.5928328529
 40
0.1323662929
100
AcDbArc
 50
251.898343758
 51
258.8992277599
  0
ARC
  5
306
100
AcDbEntity
  8
LAYER_FEATURE
100
AcDbCircle
 62
7
  6
CONTINUOUS
 10
15.10451367
 20
12.2079282533
 40
0.0861540161
100
AcDbArc
 50
30.0441417445
 51
34.3464923785
  0
ARC
  5
307
100
AcDbEntity
  8
LAYER_FEATURE
100
AcDbCircle
 62
7
  6
CONTINUOUS
 10
15.239730382
 20
13.6630222616
 40
0.0078171207
100
AcDbArc
 50
152.2543750392
 51
162.8028552035
  0
SPLINE
  5
308
100
AcDbEntity
  8
02___PRT_ALL_AXES
100
AcDbSpline
 62
7
  6
CONTINUOUS
 70
0
 71
3
 72
29
 73
25
 74
0
 42
0.0000001
 43
0.0000001
 44
0.0000000001
 40
0.0
 40
0.0
 40
0.0
 40
0.0
 40
0.0390264842
 40
0.0859247908
 40
0.1484525163
 40
0.1848017349
 40
0.2240905152
 40
0.2659599923
 40
0.3100316877
 40
0.3559053131
 40
0.4031574118
 40
0.4513429928
 40
0.5000000002
 40
0.5486570076
 40
0.5968425885
 40
0.6440946873
 40
0.6899683126
 40
0.7340400081
 40
0.7759094852
 40
0.8151982654
 40
0.851547484
 40
0.9140752094
 40
0.9609735158
 40
1.0
 40
1.0
 40
1.0
 40
1.0
 10
6.6958720839
 20
11.6940477814
 30
0.0
 10
6.694776457
 20
11.6982231252
 30
0.0
 10
6.6924445234
 20
11.7074370944
 30
0.0
 10
6.6887311704
 20
11.7234329968
 30
0.0
 10
6.6854944535
 20
11.7392315636
 30
0.0
 10
6.682793995
 20
11.754274056
 30
0.0
 10
6.6807417452
 20
11.7671092016
 30
0.0
 10
6.6788407192
 20
11.7808306742
 30
0.0
 10
6.6771654853
 20
11.7953152308
 30
0.0
 10
6.6757836128
 20
11.8104288721
 30
0.0
 10
6.6747522074
 20
11.8260267059
 30
0.0
 10
6.6741150442
 20
11.8419538625
 30
0.0
 10
6.6738994959
 20
11.8580477814
 30
0.0
 10
6.6741150442
 20
11.8741417003
 30
0.0
 10
6.6747522074
 20
11.890068857
 30
0.0
 10
6.6757836129
 20
11.9056666908
 30
0.0
 10
6.6771654853
 20
11.920780332
 30
0.0
 10
6.6788407192
 20
11.9352648886
 30
0.0
 10
6.6807417453
 20
11.9489863613
 30
0.0
 10
6.682793995
 20
11.9618215069
 30
0.0
 10
6.6854944535
 20
11.9768639992
 30
0.0
 10
6.6887311705
 20
11.992662566
 30
0.0
 10
6.6924445234
 20
12.0086584684
 30
0.0
 10
6.694776457
 20
12.0178724375
 30
0.0
 10
6.6958720839
 20
12.0220477814
 30
0.0
  0
SPLINE
  5
309
100
AcDbEntity
  8
02___PRT_ALL_AXES
100
AcDbSpline
 62
7
  6
CONTINUOUS
 70
0
 71
3
 72
29
 73
25
 74
0
 42
0.0000001
 43
0.0000001
 44
0.0000000001
 40
0.0
 40
0.0
 40
0.0
 40
0.0
 40
0.0390264856
 40
0.085924787
 40
0.1484525155
 40
0.1848017167
 40
0.2240905283
 40
0.2659600077
 40
0.310031729
 40
0.3559053354
 40
0.403157438
 40
0.4513430033
 40
0.5000000007
 40
0.5486569979
 40
0.5968425632
 40
0.6440946658
 40
0.6899682721
 40
0.7340399932
 40
0.7759094722
 40
0.8151982837
 40
0.8515474848
 40
0.9140752133
 40
0.9609735146
 40
1.0
 40
1.0
 40
1.0
 40
1.0
 10
14.9823552569
 20
6.0856247044
 30
0.0
 10
14.9781799132
 20
6.0845290764
 30
0.0
 10
14.9689659448
 20
6.0821971414
 30
0.0
 10
14.9529700423
 20
6.0784837891
 30
0.0
 10
14.9371714768
 20
6.0752470769
 30
0.0
 10
14.9221289836
 20
6.0725466117
 30
0.0
 10
14.9092938347
 20
6.0704943723
 30
0.0
 10
14.8955723577
 20
6.0685933292
 30
0.0
 10
14.8810877978
 20
6.0669181148
 30
0.0
 10
14.8659741571
 20
6.0655362231
 30
0.0
 10
14.8503763255
 20
6.0645048344
 30
0.0
 10
14.8344491718
 20
6.0638676597
 30
0.0
 10
14.8183552567
 20
6.063652119
 30
0.0
 10
14.8022613417
 20
6.0638676597
 30
0.0
 10
14.7863341879
 20
6.0645048344
 30
0.0
 10
14.7707363564
 20
6.0655362232
 30
0.0
 10
14.7556227157
 20
6.0669181149
 30
0.0
 10
14.7411381559
 20
6.0685933293
 30
0.0
 10
14.727416679
 20
6.0704943723
 30
0.0
 10
14.7145815301
 20
6.0725466118
 30
0.0
 10
14.6995390369
 20
6.0752470769
 30
0.0
 10
14.6837404715
 20
6.0784837891
 30
0.0
 10
14.667744569
 20
6.0821971414
 30
0.0
 10
14.6585306006
 20
6.0845290764
 30
0.0
 10
14.6543552569
 20
6.0856247044
 30
0.0
  0
SPLINE
  5
30A
100
AcDbEntity
  8
02___PRT_ALL_AXES
100
AcDbSpline
 62
7
  6
CONTINUOUS
 70
0
 71
3
 72
57
 73
53
 74
0
 42
0.0000001
 43
0.0000001
 44
0.0000000001
 40
0.0
 40
0.0
 40
0.0
 40
0.0
 40
0.0135651435
 40
0.0276380776
 40
0.042197792
 40
0.0572244863
 40
0.0726965398
 40
0.0885908877
 40
0.1048836619
 40
0.1215503691
 40
0.1385658413
 40
0.1559044936
 40
0.1914470162
 40
0.2279703928
 40
0.2652669266
 40
0.3031320207
 40
0.3413658279
 40
0.3797743365
 40
0.4181699987
 40
0.4563721876
 40
0.4942076556
 40
0.5315112754
 40
0.5681271587
 40
0.5861326972
 40
0.6039129554
 40
0.6214518494
 40
0.6387342391
 40
0.6557460347
 40
0.672474262
 40
0.7050301957
 40
0.7208423259
 40
0.7363317821
 40
0.7514923063
 40
0.7663191864
 40
0.7808092088
 40
0.7949608116
 40
0.808773993
 40
0.8222503787
 40
0.8482003351
 40
0.8606926478
 40
0.8728712487
 40
0.8963201771
 40
0.9076247078
 40
0.918666202
 40
0.9294618838
 40
0.9400309144
 40
0.9503943839
 40
0.9605753217
 40
0.9705986989
 40
0.9804913077
 40
0.9902817085
 40
1.0
 40
1.0
 40
1.0
 40
1.0
 10
15.7512126088
 20
11.6770996241
 30
0.0
 10
15.7505532602
 20
11.6784432353
 30
0.0
 10
15.7492367962
 20
11.6811940314
 30
0.0
 10
15.7473023931
 20
11.6854291694
 30
0.0
 10
15.7453747074
 20
11.6898439112
 30
0.0
 10
15.7434574805
 20
11.6944309621
 30
0.0
 10
15.7415545839
 20
11.6991829637
 30
0.0
 10
15.7396701095
 20
11.7040922198
 30
0.0
 10
15.7378083389
 20
11.7091508161
 30
0.0
 10
15.7359736824
 20
11.7143506594
 30
0.0
 10
15.7341706858
 20
11.7196835285
 30
0.0
 10
15.7317956046
 20
11.7270207275
 30
0.0
 10
15.7289398739
 20
11.7364637493
 30
0.0
 10
15.7257429396
 20
11.7481000834
 30
0.0
 10
15.7227882343
 20
11.7600645461
 30
0.0
 10
15.7201160764
 20
11.7722886441
 30
0.0
 10
15.7177667019
 20
11.7847039457
 30
0.0
 10
15.7157797642
 20
11.797241896
 30
0.0
 10
15.714193776
 20
11.8098336307
 30
0.0
 10
15.713045445
 20
11.8224096517
 30
0.0
 10
15.7123688796
 20
11.834899656
 30
0.0
 10
15.7121946869
 20
11.8472320423
 30
0.0
 10
15.7124914705
 20
11.8573738466
 30
0.0
 10
15.7130089596
 20
11.8653459807
 30
0.0
 10
15.7135343962
 20
11.8712065473
 30
0.0
 10
15.7142008163
 20
11.8769724758
 30
0.0
 10
15.7150090988
 20
11.882634628
 30
0.0
 10
15.7159597598
 20
11.8881840453
 30
0.0
 10
15.7174038181
 20
11.8953553853
 30
0.0
 10
15.7191378626
 20
11.902331042
 30
0.0
 10
15.721175458
 20
11.9090766426
 30
0.0
 10
15.7228251474
 20
11.9139313669
 30
0.0
 10
15.724608127
 20
11.9186226286
 30
0.0
 10
15.7265208958
 20
11.9231430694
 30
0.0
 10
15.7285595607
 20
11.9274855656
 30
0.0
 10
15.7307195082
 20
11.931643414
 30
0.0
 10
15.7329959776
 20
11.9356104763
 30
0.0
 10
15.7361392528
 20
11.9405742554
 30
0.0
 10
15.7395272713
 20
11.945205762
 30
0.0
 10
15.743152374
 20
11.9494573476
 30
0.0
 10
15.7467997463
 20
11.9533176191
 30
0.0
 10
15.7506498247
 20
11.9567990683
 30
0.0
 10
15.7546797658
 20
11.9598507688
 30
0.0
 10
15.7577229481
 20
11.9618822399
 30
0.0
 10
15.7608155772
 20
11.9636811744
 30
0.0
 10
15.7639500633
 20
11.9652454123
 30
0.0
 10
15.7671186274
 20
11.9665728792
 30
0.0
 10
15.7703134639
 20
11.9676618009
 30
0.0
 10
15.7735266731
 20
11.9685106951
 30
0.0
 10
15.7767504318
 20
11.9691182527
 30
0.0
 10
15.7799765591
 20
11.9694835344
 30
0.0
 10
15.782129856
 20
11.9695652301
 30
0.0
 10
15.7832020975
 20
11.9695652336
 30
0.0
  0
SPLINE
  5
30B
100
AcDbEntity
  8
02___PRT_ALL_AXES
100
AcDbSpline
 62
7
  6
CONTINUOUS
 70
0
 71
3
 72
29
 73
25
 74
0
 42
0.0000001
 43
0.0000001
 44
0.0000000001
 40
0.0
 40
0.0
 40
0.0
 40
0.0
 40
0.076650232
 40
0.1514771362
 40
0.2243392264
 40
0.2951260984
 40
0.3637622322
 40
0.4302117144
 40
0.4944817584
 40
0.5566261419
 40
0.6167477533
 40
0.6750002996
 40
0.7034935319
 40
0.7316005546
 40
0.7593547686
 40
0.7867923631
 40
0.8139523319
 40
0.8408760083
 40
0.8676069741
 40
0.8941905614
 40
0.9206735898
 40
0.9471038964
 40
0.9735298496
 40
1.0
 40
1.0
 40
1.0
 40
1.0
 10
14.9848983209
 20
12.0656058543
 30
0.0
 10
14.9818531557
 20
12.0656058543
 30
0.0
 10
14.97583442
 20
12.0657282628
 30
0.0
 10
14.9669369941
 20
12.0662931415
 30
0.0
 10
14.9583055453
 20
12.0672362203
 30
0.0
 10
14.9499722351
 20
12.0685558544
 30
0.0
 10
14.9419667149
 20
12.0702498279
 30
0.0
 10
14.9343163314
 20
12.0723154305
 30
0.0
 10
14.9270460442
 20
12.0747495274
 30
0.0
 10
14.9201783867
 20
12.0775487189
 30
0.0
 10
14.9137340485
 20
12.0807090576
 30
0.0
 10
14.908694509
 20
12.0836622645
 30
0.0
 10
14.9049021401
 20
12.0862014598
 30
0.0
 10
14.9021952771
 20
12.0881789298
 30
0.0
 10
14.8996069582
 20
12.0902425905
 30
0.0
 10
14.8971387949
 20
12.0923917583
 30
0.0
 10
14.8947923318
 20
12.094625637
 30
0.0
 10
14.8925690481
 20
12.0969434441
 30
0.0
 10
14.8904702852
 20
12.0993442858
 30
0.0
 10
14.888497363
 20
12.1018272772
 30
0.0
 10
14.8866514424
 20
12.1043913969
 30
0.0
 10
14.8849336756
 20
12.1070356498
 30
0.0
 10
14.8833450863
 20
12.109758794
 30
0.0
 10
14.8823741091
 20
12.1116235555
 30
0.0
 10
14.8819108315
 20
12.1125676174
 30
0.0
  0
SPLINE
  5
30C
100
AcDbEntity
  8
LAYER_CUT_FEAT
100
AcDbSpline
 62
7
  6
CONTINUOUS
 70
0
 71
3
 72
22
 73
18
 74
0
 42
0.0000001
 43
0.0000001
 44
0.0000000001
 40
0.0
 40
0.0
 40
0.0
 40
0.0
 40
0.1374310868
 40
0.2044174834
 40
0.2703029334
 40
0.3351387505
 40
0.3989833255
 40
0.461901401
 40
0.5239638501
 40
0.5852477197
 40
0.6458358387
 40
0.7058164069
 40
0.7652825609
 40
0.8243317167
 40
0.8830648511
 40
0.9415857288
 40
1.0
 40
1.0
 40
1.0
 40
1.0
 10
14.6394945758
 20
12.0597971517
 30
0.0
 10
14.6355107563
 20
12.0683574501
 30
0.0
 10
14.6300367425
 20
12.0813100024
 30
0.0
 10
14.623826822
 20
12.0988152956
 30
0.0
 10
14.6198038707
 20
12.1117931957
 30
0.0
 10
14.6163801984
 20
12.1247185976
 30
0.0
 10
14.6135587902
 20
12.1375803256
 30
0.0
 10
14.6113423094
 20
12.1503668187
 30
0.0
 10
14.6097328898
 20
12.1630666883
 30
0.0
 10
14.6087320722
 20
12.1756685514
 30
0.0
 10
14.6083408683
 20
12.1881611058
 30
0.0
 10
14.608559785
 20
12.2005331149
 30
0.0
 10
14.6093887068
 20
12.212773433
 30
0.0
 10
14.6108269647
 20
12.2248709758
 30
0.0
 10
14.6128734087
 20
12.2368149007
 30
0.0
 10
14.6155260879
 20
12.2485939745
 30
0.0
 10
14.6176980868
 20
12.256333045
 30
0.0
 10
14.6188829822
 20
12.2601673633
 30
0.0
  0
SPLINE
  5
30D
100
AcDbEntity
  8
LAYER_CHAMFER_FEAT
100
AcDbSpline
 62
7
  6
CONTINUOUS
 70
0
 71
3
 72
23
 73
19
 74
0
 42
0.0000001
 43
0.0000001
 44
0.0000000001
 40
0.0
 40
0.0
 40
0.0
 40
0.0
 40
0.0739465056
 40
0.1460970199
 40
0.2164559463
 40
0.2850422284
 40
0.3518903436
 40
0.4170514138
 40
0.4805940853
 40
0.5426051655
 40
0.6031901603
 40
0.6624735576
 40
0.7205984611
 40
0.7777257448
 40
0.8340326645
 40
0.8897107414
 40
0.9449628871
 40
1.0
 40
1.0
 40
1.0
 40
1.0
 10
14.9926084327
 20
11.7327445124
 30
0.0
 10
14.9899259123
 20
11.7319226016
 30
0.0
 10
14.9846583613
 20
11.7301905087
 30
0.0
 10
14.9769726937
 20
11.7272889053
 30
0.0
 10
14.9696134596
 20
11.7241209377
 30
0.0
 10
14.9625948779
 20
11.7206925795
 30
0.0
 10
14.9559303305
 20
11.7170102018
 30
0.0
 10
14.9496325977
 20
11.7130806771
 30
0.0
 10
14.9437137715
 20
11.7089113424
 30
0.0
 10
14.9381852823
 20
11.7045099686
 30
0.0
 10
14.9330578836
 20
11.6998847621
 30
0.0
 10
14.9283415933
 20
11.6950444117
 30
0.0
 10
14.924045708
 20
11.6899980524
 30
0.0
 10
14.9201787887
 20
11.684755251
 30
0.0
 10
14.91674862
 20
11.679326086
 30
0.0
 10
14.9137620784
 20
11.6737209518
 30
0.0
 10
14.9112253537
 20
11.6679512568
 30
0.0
 10
14.9098362843
 20
11.6639989391
 30
0.0
 10
14.909219752
 20
11.6620038618
 30
0.0
  0
SPLINE
  5
30E
100
AcDbEntity
  8
LAYER_CHAMFER_FEAT
100
AcDbSpline
 62
7
  6
CONTINUOUS
 70
0
 71
3
 72
24
 73
20
 74
0
 42
0.0000001
 43
0.0000001
 44
0.0000000001
 40
0.0
 40
0.0
 40
0.0
 40
0.0
 40
0.0739182366
 40
0.1460435153
 40
0.2163805335
 40
0.2849485988
 40
0.3517825777
 40
0.3845675843
 40
0.4169398028
 40
0.4804769123
 40
0.5424868422
 40
0.6030750926
 40
0.6623658989
 40
0.720502053
 40
0.777644076
 40
0.8339686994
 40
0.8896667676
 40
0.9449404902
 40
1.0
 40
1.0
 40
1.0
 40
1.0
 10
15.3581681675
 20
11.6196092145
 30
0.0
 10
15.3599112146
 20
11.6174211161
 30
0.0
 10
15.3632674376
 20
11.6130272121
 30
0.0
 10
15.3679536127
 20
11.6063083496
 30
0.0
 10
15.3722214917
 20
11.5995542093
 30
0.0
 10
15.3760627221
 20
11.5927778136
 30
0.0
 10
15.3789202804
 20
11.5870866374
 30
0.0
 10
15.3809815726
 20
11.5825358451
 30
0.0
 10
15.3828699762
 20
11.5780457434
 30
0.0
 10
15.3849571886
 20
11.5724417223
 30
0.0
 10
15.3870261306
 20
11.5657036059
 30
0.0
 10
15.3886395508
 20
11.5590069242
 30
0.0
 10
15.3897940327
 20
11.5523645283
 30
0.0
 10
15.3904870842
 20
11.5457890973
 30
0.0
 10
15.3907170911
 20
11.5392932893
 30
0.0
 10
15.3904833332
 20
11.5328897296
 30
0.0
 10
15.3897859561
 20
11.5265908021
 30
0.0
 10
15.3886262894
 20
11.5204093421
 30
0.0
 10
15.3875454022
 20
11.5163710559
 30
0.0
 10
15.3869301678
 20
11.514380178
 30
0.0
  0
SPLINE
  5
30F
100
AcDbEntity
  8
LAYER_FEATURE
100
AcDbSpline
 62
7
  6
CONTINUOUS
 70
0
 71
3
 72
39
 73
35
 74
0
 42
0.0000001
 43
0.0000001
 44
0.0000000001
 40
0.0
 40
0.0
 40
0.0
 40
0.0
 40
0.0202790493
 40
0.0417769542
 40
0.0645047555
 40
0.0884573794
 40
0.1136160217
 40
0.1399501485
 40
0.1674191574
 40
0.1959737122
 40
0.2255568458
 40
0.256104869
 40
0.2875482259
 40
0.3198122328
 40
0.3528177176
 40
0.3864815954
 40
0.4207174025
 40
0.455435848
 40
0.4905453075
 40
0.5259522915
 40
0.561561898
 40
0.5972782766
 40
0.6330050904
 40
0.6686459552
 40
0.704104877
 40
0.7392867093
 40
0.7740976156
 40
0.8084455385
 40
0.8422406233
 40
0.8753957499
 40
0.9078271957
 40
0.9394542625
 40
0.9702029825
 40
1.0
 40
1.0
 40
1.0
 40
1.0
 10
15.8125127035
 20
11.9244621072
 30
0.0
 10
15.8134096884
 20
11.9233874819
 30
0.0
 10
15.8151756544
 20
11.921104373
 30
0.0
 10
15.8176701895
 20
11.9174132293
 30
0.0
 10
15.8200795286
 20
11.9133679248
 30
0.0
 10
15.8223960849
 20
11.908981319
 30
0.0
 10
15.8246127396
 20
11.9042670487
 30
0.0
 10
15.8267225473
 20
11.8992399226
 30
0.0
 10
15.8287188728
 20
11.8939157434
 30
0.0
 10
15.8305954031
 20
11.8883112925
 30
0.0
 10
15.8323461833
 20
11.8824442654
 30
0.0
 10
15.8339656547
 20
11.8763332205
 30
0.0
 10
15.835448668
 20
11.8699975096
 30
0.0
 10
15.8367905001
 20
11.863457211
 30
0.0
 10
15.8379868721
 20
11.8567330631
 30
0.0
 10
15.8390339651
 20
11.8498463997
 30
0.0
 10
15.8399284448
 20
11.8428190821
 30
0.0
 10
15.8406674596
 20
11.8356734237
 30
0.0
 10
15.8412486515
 20
11.8284321172
 30
0.0
 10
15.8416701622
 20
11.8211181628
 30
0.0
 10
15.8419306444
 20
11.8137547952
 30
0.0
 10
15.8420292721
 20
11.8063654086
 30
0.0
 10
15.8419657317
 20
11.7989734799
 30
0.0
 10
15.8417402255
 20
11.7916024937
 30
0.0
 10
15.841353468
 20
11.7842758686
 30
0.0
 10
15.8408066937
 20
11.7770168805
 30
0.0
 10
15.8401016522
 20
11.769848586
 30
0.0
 10
15.8392405928
 20
11.7627937511
 30
0.0
 10
15.8382262619
 20
11.7558747789
 30
0.0
 10
15.8370618903
 20
11.7491136235
 30
0.0
 10
15.8357511885
 20
11.7425317823
 30
0.0
 10
15.8342983461
 20
11.7361500117
 30
0.0
 10
15.8327079837
 20
11.7299887435
 30
0.0
 10
15.8315402364
 20
11.7259750957
 30
0.0
 10
15.8309329788
 20
11.7240100095
 30
0.0
  0
SPLINE
  5
310
100
AcDbEntity
  8
LAYER_FEATURE
100
AcDbSpline
 62
7
  6
CONTINUOUS
 70
0
 71
3
 72
19
 73
15
 74
0
 42
0.0000001
 43
0.0000001
 44
0.0000000001
 40
0.0
 40
0.0
 40
0.0
 40
0.0
 40
0.0507389265
 40
0.1030521665
 40
0.1569557957
 40
0.2124597134
 40
0.2695679898
 40
0.3282785733
 40
0.3885852329
 40
0.4504764928
 40
0.5789394154
 40
0.7135033147
 40
0.8539513379
 40
1.0
 40
1.0
 40
1.0
 40
1.0
 10
15.812512703
 20
11.6866683702
 30
0.0
 10
15.8129667206
 20
11.6872123059
 30
0.0
 10
15.8138680778
 20
11.6883345375
 30
0.0
 10
15.8151802463
 20
11.6900905619
 30
0.0
 10
15.8164720379
 20
11.6919433468
 30
0.0
 10
15.8177423514
 20
11.693891321
 30
0.0
 10
15.8189901245
 20
11.6959328766
 30
0.0
 10
15.820214353
 20
11.6980662867
 30
0.0
 10
15.8214139891
 20
11.7002897998
 30
0.0
 10
15.8229990725
 20
11.7034108901
 30
0.0
 10
15.8249081561
 20
11.7075287281
 30
0.0
 10
15.8270578483
 20
11.7127382606
 30
0.0
 10
15.8290866938
 20
11.718258253
 30
0.0
 10
15.8303308446
 20
11.7220615024
 30
0.0
 10
15.8309329788
 20
11.7240100095
 30
0.0
  0
SPLINE
  5
311
100
AcDbEntity
  8
02___PRT_ALL_AXES
100
AcDbSpline
 62
7
  6
CONTINUOUS
 70
0
 71
3
 72
33
 73
29
 74
0
 42
0.0000001
 43
0.0000001
 44
0.0000000001
 40
0.0
 40
0.0
 40
0.0
 40
0.0
 40
0.0186496881
 40
0.0375010429
 40
0.0566628254
 40
0.0762384894
 40
0.0963248343
 40
0.1170104378
 40
0.1383758176
 40
0.1604935279
 40
0.1834274136
 40
0.2072336297
 40
0.2319616193
 40
0.2576536061
 40
0.2843455978
 40
0.3120687331
 40
0.3408487112
 40
0.3707063755
 40
0.4016592305
 40
0.4337208054
 40
0.4669007187
 40
0.5012063068
 40
0.5732058759
 40
0.649728175
 40
0.7307413659
 40
0.8161854248
 40
0.9059793414
 40
1.0
 40
1.0
 40
1.0
 40
1.0
 10
15.7832020974
 20
11.641565241
 30
0.0
 10
15.7828930068
 20
11.6415652391
 30
0.0
 10
15.7822712262
 20
11.6415893735
 30
0.0
 10
15.7813374984
 20
11.641697292
 30
0.0
 10
15.7803992434
 20
11.6418769626
 30
0.0
 10
15.7794564669
 20
11.6421282902
 30
0.0
 10
15.7785090752
 20
11.6424511649
 30
0.0
 10
15.777556978
 20
11.6428454115
 30
0.0
 10
15.7766000762
 20
11.6433108607
 30
0.0
 10
15.7756382868
 20
11.6438473466
 30
0.0
 10
15.7746715215
 20
11.6444546565
 30
0.0
 10
15.7736997094
 20
11.6451325717
 30
0.0
 10
15.7727228097
 20
11.6458808712
 30
0.0
 10
15.7717407915
 20
11.6466992908
 30
0.0
 10
15.770753646
 20
11.6475875425
 30
0.0
 10
15.7697613996
 20
11.6485453246
 30
0.0
 10
15.7687640957
 20
11.6495722927
 30
0.0
 10
15.7677618001
 20
11.6506680679
 30
0.0
 10
15.7667546117
 20
11.651832248
 30
0.0
 10
15.7657426533
 20
11.653064389
 30
0.0
 10
15.7647260586
 20
11.6543640069
 30
0.0
 10
15.7633423083
 20
11.6562160809
 30
0.0
 10
15.7616052129
 20
11.6586998365
 30
0.0
 10
15.7595378399
 20
11.6618940629
 30
0.0
 10
15.7574575625
 20
11.6653428615
 30
0.0
 10
15.7553669859
 20
11.6690402362
 30
0.0
 10
15.7532692377
 20
11.6729794696
 30
0.0
 10
15.7518990851
 20
11.6757007326
 30
0.0
 10
15.7512126088
 20
11.6770996241
 30
0.0
  0
SPLINE
  5
312
100
AcDbEntity
  8
LAYER_FEATURE
100
AcDbSpline
 62
7
  6
CONTINUOUS
 70
0
 71
3
 72
39
 73
35
 74
0
 42
0.0000001
 43
0.0000001
 44
0.0000000001
 40
0.0
 40
0.0
 40
0.0
 40
0.0
 40
0.0258981417
 40
0.0518395451
 40
0.0778671152
 40
0.1040230565
 40
0.1303485374
 40
0.1568833884
 40
0.1836658381
 40
0.2107322671
 40
0.2381170065
 40
0.2658521946
 40
0.2939676481
 40
0.3224907634
 40
0.3514464879
 40
0.3808572956
 40
0.410743167
 40
0.4411216378
 40
0.472007849
 40
0.5034145751
 40
0.5353523089
 40
0.5678293535
 40
0.6008518794
 40
0.6344240098
 40
0.6685479347
 40
0.7032239805
 40
0.7384506816
 40
0.7742248984
 40
0.8105418933
 40
0.8473953852
 40
0.8847776589
 40
0.9226796441
 40
0.9610909587
 40
1.0
 40
1.0
 40
1.0
 40
1.0
 10
14.3131483121
 20
12.3546465222
 30
0.0
 10
14.3114996053
 20
12.3493113004
 30
0.0
 10
14.30846556
 20
12.3385476104
 30
0.0
 10
14.3047199043
 20
12.3221742899
 30
0.0
 10
14.3017808385
 20
12.3055803137
 30
0.0
 10
14.2996509238
 20
12.2887799453
 30
0.0
 10
14.2983317756
 20
12.2717869474
 30
0.0
 10
14.2978243666
 20
12.2546153966
 30
0.0
 10
14.2981290126
 20
12.2372794401
 30
0.0
 10
14.2992453324
 20
12.2197933491
 30
0.0
 10
14.3011722396
 20
12.202171481
 30
0.0
 10
14.3039080241
 20
12.1844282781
 30
0.0
 10
14.30745032
 20
12.1665782594
 30
0.0
 10
14.3117960608
 20
12.1486359973
 30
0.0
 10
14.316941568
 20
12.1306161229
 30
0.0
 10
14.322882543
 20
12.1125333218
 30
0.0
 10
14.3296140008
 20
12.0944023022
 30
0.0
 10
14.3371303456
 20
12.0762378051
 30
0.0
 10
14.3454253845
 20
12.0580546042
 30
0.0
 10
14.3544922644
 20
12.039867469
 30
0.0
 10
14.3643235156
 20
12.021691168
 30
0.0
 10
14.3749110889
 20
12.0035404762
 30
0.0
 10
14.3862463079
 20
11.9854301403
 30
0.0
 10
14.3983198779
 20
11.967374864
 30
0.0
 10
14.41112194
 20
11.9493893267
 30
0.0
 10
14.4246420456
 20
11.9314881555
 30
0.0
 10
14.4388691359
 20
11.9136858905
 30
0.0
 10
14.4537916048
 20
11.8959970112
 30
0.0
 10
14.4693972931
 20
11.8784359202
 30
0.0
 10
14.4856734569
 20
11.8610168899
 30
0.0
 10
14.5026068131
 20
11.8437541013
 30
0.0
 10
14.5201835997
 20
11.8266615944
 30
0.0
 10
14.5383893615
 20
11.80975338
 30
0.0
 10
14.5508573514
 20
11.7986830555
 30
0.0
 10
14.5571908918
 20
11.7931811342
 30
0.0
  0
SPLINE
  5
313
100
AcDbEntity
  8
LAYER_FEATURE
100
AcDbSpline
 62
7
  6
CONTINUOUS
 70
0
 71
3
 72
30
 73
26
 74
0
 42
0.0000001
 43
0.0000001
 44
0.0000000001
 40
0.0
 40
0.0
 40
0.0
 40
0.0
 40
0.0286230997
 40
0.0572638777
 40
0.0859399597
 40
0.1146688627
 40
0.1434679425
 40
0.1723543507
 40
0.2013449662
 40
0.2304563802
 40
0.2597048136
 40
0.2891061123
 40
0.3186756878
 40
0.3484284816
 40
0.4085353716
 40
0.4695419799
 40
0.531548598
 40
0.594646051
 40
0.6589154239
 40
0.7244279611
 40
0.7576721055
 40
0.7912492489
 40
0.8594228329
 40
0.9289952864
 40
1.0
 40
1.0
 40
1.0
 40
1.0
 10
14.6568824913
 20
13.4669707339
 30
0.0
 10
14.655880695
 20
13.4637289169
 30
0.0
 10
14.6539747301
 20
13.4572124495
 30
0.0
 10
14.6514120932
 20
13.447350886
 30
0.0
 10
14.6491461693
 20
13.4374039899
 30
0.0
 10
14.6471776452
 20
13.4273749029
 30
0.0
 10
14.6455071013
 20
13.4172666317
 30
0.0
 10
14.6441350767
 20
13.4070822439
 30
0.0
 10
14.6430619172
 20
13.3968248291
 30
0.0
 10
14.6422880128
 20
13.3864974897
 30
0.0
 10
14.6418135236
 20
13.3761033502
 30
0.0
 10
14.6416386215
 20
13.3656455791
 30
0.0
 10
14.6417633534
 20
13.3551272454
 30
0.0
 10
14.6423309052
 20
13.3409795293
 30
0.0
 10
14.6437977749
 20
13.3231456578
 30
0.0
 10
14.646748837
 20
13.3016293904
 30
0.0
 10
14.6508926871
 20
13.2799497985
 30
0.0
 10
14.6562239582
 20
13.2581334567
 30
0.0
 10
14.6627357723
 20
13.2362067587
 30
0.0
 10
14.6691080292
 20
13.2179540097
 30
0.0
 10
14.6747777153
 20
13.2033259537
 30
0.0
 10
14.6808919762
 20
13.1885360756
 30
0.0
 10
14.6892666849
 20
13.1700264345
 30
0.0
 10
14.7004054483
 20
13.147921872
 30
0.0
 10
14.708499227
 20
13.133349076
 30
0.0
 10
14.7127259181
 20
13.1260701176
 30
0.0
  0
SPLINE
  5
314
100
AcDbEntity
  8
LAYER_FEATURE
100
AcDbSpline
 62
7
  6
CONTINUOUS
 70
0
 71
3
 72
39
 73
35
 74
0
 42
0.0000001
 43
0.0000001
 44
0.0000000001
 40
0.0
 40
0.0
 40
0.0
 40
0.0
 40
0.0258979503
 40
0.0518391644
 40
0.0778665499
 40
0.1040223132
 40
0.1303476239
 40
0.1568823152
 40
0.1836646182
 40
0.2107309126
 40
0.2381155321
 40
0.2658506176
 40
0.2939659841
 40
0.3224890291
 40
0.3514447026
 40
0.3808554771
 40
0.4107413317
 40
0.4411198051
 40
0.4720060373
 40
0.5034127995
 40
0.5353505866
 40
0.5678277023
 40
0.6008503117
 40
0.6344225397
 40
0.6685465773
 40
0.7032227456
 40
0.738449579
 40
0.7742239393
 40
0.8105410845
 40
0.8473947317
 40
0.8847771666
 40
0.9226793158
 40
0.9610907987
 40
1.0
 40
1.0
 40
1.0
 40
1.0
 10
16.2698502009
 20
11.7499799055
 30
0.0
 10
16.2682014459
 20
11.7446445274
 30
0.0
 10
16.2646338494
 20
11.7340453739
 30
0.0
 10
16.2584889175
 20
11.7184129726
 30
0.0
 10
16.2515534791
 20
11.7030534581
 30
0.0
 10
16.2438334699
 20
11.6879800534
 30
0.0
 10
16.2353353299
 20
11.6732050295
 30
0.0
 10
16.2260661913
 20
11.6587405621
 30
0.0
 10
16.2160337719
 20
11.6445985142
 30
0.0
 10
16.2052464487
 20
11.6307904477
 30
0.0
 10
16.1937132148
 20
11.6173276079
 30
0.0
 10
16.1814436262
 20
11.6042209603
 30
0.0
 10
16.1684478364
 20
11.5914811513
 30
0.0
 10
16.1547365981
 20
11.5791184848
 30
0.0
 10
16.1403211991
 20
11.567142972
 30
0.0
 10
16.1252134791
 20
11.5555643094
 30
0.0
 10
16.1094258552
 20
11.5443918268
 30
0.0
 10
16.0929712608
 20
11.5336345441
 30
0.0
 10
16.0758631462
 20
11.5233011664
 30
0.0
 10
16.0581155079
 20
11.5134000153
 30
0.0
 10
16.0397428429
 20
11.5039390767
 30
0.0
 10
16.0207601334
 20
11.4949260122
 30
0.0
 10
16.0011828686
 20
11.4863680938
 30
0.0
 10
15.9810270175
 20
11.4782722231
 30
0.0
 10
15.9603090018
 20
11.4706449634
 30
0.0
 10
15.9390457058
 20
11.4634924886
 30
0.0
 10
15.917254464
 20
11.4568205675
 30
0.0
 10
15.8949530283
 20
11.450634613
 30
0.0
 10
15.8721595671
 20
11.4449396515
 30
0.0
 10
15.848892657
 20
11.4397402762
 30
0.0
 10
15.8251712663
 20
11.435040707
 30
0.0
 10
15.8010146803
 20
11.430844771
 30
0.0
 10
15.7764427432
 20
11.4271558759
 30
0.0
 10
15.7599021722
 20
11.4250499041
 30
0.0
 10
15.7515684501
 20
11.4240805282
 30
0.0
  0
SPLINE
  5
315
100
AcDbEntity
  8
LAYER_FEATURE
100
AcDbSpline
 62
7
  6
CONTINUOUS
 70
0
 71
3
 72
30
 73
26
 74
0
 42
0.0000001
 43
0.0000001
 44
0.0000000001
 40
0.0
 40
0.0
 40
0.0
 40
0.0
 40
0.0286230326
 40
0.0572637442
 40
0.0859397604
 40
0.1146685998
 40
0.1434676173
 40
0.1723539663
 40
0.2013445258
 40
0.2304558862
 40
0.2597042716
 40
0.2891055243
 40
0.3186750609
 40
0.3484278191
 40
0.4085346565
 40
0.4695412351
 40
0.5315478484
 40
0.5946453235
 40
0.6589147469
 40
0.7244273641
 40
0.7576715597
 40
0.7912487616
 40
0.8594224819
 40
0.928995098
 40
1.0
 40
1.0
 40
1.0
 40
1.0
 10
16.6135843802
 20
12.8623041171
 30
0.0
 10
16.6125825679
 20
12.8590622486
 30
0.0
 10
16.6104798055
 20
12.8526064832
 30
0.0
 10
16.6070319936
 20
12.8430182904
 30
0.0
 10
16.6032910562
 20
12.8335270384
 30
0.0
 10
16.5992581779
 20
12.8241357172
 30
0.0
 10
16.5949345976
 20
12.8148471275
 30
0.0
 10
16.5903215835
 20
12.8056641145
 30
0.0
 10
16.5854206019
 20
12.7965894203
 30
0.0
 10
16.5802330838
 20
12.7876258244
 30
0.0
 10
16.5747606474
 20
12.7787760051
 30
0.0
 10
16.5690049568
 20
12.7700426635
 30
0.0
 10
16.562967685
 20
12.7614283738
 30
0.0
 10
16.5545171504
 20
12.7500672411
 30
0.0
 10
16.5432443854
 20
12.736169952
 30
0.0
 10
16.5286686026
 20
12.720069584
 30
0.0
 10
16.5130158098
 20
12.7045073221
 30
0.0
 10
16.4963054328
 20
12.6895020801
 30
0.0
 10
16.4785580411
 20
12.675071771
 30
0.0
 10
16.4629986664
 20
12.6635961955
 30
0.0
 10
16.4500643872
 20
12.6547170361
 30
0.0
 10
16.4366717313
 20
12.6459550886
 30
0.0
 10
16.4193140339
 20
12.6353971681
 30
0.0
 10
16.3976459129
 20
12.6234304862
 30
0.0
 10
16.3827412908
 20
12.6159646032
 30
0.0
 10
16.3751447176
 20
12.6123392497
 30
0.0
  0
SPLINE
  5
316
100
AcDbEntity
  8
LAYER_CUT_FEAT
100
AcDbSpline
 62
7
  6
CONTINUOUS
 70
0
 71
3
 72
22
 73
18
 74
0
 42
0.0000001
 43
0.0000001
 44
0.0000000001
 40
0.0
 40
0.0
 40
0.0
 40
0.0
 40
0.0584138824
 40
0.1169343858
 40
0.1756671724
 40
0.2347160217
 40
0.2941819247
 40
0.354162304
 40
0.4147503097
 40
0.4760341562
 40
0.5380966685
 40
0.6010149003
 40
0.6648597724
 40
0.7296959557
 40
0.7955817802
 40
0.8625691233
 40
1.0
 40
1.0
 40
1.0
 40
1.0
 10
15.9641155308
 20
11.8444590643
 30
0.0
 10
15.9629305534
 20
11.8406244808
 30
0.0
 10
15.9603575363
 20
11.8330087511
 30
0.0
 10
15.9559019543
 20
11.8217859457
 30
0.0
 10
15.9508527516
 20
11.8107690771
 30
0.0
 10
15.9452146468
 20
11.7999685255
 30
0.0
 10
15.938992805
 20
11.789393897
 30
0.0
 10
15.9321929388
 20
11.779054717
 30
0.0
 10
15.9248212363
 20
11.7689602576
 30
0.0
 10
15.9168844535
 20
11.7591195164
 30
0.0
 10
15.9083898133
 20
11.7495412485
 30
0.0
 10
15.8993450056
 20
11.7402339867
 30
0.0
 10
15.8897582152
 20
11.7312059398
 30
0.0
 10
15.8796381811
 20
11.7224651459
 30
0.0
 10
15.8689936534
 20
11.7140191276
 30
0.0
 10
15.8539887831
 20
11.7030689026
 30
0.0
 10
15.8421604472
 20
11.6954626333
 30
0.0
 10
15.8340409066
 20
11.6906422771
 30
0.0
  0
SPLINE
  5
317
100
AcDbEntity
  8
02___PRT_ALL_AXES
100
AcDbSpline
 62
7
  6
CONTINUOUS
 70
0
 71
3
 72
53
 73
49
 74
0
 42
0.0000001
 43
0.0000001
 44
0.0000000001
 40
0.0
 40
0.0
 40
0.0
 40
0.0
 40
0.0138985072
 40
0.0277685935
 40
0.0416146896
 40
0.0554415252
 40
0.0692541439
 40
0.0830579179
 40
0.0968585461
 40
0.1106620589
 40
0.1244747906
 40
0.1383033962
 40
0.1521547939
 40
0.1660361605
 40
0.1799548433
 40
0.1939183748
 40
0.2079343488
 40
0.2220104086
 40
0.2361541302
 40
0.2503729926
 40
0.2646742785
 40
0.2790649996
 40
0.2935518449
 40
0.3081410649
 40
0.3228384821
 40
0.3376493447
 40
0.352578359
 40
0.3676295566
 40
0.3981067194
 40
0.4291046296
 40
0.4606303112
 40
0.4765918534
 40
0.4926824898
 40
0.5252371374
 40
0.5582694131
 40
0.5917395595
 40
0.6255968558
 40
0.6597800412
 40
0.6942178299
 40
0.7288294358
 40
0.7635253532
 40
0.7982082858
 40
0.8327744324
 40
0.8671150929
 40
0.901118643
 40
0.9346730818
 40
0.9676682462
 40
1.0
 40
1.0
 40
1.0
 40
1.0
 10
15.1763668043
 20
12.2570656209
 30
0.0
 10
15.1770228556
 20
12.2557287274
 30
0.0
 10
15.1782780597
 20
12.2530299857
 30
0.0
 10
15.1799874358
 20
12.2489103845
 30
0.0
 10
15.1815186619
 20
12.2447293782
 30
0.0
 10
15.1828689627
 20
12.2404929548
 30
0.0
 10
15.1840359291
 20
12.2362070898
 30
0.0
 10
15.1850172223
 20
12.2318778095
 30
0.0
 10
15.1858108198
 20
12.2275112041
 30
0.0
 10
15.1864148612
 20
12.2231133886
 30
0.0
 10
15.1868277724
 20
12.2186905117
 30
0.0
 10
15.1870482528
 20
12.214248734
 30
0.0
 10
15.1870752341
 20
12.2097942125
 30
0.0
 10
15.1869080517
 20
12.2053330882
 30
0.0
 10
15.1865462065
 20
12.2008714694
 30
0.0
 10
15.1859897157
 20
12.1964153982
 30
0.0
 10
15.1852387227
 20
12.191970861
 30
0.0
 10
15.1842939355
 20
12.1875437192
 30
0.0
 10
15.1831562088
 20
12.1831397519
 30
0.0
 10
15.1818269171
 20
12.178764565
 30
0.0
 10
15.1803076679
 20
12.1744236342
 30
0.0
 10
15.1786004668
 20
12.1701222456
 30
0.0
 10
15.1767076656
 20
12.1658654852
 30
0.0
 10
15.1746318679
 20
12.1616582645
 30
0.0
 10
15.1723761073
 20
12.1575052118
 30
0.0
 10
15.1699435619
 20
12.1534108261
 30
0.0
 10
15.1673378107
 20
12.1493792029
 30
0.0
 10
15.1636224583
 20
12.1440712359
 30
0.0
 10
15.1585581072
 20
12.1376129974
 30
0.0
 10
15.1518807693
 20
12.1302068285
 30
0.0
 10
15.145850497
 20
12.1243367051
 30
0.0
 10
15.1407547072
 20
12.1198144585
 30
0.0
 10
15.1354407708
 20
12.1153765235
 30
0.0
 10
15.1284794054
 20
12.1100643235
 30
0.0
 10
15.1196948063
 20
12.1040988157
 30
0.0
 10
15.1104906234
 20
12.098529462
 30
0.0
 10
15.1009124361
 20
12.0933669134
 30
0.0
 10
15.0910066904
 20
12.0886203533
 30
0.0
 10
15.0808210555
 20
12.0842980433
 30
0.0
 10
15.0704043933
 20
12.0804074766
 30
0.0
 10
15.0598068242
 20
12.076955539
 30
0.0
 10
15.0490797006
 20
12.07394857
 30
0.0
 10
15.038275514
 20
12.0713923623
 30
0.0
 10
15.0274476813
 20
12.0692921087
 30
0.0
 10
15.0166502477
 20
12.0676522938
 30
0.0
 10
15.0059373547
 20
12.0664766127
 30
0.0
 10
14.9953631107
 20
12.065767794
 30
0.0
 10
14.9883625873
 20
12.0656058543
 30
0.0
 10
14.9848983209
 20
12.0656058543
 30
0.0
  0
SPLINE
  5
318
100
AcDbEntity
  8
02___PRT_ALL_AXES
100
AcDbSpline
 62
7
  6
CONTINUOUS
 70
0
 71
3
 72
71
 73
67
 74
0
 42
0.0000001
 43
0.0000001
 44
0.0000000001
 40
0.0
 40
0.0
 40
0.0
 40
0.0
 40
0.0106253634
 40
0.0212733702
 40
0.0319664263
 40
0.04272647
 40
0.0535747571
 40
0.0645316676
 40
0.0756165375
 40
0.0868475185
 40
0.0982414683
 40
0.1098138687
 40
0.1215787717
 40
0.1335487693
 40
0.1457349863
 40
0.1581470894
 40
0.1707933122
 40
0.1836804916
 40
0.1968141125
 40
0.2101983589
 40
0.2238361691
 40
0.2377292935
 40
0.2518783527
 40
0.266282897
 40
0.2809414632
 40
0.2958516318
 40
0.3110100815
 40
0.3264126422
 40
0.3420543454
 40
0.3579294733
 40
0.374031605
 40
0.3903536613
 40
0.4068879471
 40
0.4236261924
 40
0.4405595912
 40
0.4576788392
 40
0.4749741698
 40
0.4924353892
 40
0.5100519097
 40
0.5278127825
 40
0.5457067294
 40
0.5637221736
 40
0.5818472696
 40
0.6000699329
 40
0.6183778687
 40
0.6367586002
 40
0.6551994968
 40
0.6736878017
 40
0.6922106591
 40
0.7107551414
 40
0.7293082762
 40
0.7478570733
 40
0.7663885514
 40
0.7848897651
 40
0.8033478317
 40
0.8217499584
 40
0.8400834697
 40
0.8583358346
 40
0.8764946948
 40
0.8945478927
 40
0.9124835
 40
0.9302898481
 40
0.9479555539
 40
0.9654695619
 40
0.9828211459
 40
1.0
 40
1.0
 40
1.0
 40
1.0
 10
14.5418594459
 20
11.7433468677
 30
0.0
 10
14.5407224971
 20
11.7396676942
 30
0.0
 10
14.5386535533
 20
11.7322355784
 30
0.0
 10
14.5361784239
 20
11.7209118782
 30
0.0
 10
14.5343325198
 20
11.7094190098
 30
0.0
 10
14.5331178593
 20
11.6977696297
 30
0.0
 10
14.5325355785
 20
11.685975952
 30
0.0
 10
14.5325861703
 20
11.6740504708
 30
0.0
 10
14.5332694301
 20
11.6620057412
 30
0.0
 10
14.5345844822
 20
11.649854418
 30
0.0
 10
14.5365297853
 20
11.6376092276
 30
0.0
 10
14.5391031435
 20
11.6252829611
 30
0.0
 10
14.5423017144
 20
11.6128884637
 30
0.0
 10
14.5461220172
 20
11.6004386266
 30
0.0
 10
14.5505599391
 20
11.5879463781
 30
0.0
 10
14.5556107416
 20
11.5754246755
 30
0.0
 10
14.5612690654
 20
11.5628864962
 30
0.0
 10
14.5675289359
 20
11.5503448279
 30
0.0
 10
14.5743837683
 20
11.5378126592
 30
0.0
 10
14.5818263725
 20
11.5253029678
 30
0.0
 10
14.5898489594
 20
11.5128287096
 30
0.0
 10
14.5984431469
 20
11.5004028066
 30
0.0
 10
14.6075999671
 20
11.4880381344
 30
0.0
 10
14.6173098739
 20
11.4757475094
 30
0.0
 10
14.6275627515
 20
11.4635436757
 30
0.0
 10
14.6383479237
 20
11.451439292
 30
0.0
 10
14.6496541639
 20
11.4394469183
 30
0.0
 10
14.661469706
 20
11.4275790026
 30
0.0
 10
14.6737822554
 20
11.4158478679
 30
0.0
 10
14.6865790019
 20
11.4042656986
 30
0.0
 10
14.6998466317
 20
11.3928445278
 30
0.0
 10
14.7135713415
 20
11.3815962244
 30
0.0
 10
14.7277388521
 20
11.3705324803
 30
0.0
 10
14.7423344235
 20
11.3596647979
 30
0.0
 10
14.7573428695
 20
11.349004478
 30
0.0
 10
14.7727485736
 20
11.3385626074
 30
0.0
 10
14.7885355054
 20
11.3283500474
 30
0.0
 10
14.804687237
 20
11.3183774223
 30
0.0
 10
14.8211869598
 20
11.3086551077
 30
0.0
 10
14.8380175027
 20
11.29919322
 30
0.0
 10
14.8551613491
 20
11.2900016055
 30
0.0
 10
14.8726006562
 20
11.2810898297
 30
0.0
 10
14.8903172723
 20
11.2724671677
 30
0.0
 10
14.9082927572
 20
11.2641425942
 30
0.0
 10
14.9265084
 20
11.2561247738
 30
0.0
 10
14.9449452399
 20
11.2484220525
 30
0.0
 10
14.9635840852
 20
11.2410424483
 30
0.0
 10
14.9824055334
 20
11.233993643
 30
0.0
 10
15.001389992
 20
11.2272829744
 30
0.0
 10
15.0205176983
 20
11.220917428
 30
0.0
 10
15.0397687405
 20
11.2149036306
 30
0.0
 10
15.0591230783
 20
11.2092478424
 30
0.0
 10
15.078560564
 20
11.203955951
 30
0.0
 10
15.0980609633
 20
11.1990334653
 30
0.0
 10
15.1176039766
 20
11.1944855094
 30
0.0
 10
15.1371692603
 20
11.1903168177
 30
0.0
 10
15.156736448
 20
11.1865317294
 30
0.0
 10
15.1762851716
 20
11.1831341848
 30
0.0
 10
15.195795083
 20
11.1801277205
 30
0.0
 10
15.215245875
 20
11.1775154661
 30
0.0
 10
15.2346173024
 20
11.1753001408
 30
0.0
 10
15.2538892054
 20
11.1734840514
 30
0.0
 10
15.2730415203
 20
11.172069088
 30
0.0
 10
15.2920543439
 20
11.1710567261
 30
0.0
 10
15.3109077774
 20
11.1704480189
 30
0.0
 10
15.3234226856
 20
11.1703110306
 30
0.0
 10
15.3296486394
 20
11.1703110306
 30
0.0
  0
SPLINE
  5
319
100
AcDbEntity
  8
02___PRT_ALL_AXES
100
AcDbSpline
 62
7
  6
CONTINUOUS
 70
0
 71
3
 72
39
 73
35
 74
0
 42
0.0000001
 43
0.0000001
 44
0.0000000001
 40
0.0
 40
0.0
 40
0.0
 40
0.0
 40
0.0248034971
 40
0.049664333
 40
0.0746391942
 40
0.099783485
 40
0.1251507433
 40
0.1507921179
 40
0.1767559206
 40
0.2030872606
 40
0.2298277631
 40
0.2570153692
 40
0.2846842116
 40
0.3128645578
 40
0.3415828101
 40
0.3708615538
 40
0.4007196419
 40
0.4311723096
 40
0.4622313078
 40
0.493905052
 40
0.5261987785
 40
0.5591147047
 40
0.5926521912
 40
0.6268079003
 40
0.6615759526
 40
0.6969480777
 40
0.7329137596
 40
0.7694603769
 40
0.8065733347
 40
0.8442361972
 40
0.8824307937
 40
0.9211373847
 40
0.9603346321
 40
1.0
 40
1.0
 40
1.0
 40
1.0
 10
15.7361354996
 20
11.3742876538
 30
0.0
 10
15.7349511953
 20
11.3704552379
 30
0.0
 10
15.7323536333
 20
11.362849369
 30
0.0
 10
15.7277871746
 20
11.3516687238
 30
0.0
 10
15.7225538233
 20
11.3407227762
 30
0.0
 10
15.7166598643
 20
11.3300246068
 30
0.0
 10
15.7101121499
 20
11.319586302
 30
0.0
 10
15.702918341
 20
11.3094197791
 30
0.0
 10
15.6950868125
 20
11.2995365471
 30
0.0
 10
15.6866266521
 20
11.2899477598
 30
0.0
 10
15.6775476354
 20
11.2806641943
 30
0.0
 10
15.6678602101
 20
11.2716962519
 30
0.0
 10
15.6575754802
 20
11.2630539539
 30
0.0
 10
15.6467051933
 20
11.2547469396
 30
0.0
 10
15.6352617283
 20
11.2467844623
 30
0.0
 10
15.6232580836
 20
11.2391753852
 30
0.0
 10
15.6107078661
 20
11.2319281761
 30
0.0
 10
15.5976252795
 20
11.2250509009
 30
0.0
 10
15.5840251118
 20
11.2185512171
 30
0.0
 10
15.5699227223
 20
11.2124363662
 30
0.0
 10
15.5553340273
 20
11.2067131659
 30
0.0
 10
15.5402754852
 20
11.2013880023
 30
0.0
 10
15.5247640796
 20
11.1964668222
 30
0.0
 10
15.5088173026
 20
11.1919551259
 30
0.0
 10
15.4924531364
 20
11.1878579601
 30
0.0
 10
15.4756900336
 20
11.184179911
 30
0.0
 10
15.4585468983
 20
11.1809250985
 30
0.0
 10
15.4410430644
 20
11.1780971706
 30
0.0
 10
15.4231982751
 20
11.175699298
 30
0.0
 10
15.405032659
 20
11.1737341712
 30
0.0
 10
15.3865667154
 20
11.1722039933
 30
0.0
 10
15.3678212549
 20
11.1711104845
 30
0.0
 10
15.348817547
 20
11.1704548656
 30
0.0
 10
15.3360633407
 20
11.1703110306
 30
0.0
 10
15.3296486394
 20
11.1703110306
 30
0.0
  0
SPLINE
  5
31A
100
AcDbEntity
  8
LAYER_CHAMFER_FEAT
100
AcDbSpline
 62
7
  6
CONTINUOUS
 70
0
 71
3
 72
15
 73
11
 74
0
 42
0.0000001
 43
0.0000001
 44
0.0000000001
 40
0.0
 40
0.0
 40
0.0
 40
0.0
 40
0.131763246
 40
0.2617726251
 40
0.389918871
 40
0.5161209296
 40
0.6402989255
 40
0.7623789514
 40
0.8822974787
 40
1.0
 40
1.0
 40
1.0
 40
1.0
 10
15.0512979361
 20
11.7375301266
 30
0.0
 10
15.0479784443
 20
11.7375301266
 30
0.0
 10
15.04138331
 20
11.7374464388
 30
0.0
 10
15.0315664662
 20
11.7370645014
 30
0.0
 10
15.0219031597
 20
11.7364274049
 30
0.0
 10
15.0124074822
 20
11.7355360938
 30
0.0
 10
15.0030928473
 20
11.7343918664
 30
0.0
 10
14.9939725553
 20
11.7329962925
 30
0.0
 10
14.9850597876
 20
11.731351387
 30
0.0
 10
14.9792091534
 20
11.7300780386
 30
0.0
 10
14.9763226425
 20
11.7293991911
 30
0.0
  0
SPLINE
  5
31B
100
AcDbEntity
  8
LAYER_CHAMFER_FEAT
100
AcDbSpline
 62
7
  6
CONTINUOUS
 70
0
 71
3
 72
39
 73
35
 74
0
 42
0.0000001
 43
0.0000001
 44
0.0000000001
 40
0.0
 40
0.0
 40
0.0
 40
0.0
 40
0.0305397023
 40
0.0614592497
 40
0.0927264804
 40
0.1243126111
 40
0.1561858814
 40
0.1883135653
 40
0.220662362
 40
0.253198073
 40
0.2858858922
 40
0.3186905367
 40
0.3515763197
 40
0.3845072964
 40
0.4174473797
 40
0.4503604447
 40
0.4832104616
 40
0.5159616034
 40
0.5485783586
 40
0.5810256711
 40
0.6132690405
 40
0.6452746409
 40
0.6770094777
 40
0.7084414854
 40
0.7395396507
 40
0.7702741947
 40
0.8006166762
 40
0.8305401211
 40
0.8600192334
 40
0.8890305185
 40
0.9175524226
 40
0.9455655739
 40
0.9730529436
 40
1.0
 40
1.0
 40
1.0
 40
1.0
 10
15.0512979361
 20
11.7375301266
 30
0.0
 10
15.0548867522
 20
11.7375301266
 30
0.0
 10
15.0621093757
 20
11.7374310495
 30
0.0
 10
15.0729983042
 20
11.7369923365
 30
0.0
 10
15.0839949323
 20
11.7362631828
 30
0.0
 10
15.0950810499
 20
11.7352448349
 30
0.0
 10
15.10623877
 20
11.7339389432
 30
0.0
 10
15.1174498734
 20
11.7323476375
 30
0.0
 10
15.1286960824
 20
11.7304734996
 30
0.0
 10
15.1399590804
 20
11.7283195905
 30
0.0
 10
15.1512205126
 20
11.7258894333
 30
0.0
 10
15.1624620211
 20
11.7231869686
 30
0.0
 10
15.1736652858
 20
11.7202166045
 30
0.0
 10
15.1848120515
 20
11.7169831994
 30
0.0
 10
15.1958841459
 20
11.7134920056
 30
0.0
 10
15.2068635218
 20
11.7097487104
 30
0.0
 10
15.2177322913
 20
11.7057594346
 30
0.0
 10
15.228472736
 20
11.7015306671
 30
0.0
 10
15.239067347
 20
11.6970692899
 30
0.0
 10
15.2494988674
 20
11.6923825955
 30
0.0
 10
15.2597502942
 20
11.6874782131
 30
0.0
 10
15.2698049143
 20
11.6823641188
 30
0.0
 10
15.2796463553
 20
11.6770486666
 30
0.0
 10
15.2892585811
 20
11.6715405129
 30
0.0
 10
15.2986259197
 20
11.6658486101
 30
0.0
 10
15.3077331233
 20
11.6599822477
 30
0.0
 10
15.316565359
 20
11.6539509791
 30
0.0
 10
15.3251082264
 20
11.6477646005
 30
0.0
 10
15.3333478233
 20
11.6414331957
 30
0.0
 10
15.34127074
 20
11.6349670681
 30
0.0
 10
15.3488640495
 20
11.6283767208
 30
0.0
 10
15.3561154249
 20
11.6216728421
 30
0.0
 10
15.3630129643
 20
11.6148664566
 30
0.0
 10
15.3674124884
 20
11.6102208028
 30
0.0
 10
15.3695486184
 20
11.607883173
 30
0.0
  0
SPLINE
  5
31C
100
AcDbEntity
  8
LAYER_FEATURE
100
AcDbSpline
 62
7
  6
CONTINUOUS
 70
0
 71
3
 72
77
 73
73
 74
0
 42
0.0000001
 43
0.0000001
 44
0.0000000001
 40
0.0
 40
0.0
 40
0.0
 40
0.0
 40
0.0171786384
 40
0.0345303065
 40
0.0520441323
 40
0.0697097603
 40
0.087516005
 40
0.1054515097
 40
0.1235046065
 40
0.141663363
 40
0.1599156243
 40
0.178249032
 40
0.1966510546
 40
0.2151090165
 40
0.2336101252
 40
0.2521414984
 40
0.2706901905
 40
0.2892432201
 40
0.3077875972
 40
0.3263103499
 40
0.3447985501
 40
0.363239342
 40
0.3816199692
 40
0.3999278015
 40
0.4181503619
 40
0.4362753549
 40
0.4542906965
 40
0.4721845422
 40
0.4899453151
 40
0.5075617357
 40
0.5250228553
 40
0.5423180877
 40
0.5594372392
 40
0.5763705427
 40
0.5931086924
 40
0.6096428838
 40
0.6259648478
 40
0.6420668893
 40
0.6579419273
 40
0.6735835408
 40
0.6889860137
 40
0.7041443784
 40
0.7190544635
 40
0.733712946
 40
0.7481174076
 40
0.7622663869
 40
0.7761594337
 40
0.7897971671
 40
0.8031813365
 40
0.8163148825
 40
0.8292019896
 40
0.8418481418
 40
0.8542601741
 40
0.8603812579
 40
0.8664470199
 40
0.8784169498
 40
0.8901817869
 40
0.8959915749
 40
0.9017549381
 40
0.9131488226
 40
0.9243797396
 40
0.9354645469
 40
0.9464213959
 40
0.9572696215
 40
0.9626598376
 40
0.9680306188
 40
0.9733846479
 40
0.9787246486
 40
0.9840533836
 40
0.9893736427
 40
0.9946882389
 40
1.0
 40
1.0
 40
1.0
 40
1.0
 10
15.338362809
 20
13.8512989552
 30
0.0
 10
15.3485633415
 20
13.8512989552
 30
0.0
 10
15.3690678047
 20
13.8510745013
 30
0.0
 10
15.3999572596
 20
13.8500772167
 30
0.0
 10
15.431107941
 20
13.8484185406
 30
0.0
 10
15.4624870571
 20
13.8461002814
 30
0.0
 10
15.494062154
 20
13.8431247969
 30
0.0
 10
15.5258002987
 20
13.8394952043
 30
0.0
 10
15.5576684758
 20
13.8352152861
 30
0.0
 10
15.5896335149
 20
13.8302894971
 30
0.0
 10
15.6216621439
 20
13.8247229641
 30
0.0
 10
15.6537210238
 20
13.8185214729
 30
0.0
 10
15.6857767841
 20
13.8116914854
 30
0.0
 10
15.717796057
 20
13.804240115
 30
0.0
 10
15.7497455119
 20
13.796175118
 30
0.0
 10
15.7815918888
 20
13.7875048847
 30
0.0
 10
15.8133020348
 20
13.7782384375
 30
0.0
 10
15.8448429418
 20
13.7683854302
 30
0.0
 10
15.8761817764
 20
13.757956121
 30
0.0
 10
15.9072859147
 20
13.7469613651
 30
0.0
 10
15.9381229748
 20
13.7354126009
 30
0.0
 10
15.9686608573
 20
13.7233218541
 30
0.0
 10
15.9988677756
 20
13.7107017154
 30
0.0
 10
16.0287122864
 20
13.6975653215
 30
0.0
 10
16.0581633217
 20
13.6839263423
 30
0.0
 10
16.0871902236
 20
13.6697989694
 30
0.0
 10
16.1157627827
 20
13.6551979141
 30
0.0
 10
16.1438512616
 20
13.640138374
 30
0.0
 10
16.1714264253
 20
13.6246360206
 30
0.0
 10
16.1984595705
 20
13.6087069795
 30
0.0
 10
16.2249225646
 20
13.5923678274
 30
0.0
 10
16.250787873
 20
13.5756355687
 30
0.0
 10
16.2760285807
 20
13.5585276101
 30
0.0
 10
16.3006184207
 20
13.5410617444
 30
0.0
 10
16.324531802
 20
13.5232561308
 30
0.0
 10
16.347743849
 20
13.5051292907
 30
0.0
 10
16.3702304142
 20
13.4867000711
 30
0.0
 10
16.3919681023
 20
13.4679876279
 30
0.0
 10
16.4129342918
 20
13.4490114017
 30
0.0
 10
16.4331071689
 20
13.4297911079
 30
0.0
 10
16.4524657518
 20
13.4103467144
 30
0.0
 10
16.4709898985
 20
13.3906984109
 30
0.0
 10
16.4886603285
 20
13.3708665912
 30
0.0
 10
16.5054586402
 20
13.350871828
 30
0.0
 10
16.521367348
 20
13.3307348665
 30
0.0
 10
16.5363698828
 20
13.310476588
 30
0.0
 10
16.5504506046
 20
13.2901179905
 30
0.0
 10
16.5635948122
 20
13.2696801674
 30
0.0
 10
16.5757887711
 20
13.2491842836
 30
0.0
 10
16.5870197221
 20
13.2286515898
 30
0.0
 10
16.5972759128
 20
13.2081032785
 30
0.0
 10
16.6065464588
 20
13.1875608827
 30
0.0
 10
16.6134742825
 20
13.1703857131
 30
0.0
 10
16.6185067244
 20
13.1566723579
 30
0.0
 10
16.6231591851
 20
13.1431027304
 30
0.0
 10
16.6283520103
 20
13.1261801263
 30
0.0
 10
16.6327373202
 20
13.1091869082
 30
0.0
 10
16.6357259733
 20
13.0956539254
 30
0.0
 10
16.6383500633
 20
13.0822700277
 30
0.0
 10
16.6409959467
 20
13.0656149314
 30
0.0
 10
16.6431504946
 20
13.0457063909
 30
0.0
 10
16.6442699497
 20
13.0259721963
 30
0.0
 10
16.6443528766
 20
13.0064337388
 30
0.0
 10
16.6435560756
 20
12.9902964364
 30
0.0
 10
16.6423984491
 20
12.9775160514
 30
0.0
 10
16.6412736262
 20
12.9680121482
 30
0.0
 10
16.6398907051
 20
12.9585725505
 30
0.0
 10
16.6382499884
 20
12.9491996467
 30
0.0
 10
16.6363519638
 20
12.9398959102
 30
0.0
 10
16.6341970795
 20
12.9306637501
 30
0.0
 10
16.631785926
 20
12.921505681
 30
0.0
 10
16.6300078578
 20
12.9154505129
 30
0.0
 10
16.6290766249
 20
12.9124370393
 30
0.0
  0
SPLINE
  5
31D
100
AcDbEntity
  8
LAYER_FEATURE
100
AcDbSpline
 62
7
  6
CONTINUOUS
 70
0
 71
3
 72
46
 73
42
 74
0
 42
0.0000001
 43
0.0000001
 44
0.0000000001
 40
0.0
 40
0.0
 40
0.0
 40
0.0
 40
0.0396644632
 40
0.0788614229
 40
0.1175671895
 40
0.1557612056
 40
0.1934234268
 40
0.2305357642
 40
0.2670817688
 40
0.3030468467
 40
0.3384183805
 40
0.3731858528
 40
0.4073409908
 40
0.4408779136
 40
0.4737932867
 40
0.5060864724
 40
0.5377596884
 40
0.5688181687
 40
0.5992703257
 40
0.6291279122
 40
0.6584061653
 40
0.6728346391
 40
0.6871256585
 40
0.7153055349
 40
0.7429739142
 40
0.7566265988
 40
0.7701630905
 40
0.7969031443
 40
0.8232340437
 40
0.8491974128
 40
0.8748383587
 40
0.8875541414
 40
0.900207687
 40
0.9128054704
 40
0.9253541189
 40
0.9378603961
 40
0.9503311772
 40
0.9627734426
 40
0.9751942485
 40
0.9876007144
 40
1.0
 40
1.0
 40
1.0
 40
1.0
 10
14.9946286298
 20
12.7389747436
 30
0.0
 10
14.9841188471
 20
12.7389747436
 30
0.0
 10
14.9632223219
 20
12.7387390728
 30
0.0
 10
14.9320866589
 20
12.7376649284
 30
0.0
 10
14.9013740314
 20
12.7358732991
 30
0.0
 10
14.8711194623
 20
12.7333662725
 30
0.0
 10
14.8413569039
 20
12.7301466067
 30
0.0
 10
14.812120004
 20
12.7262179333
 30
0.0
 10
14.7834417237
 20
12.7215846526
 30
0.0
 10
14.7553544118
 20
12.716251966
 30
0.0
 10
14.7278897439
 20
12.7102258517
 30
0.0
 10
14.7010786922
 20
12.7035130583
 30
0.0
 10
14.6749514924
 20
12.6961210963
 30
0.0
 10
14.6495376079
 20
12.6880582311
 30
0.0
 10
14.6248656945
 20
12.6793334801
 30
0.0
 10
14.6009635777
 20
12.6699565895
 30
0.0
 10
14.5778582173
 20
12.6599380185
 30
0.0
 10
14.5555757116
 20
12.6492889478
 30
0.0
 10
14.5341411613
 20
12.6380211896
 30
0.0
 10
14.5135790385
 20
12.6261474624
 30
0.0
 10
14.4971105896
 20
12.6157081354
 30
0.0
 10
14.484403237
 20
12.6070642735
 30
0.0
 10
14.4721251474
 20
12.5983132877
 30
0.0
 10
14.457353313
 20
12.5870247801
 30
0.0
 10
14.4432490177
 20
12.5751728366
 30
0.0
 10
14.4324652715
 20
12.5654246208
 30
0.0
 10
14.4221012293
 20
12.5555854085
 30
0.0
 10
14.4097557577
 20
12.5429618339
 30
0.0
 10
14.3958947305
 20
12.5272516319
 30
0.0
 10
14.3830636531
 20
12.5110591457
 30
0.0
 10
14.373214111
 20
12.4971393426
 30
0.0
 10
14.3658739392
 20
12.4857883473
 30
0.0
 10
14.3606496049
 20
12.4771895848
 30
0.0
 10
14.3556928261
 20
12.4684848477
 30
0.0
 10
14.3510049668
 20
12.4596765253
 30
0.0
 10
14.3465873388
 20
12.4507671551
 30
0.0
 10
14.3424412566
 20
12.4417592264
 30
0.0
 10
14.3385678464
 20
12.4326553324
 30
0.0
 10
14.3349682399
 20
12.4234580104
 30
0.0
 10
14.3316434924
 20
12.4141699815
 30
0.0
 10
14.329610563
 20
12.4079183884
 30
0.0
 10
14.3286405568
 20
12.4047794444
 30
0.0
  0
SPLINE
  5
31E
100
AcDbEntity
  8
LAYER_FEATURE
100
AcDbSpline
 62
7
  6
CONTINUOUS
 70
0
 71
3
 72
46
 73
42
 74
0
 42
0.0000001
 43
0.0000001
 44
0.0000000001
 40
0.0
 40
0.0
 40
0.0
 40
0.0
 40
0.0396644632
 40
0.0788614229
 40
0.1175671895
 40
0.1557612056
 40
0.1934234268
 40
0.2305357642
 40
0.2670817688
 40
0.3030468467
 40
0.3384183805
 40
0.3731858528
 40
0.4073409908
 40
0.4408779136
 40
0.4737932867
 40
0.5060864724
 40
0.5377596884
 40
0.5688181687
 40
0.5992703257
 40
0.6291279122
 40
0.6584061653
 40
0.6728346391
 40
0.6871256585
 40
0.7153055349
 40
0.7429739142
 40
0.7566265988
 40
0.7701630905
 40
0.7969031443
 40
0.8232340437
 40
0.8491974128
 40
0.8748383587
 40
0.8875541414
 40
0.900207687
 40
0.9128054704
 40
0.9253541189
 40
0.9378603961
 40
0.9503311772
 40
0.9627734426
 40
0.9751942485
 40
0.9876007144
 40
1.0
 40
1.0
 40
1.0
 40
1.0
 10
15.338362809
 20
13.8512989552
 30
0.0
 10
15.3278530263
 20
13.8512989552
 30
0.0
 10
15.3069565011
 20
13.8510632844
 30
0.0
 10
15.2758208382
 20
13.8499891401
 30
0.0
 10
15.2451082106
 20
13.8481975108
 30
0.0
 10
15.2148536416
 20
13.8456904842
 30
0.0
 10
15.1850910832
 20
13.8424708184
 30
0.0
 10
15.1558541832
 20
13.8385421449
 30
0.0
 10
15.1271759029
 20
13.8339088643
 30
0.0
 10
15.0990885911
 20
13.8285761777
 30
0.0
 10
15.0716239231
 20
13.8225500634
 30
0.0
 10
15.0448128714
 20
13.81583727
 30
0.0
 10
15.0186856716
 20
13.8084453079
 30
0.0
 10
14.9932717871
 20
13.8003824427
 30
0.0
 10
14.9685998737
 20
13.7916576918
 30
0.0
 10
14.9446977569
 20
13.7822808012
 30
0.0
 10
14.9215923965
 20
13.7722622302
 30
0.0
 10
14.8993098908
 20
13.7616131595
 30
0.0
 10
14.8778753406
 20
13.7503454013
 30
0.0
 10
14.8573132177
 20
13.7384716741
 30
0.0
 10
14.8408447689
 20
13.7280323471
 30
0.0
 10
14.8281374163
 20
13.7193884852
 30
0.0
 10
14.8158593266
 20
13.7106374994
 30
0.0
 10
14.8010874922
 20
13.6993489918
 30
0.0
 10
14.7869831969
 20
13.6874970482
 30
0.0
 10
14.7761994507
 20
13.6777488325
 30
0.0
 10
14.7658354085
 20
13.6679096202
 30
0.0
 10
14.7534899369
 20
13.6552860456
 30
0.0
 10
14.7396289098
 20
13.6395758436
 30
0.0
 10
14.7267978324
 20
13.6233833574
 30
0.0
 10
14.7169482902
 20
13.6094635543
 30
0.0
 10
14.7096081184
 20
13.598112559
 30
0.0
 10
14.7043837842
 20
13.5895137964
 30
0.0
 10
14.6994270053
 20
13.5808090593
 30
0.0
 10
14.6947391461
 20
13.572000737
 30
0.0
 10
14.690321518
 20
13.5630913667
 30
0.0
 10
14.6861754358
 20
13.5540834381
 30
0.0
 10
14.6823020256
 20
13.5449795441
 30
0.0
 10
14.6787024191
 20
13.5357822221
 30
0.0
 10
14.6753776717
 20
13.5264941932
 30
0.0
 10
14.6733447422
 20
13.5202426001
 30
0.0
 10
14.672374736
 20
13.5171036561
 30
0.0
  0
SPLINE
  5
31F
100
AcDbEntity
  8
LAYER_FEATURE
100
AcDbSpline
 62
7
  6
CONTINUOUS
 70
0
 71
3
 72
77
 73
73
 74
0
 42
0.0000001
 43
0.0000001
 44
0.0000000001
 40
0.0
 40
0.0
 40
0.0
 40
0.0
 40
0.0171786384
 40
0.0345303065
 40
0.0520441323
 40
0.0697097603
 40
0.087516005
 40
0.1054515097
 40
0.1235046065
 40
0.141663363
 40
0.1599156243
 40
0.178249032
 40
0.1966510546
 40
0.2151090165
 40
0.2336101252
 40
0.2521414984
 40
0.2706901905
 40
0.2892432201
 40
0.3077875972
 40
0.3263103499
 40
0.3447985501
 40
0.363239342
 40
0.3816199692
 40
0.3999278015
 40
0.4181503619
 40
0.4362753549
 40
0.4542906965
 40
0.4721845422
 40
0.4899453151
 40
0.5075617357
 40
0.5250228553
 40
0.5423180877
 40
0.5594372392
 40
0.5763705427
 40
0.5931086924
 40
0.6096428838
 40
0.6259648478
 40
0.6420668893
 40
0.6579419273
 40
0.6735835408
 40
0.6889860137
 40
0.7041443784
 40
0.7190544635
 40
0.733712946
 40
0.7481174076
 40
0.7622663869
 40
0.7761594337
 40
0.7897971671
 40
0.8031813365
 40
0.8163148825
 40
0.8292019896
 40
0.8418481418
 40
0.8542601741
 40
0.8603812579
 40
0.8664470199
 40
0.8784169498
 40
0.8901817869
 40
0.8959915749
 40
0.9017549381
 40
0.9131488226
 40
0.9243797396
 40
0.9354645469
 40
0.9464213959
 40
0.9572696215
 40
0.9626598376
 40
0.9680306188
 40
0.9733846479
 40
0.9787246486
 40
0.9840533836
 40
0.9893736427
 40
0.9946882389
 40
1.0
 40
1.0
 40
1.0
 40
1.0
 10
14.9946286298
 20
12.7389747436
 30
0.0
 10
15.0048291623
 20
12.7389747436
 30
0.0
 10
15.0253336255
 20
12.7387502896
 30
0.0
 10
15.0562230804
 20
12.737753005
 30
0.0
 10
15.0873737618
 20
12.7360943289
 30
0.0
 10
15.1187528779
 20
12.7337760697
 30
0.0
 10
15.1503279748
 20
12.7308005853
 30
0.0
 10
15.1820661195
 20
12.7271709927
 30
0.0
 10
15.2139342965
 20
12.7228910745
 30
0.0
 10
15.2458993356
 20
12.7179652854
 30
0.0
 10
15.2779279646
 20
12.7123987524
 30
0.0
 10
15.3099868445
 20
12.7061972613
 30
0.0
 10
15.3420426049
 20
12.6993672737
 30
0.0
 10
15.3740618778
 20
12.6919159033
 30
0.0
 10
15.4060113327
 20
12.6838509064
 30
0.0
 10
15.4378577096
 20
12.675180673
 30
0.0
 10
15.4695678556
 20
12.6659142258
 30
0.0
 10
15.5011087626
 20
12.6560612185
 30
0.0
 10
15.5324475971
 20
12.6456319093
 30
0.0
 10
15.5635517354
 20
12.6346371535
 30
0.0
 10
15.5943887955
 20
12.6230883892
 30
0.0
 10
15.624926678
 20
12.6109976424
 30
0.0
 10
15.6551335963
 20
12.5983775038
 30
0.0
 10
15.6849781071
 20
12.5852411099
 30
0.0
 10
15.7144291425
 20
12.5716021306
 30
0.0
 10
15.7434560444
 20
12.5574747577
 30
0.0
 10
15.7720286035
 20
12.5428737025
 30
0.0
 10
15.8001170823
 20
12.5278141623
 30
0.0
 10
15.827692246
 20
12.5123118089
 30
0.0
 10
15.8547253913
 20
12.4963827679
 30
0.0
 10
15.8811883854
 20
12.4800436157
 30
0.0
 10
15.9070536938
 20
12.463311357
 30
0.0
 10
15.9322944015
 20
12.4462033985
 30
0.0
 10
15.9568842414
 20
12.4287375327
 30
0.0
 10
15.9807976228
 20
12.4109319191
 30
0.0
 10
16.0040096697
 20
12.392805079
 30
0.0
 10
16.026496235
 20
12.3743758594
 30
0.0
 10
16.0482339231
 20
12.3556634162
 30
0.0
 10
16.0692001125
 20
12.3366871901
 30
0.0
 10
16.0893729897
 20
12.3174668962
 30
0.0
 10
16.1087315725
 20
12.2980225027
 30
0.0
 10
16.1272557193
 20
12.2783741993
 30
0.0
 10
16.1449261493
 20
12.2585423795
 30
0.0
 10
16.161724461
 20
12.2385476164
 30
0.0
 10
16.1776331687
 20
12.2184106548
 30
0.0
 10
16.1926357036
 20
12.1981523764
 30
0.0
 10
16.2067164253
 20
12.1777937788
 30
0.0
 10
16.2198606329
 20
12.1573559557
 30
0.0
 10
16.2320545919
 20
12.1368600719
 30
0.0
 10
16.2432855428
 20
12.1163273781
 30
0.0
 10
16.2535417335
 20
12.0957790669
 30
0.0
 10
16.2628122796
 20
12.075236671
 30
0.0
 10
16.2697401032
 20
12.0580615015
 30
0.0
 10
16.2747725452
 20
12.0443481462
 30
0.0
 10
16.2794250059
 20
12.0307785188
 30
0.0
 10
16.284617831
 20
12.0138559147
 30
0.0
 10
16.289003141
 20
11.9968626965
 30
0.0
 10
16.2919917941
 20
11.9833297137
 30
0.0
 10
16.294615884
 20
11.969945816
 30
0.0
 10
16.2972617674
 20
11.9532907197
 30
0.0
 10
16.2994163154
 20
11.9333821792
 30
0.0
 10
16.3005357705
 20
11.9136479847
 30
0.0
 10
16.3006186973
 20
11.8941095271
 30
0.0
 10
16.2998218964
 20
11.8779722248
 30
0.0
 10
16.2986642698
 20
11.8651918397
 30
0.0
 10
16.297539447
 20
11.8556879365
 30
0.0
 10
16.2961565258
 20
11.8462483388
 30
0.0
 10
16.2945158091
 20
11.8368754351
 30
0.0
 10
16.2926177845
 20
11.8275716985
 30
0.0
 10
16.2904629002
 20
11.8183395385
 30
0.0
 10
16.2880517467
 20
11.8091814694
 30
0.0
 10
16.2862736786
 20
11.8031263012
 30
0.0
 10
16.2853424456
 20
11.8001128277
 30
0.0
  0
SPLINE
  5
320
100
AcDbEntity
  8
LAYER_FEATURE
100
AcDbSpline
 62
7
  6
CONTINUOUS
 70
0
 71
3
 72
80
 73
76
 74
0
 42
0.0000001
 43
0.0000001
 44
0.0000000001
 40
0.0
 40
0.0
 40
0.0
 40
0.0
 40
0.0053540951
 40
0.0107128793
 40
0.0160810221
 40
0.0214631515
 40
0.0268638372
 40
0.0322875689
 40
0.0377387416
 40
0.0432216371
 40
0.0487404091
 40
0.0542990723
 40
0.0599014843
 40
0.065551345
 40
0.0712521741
 40
0.0770073213
 40
0.0828199403
 40
0.0886930063
 40
0.1006301241
 40
0.1128399032
 40
0.1190529648
 40
0.1253402251
 40
0.1381426321
 40
0.1512590064
 40
0.1646973074
 40
0.1784628134
 40
0.1925582765
 40
0.2069840818
 40
0.2217384059
 40
0.2368173714
 40
0.2522151964
 40
0.2679243365
 40
0.2839356199
 40
0.3002383753
 40
0.3168205525
 40
0.3336688367
 40
0.3507687563
 40
0.3681047852
 40
0.3856604408
 40
0.4034183767
 40
0.4213604724
 40
0.4394679193
 40
0.4577213033
 40
0.4761006864
 40
0.4945856843
 40
0.513155544
 40
0.5317892193
 40
0.5504654448
 40
0.5691628104
 40
0.5878598339
 40
0.6065350343
 40
0.6251670048
 40
0.643734486
 40
0.6622164396
 40
0.6805921234
 40
0.698841166
 40
0.7169436449
 40
0.7348801641
 40
0.7526319356
 40
0.7701808622
 40
0.7875096238
 40
0.8046017666
 40
0.8214417966
 40
0.8380152772
 40
0.8543089322
 40
0.8703107534
 40
0.8860101156
 40
0.9013978967
 40
0.916466606
 40
0.9312105215
 40
0.9456258237
 40
0.9597107733
 40
0.9734657846
 40
0.9868937857
 40
1.0
 40
1.0
 40
1.0
 40
1.0
 10
14.6290497678
 20
12.2930670935
 30
0.0
 10
14.6298700672
 20
12.2957215801
 30
0.0
 10
14.6316075074
 20
12.3010037201
 30
0.0
 10
14.6344998342
 20
12.308833026
 30
0.0
 10
14.6376776893
 20
12.3165666925
 30
0.0
 10
14.6411395863
 20
12.3242012821
 30
0.0
 10
14.6448840951
 20
12.3317335216
 30
0.0
 10
14.6489095466
 20
12.3391601845
 30
0.0
 10
14.6532142252
 20
12.3464780705
 30
0.0
 10
14.6577962555
 20
12.3536840444
 30
0.0
 10
14.6626536482
 20
12.3607750237
 30
0.0
 10
14.6677843229
 20
12.3677479559
 30
0.0
 10
14.6731860279
 20
12.3745998867
 30
0.0
 10
14.6788564741
 20
12.3813278495
 30
0.0
 10
14.6847931677
 20
12.3879290226
 30
0.0
 10
14.6909935881
 20
12.394400524
 30
0.0
 10
14.6974550752
 20
12.4007397018
 30
0.0
 10
14.7064628832
 20
12.4090562355
 30
0.0
 10
14.7183773395
 20
12.419106783
 30
0.0
 10
14.7309836888
 20
12.4285696936
 30
0.0
 10
14.7415425061
 20
12.4358472082
 30
0.0
 10
14.7525482028
 20
12.4430102346
 30
0.0
 10
14.7669068964
 20
12.4515770776
 30
0.0
 10
14.7849466068
 20
12.4611680092
 30
0.0
 10
14.8038680982
 20
12.4701153354
 30
0.0
 10
14.823638738
 20
12.4784038846
 30
0.0
 10
14.8442248904
 20
12.4860198253
 30
0.0
 10
14.8655914375
 20
12.4929503617
 30
0.0
 10
14.8877019752
 20
12.49918385
 30
0.0
 10
14.910518827
 20
12.5047097968
 30
0.0
 10
14.934003114
 20
12.5095188886
 30
0.0
 10
14.9581148143
 20
12.5136030099
 30
0.0
 10
14.9828128296
 20
12.5169552622
 30
0.0
 10
15.0080550533
 20
12.5195699788
 30
0.0
 10
15.0337984417
 20
12.5214427382
 30
0.0
 10
15.0599990869
 20
12.5225703746
 30
0.0
 10
15.0866122922
 20
12.5229509853
 30
0.0
 10
15.1135926481
 20
12.5225839366
 30
0.0
 10
15.1408941108
 20
12.5214698668
 30
0.0
 10
15.1684700813
 20
12.5196106863
 30
0.0
 10
15.1962734858
 20
12.5170095746
 30
0.0
 10
15.2242568568
 20
12.5136709765
 30
0.0
 10
15.2523724148
 20
12.509600595
 30
0.0
 10
15.2805721503
 20
12.504805382
 30
0.0
 10
15.3088079069
 20
12.4992935269
 30
0.0
 10
15.3370314638
 20
12.4930744432
 30
0.0
 10
15.3651946188
 20
12.486158752
 30
0.0
 10
15.3932492713
 20
12.4785582646
 30
0.0
 10
15.421147505
 20
12.470285962
 30
0.0
 10
15.44884167
 20
12.4613559727
 30
0.0
 10
15.4762844651
 20
12.4517835491
 30
0.0
 10
15.5034290192
 20
12.4415850409
 30
0.0
 10
15.5302289714
 20
12.4307778667
 30
0.0
 10
15.5566385512
 20
12.4193804839
 30
0.0
 10
15.5826126563
 20
12.4074123568
 30
0.0
 10
15.6081069307
 20
12.3948939226
 30
0.0
 10
15.6330778405
 20
12.3818465561
 30
0.0
 10
15.6574827483
 20
12.3682925329
 30
0.0
 10
15.6812799866
 20
12.3542549895
 30
0.0
 10
15.7044289291
 20
12.3397578838
 30
0.0
 10
15.7268900598
 20
12.3248259527
 30
0.0
 10
15.7486250406
 20
12.3094846684
 30
0.0
 10
15.7695967765
 20
12.2937601937
 30
0.0
 10
15.7897694788
 20
12.2776793359
 30
0.0
 10
15.8091087253
 20
12.2612694987
 30
0.0
 10
15.8275815172
 20
12.2445586336
 30
0.0
 10
15.8451563339
 20
12.2275751897
 30
0.0
 10
15.8618031831
 20
12.2103480629
 30
0.0
 10
15.8774936519
 20
12.1929065441
 30
0.0
 10
15.8922009404
 20
12.1752802714
 30
0.0
 10
15.9058999318
 20
12.1574991573
 30
0.0
 10
15.918567143
 20
12.1395934204
 30
0.0
 10
15.9301809923
 20
12.1215932301
 30
0.0
 10
15.9407211678
 20
12.1035297173
 30
0.0
 10
15.9470968214
 20
12.091318477
 30
0.0
 10
15.9500929819
 20
12.085212944
 30
0.0
  0
SPLINE
  5
321
100
AcDbEntity
  8
LAYER_CUT_FEAT
100
AcDbSpline
 62
7
  6
CONTINUOUS
 70
0
 71
3
 72
80
 73
76
 74
0
 42
0.0000001
 43
0.0000001
 44
0.0000000001
 40
0.0
 40
0.0
 40
0.0
 40
0.0
 40
0.0053540951
 40
0.0107128793
 40
0.0160810221
 40
0.0214631515
 40
0.0268638372
 40
0.0322875689
 40
0.0377387416
 40
0.0432216371
 40
0.0487404091
 40
0.0542990723
 40
0.0599014843
 40
0.065551345
 40
0.0712521741
 40
0.0770073213
 40
0.0828199403
 40
0.0886930063
 40
0.1006301241
 40
0.1128399032
 40
0.1190529648
 40
0.1253402251
 40
0.1381426321
 40
0.1512590064
 40
0.1646973074
 40
0.1784628134
 40
0.1925582765
 40
0.2069840818
 40
0.2217384059
 40
0.2368173714
 40
0.2522151964
 40
0.2679243365
 40
0.2839356199
 40
0.3002383753
 40
0.3168205525
 40
0.3336688367
 40
0.3507687563
 40
0.3681047852
 40
0.3856604408
 40
0.4034183767
 40
0.4213604724
 40
0.4394679193
 40
0.4577213033
 40
0.4761006864
 40
0.4945856843
 40
0.513155544
 40
0.5317892193
 40
0.5504654448
 40
0.5691628104
 40
0.5878598339
 40
0.6065350343
 40
0.6251670048
 40
0.643734486
 40
0.6622164396
 40
0.6805921234
 40
0.698841166
 40
0.7169436449
 40
0.7348801641
 40
0.7526319356
 40
0.7701808622
 40
0.7875096238
 40
0.8046017666
 40
0.8214417966
 40
0.8380152772
 40
0.8543089322
 40
0.8703107534
 40
0.8860101156
 40
0.9013978967
 40
0.916466606
 40
0.9312105215
 40
0.9456258237
 40
0.9597107733
 40
0.9734657846
 40
0.9868937857
 40
1.0
 40
1.0
 40
1.0
 40
1.0
 10
14.6188829822
 20
12.2601673633
 30
0.0
 10
14.6197032816
 20
12.2628218499
 30
0.0
 10
14.6214407218
 20
12.2681039899
 30
0.0
 10
14.6243330486
 20
12.2759332958
 30
0.0
 10
14.6275109038
 20
12.2836669623
 30
0.0
 10
14.6309728007
 20
12.2913015519
 30
0.0
 10
14.6347173095
 20
12.2988337914
 30
0.0
 10
14.638742761
 20
12.3062604543
 30
0.0
 10
14.6430474396
 20
12.3135783403
 30
0.0
 10
14.6476294699
 20
12.3207843142
 30
0.0
 10
14.6524868626
 20
12.3278752935
 30
0.0
 10
14.6576175373
 20
12.3348482257
 30
0.0
 10
14.6630192423
 20
12.3417001565
 30
0.0
 10
14.6686896885
 20
12.3484281193
 30
0.0
 10
14.6746263821
 20
12.3550292924
 30
0.0
 10
14.6808268025
 20
12.3615007938
 30
0.0
 10
14.6872882896
 20
12.3678399716
 30
0.0
 10
14.6962960976
 20
12.3761565053
 30
0.0
 10
14.7082105539
 20
12.3862070528
 30
0.0
 10
14.7208169033
 20
12.3956699634
 30
0.0
 10
14.7313757205
 20
12.402947478
 30
0.0
 10
14.7423814172
 20
12.4101105044
 30
0.0
 10
14.7567401108
 20
12.4186773474
 30
0.0
 10
14.7747798213
 20
12.428268279
 30
0.0
 10
14.7937013126
 20
12.4372156052
 30
0.0
 10
14.8134719524
 20
12.4455041544
 30
0.0
 10
14.8340581048
 20
12.4531200951
 30
0.0
 10
14.855424652
 20
12.4600506315
 30
0.0
 10
14.8775351897
 20
12.4662841198
 30
0.0
 10
14.9003520414
 20
12.4718100666
 30
0.0
 10
14.9238363284
 20
12.4766191584
 30
0.0
 10
14.9479480287
 20
12.4807032797
 30
0.0
 10
14.972646044
 20
12.484055532
 30
0.0
 10
14.9978882677
 20
12.4866702486
 30
0.0
 10
15.0236316561
 20
12.488543008
 30
0.0
 10
15.0498323013
 20
12.4896706444
 30
0.0
 10
15.0764455066
 20
12.4900512551
 30
0.0
 10
15.1034258625
 20
12.4896842064
 30
0.0
 10
15.1307273252
 20
12.4885701366
 30
0.0
 10
15.1583032957
 20
12.4867109561
 30
0.0
 10
15.1861067002
 20
12.4841098444
 30
0.0
 10
15.2140900712
 20
12.4807712463
 30
0.0
 10
15.2422056292
 20
12.4767008648
 30
0.0
 10
15.2704053647
 20
12.4719056517
 30
0.0
 10
15.2986411213
 20
12.4663937967
 30
0.0
 10
15.3268646782
 20
12.460174713
 30
0.0
 10
15.3550278332
 20
12.4532590218
 30
0.0
 10
15.3830824858
 20
12.4456585344
 30
0.0
 10
15.4109807194
 20
12.4373862318
 30
0.0
 10
15.4386748844
 20
12.4284562425
 30
0.0
 10
15.4661176795
 20
12.4188838189
 30
0.0
 10
15.4932622336
 20
12.4086853107
 30
0.0
 10
15.5200621858
 20
12.3978781365
 30
0.0
 10
15.5464717656
 20
12.3864807537
 30
0.0
 10
15.5724458707
 20
12.3745126266
 30
0.0
 10
15.5979401452
 20
12.3619941923
 30
0.0
 10
15.6229110549
 20
12.3489468259
 30
0.0
 10
15.6473159627
 20
12.3353928026
 30
0.0
 10
15.6711132011
 20
12.3213552593
 30
0.0
 10
15.6942621435
 20
12.3068581536
 30
0.0
 10
15.7167232742
 20
12.2919262225
 30
0.0
 10
15.738458255
 20
12.2765849382
 30
0.0
 10
15.7594299909
 20
12.2608604635
 30
0.0
 10
15.7796026932
 20
12.2447796057
 30
0.0
 10
15.7989419397
 20
12.2283697685
 30
0.0
 10
15.8174147316
 20
12.2116589034
 30
0.0
 10
15.8349895483
 20
12.1946754595
 30
0.0
 10
15.8516363975
 20
12.1774483327
 30
0.0
 10
15.8673268663
 20
12.1600068139
 30
0.0
 10
15.8820341548
 20
12.1423805412
 30
0.0
 10
15.8957331462
 20
12.1245994271
 30
0.0
 10
15.9084003575
 20
12.1066936902
 30
0.0
 10
15.9200142067
 20
12.0886934999
 30
0.0
 10
15.9305543822
 20
12.0706299871
 30
0.0
 10
15.9369300359
 20
12.0584187468
 30
0.0
 10
15.9399261963
 20
12.0523132138
 30
0.0
  0
SPLINE
  5
322
100
AcDbEntity
  8
LAYER_FEATURE
100
AcDbSpline
 62
7
  6
CONTINUOUS
 70
0
 71
3
 72
20
 73
16
 74
0
 42
0.0000001
 43
0.0000001
 44
0.0000000001
 40
0.0
 40
0.0
 40
0.0
 40
0.0
 40
0.0594523512
 40
0.1190693092
 40
0.178910933
 40
0.2390356419
 40
0.2994996691
 40
0.3603568674
 40
0.4216581858
 40
0.4834515424
 40
0.5457813586
 40
0.6086887031
 40
0.7363551571
 40
0.8667289679
 40
1.0
 40
1.0
 40
1.0
 40
1.0
 10
14.8846830676
 20
12.1075042074
 30
0.0
 10
14.8841889025
 20
12.1087468076
 30
0.0
 10
14.8832572895
 20
12.1112589974
 30
0.0
 10
14.8820348081
 20
12.1150944895
 30
0.0
 10
14.8809869754
 20
12.1189970654
 30
0.0
 10
14.8801151012
 20
12.1229621465
 30
0.0
 10
14.8794200891
 20
12.1269851865
 30
0.0
 10
14.8789027916
 20
12.1310615638
 30
0.0
 10
14.8785637265
 20
12.135186597
 30
0.0
 10
14.8784033074
 20
12.1393555312
 30
0.0
 10
14.8784216779
 20
12.143563667
 30
0.0
 10
14.8786857342
 20
12.1492474551
 30
0.0
 10
14.8794694779
 20
12.1564326471
 30
0.0
 10
14.8811153548
 20
12.1650874567
 30
0.0
 10
14.882663519
 20
12.1708186402
 30
0.0
 10
14.8835485682
 20
12.1736826605
 30
0.0
  0
SPLINE
  5
323
100
AcDbEntity
  8
02___PRT_ALL_AXES
100
AcDbSpline
 62
7
  6
CONTINUOUS
 70
0
 71
3
 72
46
 73
42
 74
0
 42
0.0000001
 43
0.0000001
 44
0.0000000001
 40
0.0
 40
0.0
 40
0.0
 40
0.0
 40
0.0111278134
 40
0.0223230881
 40
0.0336094552
 40
0.0450095883
 40
0.0565447737
 40
0.0682348979
 40
0.0800980917
 40
0.0921507464
 40
0.1044073066
 40
0.1168802609
 40
0.129580143
 40
0.1425154033
 40
0.1556926365
 40
0.1691163653
 40
0.1967086484
 40
0.2252978538
 40
0.2548599172
 40
0.2853493863
 40
0.3167034956
 40
0.3488462682
 40
0.381692448
 40
0.4151510661
 40
0.4491285585
 40
0.483531318
 40
0.5182676574
 40
0.5532493295
 40
0.588392594
 40
0.6236188523
 40
0.6588550644
 40
0.6940340294
 40
0.7290944713
 40
0.7639811854
 40
0.7986450947
 40
0.8330433769
 40
0.8671395645
 40
0.9009036117
 40
0.9343120987
 40
0.9673476601
 40
1.0
 40
1.0
 40
1.0
 40
1.0
 10
14.8819108315
 20
12.1125676174
 30
0.0
 10
14.8813935796
 20
12.1136216673
 30
0.0
 10
14.8804121056
 20
12.1157642408
 30
0.0
 10
14.8791066971
 20
12.119063112
 30
0.0
 10
14.8779653776
 20
12.1224526853
 30
0.0
 10
14.8769890664
 20
12.1259306056
 30
0.0
 10
14.8761783558
 20
12.1294944687
 30
0.0
 10
14.8755338191
 20
12.1331416631
 30
0.0
 10
14.8750557978
 20
12.1368693836
 30
0.0
 10
14.8747445458
 20
12.1406746211
 30
0.0
 10
14.874600133
 20
12.1445541511
 30
0.0
 10
14.8746224746
 20
12.1485045296
 30
0.0
 10
14.8748113491
 20
12.1525220839
 30
0.0
 10
14.8751663142
 20
12.1566029045
 30
0.0
 10
14.8756868294
 20
12.1607428979
 30
0.0
 10
14.8766089143
 20
12.1663872301
 30
0.0
 10
14.8781815305
 20
12.1735676082
 30
0.0
 10
14.8806957278
 20
12.1822643719
 30
0.0
 10
14.883841272
 20
12.1910781664
 30
0.0
 10
14.8876026101
 20
12.1999643715
 30
0.0
 10
14.8919618835
 20
12.2088768055
 30
0.0
 10
14.8968990658
 20
12.2177677756
 30
0.0
 10
14.9023923122
 20
12.2265888401
 30
0.0
 10
14.9084182672
 20
12.2352913153
 30
0.0
 10
14.9149523588
 20
12.2438267452
 30
0.0
 10
14.9219690193
 20
12.2521472558
 30
0.0
 10
14.9294418237
 20
12.2602058156
 30
0.0
 10
14.9373435331
 20
12.2679564194
 30
0.0
 10
14.9456460417
 20
12.2753542175
 30
0.0
 10
14.954320234
 20
12.2823556222
 30
0.0
 10
14.9633357745
 20
12.2889184253
 30
0.0
 10
14.9726608487
 20
12.2950019578
 30
0.0
 10
14.9822618931
 20
12.3005673129
 30
0.0
 10
14.9921033277
 20
12.305577649
 30
0.0
 10
15.0021473445
 20
12.3099985775
 30
0.0
 10
15.0123537567
 20
12.3137986318
 30
0.0
 10
15.022679981
 20
12.3169497909
 30
0.0
 10
15.0330810497
 20
12.3194280608
 30
0.0
 10
15.0435100958
 20
12.3212139799
 30
0.0
 10
15.0539176787
 20
12.322293223
 30
0.0
 10
15.0608508389
 20
12.3225370806
 30
0.0
 10
15.064296075
 20
12.3225370806
 30
0.0
  0
SPLINE
  5
324
100
AcDbEntity
  8
02___PRT_ALL_AXES
100
AcDbSpline
 62
7
  6
CONTINUOUS
 70
0
 71
3
 72
39
 73
35
 74
0
 42
0.0000001
 43
0.0000001
 44
0.0000000001
 40
0.0
 40
0.0
 40
0.0
 40
0.0
 40
0.0396653679
 40
0.0788626153
 40
0.1175692063
 40
0.1557638028
 40
0.1934266653
 40
0.2305396231
 40
0.2670862404
 40
0.3030519223
 40
0.3384240474
 40
0.3731920997
 40
0.4073478088
 40
0.4408852953
 40
0.4738012215
 40
0.506094948
 40
0.5377686922
 40
0.5688276904
 40
0.5992803581
 40
0.6291384462
 40
0.6584171899
 40
0.6871354422
 40
0.7153157884
 40
0.7429846308
 40
0.7701722369
 40
0.7969127394
 40
0.8232440794
 40
0.8492078821
 40
0.8748492567
 40
0.900216515
 40
0.9253608058
 40
0.950335667
 40
0.9751965029
 40
1.0
 40
1.0
 40
1.0
 40
1.0
 10
14.9483463061
 20
11.9473234909
 30
0.0
 10
14.9419316049
 20
11.9473234909
 30
0.0
 10
14.9291773985
 20
11.9471796559
 30
0.0
 10
14.9101736906
 20
11.9465240371
 30
0.0
 10
14.8914282301
 20
11.9454305282
 30
0.0
 10
14.8729622865
 20
11.9439003503
 30
0.0
 10
14.8547966704
 20
11.9419352236
 30
0.0
 10
14.8369518811
 20
11.939537351
 30
0.0
 10
14.8194480472
 20
11.936709423
 30
0.0
 10
14.8023049119
 20
11.9334546105
 30
0.0
 10
14.7855418092
 20
11.9297765614
 30
0.0
 10
14.7691776429
 20
11.9256793956
 30
0.0
 10
14.7532308659
 20
11.9211676993
 30
0.0
 10
14.7377194604
 20
11.9162465192
 30
0.0
 10
14.7226609182
 20
11.9109213556
 30
0.0
 10
14.7080722232
 20
11.9051981553
 30
0.0
 10
14.6939698337
 20
11.8990833044
 30
0.0
 10
14.680369666
 20
11.8925836207
 30
0.0
 10
14.6672870794
 20
11.8857063455
 30
0.0
 10
14.6547368619
 20
11.8784591363
 30
0.0
 10
14.6427332172
 20
11.8708500592
 30
0.0
 10
14.6312897522
 20
11.8628875819
 30
0.0
 10
14.6204194653
 20
11.8545805676
 30
0.0
 10
14.6101347354
 20
11.8459382697
 30
0.0
 10
14.6004473101
 20
11.8369703272
 30
0.0
 10
14.5913682934
 20
11.8276867617
 30
0.0
 10
14.5829081331
 20
11.8180979744
 30
0.0
 10
14.5750766046
 20
11.8082147424
 30
0.0
 10
14.5678827956
 20
11.7980482195
 30
0.0
 10
14.5613350813
 20
11.7876099147
 30
0.0
 10
14.5554411222
 20
11.7769117453
 30
0.0
 10
14.5502077709
 20
11.7659657977
 30
0.0
 10
14.5456413123
 20
11.7547851525
 30
0.0
 10
14.5430437502
 20
11.7471792836
 30
0.0
 10
14.5418594459
 20
11.7433468677
 30
0.0
  0
SPLINE
  5
325
100
AcDbEntity
  8
LAYER_FEATURE
100
AcDbSpline
 62
7
  6
CONTINUOUS
 70
0
 71
3
 72
15
 73
11
 74
0
 42
0.0000001
 43
0.0000001
 44
0.0000000001
 40
0.0
 40
0.0
 40
0.0
 40
0.0
 40
0.1208217236
 40
0.2439177785
 40
0.3687705597
 40
0.4948381106
 40
0.6215617966
 40
0.7483748698
 40
0.8747076265
 40
1.0
 40
1.0
 40
1.0
 40
1.0
 10
16.3722203261
 20
13.1028286916
 30
0.0
 10
16.3739089486
 20
13.1017911982
 30
0.0
 10
16.3773743128
 20
13.0997870495
 30
0.0
 10
16.3827588786
 20
13.0970255437
 30
0.0
 10
16.3883502763
 20
13.0944946382
 30
0.0
 10
16.3941111761
 20
13.0922112607
 30
0.0
 10
16.4000033438
 20
13.090190546
 30
0.0
 10
16.4059876475
 20
13.0884459376
 30
0.0
 10
16.4120241433
 20
13.0869890395
 30
0.0
 10
16.4160796653
 20
13.0862116223
 30
0.0
 10
16.4181069528
 20
13.085873987
 30
0.0
  0
SPLINE
  5
326
100
AcDbEntity
  8
LAYER_FEATURE
100
AcDbSpline
 62
7
  6
CONTINUOUS
 70
0
 71
3
 72
23
 73
19
 74
0
 42
0.0000001
 43
0.0000001
 44
0.0000000001
 40
0.0
 40
0.0
 40
0.0
 40
0.0
 40
0.0556361645
 40
0.1131627258
 40
0.1724267193
 40
0.2332489579
 40
0.2954282464
 40
0.3587452449
 40
0.4229660588
 40
0.4878456205
 40
0.5531309218
 40
0.6185641446
 40
0.6838857324
 40
0.7488374388
 40
0.8131653989
 40
0.8766232348
 40
0.9389753058
 40
1.0
 40
1.0
 40
1.0
 40
1.0
 10
16.2608191389
 20
13.2536662202
 30
0.0
 10
16.2620046144
 20
13.2524987757
 30
0.0
 10
16.2644925256
 20
13.2502010115
 30
0.0
 10
16.2684812457
 20
13.2469289954
 30
0.0
 10
16.2727691779
 20
13.2437899288
 30
0.0
 10
16.2773309754
 20
13.2408023594
 30
0.0
 10
16.2821399253
 20
13.2379837316
 30
0.0
 10
16.2871677748
 20
13.2353505952
 30
0.0
 10
16.2923849895
 20
13.2329184086
 30
0.0
 10
16.2977609037
 20
13.2307014659
 30
0.0
 10
16.3032639099
 20
13.2287128008
 30
0.0
 10
16.3088616472
 20
13.2269641081
 30
0.0
 10
16.3145211939
 20
13.225465672
 30
0.0
 10
16.3202092719
 20
13.2242263042
 30
0.0
 10
16.3258924218
 20
13.2232532924
 30
0.0
 10
16.3315372958
 20
13.2225523567
 30
0.0
 10
16.3371105282
 20
13.2221276224
 30
0.0
 10
16.3408007003
 20
13.2220290991
 30
0.0
 10
16.3426256601
 20
13.2220281911
 30
0.0
  0
SPLINE
  5
327
100
AcDbEntity
  8
LAYER_FEATURE
100
AcDbSpline
 62
7
  6
CONTINUOUS
 70
0
 71
3
 72
11
 73
7
 74
0
 42
0.0000001
 43
0.0000001
 44
0.0000000001
 40
0.0
 40
0.0
 40
0.0
 40
0.0
 40
0.2428556755
 40
0.4886625429
 40
0.7402338314
 40
1.0
 40
1.0
 40
1.0
 40
1.0
 10
16.1219068324
 20
13.4437876481
 30
0.0
 10
16.1220102208
 20
13.4441221947
 30
0.0
 10
16.1221725108
 20
13.4448104382
 30
0.0
 10
16.122276094
 20
13.4458757085
 30
0.0
 10
16.1222402009
 20
13.4469696326
 30
0.0
 10
16.1221258069
 20
13.447699996
 30
0.0
 10
16.1220472836
 20
13.4480662123
 30
0.0
  0
SPLINE
  5
328
100
AcDbEntity
  8
LAYER_CHAMFER_FEAT
100
AcDbSpline
 62
7
  6
CONTINUOUS
 70
0
 71
3
 72
52
 73
48
 74
0
 42
0.0000001
 43
0.0000001
 44
0.0000000001
 40
0.0
 40
0.0
 40
0.0
 40
0.0
 40
0.0357327006
 40
0.0703692211
 40
0.1039001204
 40
0.1363304949
 40
0.1676814241
 40
0.197991394
 40
0.227317592
 40
0.2416379578
 40
0.2557429214
 40
0.2696452844
 40
0.28335906
 40
0.2968995348
 40
0.3102831337
 40
0.3235274393
 40
0.3366510273
 40
0.3496734324
 40
0.3626149588
 40
0.3754965896
 40
0.3883397841
 40
0.4011663352
 40
0.4139981704
 40
0.426857172
 40
0.4397650007
 40
0.4527428986
 40
0.4658115516
 40
0.4789908978
 40
0.4923000382
 40
0.5057570677
 40
0.5193790354
 40
0.5331818105
 40
0.5471800845
 40
0.5613872773
 40
0.5758155687
 40
0.6053724134
 40
0.6359285724
 40
0.6675366233
 40
0.7002307345
 40
0.7340280044
 40
0.7689298959
 40
0.8049236824
 40
0.8419838226
 40
0.8800733146
 40
0.9191447889
 40
0.9591419424
 40
1.0
 40
1.0
 40
1.0
 40
1.0
 10
15.3695486184
 20
11.607883173
 30
0.0
 10
15.3725275244
 20
11.6046232687
 30
0.0
 10
15.3782358339
 20
11.5980563889
 30
0.0
 10
15.3861327904
 20
11.5879235864
 30
0.0
 10
15.3932074099
 20
11.5776917079
 30
0.0
 10
15.3994356602
 20
11.5673946764
 30
0.0
 10
15.4047965772
 20
11.5570659968
 30
0.0
 10
15.4092716285
 20
11.5467400347
 30
0.0
 10
15.4122733735
 20
11.5380965689
 30
0.0
 10
15.4142051604
 20
11.5312240898
 30
0.0
 10
15.4154129133
 20
11.5261327996
 30
0.0
 10
15.4163898972
 20
11.5210685601
 30
0.0
 10
15.4171352042
 20
11.5160355045
 30
0.0
 10
15.4176482446
 20
11.5110378797
 30
0.0
 10
15.4179284561
 20
11.5060798588
 30
0.0
 10
15.417975657
 20
11.501165616
 30
0.0
 10
15.4177896676
 20
11.4962992858
 30
0.0
 10
15.4173707126
 20
11.4914849713
 30
0.0
 10
15.4167190085
 20
11.4867267499
 30
0.0
 10
15.4158351889
 20
11.4820286357
 30
0.0
 10
15.4147198769
 20
11.4773946296
 30
0.0
 10
15.4133741134
 20
11.4728286352
 30
0.0
 10
15.4117989334
 20
11.4683345535
 30
0.0
 10
15.4099957776
 20
11.4639161561
 30
0.0
 10
15.4079660913
 20
11.4595772192
 30
0.0
 10
15.4057117016
 20
11.4553213633
 30
0.0
 10
15.4032344556
 20
11.4511522176
 30
0.0
 10
15.4005365501
 20
11.4470732373
 30
0.0
 10
15.3976202208
 20
11.4430878862
 30
0.0
 10
15.3944880161
 20
11.4391994463
 30
0.0
 10
15.3911425466
 20
11.4354112033
 30
0.0
 10
15.387586693
 20
11.4317262591
 30
0.0
 10
15.383823441
 20
11.4281477227
 30
0.0
 10
15.3798559326
 20
11.4246784728
 30
0.0
 10
15.3742536068
 20
11.4201666057
 30
0.0
 10
15.3667409977
 20
11.414818327
 30
0.0
 10
15.3570410765
 20
11.4089354945
 30
0.0
 10
15.3466162535
 20
11.4035545853
 30
0.0
 10
15.3355017206
 20
11.3986931131
 30
0.0
 10
15.3237343079
 20
11.3943665548
 30
0.0
 10
15.3113530849
 20
11.3905888539
 30
0.0
 10
15.2983990868
 20
11.3873722076
 30
0.0
 10
15.2849152488
 20
11.3847270462
 30
0.0
 10
15.2709463063
 20
11.3826619811
 30
0.0
 10
15.2565385167
 20
11.3811837368
 30
0.0
 10
15.241740015
 20
11.3802971525
 30
0.0
 10
15.2317463972
 20
11.3801043949
 30
0.0
 10
15.2266970094
 20
11.3801043949
 30
0.0
  0
SPLINE
  5
329
100
AcDbEntity
  8
LAYER_FEATURE
100
AcDbSpline
 62
7
  6
CONTINUOUS
 70
0
 71
3
 72
39
 73
35
 74
0
 42
0.0000001
 43
0.0000001
 44
0.0000000001
 40
0.0
 40
0.0
 40
0.0
 40
0.0
 40
0.0243631559
 40
0.0495483754
 40
0.0755666412
 40
0.1024176405
 40
0.1300908595
 40
0.1585665528
 40
0.1878165966
 40
0.2178054267
 40
0.2484908773
 40
0.2798248894
 40
0.3117541485
 40
0.3442208042
 40
0.3771630804
 40
0.4105158089
 40
0.4442109616
 40
0.4781782274
 40
0.5123455042
 40
0.5466393675
 40
0.5809855754
 40
0.6153095648
 40
0.6495369049
 40
0.6835937788
 40
0.7174074964
 40
0.7509069612
 40
0.7840231548
 40
0.8166897016
 40
0.8488433469
 40
0.8804246697
 40
0.9113784424
 40
0.9416537585
 40
0.9712083368
 40
1.0
 40
1.0
 40
1.0
 40
1.0
 10
16.1074967417
 20
13.3973108967
 30
0.0
 10
16.1079628499
 20
13.3963959902
 30
0.0
 10
16.1089742642
 20
13.3945670447
 30
0.0
 10
16.1106876074
 20
13.3918802337
 30
0.0
 10
16.1126165682
 20
13.3892132802
 30
0.0
 10
16.1147548005
 20
13.3865748358
 30
0.0
 10
16.117095425
 20
13.3839732581
 30
0.0
 10
16.1196309007
 20
13.381416875
 30
0.0
 10
16.1223530587
 20
13.3789138532
 30
0.0
 10
16.1252531323
 20
13.3764722081
 30
0.0
 10
16.128321792
 20
13.3740997738
 30
0.0
 10
16.1315491673
 20
13.3718041788
 30
0.0
 10
16.1349248607
 20
13.3695927942
 30
0.0
 10
16.1384379991
 20
13.3674727317
 30
0.0
 10
16.1420772699
 20
13.36545082
 30
0.0
 10
16.1458309513
 20
13.3635335785
 30
0.0
 10
16.1496869412
 20
13.3617271747
 30
0.0
 10
16.1536328105
 20
13.3600374286
 30
0.0
 10
16.1576558425
 20
13.3584697934
 30
0.0
 10
16.1617430686
 20
13.3570293273
 30
0.0
 10
16.1658813072
 20
13.3557206648
 30
0.0
 10
16.1700572162
 20
13.3545480245
 30
0.0
 10
16.174257334
 20
13.3535151958
 30
0.0
 10
16.1784681189
 20
13.3526255089
 30
0.0
 10
16.1826759949
 20
13.3518818231
 30
0.0
 10
16.1868673992
 20
13.3512865359
 30
0.0
 10
16.1910288254
 20
13.3508415769
 30
0.0
 10
16.1951468637
 20
13.3505483794
 30
0.0
 10
16.1992082514
 20
13.3504078792
 30
0.0
 10
16.2031999167
 20
13.3504205386
 30
0.0
 10
16.207108978
 20
13.3505863404
 30
0.0
 10
16.2109229659
 20
13.3509047333
 30
0.0
 10
16.2146294097
 20
13.3513747415
 30
0.0
 10
16.2170535328
 20
13.3517937877
 30
0.0
 10
16.2182439067
 20
13.3520292471
 30
0.0
  0
SPLINE
  5
32A
100
AcDbEntity
  8
LAYER_FEATURE
100
AcDbSpline
 62
7
  6
CONTINUOUS
 70
0
 71
3
 72
15
 73
11
 74
0
 42
0.0000001
 43
0.0000001
 44
0.0000000001
 40
0.0
 40
0.0
 40
0.0
 40
0.0
 40
0.114140382
 40
0.2294720666
 40
0.3471024664
 40
0.4680596253
 40
0.5932090427
 40
0.7232498882
 40
0.858734135
 40
1.0
 40
1.0
 40
1.0
 40
1.0
 10
15.9293279862
 20
13.5431087048
 30
0.0
 10
15.9294232275
 20
13.5434169183
 30
0.0
 10
15.9295759536
 20
13.5440492859
 30
0.0
 10
15.9296866093
 20
13.5450263867
 30
0.0
 10
15.9296789939
 20
13.5460289751
 30
0.0
 10
15.9295534498
 20
13.5470514298
 30
0.0
 10
15.929310929
 20
13.5480884534
 30
0.0
 10
15.9289530136
 20
13.5491347961
 30
0.0
 10
15.9284817841
 20
13.550185072
 30
0.0
 10
15.9281018725
 20
13.5508699372
 30
0.0
 10
15.927895026
 20
13.5512114357
 30
0.0
  0
SPLINE
  5
32B
100
AcDbEntity
  8
LAYER_FEATURE
100
AcDbSpline
 62
7
  6
CONTINUOUS
 70
0
 71
3
 72
42
 73
38
 74
0
 42
0.0000001
 43
0.0000001
 44
0.0000000001
 40
0.0
 40
0.0
 40
0.0
 40
0.0
 40
0.0106791953
 40
0.0214649798
 40
0.0323866491
 40
0.0434716209
 40
0.0547452362
 40
0.0662305611
 40
0.0899069418
 40
0.1146436195
 40
0.1405332698
 40
0.1676305598
 40
0.1959557116
 40
0.2254984258
 40
0.2562217477
 40
0.2880656664
 40
0.3209503814
 40
0.3547792412
 40
0.3894413941
 40
0.4248142014
 40
0.460765461
 40
0.4971554869
 40
0.5338390823
 40
0.5706674387
 40
0.6074899875
 40
0.6441562306
 40
0.6805175711
 40
0.7164291684
 40
0.7517518416
 40
0.7863540494
 40
0.8201139798
 40
0.852921785
 40
0.8846820172
 40
0.9153162799
 40
0.9447662494
 40
0.9729968144
 40
1.0
 40
1.0
 40
1.0
 40
1.0
 10
15.9242434709
 20
13.5268446828
 30
0.0
 10
15.9241617969
 20
13.5262744517
 30
0.0
 10
15.9240362018
 20
13.5251224131
 30
0.0
 10
15.9239617718
 20
13.5233758418
 30
0.0
 10
15.9240005049
 20
13.5216061831
 30
0.0
 10
15.9241523886
 20
13.519816304
 30
0.0
 10
15.9244170788
 20
13.5180088757
 30
0.0
 10
15.9249248885
 20
13.515554875
 30
0.0
 10
15.925849254
 20
13.5124516107
 30
0.0
 10
15.9273871585
 20
13.5087435856
 30
0.0
 10
15.9293546623
 20
13.5050348815
 30
0.0
 10
15.9317391719
 20
13.5013477077
 30
0.0
 10
15.934525933
 20
13.497703677
 30
0.0
 10
15.9376979252
 20
13.4941243914
 30
0.0
 10
15.9412359112
 20
13.4906311367
 30
0.0
 10
15.9451184897
 20
13.4872447975
 30
0.0
 10
15.9493221908
 20
13.4839856966
 30
0.0
 10
15.9538215974
 20
13.4808734554
 30
0.0
 10
15.9585894879
 20
13.4779268564
 30
0.0
 10
15.963596997
 20
13.4751637144
 30
0.0
 10
15.9688137898
 20
13.4726007568
 30
0.0
 10
15.9742082475
 20
13.4702535131
 30
0.0
 10
15.9797476614
 20
13.4681362144
 30
0.0
 10
15.9853984354
 20
13.466261702
 30
0.0
 10
15.9911262933
 20
13.4646413463
 30
0.0
 10
15.9968964919
 20
13.4632849757
 30
0.0
 10
16.0026740356
 20
13.4622008165
 30
0.0
 10
16.0084238949
 20
13.4613954432
 30
0.0
 10
16.0141112237
 20
13.4608737411
 30
0.0
 10
16.0197015773
 20
13.4606388803
 30
0.0
 10
16.0251611278
 20
13.4606923043
 30
0.0
 10
16.0304568716
 20
13.4610337284
 30
0.0
 10
16.0355568487
 20
13.4616611671
 30
0.0
 10
16.0404302829
 20
13.4625709348
 30
0.0
 10
16.0450479568
 20
13.4637578044
 30
0.0
 10
16.0493816703
 20
13.465214714
 30
0.0
 10
16.0521253389
 20
13.4663866875
 30
0.0
 10
16.0534381036
 20
13.4670177979
 30
0.0
  0
SPLINE
  5
32C
100
AcDbEntity
  8
02___PRT_ALL_AXES
100
AcDbSpline
 62
7
  6
CONTINUOUS
 70
0
 71
3
 72
39
 73
35
 74
0
 42
0.0000001
 43
0.0000001
 44
0.0000000001
 40
0.0
 40
0.0
 40
0.0
 40
0.0
 40
0.0248034971
 40
0.0496643331
 40
0.0746391948
 40
0.099783486
 40
0.1251507443
 40
0.1507921182
 40
0.1767559197
 40
0.2030872593
 40
0.2298277628
 40
0.2570153701
 40
0.2846842128
 40
0.3128645581
 40
0.3415828091
 40
0.3708615524
 40
0.4007196423
 40
0.4311723119
 40
0.4622313107
 40
0.4939050539
 40
0.5261987784
 40
0.5591147036
 40
0.5926521912
 40
0.6268079018
 40
0.6615759544
 40
0.6969480785
 40
0.7329137585
 40
0.7694603751
 40
0.806573337
 40
0.8442361872
 40
0.8824308367
 40
0.9211372771
 40
0.9603348313
 40
1.0
 40
1.0
 40
1.0
 40
1.0
 10
14.6943612316
 20
12.2368428201
 30
0.0
 10
14.6955455407
 20
12.2406752346
 30
0.0
 10
14.6981430936
 20
12.2482811063
 30
0.0
 10
14.7027095548
 20
12.2594617509
 30
0.0
 10
14.7079429076
 20
12.2704076978
 30
0.0
 10
14.7138368687
 20
12.2811058662
 30
0.0
 10
14.7203845832
 20
12.2915441708
 30
0.0
 10
14.7275783906
 20
12.3017106943
 30
0.0
 10
14.7354099167
 20
12.3115939277
 30
0.0
 10
14.743870076
 20
12.3211827158
 30
0.0
 10
14.7529490942
 20
12.3304662802
 30
0.0
 10
14.7626365211
 20
12.3394342215
 30
0.0
 10
14.7729212513
 20
12.3480765191
 30
0.0
 10
14.7837915372
 20
12.356383534
 30
0.0
 10
14.7952350008
 20
12.3643460127
 30
0.0
 10
14.807238645
 20
12.3719550904
 30
0.0
 10
14.819788864
 20
12.379202298
 30
0.0
 10
14.8328714522
 20
12.3860795717
 30
0.0
 10
14.8464716204
 20
12.3925792548
 30
0.0
 10
14.8605740091
 20
12.3986941064
 30
0.0
 10
14.8751627026
 20
12.4044173083
 30
0.0
 10
14.8902212441
 20
12.4097424731
 30
0.0
 10
14.9057326502
 20
12.414663652
 30
0.0
 10
14.921679428
 20
12.419175347
 30
0.0
 10
14.9380435944
 20
12.4232725125
 30
0.0
 10
14.9548066964
 20
12.4269505624
 30
0.0
 10
14.9719498308
 20
12.4302053764
 30
0.0
 10
14.9894536647
 20
12.4330333057
 30
0.0
 10
15.0072984528
 20
12.4354311756
 30
0.0
 10
15.0254640761
 20
12.4373963043
 30
0.0
 10
15.0439300024
 20
12.4389264736
 30
0.0
 10
15.0626754959
 20
12.4400199955
 30
0.0
 10
15.0816791973
 20
12.4406756033
 30
0.0
 10
15.0944334209
 20
12.440819444
 30
0.0
 10
15.1008480899
 20
12.440819444
 30
0.0
  0
SPLINE
  5
32D
100
AcDbEntity
  8
02___PRT_ALL_AXES
100
AcDbSpline
 62
7
  6
CONTINUOUS
 70
0
 71
3
 72
68
 73
64
 74
0
 42
0.0000001
 43
0.0000001
 44
0.0000000001
 40
0.0
 40
0.0
 40
0.0
 40
0.0
 40
0.0171788369
 40
0.0345306577
 40
0.0520446766
 40
0.0697104886
 40
0.0875169169
 40
0.1054526097
 40
0.1235058947
 40
0.141664841
 40
0.1599172927
 40
0.1782508912
 40
0.1966531058
 40
0.2151112605
 40
0.2521425354
 40
0.2892430601
 40
0.3263089875
 40
0.3447973807
 40
0.3632383654
 40
0.3816191845
 40
0.3999272072
 40
0.4181499572
 40
0.4362751398
 40
0.4542906703
 40
0.4721847024
 40
0.4899456593
 40
0.5075622635
 40
0.5250235665
 40
0.5423189801
 40
0.5594383094
 40
0.5763717881
 40
0.5931101129
 40
0.609644478
 40
0.6259666128
 40
0.642068821
 40
0.6579440237
 40
0.6735858011
 40
0.6889884357
 40
0.7041469586
 40
0.7190571981
 40
0.7337158332
 40
0.7481204458
 40
0.7622695732
 40
0.7761627647
 40
0.7898006398
 40
0.803184949
 40
0.8163186322
 40
0.8292058736
 40
0.8418521576
 40
0.8542643197
 40
0.866450594
 40
0.8784206484
 40
0.8901856078
 40
0.9017580641
 40
0.9131520682
 40
0.9243831021
 40
0.9354680245
 40
0.9464249875
 40
0.9572733267
 40
0.9680334217
 40
0.9787265285
 40
0.989374586
 40
1.0
 40
1.0
 40
1.0
 40
1.0
 10
15.1008480899
 20
12.440819444
 30
0.0
 10
15.1070740078
 20
12.440819444
 30
0.0
 10
15.1195889357
 20
12.4406824495
 30
0.0
 10
15.1384423632
 20
12.4400737533
 30
0.0
 10
15.1574552238
 20
12.4390613789
 30
0.0
 10
15.1766075191
 20
12.4376464244
 30
0.0
 10
15.1958794284
 20
12.4358303339
 30
0.0
 10
15.2152508543
 20
12.4336150078
 30
0.0
 10
15.2347016466
 20
12.4310027519
 30
0.0
 10
15.2542115569
 20
12.4279962876
 30
0.0
 10
15.2737602844
 20
12.424598744
 30
0.0
 10
15.2933274574
 20
12.4208136597
 30
0.0
 10
15.3128927971
 20
12.4166449583
 30
0.0
 10
15.3389767242
 20
12.4105748072
 30
0.0
 10
15.3714425655
 20
12.4020566119
 30
0.0
 10
15.4100269738
 20
12.390393094
 30
0.0
 10
15.4417976137
 20
12.3794938136
 30
0.0
 10
15.4669126031
 20
12.370088045
 30
0.0
 10
15.4855515008
 20
12.3627084182
 30
0.0
 10
15.5039883264
 20
12.3550057023
 30
0.0
 10
15.522203972
 20
12.3469878787
 30
0.0
 10
15.5401794556
 20
12.3386633054
 30
0.0
 10
15.5578960728
 20
12.3300406444
 30
0.0
 10
15.5753353806
 20
12.3211288701
 30
0.0
 10
15.5924792265
 20
12.3119372546
 30
0.0
 10
15.6093097681
 20
12.3024753655
 30
0.0
 10
15.6258094906
 20
12.2927530507
 30
0.0
 10
15.6419612229
 20
12.2827804265
 30
0.0
 10
15.6577481559
 20
12.2725678679
 30
0.0
 10
15.6731538593
 20
12.2621259965
 30
0.0
 10
15.6881623037
 20
12.2514656753
 30
0.0
 10
15.7027578746
 20
12.2405979927
 30
0.0
 10
15.7169253862
 20
12.2295342494
 30
0.0
 10
15.7306500976
 20
12.2182859474
 30
0.0
 10
15.7439177266
 20
12.206864776
 30
0.0
 10
15.7567144713
 20
12.1952826055
 30
0.0
 10
15.7690270202
 20
12.1835514706
 30
0.0
 10
15.7808425635
 20
12.1716835557
 30
0.0
 10
15.7921488057
 20
12.1596911833
 30
0.0
 10
15.8029339773
 20
12.147586799
 30
0.0
 10
15.8131868528
 20
12.1353829643
 30
0.0
 10
15.822896759
 20
12.1230923392
 30
0.0
 10
15.8320535806
 20
12.1107276676
 30
0.0
 10
15.8406477706
 20
12.0983017657
 30
0.0
 10
15.8486703569
 20
12.0858275071
 30
0.0
 10
15.8561129588
 20
12.0733178149
 30
0.0
 10
15.8629677904
 20
12.0607856461
 30
0.0
 10
15.8692276625
 20
12.0482439782
 30
0.0
 10
15.8748859891
 20
12.0357057996
 30
0.0
 10
15.879936791
 20
12.0231840967
 30
0.0
 10
15.8843747102
 20
12.0106918477
 30
0.0
 10
15.888195012
 20
11.9982420107
 30
0.0
 10
15.8913935845
 20
11.9858475135
 30
0.0
 10
15.8939669457
 20
11.9735212472
 30
0.0
 10
15.8959122482
 20
11.9612760566
 30
0.0
 10
15.8972272972
 20
11.9491247334
 30
0.0
 10
15.8979105558
 20
11.9370800041
 30
0.0
 10
15.8979611492
 20
11.9251545229
 30
0.0
 10
15.8973788716
 20
11.9133608447
 30
0.0
 10
15.8961642103
 20
11.9017114647
 30
0.0
 10
15.8943183037
 20
11.8902185966
 30
0.0
 10
15.8918431699
 20
11.8788948979
 30
0.0
 10
15.8897742349
 20
11.8714627795
 30
0.0
 10
15.8886372814
 20
11.8677836075
 30
0.0
  0
SPLINE
  5
32E
100
AcDbEntity
  8
LAYER_CHAMFER_FEAT
100
AcDbSpline
 62
7
  6
CONTINUOUS
 70
0
 71
3
 72
46
 73
42
 74
0
 42
0.0000001
 43
0.0000001
 44
0.0000000001
 40
0.0
 40
0.0
 40
0.0
 40
0.0
 40
0.0106259802
 40
0.021274605
 40
0.0319682832
 40
0.0427289496
 40
0.0535778697
 40
0.0645354127
 40
0.0756209309
 40
0.0868525593
 40
0.0982471757
 40
0.1098202439
 40
0.1215858337
 40
0.133556524
 40
0.1581508348
 40
0.1707977899
 40
0.1836857214
 40
0.2102007884
 40
0.2377294429
 40
0.2662812274
 40
0.2958485476
 40
0.3264084959
 40
0.3579245705
 40
0.390348266
 40
0.4236205314
 40
0.457673106
 40
0.4924297476
 40
0.5278073687
 40
0.5637170987
 40
0.6000652846
 40
0.6367544443
 40
0.6736841838
 40
0.710752087
 40
0.7478545887
 40
0.7848878379
 40
0.8217485546
 40
0.8583349084
 40
0.8945473492
 40
0.9302896586
 40
0.9654694399
 40
1.0
 40
1.0
 40
1.0
 40
1.0
 10
14.909219752
 20
11.6620038618
 30
0.0
 10
14.9087649673
 20
11.660532194
 30
0.0
 10
14.9079374056
 20
11.6575593435
 30
0.0
 10
14.906947335
 20
11.6530298676
 30
0.0
 10
14.9062089932
 20
11.6484327173
 30
0.0
 10
14.9057231066
 20
11.6437729674
 30
0.0
 10
14.9054902181
 20
11.6390554956
 30
0.0
 10
14.9055104303
 20
11.6342853027
 30
0.0
 10
14.905783758
 20
11.6294674124
 30
0.0
 10
14.9063097568
 20
11.6246068818
 30
0.0
 10
14.9070878987
 20
11.6197088037
 30
0.0
 10
14.9081172196
 20
11.6147783141
 30
0.0
 10
14.9093966878
 20
11.6098204403
 30
0.0
 10
14.9114524431
 20
11.6031209034
 30
0.0
 10
14.9139939149
 20
11.5964444427
 30
0.0
 10
14.9169835753
 20
11.5898197747
 30
0.0
 10
14.9203539325
 20
11.5830672695
 30
0.0
 10
14.925177835
 20
11.5746383524
 30
0.0
 10
14.9318380244
 20
11.5646783231
 30
0.0
 10
14.9393961729
 20
11.554818344
 30
0.0
 10
14.9478205147
 20
11.5450991225
 30
0.0
 10
14.9570761044
 20
11.5355603664
 30
0.0
 10
14.9671245321
 20
11.5262413044
 30
0.0
 10
14.9779241529
 20
11.5171803126
 30
0.0
 10
14.9894302063
 20
11.5084147921
 30
0.0
 10
15.0015949955
 20
11.4999809819
 30
0.0
 10
15.014368075
 20
11.4919137969
 30
0.0
 10
15.027696456
 20
11.4842466687
 30
0.0
 10
15.0415248261
 20
11.4770113964
 30
0.0
 10
15.0557957793
 20
11.4702380061
 30
0.0
 10
15.0704500569
 20
11.4639546196
 30
0.0
 10
15.0854267959
 20
11.4581873321
 30
0.0
 10
15.1006637852
 20
11.4529601001
 30
0.0
 10
15.1160977274
 20
11.4482946384
 30
0.0
 10
15.1316645058
 20
11.4442103293
 30
0.0
 10
15.147299453
 20
11.4407241377
 30
0.0
 10
15.1629376317
 20
11.4378505481
 30
0.0
 10
15.1785140776
 20
11.4356014874
 30
0.0
 10
15.193964203
 20
11.4339863154
 30
0.0
 10
15.2092235223
 20
11.4330117227
 30
0.0
 10
15.2193298963
 20
11.4327895278
 30
0.0
 10
15.2243354265
 20
11.4327895278
 30
0.0
  0
SPLINE
  5
32F
100
AcDbEntity
  8
LAYER_CUT_FEAT
100
AcDbSpline
 62
7
  6
CONTINUOUS
 70
0
 71
3
 72
22
 73
18
 74
0
 42
0.0000001
 43
0.0000001
 44
0.0000000001
 40
0.0
 40
0.0
 40
0.0
 40
0.0
 40
0.1381198487
 40
0.2053664697
 40
0.2714548684
 40
0.3364371463
 40
0.4003725865
 40
0.463327841
 40
0.5253764035
 40
0.5865986141
 40
0.6470813144
 40
0.7069174397
 40
0.7662054996
 40
0.8250488604
 40
0.8835549599
 40
0.9418344153
 40
1.0
 40
1.0
 40
1.0
 40
1.0
 10
15.9399261963
 20
12.0523132138
 30
0.0
 10
15.9442748093
 20
12.0434516723
 30
0.0
 10
15.9502668515
 20
12.0300326186
 30
0.0
 10
15.957100971
 20
12.0118719583
 30
0.0
 10
15.9615448328
 20
11.9984088272
 30
0.0
 10
15.9653474074
 20
11.9849966414
 30
0.0
 10
15.9685050903
 20
11.9716478312
 30
0.0
 10
15.9710146623
 20
11.9583752675
 30
0.0
 10
15.9728735824
 20
11.9451916306
 30
0.0
 10
15.9740799359
 20
11.9321095886
 30
0.0
 10
15.9746323964
 20
11.9191417261
 30
0.0
 10
15.9745302772
 20
11.9063005593
 30
0.0
 10
15.9737735712
 20
11.893598501
 30
0.0
 10
15.9723628942
 20
11.8810479011
 30
0.0
 10
15.9702994577
 20
11.8686608367
 30
0.0
 10
15.9675853662
 20
11.8564498182
 30
0.0
 10
15.9653428549
 20
11.8484306818
 30
0.0
 10
15.9641155308
 20
11.8444590643
 30
0.0
  0
SPLINE
  5
330
100
AcDbEntity
  8
02___PRT_ALL_AXES
100
AcDbSpline
 62
7
  6
CONTINUOUS
 70
0
 71
3
 72
25
 73
21
 74
0
 42
0.0000001
 43
0.0000001
 44
0.0000000001
 40
0.0
 40
0.0
 40
0.0
 40
0.0
 40
0.0671685246
 40
0.1336115432
 40
0.1993369861
 40
0.264359671
 40
0.3286995451
 40
0.3923810448
 40
0.4554318325
 40
0.4867347845
 40
0.5178915427
 40
0.5797730971
 40
0.6411191728
 40
0.7019641292
 40
0.7623435427
 40
0.7923751491
 40
0.8223045277
 40
0.8818668781
 40
0.9410830942
 40
1.0
 40
1.0
 40
1.0
 40
1.0
 10
15.064296075
 20
12.3225370806
 30
0.0
 10
15.0673584542
 20
12.3225370806
 30
0.0
 10
15.0734519899
 20
12.3223465869
 30
0.0
 10
15.0825049622
 20
12.3214802808
 30
0.0
 10
15.0913860279
 20
12.3200405165
 30
0.0
 10
15.1000586466
 20
12.318036531
 30
0.0
 10
15.1084878903
 20
12.3154809388
 30
0.0
 10
15.1166395358
 20
12.3123896901
 30
0.0
 10
15.1231906911
 20
12.3093751185
 30
0.0
 10
15.1282580799
 20
12.3067146278
 30
0.0
 10
15.1331833888
 20
12.3039056517
 30
0.0
 10
15.1391120152
 20
12.3000998682
 30
0.0
 10
15.1458428206
 20
12.2950755955
 30
0.0
 10
15.1521480537
 20
12.2896307969
 30
0.0
 10
15.1570360155
 20
12.2847570205
 30
0.0
 10
15.1607061368
 20
12.2806772309
 30
0.0
 10
15.1642020134
 20
12.2764956699
 30
0.0
 10
15.1682645047
 20
12.2710592685
 30
0.0
 10
15.1726276053
 20
12.264224807
 30
0.0
 10
15.1751834338
 20
12.2594770789
 30
0.0
 10
15.1763668043
 20
12.2570656209
 30
0.0
  0
SPLINE
  5
331
100
AcDbEntity
  8
02___PRT_ALL_AXES
100
AcDbSpline
 62
7
  6
CONTINUOUS
 70
0
 71
3
 72
23
 73
19
 74
0
 42
0.0000001
 43
0.0000001
 44
0.0000000001
 40
0.0
 40
0.0
 40
0.0
 40
0.0
 40
0.0499605376
 40
0.1019507435
 40
0.1559587243
 40
0.211949352
 40
0.2698624188
 40
0.3296174651
 40
0.3911152984
 40
0.4542405729
 40
0.5188637969
 40
0.5848430494
 40
0.6520255836
 40
0.7202488694
 40
0.7893415156
 40
0.8591238667
 40
0.9294083924
 40
1.0
 40
1.0
 40
1.0
 40
1.0
 10
15.8306103629
 20
11.9340308505
 30
0.0
 10
15.8315985642
 20
11.9320171079
 30
0.0
 10
15.8334786562
 20
11.9278396847
 30
0.0
 10
15.8359651987
 20
11.9212898858
 30
0.0
 10
15.838168126
 20
11.9143548612
 30
0.0
 10
15.8400832739
 20
11.9070601543
 30
0.0
 10
15.841709034
 20
11.8994318658
 30
0.0
 10
15.8430460625
 20
11.8914971873
 30
0.0
 10
15.8440971914
 20
11.8832839047
 30
0.0
 10
15.8448672795
 20
11.8748202772
 30
0.0
 10
15.8453630301
 20
11.8661348386
 30
0.0
 10
15.8455928017
 20
11.8572562668
 30
0.0
 10
15.8455664133
 20
11.8482132947
 30
0.0
 10
15.8452949426
 20
11.8390346598
 30
0.0
 10
15.8447905339
 20
11.8297491056
 30
0.0
 10
15.8440662167
 20
11.8203853906
 30
0.0
 10
15.8431357434
 20
11.81097241
 30
0.0
 10
15.8423884259
 20
11.8046911485
 30
0.0
 10
15.8419847456
 20
11.8015475151
 30
0.0
  0
SPLINE
  5
332
100
AcDbEntity
  8
02___PRT_ALL_AXES
100
AcDbSpline
 62
7
  6
CONTINUOUS
 70
0
 71
3
 72
36
 73
32
 74
0
 42
0.0000001
 43
0.0000001
 44
0.0000000001
 40
0.0
 40
0.0
 40
0.0
 40
0.0
 40
0.0977088237
 40
0.1909213849
 40
0.2794366625
 40
0.3218796413
 40
0.3630874
 40
0.4030449307
 40
0.4417388315
 40
0.4791587771
 40
0.5152974303
 40
0.5501497851
 40
0.5837150598
 40
0.6159953817
 40
0.646996991
 40
0.6767308808
 40
0.7052122407
 40
0.7324624947
 40
0.7585089723
 40
0.7833859998
 40
0.807136477
 40
0.8298119995
 40
0.8514749627
 40
0.8721994116
 40
0.8920720168
 40
0.91119353
 40
0.9296786769
 40
0.9476560947
 40
0.965266966
 40
0.982662446
 40
1.0
 40
1.0
 40
1.0
 40
1.0
 10
15.8175137325
 20
11.6935277001
 30
0.0
 10
15.81683765
 20
11.6915188079
 30
0.0
 10
15.8154842041
 20
11.6876042445
 30
0.0
 10
15.8133965323
 20
11.681912848
 30
0.0
 10
15.8116260763
 20
11.6773831262
 30
0.0
 10
15.8102030914
 20
11.6739299251
 30
0.0
 10
15.8091494564
 20
11.6714640681
 30
0.0
 10
15.8080945969
 20
11.6690874424
 30
0.0
 10
15.807038603
 20
11.6668015168
 30
0.0
 10
15.8059815198
 20
11.6646076899
 30
0.0
 10
15.8049233432
 20
11.6625072833
 30
0.0
 10
15.8038640262
 20
11.6605015312
 30
0.0
 10
15.8028034799
 20
11.6585916015
 30
0.0
 10
15.8017415712
 20
11.65677858
 30
0.0
 10
15.8006781285
 20
11.6550634833
 30
0.0
 10
15.7996129526
 20
11.6534472571
 30
0.0
 10
15.7985457893
 20
11.6519307824
 30
0.0
 10
15.797476373
 20
11.6505148702
 30
0.0
 10
15.7964043918
 20
11.649200273
 30
0.0
 10
15.7953294954
 20
11.6479876948
 30
0.0
 10
15.794251331
 20
11.6468777695
 30
0.0
 10
15.793169479
 20
11.6458711155
 30
0.0
 10
15.7920835251
 20
11.6449682971
 30
0.0
 10
15.7909930324
 20
11.6441698536
 30
0.0
 10
15.7898975352
 20
11.6434763484
 30
0.0
 10
15.7887966249
 20
11.6428882847
 30
0.0
 10
15.7876898924
 20
11.6424062171
 30
0.0
 10
15.7865770314
 20
11.6420306679
 30
0.0
 10
15.7854577883
 20
11.6417620836
 30
0.0
 10
15.7843321644
 20
11.6416009009
 30
0.0
 10
15.7835782027
 20
11.6415652433
 30
0.0
 10
15.7832020974
 20
11.641565241
 30
0.0
  0
SPLINE
  5
333
100
AcDbEntity
  8
LAYER_FEATURE
100
AcDbSpline
 62
7
  6
CONTINUOUS
 70
0
 71
3
 72
14
 73
10
 74
0
 42
0.0000001
 43
0.0000001
 44
0.0000000001
 40
0.0
 40
0.0
 40
0.0
 40
0.0
 40
0.138928735
 40
0.273593999
 40
0.4041050923
 40
0.5305983255
 40
0.6532358531
 40
0.7722099566
 40
1.0
 40
1.0
 40
1.0
 40
1.0
 10
15.7877022084
 20
11.656944144
 30
0.0
 10
15.787155554
 20
11.656289227
 30
0.0
 10
15.786055447
 20
11.6550189089
 30
0.0
 10
15.7843581896
 20
11.6532078979
 30
0.0
 10
15.7826411008
 20
11.651522852
 30
0.0
 10
15.78090568
 20
11.6499652031
 30
0.0
 10
15.7791530931
 20
11.6485361691
 30
0.0
 10
15.7768298094
 20
11.6468291004
 30
0.0
 10
15.775014537
 20
11.6457047738
 30
0.0
 10
15.7737824543
 20
11.6450426491
 30
0.0
  0
SPLINE
  5
334
100
AcDbEntity
  8
02___PRT_ALL_AXES
100
AcDbSpline
 62
7
  6
CONTINUOUS
 70
0
 71
3
 72
71
 73
67
 74
0
 42
0.0000001
 43
0.0000001
 44
0.0000000001
 40
0.0
 40
0.0
 40
0.0
 40
0.0
 40
0.0171788541
 40
0.0345304381
 40
0.0520444461
 40
0.0697101519
 40
0.0875165
 40
0.1054521073
 40
0.1235053052
 40
0.1416641654
 40
0.1599165303
 40
0.1782500416
 40
0.1966521683
 40
0.2151102349
 40
0.2336114486
 40
0.2521429267
 40
0.2706917238
 40
0.2892448586
 40
0.3077893409
 40
0.3263121983
 40
0.3448005032
 40
0.3632413998
 40
0.3816221313
 40
0.3999300671
 40
0.4181527304
 40
0.4362778264
 40
0.4542932706
 40
0.4721872175
 40
0.4899480903
 40
0.5075646108
 40
0.5250258302
 40
0.5423211608
 40
0.5594404088
 40
0.5763738076
 40
0.5931120529
 40
0.6096463387
 40
0.625968395
 40
0.6420705267
 40
0.6579456546
 40
0.6735873578
 40
0.6889899185
 40
0.7041483682
 40
0.7190585368
 40
0.733717103
 40
0.7481216473
 40
0.7622707065
 40
0.7761638309
 40
0.7898016411
 40
0.8031858875
 40
0.8163195084
 40
0.8292066878
 40
0.8418529106
 40
0.8542650137
 40
0.8664512307
 40
0.8784212283
 40
0.8901861313
 40
0.9017585317
 40
0.9131524815
 40
0.9243834625
 40
0.9354683324
 40
0.9464252429
 40
0.95727353
 40
0.9680335737
 40
0.9787266298
 40
0.9893746366
 40
1.0
 40
1.0
 40
1.0
 40
1.0
 10
14.9483463061
 20
11.9473234909
 30
0.0
 10
14.95457226
 20
11.9473234909
 30
0.0
 10
14.9670871681
 20
11.9471865027
 30
0.0
 10
14.9859406016
 20
11.9465777954
 30
0.0
 10
15.0049534253
 20
11.9455654335
 30
0.0
 10
15.0241057401
 20
11.9441504701
 30
0.0
 10
15.0433776431
 20
11.9423343807
 30
0.0
 10
15.0627490705
 20
11.9401190554
 30
0.0
 10
15.0821998625
 20
11.937506801
 30
0.0
 10
15.1017097739
 20
11.9345003367
 30
0.0
 10
15.1212584975
 20
11.9311027921
 30
0.0
 10
15.1408256852
 20
11.9273177039
 30
0.0
 10
15.1603909689
 20
11.9231490121
 30
0.0
 10
15.1799339822
 20
11.9186010562
 30
0.0
 10
15.1994343815
 20
11.9136785705
 30
0.0
 10
15.2188718672
 20
11.9083866791
 30
0.0
 10
15.238226205
 20
11.9027308909
 30
0.0
 10
15.2574772472
 20
11.8967170935
 30
0.0
 10
15.2766049536
 20
11.8903515472
 30
0.0
 10
15.2955894121
 20
11.8836408785
 30
0.0
 10
15.3144108604
 20
11.8765920732
 30
0.0
 10
15.3330497056
 20
11.869212469
 30
0.0
 10
15.3514865455
 20
11.8615097477
 30
0.0
 10
15.3697021884
 20
11.8534919274
 30
0.0
 10
15.3876776732
 20
11.8451673538
 30
0.0
 10
15.4053942894
 20
11.8365446918
 30
0.0
 10
15.4228335964
 20
11.827632916
 30
0.0
 10
15.4399774429
 20
11.8184413015
 30
0.0
 10
15.4568079857
 20
11.8089794138
 30
0.0
 10
15.4733077086
 20
11.7992570992
 30
0.0
 10
15.4894594401
 20
11.7892844741
 30
0.0
 10
15.5052463719
 20
11.7790719141
 30
0.0
 10
15.520652076
 20
11.7686300435
 30
0.0
 10
15.535660522
 20
11.7579697236
 30
0.0
 10
15.5502560934
 20
11.7471020412
 30
0.0
 10
15.5644236041
 20
11.7360382971
 30
0.0
 10
15.5781483139
 20
11.7247899937
 30
0.0
 10
15.5914159437
 20
11.713368823
 30
0.0
 10
15.6042126901
 20
11.7017866536
 30
0.0
 10
15.6165252396
 20
11.6900555189
 30
0.0
 10
15.6283407816
 20
11.6781876033
 30
0.0
 10
15.6396470218
 20
11.6661952295
 30
0.0
 10
15.650432194
 20
11.6540908458
 30
0.0
 10
15.6606850716
 20
11.6418870121
 30
0.0
 10
15.6703949784
 20
11.6295963871
 30
0.0
 10
15.6795517986
 20
11.6172317149
 30
0.0
 10
15.6881459861
 20
11.6048058119
 30
0.0
 10
15.696168573
 20
11.5923315538
 30
0.0
 10
15.7036111772
 20
11.5798218623
 30
0.0
 10
15.7104660096
 20
11.5672896936
 30
0.0
 10
15.7167258802
 20
11.5547480254
 30
0.0
 10
15.722384204
 20
11.542209846
 30
0.0
 10
15.7274350064
 20
11.5296881434
 30
0.0
 10
15.7318729283
 20
11.5171958949
 30
0.0
 10
15.7356932311
 20
11.5047460578
 30
0.0
 10
15.738891802
 20
11.4923515605
 30
0.0
 10
15.7414651602
 20
11.480025294
 30
0.0
 10
15.7434104633
 20
11.4677801035
 30
0.0
 10
15.7447255154
 20
11.4556287803
 30
0.0
 10
15.7454087752
 20
11.4435840508
 30
0.0
 10
15.7454593671
 20
11.4316585696
 30
0.0
 10
15.7448770863
 20
11.4198648918
 30
0.0
 10
15.7436624257
 20
11.4082155118
 30
0.0
 10
15.7418165216
 20
11.3967226433
 30
0.0
 10
15.7393413922
 20
11.3853989431
 30
0.0
 10
15.7372724485
 20
11.3779668273
 30
0.0
 10
15.7361354996
 20
11.3742876538
 30
0.0
  0
SPLINE
  5
335
100
AcDbEntity
  8
LAYER_FEATURE
100
AcDbSpline
 62
7
  6
CONTINUOUS
 70
0
 71
3
 72
58
 73
54
 74
0
 42
0.0000001
 43
0.0000001
 44
0.0000000001
 40
0.0
 40
0.0
 40
0.0
 40
0.0
 40
0.0146674152
 40
0.0291019558
 40
0.0433110903
 40
0.057307905
 40
0.071106871
 40
0.0847251878
 40
0.0981826404
 40
0.111501221
 40
0.1247050026
 40
0.1378198058
 40
0.1508728341
 40
0.163892283
 40
0.1769068904
 40
0.1899454719
 40
0.2030364534
 40
0.2162074192
 40
0.2294846995
 40
0.2428929885
 40
0.2564550124
 40
0.2701912899
 40
0.2841199336
 40
0.2982564873
 40
0.3126138654
 40
0.3272023345
 40
0.3420294989
 40
0.3571003468
 40
0.3879715589
 40
0.4037786959
 40
0.4198252808
 40
0.4526012543
 40
0.4693194842
 40
0.4862400979
 40
0.5206271518
 40
0.5556469884
 40
0.5911599997
 40
0.6270137045
 40
0.6630469712
 40
0.6990942033
 40
0.7349894588
 40
0.7528320743
 40
0.7705764571
 40
0.8056891917
 40
0.8230281128
 40
0.8401979473
 40
0.8739642051
 40
0.8905413193
 40
0.9068971958
 40
0.9389027959
 40
0.954548241
 40
0.9699477617
 40
1.0
 40
1.0
 40
1.0
 40
1.0
 10
14.9037539956
 20
12.1940714675
 30
0.0
 10
14.9032386103
 20
12.1924036801
 30
0.0
 10
14.9023022985
 20
12.1890671219
 30
0.0
 10
14.9011810087
 20
12.1840334279
 30
0.0
 10
14.9003570832
 20
12.1790231886
 30
0.0
 10
14.8998326063
 20
12.1740487793
 30
0.0
 10
14.8996089413
 20
12.1691220492
 30
0.0
 10
14.8996867238
 20
12.1642549376
 30
0.0
 10
14.9000658695
 20
12.1594592245
 30
0.0
 10
14.90074558
 20
12.1547465439
 30
0.0
 10
14.9017242629
 20
12.150128351
 30
0.0
 10
14.902999615
 20
12.1456158921
 30
0.0
 10
14.9045686165
 20
12.1412201833
 30
0.0
 10
14.9064274554
 20
12.1369519491
 30
0.0
 10
14.9085716024
 20
12.1328216011
 30
0.0
 10
14.9109958429
 20
12.1288392243
 30
0.0
 10
14.913694235
 20
12.1250145153
 30
0.0
 10
14.9166601408
 20
12.121356748
 30
0.0
 10
14.9198862994
 20
12.117874785
 30
0.0
 10
14.9233648228
 20
12.1145770442
 30
0.0
 10
14.9270871855
 20
12.1114714349
 30
0.0
 10
14.9310443101
 20
12.1085653984
 30
0.0
 10
14.9352265851
 20
12.1058659009
 30
0.0
 10
14.9396238431
 20
12.1033793612
 30
0.0
 10
14.9442254402
 20
12.1011116754
 30
0.0
 10
14.9490202151
 20
12.0990682541
 30
0.0
 10
14.9539967752
 20
12.0972539003
 30
0.0
 10
14.960912557
 20
12.0951292281
 30
0.0
 10
14.9680934046
 20
12.0935032991
 30
0.0
 10
14.975473091
 20
12.0923649852
 30
0.0
 10
14.9831225486
 20
12.0915382258
 30
0.0
 10
14.9909274714
 20
12.0912170602
 30
0.0
 10
14.9988315545
 20
12.0913830628
 30
0.0
 10
15.0069140967
 20
12.0918823529
 30
0.0
 10
15.0171235153
 20
12.093130157
 30
0.0
 10
15.0293777686
 20
12.0955871902
 30
0.0
 10
15.0415854694
 20
12.0989883334
 30
0.0
 10
15.0536294686
 20
12.103300843
 30
0.0
 10
15.0653949332
 20
12.1084834211
 30
0.0
 10
15.0767689765
 20
12.1144862992
 30
0.0
 10
15.0858500744
 20
12.1201366022
 30
0.0
 10
15.0928212062
 20
12.1250156874
 30
0.0
 10
15.0995358791
 20
12.1300886691
 30
0.0
 10
15.1059218558
 20
12.1354892656
 30
0.0
 10
15.1119339914
 20
12.1411934597
 30
0.0
 10
15.1176091051
 20
12.1470109753
 30
0.0
 10
15.1228786879
 20
12.1530902977
 30
0.0
 10
15.1276951818
 20
12.1594026775
 30
0.0
 10
15.1321193136
 20
12.1657417704
 30
0.0
 10
15.1360705735
 20
12.1722687225
 30
0.0
 10
15.1394994535
 20
12.1789461244
 30
0.0
 10
15.1425090613
 20
12.1855673819
 30
0.0
 10
15.1443844215
 20
12.1906543184
 30
0.0
 10
15.1454404004
 20
12.1940714675
 30
0.0
  0
SPLINE
  5
336
100
AcDbEntity
  8
LAYER_CHAMFER_FEAT
100
AcDbSpline
 62
7
  6
CONTINUOUS
 70
0
 71
3
 72
38
 73
34
 74
0
 42
0.0000001
 43
0.0000001
 44
0.0000000001
 40
0.0
 40
0.0
 40
0.0
 40
0.0
 40
0.02480383
 40
0.0496649978
 40
0.0746401918
 40
0.0997848225
 40
0.1251524132
 40
0.1507941396
 40
0.1767582796
 40
0.2030899811
 40
0.2298308345
 40
0.2570188071
 40
0.2846880215
 40
0.312868737
 40
0.3708531372
 40
0.4007116428
 40
0.4311647015
 40
0.4622241294
 40
0.4938982887
 40
0.5261924495
 40
0.5591088197
 40
0.5926467444
 40
0.6268029216
 40
0.661571423
 40
0.6969440485
 40
0.7329101799
 40
0.7694572705
 40
0.8065708095
 40
0.8442342332
 40
0.8824289072
 40
0.9211360526
 40
0.960335734
 40
1.0
 40
1.0
 40
1.0
 40
1.0
 10
15.3869301678
 20
11.514380178
 30
0.0
 10
15.3864564407
 20
11.5128472132
 30
0.0
 10
15.3854174225
 20
11.5098048636
 30
0.0
 10
15.3835908317
 20
11.5053326086
 30
0.0
 10
15.3814975025
 20
11.5009542239
 30
0.0
 10
15.3791399035
 20
11.4966749653
 30
0.0
 10
15.3765208364
 20
11.4924996312
 30
0.0
 10
15.3736432944
 20
11.4884330359
 30
0.0
 10
15.3705106991
 20
11.4844797294
 30
0.0
 10
15.3671266239
 20
11.4806442268
 30
0.0
 10
15.3634950196
 20
11.4769307898
 30
0.0
 10
15.3596200666
 20
11.4733436288
 30
0.0
 10
15.3555060984
 20
11.4698866604
 30
0.0
 10
15.3496536681
 20
11.4654142273
 30
0.0
 10
15.3433871639
 20
11.4612637553
 30
0.0
 10
15.3367592086
 20
11.4574364591
 30
0.0
 10
15.3315260553
 20
11.4546854537
 30
0.0
 10
15.3260860176
 20
11.4520856149
 30
0.0
 10
15.3204450551
 20
11.4496396611
 30
0.0
 10
15.3146095792
 20
11.4473503843
 30
0.0
 10
15.3085861607
 20
11.4452203227
 30
0.0
 10
15.3023816014
 20
11.4432518409
 30
0.0
 10
15.296002888
 20
11.4414471759
 30
0.0
 10
15.2894572242
 20
11.4398082931
 30
0.0
 10
15.2827519807
 20
11.4383370908
 30
0.0
 10
15.2758947309
 20
11.4370351512
 30
0.0
 10
15.2688931935
 20
11.4359039886
 30
0.0
 10
15.2617552702
 20
11.434944836
 30
0.0
 10
15.2544890421
 20
11.4341587913
 30
0.0
 10
15.2471026873
 20
11.4335467155
 30
0.0
 10
15.2396044058
 20
11.4331092962
 30
0.0
 10
15.2320029014
 20
11.4328470835
 30
0.0
 10
15.2269012014
 20
11.4327895278
 30
0.0
 10
15.2243354265
 20
11.4327895278
 30
0.0
  0
SPLINE
  5
337
100
AcDbEntity
  8
LAYER_CHAMFER_FEAT
100
AcDbSpline
 62
7
  6
CONTINUOUS
 70
0
 71
3
 72
84
 73
80
 74
0
 42
0.0000001
 43
0.0000001
 44
0.0000000001
 40
0.0
 40
0.0
 40
0.0
 40
0.0
 40
0.0157578373
 40
0.0311471873
 40
0.046164376
 40
0.060808478
 40
0.0750815369
 40
0.088988804
 40
0.1025389545
 40
0.1091844496
 40
0.1157455938
 40
0.1286221812
 40
0.141190076
 40
0.1534733539
 40
0.1655001055
 40
0.1773023268
 40
0.1831312081
 40
0.1889176222
 40
0.194666539
 40
0.2003830901
 40
0.2060725717
 40
0.2117404014
 40
0.2173921027
 40
0.2230332823
 40
0.2286695941
 40
0.23430672
 40
0.2399503348
 40
0.2456060845
 40
0.2512795517
 40
0.2569762328
 40
0.2627015173
 40
0.268460648
 40
0.2742587205
 40
0.2801006492
 40
0.2859911458
 40
0.2919347295
 40
0.2979356784
 40
0.3039980451
 40
0.3163204335
 40
0.3289311364
 40
0.3353528124
 40
0.3418550425
 40
0.3551088194
 40
0.3687094206
 40
0.3826686017
 40
0.3969945218
 40
0.4116919631
 40
0.4267625466
 40
0.4422049338
 40
0.4580150584
 40
0.4741863467
 40
0.4907099114
 40
0.5075747236
 40
0.5247678057
 40
0.5422744076
 40
0.5600781587
 40
0.5781612015
 40
0.5965043478
 40
0.6150872171
 40
0.6338883582
 40
0.6528853611
 40
0.6720549867
 40
0.6913732829
 40
0.7108156887
 40
0.7303571377
 40
0.7499721724
 40
0.7696350468
 40
0.7893198254
 40
0.8090004852
 40
0.8286510231
 40
0.8482455521
 40
0.8677584024
 40
0.8871642352
 40
0.9064381204
 40
0.9255557027
 40
0.9444932535
 40
0.9632275304
 40
0.9817372887
 40
1.0
 40
1.0
 40
1.0
 40
1.0
 10
14.9763226425
 20
11.7293991911
 30
0.0
 10
14.9730107513
 20
11.728620303
 30
0.0
 10
14.9664930573
 20
11.7269552959
 30
0.0
 10
14.9569412277
 20
11.7240980766
 30
0.0
 10
14.9477464423
 20
11.7209157342
 30
0.0
 10
14.9389269209
 20
11.7174144476
 30
0.0
 10
14.9304998721
 20
11.713600898
 30
0.0
 10
14.9224820129
 20
11.7094825101
 30
0.0
 10
14.9161135242
 20
11.7057791853
 30
0.0
 10
14.9112437414
 20
11.7026700132
 30
0.0
 10
14.9065839756
 20
11.6995064136
 30
0.0
 10
14.9010360163
 20
11.6953793633
 30
0.0
 10
14.8948040294
 20
11.6901258451
 30
0.0
 10
14.8890516882
 20
11.6846123055
 30
0.0
 10
14.8837908896
 20
11.678849723
 30
0.0
 10
14.8798085205
 20
11.6738278587
 30
0.0
 10
14.8768854355
 20
11.6697013006
 30
0.0
 10
14.8748309343
 20
11.6665642325
 30
0.0
 10
14.8729064282
 20
11.6633741008
 30
0.0
 10
14.8711128956
 20
11.6601324046
 30
0.0
 10
14.8694511971
 20
11.6568407848
 30
0.0
 10
14.8679221653
 20
11.6535008608
 30
0.0
 10
14.8665266034
 20
11.6501142721
 30
0.0
 10
14.8652651468
 20
11.6466827223
 30
0.0
 10
14.8641384704
 20
11.6432078945
 30
0.0
 10
14.8631471281
 20
11.6396915182
 30
0.0
 10
14.8622915711
 20
11.636135348
 30
0.0
 10
14.8615722859
 20
11.6325411344
 30
0.0
 10
14.860989574
 20
11.6289106733
 30
0.0
 10
14.860543724
 20
11.6252457623
 30
0.0
 10
14.8602349929
 20
11.6215482159
 30
0.0
 10
14.8600634605
 20
11.6178198711
 30
0.0
 10
14.8600292504
 20
11.6140625702
 30
0.0
 10
14.8601323642
 20
11.6102781752
 30
0.0
 10
14.8603727
 20
11.6064685496
 30
0.0
 10
14.8607501889
 20
11.6026355906
 30
0.0
 10
14.8612645941
 20
11.5987811422
 30
0.0
 10
14.8621373213
 20
11.5935880436
 30
0.0
 10
14.863575768
 20
11.5870470918
 30
0.0
 10
14.86544692
 20
11.5805363707
 30
0.0
 10
14.8672068751
 20
11.5753109739
 30
0.0
 10
14.8691682358
 20
11.5700094574
 30
0.0
 10
14.8719592247
 20
11.5633657889
 30
0.0
 10
14.8758121269
 20
11.5554362707
 30
0.0
 10
14.8801822448
 20
11.5475143714
 30
0.0
 10
14.8850607978
 20
11.5396156886
 30
0.0
 10
14.8904381426
 20
11.5317555392
 30
0.0
 10
14.896303673
 20
11.5239492528
 30
0.0
 10
14.9026458292
 20
11.5162120337
 30
0.0
 10
14.9094521328
 20
11.5085589719
 30
0.0
 10
14.9167092175
 20
11.5010050108
 30
0.0
 10
14.9244028476
 20
11.4935649235
 30
0.0
 10
14.9325179149
 20
11.4862532549
 30
0.0
 10
14.9410384882
 20
11.4790843114
 30
0.0
 10
14.9499478503
 20
11.472072135
 30
0.0
 10
14.959228526
 20
11.4652304782
 30
0.0
 10
14.9688622929
 20
11.4585727467
 30
0.0
 10
14.9788302362
 20
11.4521119942
 30
0.0
 10
14.98911279
 20
11.445860899
 30
0.0
 10
14.9996897728
 20
11.4398317413
 30
0.0
 10
15.0105404093
 20
11.4340363484
 30
0.0
 10
15.0216433871
 20
11.4284860946
 30
0.0
 10
15.0329769022
 20
11.423191882
 30
0.0
 10
15.0445186989
 20
11.4181641207
 30
0.0
 10
15.0562461008
 20
11.4134126772
 30
0.0
 10
15.0681360681
 20
11.4089468802
 30
0.0
 10
15.0801652448
 20
11.4047755055
 30
0.0
 10
15.092310003
 20
11.4009067603
 30
0.0
 10
15.1045464798
 20
11.3973482346
 30
0.0
 10
15.1168506346
 20
11.3941069147
 30
0.0
 10
15.1291982965
 20
11.3911891712
 30
0.0
 10
15.141565212
 20
11.3886007478
 30
0.0
 10
15.1539270831
 20
11.3863467207
 30
0.0
 10
15.1662596297
 20
11.3844315084
 30
0.0
 10
15.1785386393
 20
11.3828588785
 30
0.0
 10
15.1907399415
 20
11.3816319487
 30
0.0
 10
15.2028397465
 20
11.3807530652
 30
0.0
 10
15.2148139912
 20
11.3802240468
 30
0.0
 10
15.2227539385
 20
11.3801043949
 30
0.0
 10
15.2266970094
 20
11.3801043949
 30
0.0
  0
SPLINE
  5
338
100
AcDbEntity
  8
LAYER_FEATURE
100
AcDbSpline
 62
7
  6
CONTINUOUS
 70
0
 71
3
 72
31
 73
27
 74
0
 42
0.0000001
 43
0.0000001
 44
0.0000000001
 40
0.0
 40
0.0
 40
0.0
 40
0.0
 40
0.0272337345
 40
0.0549157027
 40
0.0830469299
 40
0.1116273336
 40
0.1700935933
 40
0.1999717272
 40
0.2302539894
 40
0.2919365806
 40
0.3233016077
 40
0.3549755154
 40
0.4191177768
 40
0.4515323645
 40
0.4841264029
 40
0.5496981315
 40
0.6155474899
 40
0.6484867778
 40
0.6813816906
 40
0.7468775181
 40
0.7794152749
 40
0.8117618075
 40
0.8757343541
 40
0.9073079137
 40
0.9385626482
 40
1.0
 40
1.0
 40
1.0
 40
1.0
 10
14.8835485682
 20
12.1736826605
 30
0.0
 10
14.8842033793
 20
12.17580163
 30
0.0
 10
14.8856375261
 20
12.1800401413
 30
0.0
 10
14.8881297917
 20
12.1863301386
 30
0.0
 10
14.8909748374
 20
12.1925895577
 30
0.0
 10
14.895260793
 20
12.2009359608
 30
0.0
 10
14.900199935
 20
12.20909481
 30
0.0
 10
14.9057300968
 20
12.2170186389
 30
0.0
 10
14.9117507003
 20
12.2249091331
 30
0.0
 10
14.9183376903
 20
12.2325082718
 30
0.0
 10
14.9254315795
 20
12.2397801701
 30
0.0
 10
14.9329467446
 20
12.2469104164
 30
0.0
 10
14.9409292231
 20
12.2536611582
 30
0.0
 10
14.9493225519
 20
12.2600023885
 30
0.0
 10
14.9580365059
 20
12.26610125
 30
0.0
 10
14.9693876239
 20
12.2731640232
 30
0.0
 10
14.9812356905
 20
12.2794170341
 30
0.0
 10
14.9909737251
 20
12.2839133401
 30
0.0
 10
15.0008382269
 20
12.2880504016
 30
0.0
 10
15.0108867936
 20
12.29164841
 30
0.0
 10
15.0210643357
 20
12.294680977
 30
0.0
 10
15.0312255524
 20
12.2973090512
 30
0.0
 10
15.0414488972
 20
12.2993588678
 30
0.0
 10
15.051675838
 20
12.3008041269
 30
0.0
 10
15.0617453627
 20
12.3018293907
 30
0.0
 10
15.0692981627
 20
12.3021482737
 30
0.0
 10
15.0743014483
 20
12.3021482737
 30
0.0
  0
SPLINE
  5
339
100
AcDbEntity
  8
LAYER_FEATURE
100
AcDbSpline
 62
7
  6
CONTINUOUS
 70
0
 71
3
 72
22
 73
18
 74
0
 42
0.0000001
 43
0.0000001
 44
0.0000000001
 40
0.0
 40
0.0
 40
0.0
 40
0.0
 40
0.1399353542
 40
0.2082779622
 40
0.2754793725
 40
0.3415195434
 40
0.4063926315
 40
0.4701062424
 40
0.5326825801
 40
0.5941588627
 40
0.6545876855
 40
0.7140371095
 40
0.7725904517
 40
0.8303457189
 40
0.8874146351
 40
0.943921232
 40
1.0
 40
1.0
 40
1.0
 40
1.0
 10
15.0743014483
 20
12.3021482737
 30
0.0
 10
15.0796931932
 20
12.3021482737
 30
0.0
 10
15.087726061
 20
12.3017828497
 30
0.0
 10
15.0982676329
 20
12.3005154273
 30
0.0
 10
15.1059258516
 20
12.2991976087
 30
0.0
 10
15.1133738077
 20
12.2975089702
 30
0.0
 10
15.1205898859
 20
12.2954543722
 30
0.0
 10
15.1275526925
 20
12.2930397367
 30
0.0
 10
15.134241669
 20
12.2902720399
 30
0.0
 10
15.1406370048
 20
12.2871592919
 30
0.0
 10
15.1467197279
 20
12.2837105208
 30
0.0
 10
15.1524717431
 20
12.2799357562
 30
0.0
 10
15.1578758948
 20
12.2758459993
 30
0.0
 10
15.162915987
 20
12.2714532522
 30
0.0
 10
15.1675769554
 20
12.2667703207
 30
0.0
 10
15.1718444957
 20
12.2618114369
 30
0.0
 10
15.1744269312
 20
12.2583200553
 30
0.0
 10
15.1756459367
 20
12.2565360215
 30
0.0
  0
SPLINE
  5
33A
100
AcDbEntity
  8
LAYER_FEATURE
100
AcDbSpline
 62
7
  6
CONTINUOUS
 70
0
 71
3
 72
58
 73
54
 74
0
 42
0.0000001
 43
0.0000001
 44
0.0000000001
 40
0.0
 40
0.0
 40
0.0
 40
0.0
 40
0.0300522383
 40
0.045451759
 40
0.0610972041
 40
0.0931028042
 40
0.1094586807
 40
0.1260357949
 40
0.1598020527
 40
0.1769718872
 40
0.1943108083
 40
0.2294235429
 40
0.2471679257
 40
0.2650105412
 40
0.3009057967
 40
0.3369530288
 40
0.3729862955
 40
0.4088400003
 40
0.4443530116
 40
0.4793728482
 40
0.5137599021
 40
0.5306805158
 40
0.5473987457
 40
0.5801747192
 40
0.5962213041
 40
0.6120284411
 40
0.6428996532
 40
0.6579705011
 40
0.6727976655
 40
0.6873861346
 40
0.7017435127
 40
0.7158800664
 40
0.7298087101
 40
0.7435449876
 40
0.7571070115
 40
0.7705153005
 40
0.7837925808
 40
0.7969635466
 40
0.8100545281
 40
0.8230931096
 40
0.836107717
 40
0.8491271659
 40
0.8621801942
 40
0.8752949974
 40
0.888498779
 40
0.9018173596
 40
0.9152748122
 40
0.928893129
 40
0.942692095
 40
0.9566889097
 40
0.9708980442
 40
0.9853325848
 40
1.0
 40
1.0
 40
1.0
 40
1.0
 10
14.9037539956
 20
12.1940714675
 30
0.0
 10
14.9048099745
 20
12.1974886165
 30
0.0
 10
14.9066853346
 20
12.202575553
 30
0.0
 10
14.9096949424
 20
12.2091968105
 30
0.0
 10
14.9131238225
 20
12.2158742124
 30
0.0
 10
14.9170750824
 20
12.2224011646
 30
0.0
 10
14.9214992142
 20
12.2287402574
 30
0.0
 10
14.9263157081
 20
12.2350526373
 30
0.0
 10
14.9315852908
 20
12.2411319597
 30
0.0
 10
14.9372604045
 20
12.2469494752
 30
0.0
 10
14.9432725402
 20
12.2526536693
 30
0.0
 10
14.9496585169
 20
12.2580542658
 30
0.0
 10
14.9563731898
 20
12.2631272475
 30
0.0
 10
14.9633443216
 20
12.2680063327
 30
0.0
 10
14.9724254195
 20
12.2736566358
 30
0.0
 10
14.9837994628
 20
12.2796595138
 30
0.0
 10
14.9955649274
 20
12.2848420919
 30
0.0
 10
15.0076089266
 20
12.2891546015
 30
0.0
 10
15.0198166274
 20
12.2925557448
 30
0.0
 10
15.0320708807
 20
12.2950127779
 30
0.0
 10
15.0422802993
 20
12.296260582
 30
0.0
 10
15.0503628415
 20
12.2967598721
 30
0.0
 10
15.0582669245
 20
12.2969258747
 30
0.0
 10
15.0660718474
 20
12.2966047091
 30
0.0
 10
15.073721305
 20
12.2957779497
 30
0.0
 10
15.0811009914
 20
12.2946396358
 30
0.0
 10
15.088281839
 20
12.2930137068
 30
0.0
 10
15.0951976208
 20
12.2908890346
 30
0.0
 10
15.1001741808
 20
12.2890746808
 30
0.0
 10
15.1049689557
 20
12.2870312595
 30
0.0
 10
15.1095705528
 20
12.2847635738
 30
0.0
 10
15.1139678109
 20
12.282277034
 30
0.0
 10
15.1181500859
 20
12.2795775365
 30
0.0
 10
15.1221072104
 20
12.2766715
 30
0.0
 10
15.1258295732
 20
12.2735658907
 30
0.0
 10
15.1293080966
 20
12.2702681499
 30
0.0
 10
15.1325342552
 20
12.2667861869
 30
0.0
 10
15.135500161
 20
12.2631284196
 30
0.0
 10
15.138198553
 20
12.2593037106
 30
0.0
 10
15.1406227936
 20
12.2553213338
 30
0.0
 10
15.1427669406
 20
12.2511909859
 30
0.0
 10
15.1446257795
 20
12.2469227516
 30
0.0
 10
15.146194781
 20
12.2425270429
 30
0.0
 10
15.1474701331
 20
12.2380145839
 30
0.0
 10
15.148448816
 20
12.2333963911
 30
0.0
 10
15.1491285265
 20
12.2286837104
 30
0.0
 10
15.1495076722
 20
12.2238879973
 30
0.0
 10
15.1495854547
 20
12.2190208857
 30
0.0
 10
15.1493617897
 20
12.2140941556
 30
0.0
 10
15.1488373128
 20
12.2091197463
 30
0.0
 10
15.1480133872
 20
12.204109507
 30
0.0
 10
15.1468920975
 20
12.199075813
 30
0.0
 10
15.1459557857
 20
12.1957392549
 30
0.0
 10
15.1454404004
 20
12.1940714675
 30
0.0
  0
SPLINE
  5
33B
100
AcDbEntity
  8
LAYER_FEATURE
100
AcDbSpline
 62
7
  6
CONTINUOUS
 70
0
 71
3
 72
15
 73
11
 74
0
 42
0.0000001
 43
0.0000001
 44
0.0000000001
 40
0.0
 40
0.0
 40
0.0
 40
0.0
 40
0.1103176358
 40
0.2240443805
 40
0.3416499281
 40
0.463540363
 40
0.5900605624
 40
0.7214972778
 40
0.8580826412
 40
1.0
 40
1.0
 40
1.0
 40
1.0
 10
15.7705056374
 20
11.9676209223
 30
0.0
 10
15.7712584299
 20
11.9673205716
 30
0.0
 10
15.7727630665
 20
11.9666482124
 30
0.0
 10
15.774972599
 20
11.9654527536
 30
0.0
 10
15.777163517
 20
11.9640580491
 30
0.0
 10
15.7793330197
 20
11.9624661084
 30
0.0
 10
15.7814785953
 20
11.9606790156
 30
0.0
 10
15.7835976963
 20
11.9586990547
 30
0.0
 10
15.7856877857
 20
11.9565288083
 30
0.0
 10
15.7870340733
 20
11.9549867853
 30
0.0
 10
15.7877022075
 20
11.9541863256
 30
0.0
  0
SPLINE
  5
33C
100
AcDbEntity
  8
LAYER_FEATURE
100
AcDbSpline
 62
7
  6
CONTINUOUS
 70
0
 71
3
 72
22
 73
18
 74
0
 42
0.0000001
 43
0.0000001
 44
0.0000000001
 40
0.0
 40
0.0
 40
0.0
 40
0.0
 40
0.1381198487
 40
0.2053664697
 40
0.2714548684
 40
0.3364371463
 40
0.4003725865
 40
0.463327841
 40
0.5253764035
 40
0.5865986141
 40
0.6470813144
 40
0.7069174397
 40
0.7662054996
 40
0.8250488604
 40
0.8835549599
 40
0.9418344153
 40
1.0
 40
1.0
 40
1.0
 40
1.0
 10
15.9500929819
 20
12.085212944
 30
0.0
 10
15.9544415948
 20
12.0763514025
 30
0.0
 10
15.9604336371
 20
12.0629323488
 30
0.0
 10
15.9672677566
 20
12.0447716885
 30
0.0
 10
15.9717116184
 20
12.0313085574
 30
0.0
 10
15.975514193
 20
12.0178963716
 30
0.0
 10
15.9786718759
 20
12.0045475614
 30
0.0
 10
15.9811814479
 20
11.9912749977
 30
0.0
 10
15.983040368
 20
11.9780913608
 30
0.0
 10
15.9842467215
 20
11.9650093188
 30
0.0
 10
15.984799182
 20
11.9520414563
 30
0.0
 10
15.9846970628
 20
11.9392002895
 30
0.0
 10
15.9839403567
 20
11.9264982312
 30
0.0
 10
15.9825296798
 20
11.9139476313
 30
0.0
 10
15.9804662433
 20
11.9015605669
 30
0.0
 10
15.9777521518
 20
11.8893495484
 30
0.0
 10
15.9755096404
 20
11.881330412
 30
0.0
 10
15.9742823164
 20
11.8773587945
 30
0.0
  0
SPLINE
  5
33D
100
AcDbEntity
  8
LAYER_FEATURE
100
AcDbSpline
 62
7
  6
CONTINUOUS
 70
0
 71
3
 72
39
 73
35
 74
0
 42
0.0000001
 43
0.0000001
 44
0.0000000001
 40
0.0
 40
0.0
 40
0.0
 40
0.0
 40
0.0475538786
 40
0.0938231989
 40
0.1387504151
 40
0.1822948103
 40
0.2244199429
 40
0.2650935618
 40
0.3042918382
 40
0.3419988694
 40
0.3782079103
 40
0.4129223134
 40
0.4461570062
 40
0.4779402701
 40
0.5083148909
 40
0.537340812
 40
0.5650964839
 40
0.5916812004
 40
0.6172166609
 40
0.6418476877
 40
0.6657424159
 40
0.689090033
 40
0.712097264
 40
0.7349824266
 40
0.7579681704
 40
0.7812735475
 40
0.8051067163
 40
0.8296587546
 40
0.8550999065
 40
0.8815773724
 40
0.9092149434
 40
0.9381141468
 40
0.9683552796
 40
1.0
 40
1.0
 40
1.0
 40
1.0
 10
15.750889993
 20
11.8871204651
 30
0.0
 10
15.7513263557
 20
11.8885325353
 30
0.0
 10
15.7522205826
 20
11.8913083953
 30
0.0
 10
15.7536471116
 20
11.8953784202
 30
0.0
 10
15.7551385556
 20
11.8992921079
 30
0.0
 10
15.7566922367
 20
11.9030425081
 30
0.0
 10
15.7583054662
 20
11.9066232294
 30
0.0
 10
15.7599755036
 20
11.9100280583
 30
0.0
 10
15.7616994143
 20
11.9132511027
 30
0.0
 10
15.7634742738
 20
11.9162867846
 30
0.0
 10
15.7652970219
 20
11.9191298821
 30
0.0
 10
15.7671645673
 20
11.921775492
 30
0.0
 10
15.7690737783
 20
11.9242190417
 30
0.0
 10
15.771021428
 20
11.9264563389
 30
0.0
 10
15.7730043449
 20
11.928483462
 30
0.0
 10
15.7750192421
 20
11.9302968866
 30
0.0
 10
15.7770628801
 20
11.9318933352
 30
0.0
 10
15.7791319491
 20
11.9332698393
 30
0.0
 10
15.7812230612
 20
11.9344237262
 30
0.0
 10
15.7833327554
 20
11.9353525016
 30
0.0
 10
15.7854573267
 20
11.9360540874
 30
0.0
 10
15.787592889
 20
11.9365266324
 30
0.0
 10
15.78973526
 20
11.9367688648
 30
0.0
 10
15.7918800758
 20
11.9367800669
 30
0.0
 10
15.7940228756
 20
11.9365601668
 30
0.0
 10
15.796159285
 20
11.9361098844
 30
0.0
 10
15.7982850956
 20
11.9354304003
 30
0.0
 10
15.8003963909
 20
11.9345235285
 30
0.0
 10
15.8024894641
 20
11.9333913467
 30
0.0
 10
15.8045608079
 20
11.9320362709
 30
0.0
 10
15.80660706
 20
11.9304610073
 30
0.0
 10
15.8086248874
 20
11.9286684337
 30
0.0
 10
15.8106110033
 20
11.9266619052
 30
0.0
 10
15.8118824717
 20
11.9252171512
 30
0.0
 10
15.8125127035
 20
11.9244621072
 30
0.0
  0
SPLINE
  5
33E
100
AcDbEntity
  8
02___PRT_ALL_AXES
100
AcDbSpline
 62
7
  6
CONTINUOUS
 70
0
 71
3
 72
23
 73
19
 74
0
 42
0.0000001
 43
0.0000001
 44
0.0000000001
 40
0.0
 40
0.0
 40
0.0
 40
0.0
 40
0.0555683625
 40
0.1111029596
 40
0.1668279536
 40
0.2229691358
 40
0.2797503707
 40
0.3373901945
 40
0.3960987038
 40
0.4560745624
 40
0.5175024167
 40
0.5805508269
 40
0.6453709484
 40
0.7120954218
 40
0.7808364149
 40
0.8516874395
 40
0.9247272542
 40
1.0
 40
1.0
 40
1.0
 40
1.0
 10
15.7832020975
 20
11.9695652336
 30
0.0
 10
15.7843603132
 20
11.9695652373
 30
0.0
 10
15.786677194
 20
11.9694702399
 30
0.0
 10
15.7901315829
 20
11.9690406784
 30
0.0
 10
15.7935505437
 20
11.9683245096
 30
0.0
 10
15.796923923
 20
11.9673225574
 30
0.0
 10
15.8002421429
 20
11.9660360827
 30
0.0
 10
15.803495746
 20
11.9644668463
 30
0.0
 10
15.8066756353
 20
11.9626172153
 30
0.0
 10
15.8097729957
 20
11.9604900014
 30
0.0
 10
15.8127793989
 20
11.9580885995
 30
0.0
 10
15.8156868685
 20
11.9554169971
 30
0.0
 10
15.8184877985
 20
11.9524796508
 30
0.0
 10
15.8211751027
 20
11.9492816591
 30
0.0
 10
15.8237422378
 20
11.9458287205
 30
0.0
 10
15.8261831819
 20
11.9421269126
 30
0.0
 10
15.82849235
 20
11.9381832354
 30
0.0
 10
15.8299191885
 20
11.9354393158
 30
0.0
 10
15.8306103629
 20
11.9340308505
 30
0.0
  0
SPLINE
  5
33F
100
AcDbEntity
  8
LAYER_FEATURE
100
AcDbSpline
 62
7
  6
CONTINUOUS
 70
0
 71
3
 72
77
 73
73
 74
0
 42
0.0000001
 43
0.0000001
 44
0.0000000001
 40
0.0
 40
0.0
 40
0.0
 40
0.0
 40
0.0171786384
 40
0.0345303065
 40
0.0520441323
 40
0.0697097603
 40
0.087516005
 40
0.1054515097
 40
0.1235046065
 40
0.141663363
 40
0.1599156243
 40
0.178249032
 40
0.1966510546
 40
0.2151090165
 40
0.2336101252
 40
0.2521414984
 40
0.2706901905
 40
0.2892432201
 40
0.3077875972
 40
0.3263103499
 40
0.3447985501
 40
0.363239342
 40
0.3816199692
 40
0.3999278015
 40
0.4181503619
 40
0.4362753549
 40
0.4542906965
 40
0.4721845422
 40
0.4899453151
 40
0.5075617357
 40
0.5250228553
 40
0.5423180877
 40
0.5594372392
 40
0.5763705427
 40
0.5931086924
 40
0.6096428838
 40
0.6259648478
 40
0.6420668893
 40
0.6579419273
 40
0.6735835408
 40
0.6889860137
 40
0.7041443784
 40
0.7190544635
 40
0.733712946
 40
0.7481174076
 40
0.7622663869
 40
0.7761594337
 40
0.7897971671
 40
0.8031813365
 40
0.8163148825
 40
0.8292019896
 40
0.8418481418
 40
0.8542601741
 40
0.8603812579
 40
0.8664470199
 40
0.8784169498
 40
0.8901817869
 40
0.8959915749
 40
0.9017549381
 40
0.9131488226
 40
0.9243797396
 40
0.9354645469
 40
0.9464213959
 40
0.9572696215
 40
0.9626598376
 40
0.9680306188
 40
0.9733846479
 40
0.9787246486
 40
0.9840533836
 40
0.9893736427
 40
0.9946882389
 40
1.0
 40
1.0
 40
1.0
 40
1.0
 10
15.3228705643
 20
13.801166033
 30
0.0
 10
15.3330710968
 20
13.801166033
 30
0.0
 10
15.35357556
 20
13.800941579
 30
0.0
 10
15.3844650149
 20
13.7999442944
 30
0.0
 10
15.4156156963
 20
13.7982856183
 30
0.0
 10
15.4469948124
 20
13.7959673591
 30
0.0
 10
15.4785699093
 20
13.7929918747
 30
0.0
 10
15.510308054
 20
13.7893622821
 30
0.0
 10
15.5421762311
 20
13.7850823639
 30
0.0
 10
15.5741412702
 20
13.7801565749
 30
0.0
 10
15.6061698992
 20
13.7745900418
 30
0.0
 10
15.6382287791
 20
13.7683885507
 30
0.0
 10
15.6702845394
 20
13.7615585632
 30
0.0
 10
15.7023038123
 20
13.7541071928
 30
0.0
 10
15.7342532672
 20
13.7460421958
 30
0.0
 10
15.7660996441
 20
13.7373719624
 30
0.0
 10
15.7978097901
 20
13.7281055152
 30
0.0
 10
15.8293506971
 20
13.718252508
 30
0.0
 10
15.8606895317
 20
13.7078231987
 30
0.0
 10
15.89179367
 20
13.6968284429
 30
0.0
 10
15.9226307301
 20
13.6852796786
 30
0.0
 10
15.9531686126
 20
13.6731889319
 30
0.0
 10
15.9833755309
 20
13.6605687932
 30
0.0
 10
16.0132200417
 20
13.6474323993
 30
0.0
 10
16.042671077
 20
13.63379342
 30
0.0
 10
16.0716979789
 20
13.6196660472
 30
0.0
 10
16.100270538
 20
13.6050649919
 30
0.0
 10
16.1283590169
 20
13.5900054517
 30
0.0
 10
16.1559341806
 20
13.5745030984
 30
0.0
 10
16.1829673258
 20
13.5585740573
 30
0.0
 10
16.2094303199
 20
13.5422349052
 30
0.0
 10
16.2352956283
 20
13.5255026465
 30
0.0
 10
16.260536336
 20
13.5083946879
 30
0.0
 10
16.285126176
 20
13.4909288222
 30
0.0
 10
16.3090395573
 20
13.4731232086
 30
0.0
 10
16.3322516043
 20
13.4549963684
 30
0.0
 10
16.3547381695
 20
13.4365671489
 30
0.0
 10
16.3764758576
 20
13.4178547056
 30
0.0
 10
16.3974420471
 20
13.3988784795
 30
0.0
 10
16.4176149242
 20
13.3796581857
 30
0.0
 10
16.4369735071
 20
13.3602137922
 30
0.0
 10
16.4554976538
 20
13.3405654887
 30
0.0
 10
16.4731680838
 20
13.320733669
 30
0.0
 10
16.4899663955
 20
13.3007389058
 30
0.0
 10
16.5058751033
 20
13.2806019442
 30
0.0
 10
16.5208776382
 20
13.2603436658
 30
0.0
 10
16.5349583599
 20
13.2399850683
 30
0.0
 10
16.5481025675
 20
13.2195472452
 30
0.0
 10
16.5602965264
 20
13.1990513614
 30
0.0
 10
16.5715274774
 20
13.1785186676
 30
0.0
 10
16.5817836681
 20
13.1579703563
 30
0.0
 10
16.5910542141
 20
13.1374279605
 30
0.0
 10
16.5979820378
 20
13.1202527909
 30
0.0
 10
16.6030144797
 20
13.1065394356
 30
0.0
 10
16.6076669404
 20
13.0929698082
 30
0.0
 10
16.6128597656
 20
13.0760472041
 30
0.0
 10
16.6172450755
 20
13.059053986
 30
0.0
 10
16.6202337286
 20
13.0455210032
 30
0.0
 10
16.6228578186
 20
13.0321371055
 30
0.0
 10
16.625503702
 20
13.0154820092
 30
0.0
 10
16.6276582499
 20
12.9955734687
 30
0.0
 10
16.628777705
 20
12.9758392741
 30
0.0
 10
16.6288606319
 20
12.9563008166
 30
0.0
 10
16.6280638309
 20
12.9401635142
 30
0.0
 10
16.6269062044
 20
12.9273831292
 30
0.0
 10
16.6257813815
 20
12.917879226
 30
0.0
 10
16.6243984604
 20
12.9084396283
 30
0.0
 10
16.6227577437
 20
12.8990667245
 30
0.0
 10
16.6208597191
 20
12.8897629879
 30
0.0
 10
16.6187048348
 20
12.8805308279
 30
0.0
 10
16.6162936813
 20
12.8713727588
 30
0.0
 10
16.6145156131
 20
12.8653175907
 30
0.0
 10
16.6135843802
 20
12.8623041171
 30
0.0
  0
SPLINE
  5
340
100
AcDbEntity
  8
LAYER_FEATURE
100
AcDbSpline
 62
7
  6
CONTINUOUS
 70
0
 71
3
 72
69
 73
65
 74
0
 42
0.0000001
 43
0.0000001
 44
0.0000000001
 40
0.0
 40
0.0
 40
0.0
 40
0.0
 40
0.0176368566
 40
0.0357024255
 40
0.0541711879
 40
0.0730203943
 40
0.092225534
 40
0.1117603321
 40
0.1315977921
 40
0.1517102207
 40
0.1926433534
 40
0.234325342
 40
0.2765122087
 40
0.3189547313
 40
0.3614010717
 40
0.403599355
 40
0.4453002468
 40
0.4658883551
 40
0.4862611361
 40
0.5063892878
 40
0.5262442264
 40
0.5457980944
 40
0.5650238774
 40
0.5838955634
 40
0.6023881111
 40
0.62047775
 40
0.6381419147
 40
0.6553595053
 40
0.6721110032
 40
0.6883785413
 40
0.704146278
 40
0.7194003529
 40
0.7341293523
 40
0.7483244275
 40
0.7619796234
 40
0.7750923613
 40
0.7876636279
 40
0.7996987388
 40
0.8112076546
 40
0.8222057506
 40
0.8327145101
 40
0.8427621264
 40
0.847624821
 40
0.8523863208
 40
0.8616271281
 40
0.8705388054
 40
0.8791820973
 40
0.8834256073
 40
0.8876282831
 40
0.8917996704
 40
0.8959495715
 40
0.9000879865
 40
0.9042250218
 40
0.9083707901
 40
0.912535334
 40
0.9209571369
 40
0.9295689725
 40
0.938440279
 40
0.9476329462
 40
0.957200427
 40
0.9671877762
 40
0.9776318143
 40
0.9885617617
 40
1.0
 40
1.0
 40
1.0
 40
1.0
 10
15.750889993
 20
11.8871204651
 30
0.0
 10
15.7504414241
 20
11.8856688958
 30
0.0
 10
15.7495693967
 20
11.882719229
 30
0.0
 10
15.7483497234
 20
11.8782145669
 30
0.0
 10
15.7472044251
 20
11.873582764
 30
0.0
 10
15.746135525
 20
11.8688320944
 30
0.0
 10
15.7451448465
 20
11.8639707587
 30
0.0
 10
15.7442341677
 20
11.859007247
 30
0.0
 10
15.743405044
 20
11.8539502449
 30
0.0
 10
15.7424044789
 20
11.8470545969
 30
0.0
 10
15.7413706403
 20
11.8382638854
 30
0.0
 10
15.7404817654
 20
11.8275478439
 30
0.0
 10
15.7399437573
 20
11.8166782729
 30
0.0
 10
15.7397604019
 20
11.805731149
 30
0.0
 10
15.7399329888
 20
11.7947828413
 30
0.0
 10
15.7404603101
 20
11.7839098801
 30
0.0
 10
15.7411953172
 20
11.7749371652
 30
0.0
 10
15.7419599017
 20
11.7678572664
 30
0.0
 10
15.7426164926
 20
11.7626356835
 30
0.0
 10
15.7433575064
 20
11.7574892166
 30
0.0
 10
15.7441816267
 20
11.7524268462
 30
0.0
 10
15.7450874171
 20
11.74745743
 30
0.0
 10
15.7460732978
 20
11.7425896551
 30
0.0
 10
15.7471375167
 20
11.7378320274
 30
0.0
 10
15.748278244
 20
11.7331928652
 30
0.0
 10
15.749493446
 20
11.7286802672
 30
0.0
 10
15.7507810205
 20
11.7243021173
 30
0.0
 10
15.7521387066
 20
11.7200660559
 30
0.0
 10
15.7535641176
 20
11.7159794695
 30
0.0
 10
15.7550547944
 20
11.7120494898
 30
0.0
 10
15.7566080965
 20
11.7082829512
 30
0.0
 10
15.7582213571
 20
11.7046864195
 30
0.0
 10
15.7598917481
 20
11.7012661384
 30
0.0
 10
15.76161638
 20
11.6980280461
 30
0.0
 10
15.7633922958
 20
11.6949777661
 30
0.0
 10
15.7652164089
 20
11.6921205613
 30
0.0
 10
15.7670856527
 20
11.6894613999
 30
0.0
 10
15.7689968233
 20
11.6870048568
 30
0.0
 10
15.7709467319
 20
11.6847552084
 30
0.0
 10
15.7729321694
 20
11.6827163583
 30
0.0
 10
15.7749497572
 20
11.6808919435
 30
0.0
 10
15.7766737711
 20
11.6795384824
 30
0.0
 10
15.7780650861
 20
11.6785703596
 30
0.0
 10
15.7794351104
 20
11.6776956643
 30
0.0
 10
15.7811632356
 20
11.6767363754
 30
0.0
 10
15.7832763308
 20
11.6757996114
 30
0.0
 10
15.7850611366
 20
11.675205278
 30
0.0
 10
15.786489802
 20
11.6748478805
 30
0.0
 10
15.7875569315
 20
11.6746387411
 30
0.0
 10
15.7886255704
 20
11.6744870285
 30
0.0
 10
15.7896952629
 20
11.6743928217
 30
0.0
 10
15.7907655144
 20
11.6743561944
 30
0.0
 10
15.7918358251
 20
11.6743771286
 30
0.0
 10
15.7929057392
 20
11.6744556281
 30
0.0
 10
15.7943361371
 20
11.6746376276
 30
0.0
 10
15.7961271322
 20
11.6750119299
 30
0.0
 10
15.798257077
 20
11.6756894657
 30
0.0
 10
15.8003726357
 20
11.6765952784
 30
0.0
 10
15.8024698844
 20
11.6777273081
 30
0.0
 10
15.8045453825
 20
11.6790830664
 30
0.0
 10
15.8065956831
 20
11.6806599038
 30
0.0
 10
15.8086174904
 20
11.682454863
 30
0.0
 10
15.8106074612
 20
11.6844646136
 30
0.0
 10
15.8118813057
 20
11.6859119248
 30
0.0
 10
15.812512703
 20
11.6866683702
 30
0.0
  0
SPLINE
  5
341
100
AcDbEntity
  8
LAYER_FEATURE
100
AcDbSpline
 62
7
  6
CONTINUOUS
 70
0
 71
3
 72
46
 73
42
 74
0
 42
0.0000001
 43
0.0000001
 44
0.0000000001
 40
0.0
 40
0.0
 40
0.0
 40
0.0
 40
0.0396644632
 40
0.0788614229
 40
0.1175671895
 40
0.1557612056
 40
0.1934234268
 40
0.2305357642
 40
0.2670817688
 40
0.3030468467
 40
0.3384183805
 40
0.3731858528
 40
0.4073409908
 40
0.4408779136
 40
0.4737932867
 40
0.5060864724
 40
0.5377596884
 40
0.5688181687
 40
0.5992703257
 40
0.6291279122
 40
0.6584061653
 40
0.6728346391
 40
0.6871256585
 40
0.7153055349
 40
0.7429739142
 40
0.7566265988
 40
0.7701630905
 40
0.7969031443
 40
0.8232340437
 40
0.8491974128
 40
0.8748383587
 40
0.8875541414
 40
0.900207687
 40
0.9128054704
 40
0.9253541189
 40
0.9378603961
 40
0.9503311772
 40
0.9627734426
 40
0.9751942485
 40
0.9876007144
 40
1.0
 40
1.0
 40
1.0
 40
1.0
 10
14.9791363851
 20
12.6888418213
 30
0.0
 10
14.9686266024
 20
12.6888418213
 30
0.0
 10
14.9477300772
 20
12.6886061505
 30
0.0
 10
14.9165944142
 20
12.6875320062
 30
0.0
 10
14.8858817867
 20
12.6857403769
 30
0.0
 10
14.8556272176
 20
12.6832333503
 30
0.0
 10
14.8258646592
 20
12.6800136845
 30
0.0
 10
14.7966277593
 20
12.676085011
 30
0.0
 10
14.767949479
 20
12.6714517304
 30
0.0
 10
14.7398621671
 20
12.6661190438
 30
0.0
 10
14.7123974992
 20
12.6600929295
 30
0.0
 10
14.6855864475
 20
12.6533801361
 30
0.0
 10
14.6594592477
 20
12.6459881741
 30
0.0
 10
14.6340453632
 20
12.6379253088
 30
0.0
 10
14.6093734498
 20
12.6292005579
 30
0.0
 10
14.585471333
 20
12.6198236673
 30
0.0
 10
14.5623659726
 20
12.6098050963
 30
0.0
 10
14.5400834669
 20
12.5991560256
 30
0.0
 10
14.5186489166
 20
12.5878882674
 30
0.0
 10
14.4980867938
 20
12.5760145402
 30
0.0
 10
14.4816183449
 20
12.5655752132
 30
0.0
 10
14.4689109923
 20
12.5569313513
 30
0.0
 10
14.4566329027
 20
12.5481803655
 30
0.0
 10
14.4418610683
 20
12.5368918579
 30
0.0
 10
14.427756773
 20
12.5250399144
 30
0.0
 10
14.4169730268
 20
12.5152916986
 30
0.0
 10
14.4066089846
 20
12.5054524863
 30
0.0
 10
14.394263513
 20
12.4928289117
 30
0.0
 10
14.3804024858
 20
12.4771187097
 30
0.0
 10
14.3675714084
 20
12.4609262235
 30
0.0
 10
14.3577218663
 20
12.4470064204
 30
0.0
 10
14.3503816945
 20
12.4356554251
 30
0.0
 10
14.3451573602
 20
12.4270566625
 30
0.0
 10
14.3402005814
 20
12.4183519254
 30
0.0
 10
14.3355127221
 20
12.4095436031
 30
0.0
 10
14.3310950941
 20
12.4006342328
 30
0.0
 10
14.3269490119
 20
12.3916263042
 30
0.0
 10
14.3230756017
 20
12.3825224102
 30
0.0
 10
14.3194759952
 20
12.3733250882
 30
0.0
 10
14.3161512477
 20
12.3640370593
 30
0.0
 10
14.3141183183
 20
12.3577854662
 30
0.0
 10
14.3131483121
 20
12.3546465222
 30
0.0
  0
SPLINE
  5
342
100
AcDbEntity
  8
LAYER_FEATURE
100
AcDbSpline
 62
7
  6
CONTINUOUS
 70
0
 71
3
 72
46
 73
42
 74
0
 42
0.0000001
 43
0.0000001
 44
0.0000000001
 40
0.0
 40
0.0
 40
0.0
 40
0.0
 40
0.0396644632
 40
0.0788614229
 40
0.1175671895
 40
0.1557612056
 40
0.1934234268
 40
0.2305357642
 40
0.2670817688
 40
0.3030468467
 40
0.3384183805
 40
0.3731858528
 40
0.4073409908
 40
0.4408779136
 40
0.4737932867
 40
0.5060864724
 40
0.5377596884
 40
0.5688181687
 40
0.5992703257
 40
0.6291279122
 40
0.6584061653
 40
0.6728346391
 40
0.6871256585
 40
0.7153055349
 40
0.7429739142
 40
0.7566265988
 40
0.7701630905
 40
0.7969031443
 40
0.8232340437
 40
0.8491974128
 40
0.8748383587
 40
0.8875541414
 40
0.900207687
 40
0.9128054704
 40
0.9253541189
 40
0.9378603961
 40
0.9503311772
 40
0.9627734426
 40
0.9751942485
 40
0.9876007144
 40
1.0
 40
1.0
 40
1.0
 40
1.0
 10
15.3228705643
 20
13.801166033
 30
0.0
 10
15.3123607816
 20
13.801166033
 30
0.0
 10
15.2914642564
 20
13.8009303622
 30
0.0
 10
15.2603285935
 20
13.7998562179
 30
0.0
 10
15.2296159659
 20
13.7980645886
 30
0.0
 10
15.1993613969
 20
13.795557562
 30
0.0
 10
15.1695988385
 20
13.7923378962
 30
0.0
 10
15.1403619385
 20
13.7884092227
 30
0.0
 10
15.1116836583
 20
13.7837759421
 30
0.0
 10
15.0835963464
 20
13.7784432555
 30
0.0
 10
15.0561316784
 20
13.7724171411
 30
0.0
 10
15.0293206267
 20
13.7657043478
 30
0.0
 10
15.0031934269
 20
13.7583123857
 30
0.0
 10
14.9777795424
 20
13.7502495205
 30
0.0
 10
14.953107629
 20
13.7415247696
 30
0.0
 10
14.9292055122
 20
13.732147879
 30
0.0
 10
14.9061001518
 20
13.722129308
 30
0.0
 10
14.8838176461
 20
13.7114802373
 30
0.0
 10
14.8623830959
 20
13.700212479
 30
0.0
 10
14.841820973
 20
13.6883387519
 30
0.0
 10
14.8253525242
 20
13.6778994249
 30
0.0
 10
14.8126451716
 20
13.6692555629
 30
0.0
 10
14.8003670819
 20
13.6605045772
 30
0.0
 10
14.7855952475
 20
13.6492160696
 30
0.0
 10
14.7714909522
 20
13.637364126
 30
0.0
 10
14.760707206
 20
13.6276159103
 30
0.0
 10
14.7503431638
 20
13.617776698
 30
0.0
 10
14.7379976922
 20
13.6051531233
 30
0.0
 10
14.7241366651
 20
13.5894429214
 30
0.0
 10
14.7113055877
 20
13.5732504351
 30
0.0
 10
14.7014560455
 20
13.5593306321
 30
0.0
 10
14.6941158737
 20
13.5479796368
 30
0.0
 10
14.6888915395
 20
13.5393808742
 30
0.0
 10
14.6839347606
 20
13.5306761371
 30
0.0
 10
14.6792469014
 20
13.5218678148
 30
0.0
 10
14.6748292733
 20
13.5129584445
 30
0.0
 10
14.6706831911
 20
13.5039505158
 30
0.0
 10
14.6668097809
 20
13.4948466219
 30
0.0
 10
14.6632101744
 20
13.4856492998
 30
0.0
 10
14.659885427
 20
13.476361271
 30
0.0
 10
14.6578524975
 20
13.4701096779
 30
0.0
 10
14.6568824913
 20
13.4669707339
 30
0.0
  0
SPLINE
  5
343
100
AcDbEntity
  8
LAYER_FEATURE
100
AcDbSpline
 62
7
  6
CONTINUOUS
 70
0
 71
3
 72
11
 73
7
 74
0
 42
0.0000001
 43
0.0000001
 44
0.0000000001
 40
0.0
 40
0.0
 40
0.0
 40
0.0
 40
0.2463672532
 40
0.4952632677
 40
0.7465258842
 40
1.0
 40
1.0
 40
1.0
 40
1.0
 10
15.0118762688
 20
12.6757424139
 30
0.0
 10
15.0215339106
 20
12.6757424139
 30
0.0
 10
15.0409489606
 20
12.6755255252
 30
0.0
 10
15.0701992225
 20
12.6745621023
 30
0.0
 10
15.0997004164
 20
12.6729598464
 30
0.0
 10
15.1194319328
 20
12.6714731582
 30
0.0
 10
15.1293319008
 20
12.6706250187
 30
0.0
  0
SPLINE
  5
344
100
AcDbEntity
  8
LAYER_FEATURE
100
AcDbSpline
 62
7
  6
CONTINUOUS
 70
0
 71
3
 72
23
 73
19
 74
0
 42
0.0000001
 43
0.0000001
 44
0.0000000001
 40
0.0
 40
0.0
 40
0.0
 40
0.0
 40
0.0606947334
 40
0.1218463094
 40
0.1834107434
 40
0.2453430425
 40
0.307597354
 40
0.3701270573
 40
0.4328848897
 40
0.4958230567
 40
0.5588933499
 40
0.622047259
 40
0.6852360826
 40
0.7484110388
 40
0.8115233767
 40
0.8745244896
 40
0.9373660259
 40
1.0
 40
1.0
 40
1.0
 40
1.0
 10
15.1293319008
 20
12.6706250187
 30
0.0
 10
15.1396027179
 20
12.6697451082
 30
0.0
 10
15.1602034956
 20
12.6677591863
 30
0.0
 10
15.1911433603
 20
12.6641235975
 30
0.0
 10
15.2222102066
 20
12.6598235676
 30
0.0
 10
15.2533681977
 20
12.6548640449
 30
0.0
 10
15.2845816263
 20
12.6492507191
 30
0.0
 10
15.315814658
 20
12.64299003
 30
0.0
 10
15.3470314499
 20
12.6360891584
 30
0.0
 10
15.3781961745
 20
12.6285560291
 30
0.0
 10
15.4092730641
 20
12.6203992904
 30
0.0
 10
15.4402264513
 20
12.6116283041
 30
0.0
 10
15.4710208085
 20
12.6022531357
 30
0.0
 10
15.5016207929
 20
12.5922845391
 30
0.0
 10
15.5319912732
 20
12.5817339632
 30
0.0
 10
15.5620974347
 20
12.5706135039
 30
0.0
 10
15.5919045706
 20
12.5589359872
 30
0.0
 10
15.6115917543
 20
12.5507728202
 30
0.0
 10
15.621377357
 20
12.5466009137
 30
0.0
  0
SPLINE
  5
345
100
AcDbEntity
  8
LAYER_FEATURE
100
AcDbSpline
 62
7
  6
CONTINUOUS
 70
0
 71
3
 72
14
 73
10
 74
0
 42
0.0000001
 43
0.0000001
 44
0.0000000001
 40
0.0
 40
0.0
 40
0.0
 40
0.0
 40
0.2541187828
 40
0.3803248027
 40
0.5058645918
 40
0.6306690193
 40
0.7546703215
 40
0.8778022071
 40
1.0
 40
1.0
 40
1.0
 40
1.0
 10
15.621377357
 20
12.5466009137
 30
0.0
 10
15.6382805273
 20
12.5393945668
 30
0.0
 10
15.6633965763
 20
12.5281741153
 30
0.0
 10
15.6963912558
 20
12.5123798996
 30
0.0
 10
15.720740285
 20
12.5001904222
 30
0.0
 10
15.7447260746
 20
12.4876414516
 30
0.0
 10
15.7683280522
 20
12.4747437678
 30
0.0
 10
15.791525619
 20
12.4615086326
 30
0.0
 10
15.8067685645
 20
12.4524315888
 30
0.0
 10
15.8143172152
 20
12.4478387706
 30
0.0
  0
SPLINE
  5
346
100
AcDbEntity
  8
LAYER_FEATURE
100
AcDbSpline
 62
7
  6
CONTINUOUS
 70
0
 71
3
 72
73
 73
69
 74
0
 42
0.0000001
 43
0.0000001
 44
0.0000000001
 40
0.0
 40
0.0
 40
0.0
 40
0.0
 40
0.020620728
 40
0.0410488341
 40
0.0612729803
 40
0.081282297
 40
0.1010664257
 40
0.1206155516
 40
0.1399204413
 40
0.1589724872
 40
0.1777637556
 40
0.1962870258
 40
0.2145358346
 40
0.2325045289
 40
0.2501883224
 40
0.2675833419
 40
0.2846866809
 40
0.3014964604
 40
0.3180118948
 40
0.3342333442
 40
0.3501623752
 40
0.3658018263
 40
0.3811558753
 40
0.3962300906
 40
0.4110314861
 40
0.4183328516
 40
0.4255693371
 40
0.4398521811
 40
0.4538924127
 40
0.4677032551
 40
0.481299527
 40
0.4946976276
 40
0.5079154891
 40
0.5209725077
 40
0.5338894495
 40
0.5466883246
 40
0.5593922266
 40
0.5720251462
 40
0.5846117622
 40
0.5971772098
 40
0.6097468343
 40
0.6223459394
 40
0.6349995367
 40
0.6477321027
 40
0.6605673552
 40
0.6735280502
 40
0.6866358044
 40
0.6999109445
 40
0.7133723943
 40
0.7270375879
 40
0.7409224075
 40
0.7550411463
 40
0.7694065032
 40
0.7766855789
 40
0.7840303397
 40
0.7989207064
 40
0.8140863649
 40
0.8295338478
 40
0.8452682602
 40
0.8612933318
 40
0.8776114743
 40
0.8942238507
 40
0.911130438
 40
0.9283300836
 40
0.9458205623
 40
0.9635986439
 40
0.9816601493
 40
1.0
 40
1.0
 40
1.0
 40
1.0
 10
15.8143172152
 20
12.4478387706
 30
0.0
 10
15.8222957167
 20
12.4429844185
 30
0.0
 10
15.8380816713
 20
12.4331613116
 30
0.0
 10
15.861338819
 20
12.4180180212
 30
0.0
 10
15.8840451741
 20
12.402547018
 30
0.0
 10
15.9061782643
 20
12.386763593
 30
0.0
 10
15.9277163514
 20
12.3706832575
 30
0.0
 10
15.9486382377
 20
12.3543218311
 30
0.0
 10
15.9689233363
 20
12.3376953949
 30
0.0
 10
15.9885516829
 20
12.3208202868
 30
0.0
 10
16.0075039747
 20
12.3037131003
 30
0.0
 10
16.0257615681
 20
12.2863906454
 30
0.0
 10
16.0433064946
 20
12.2688699348
 30
0.0
 10
16.0601214834
 20
12.2511681687
 30
0.0
 10
16.0761899967
 20
12.2333027343
 30
0.0
 10
16.0914962215
 20
12.2152911664
 30
0.0
 10
16.1060250817
 20
12.1971511335
 30
0.0
 10
16.119762258
 20
12.1789004223
 30
0.0
 10
16.1326942231
 20
12.1605569346
 30
0.0
 10
16.1448082241
 20
12.1421386521
 30
0.0
 10
16.1560922946
 20
12.1236636155
 30
0.0
 10
16.1665352612
 20
12.1051499361
 30
0.0
 10
16.176126815
 20
12.0866156991
 30
0.0
 10
16.1848573502
 20
12.0680792656
 30
0.0
 10
16.1914377342
 20
12.0525755249
 30
0.0
 10
16.1962567098
 20
12.0401913728
 30
0.0
 10
16.2007404804
 20
12.0279317788
 30
0.0
 10
16.2058006196
 20
12.0126367708
 30
0.0
 10
16.2110087425
 20
11.9942723298
 30
0.0
 10
16.2153208867
 20
11.9759959657
 30
0.0
 10
16.2187325257
 20
11.9578258497
 30
0.0
 10
16.2212401132
 20
11.9397798581
 30
0.0
 10
16.222840952
 20
11.9218758413
 30
0.0
 10
16.2235332324
 20
11.9041315402
 30
0.0
 10
16.223316049
 20
11.8865645908
 30
0.0
 10
16.2221894458
 20
11.8691924979
 30
0.0
 10
16.2201543827
 20
11.8520326147
 30
0.0
 10
16.2172127481
 20
11.8351021218
 30
0.0
 10
16.213367378
 20
11.8184179984
 30
0.0
 10
16.2086220885
 20
11.8019969834
 30
0.0
 10
16.2029816272
 20
11.7858555519
 30
0.0
 10
16.1964516698
 20
11.7700098879
 30
0.0
 10
16.1890388215
 20
11.7544758522
 30
0.0
 10
16.1807506243
 20
11.7392689416
 30
0.0
 10
16.1715954951
 20
11.7244042843
 30
0.0
 10
16.1615827085
 20
11.7098966236
 30
0.0
 10
16.1507223884
 20
11.6957602987
 30
0.0
 10
16.1390255066
 20
11.6820092177
 30
0.0
 10
16.1265038223
 20
11.6686568716
 30
0.0
 10
16.1131698849
 20
11.6557163412
 30
0.0
 10
16.0990369671
 20
11.6432002375
 30
0.0
 10
16.0841193065
 20
11.6311208586
 30
0.0
 10
16.0711038703
 20
11.621471115
 30
0.0
 10
16.0603209233
 20
11.6139792706
 30
0.0
 10
16.0491906097
 20
11.6065753712
 30
0.0
 10
16.0348084403
 20
11.5976175552
 30
0.0
 10
16.0169066909
 20
11.5873978047
 30
0.0
 10
15.9983011613
 20
11.5776688535
 30
0.0
 10
15.9790103591
 20
11.5684402849
 30
0.0
 10
15.9590532198
 20
11.5597210502
 30
0.0
 10
15.9384493996
 20
11.5515196325
 30
0.0
 10
15.9172191581
 20
11.5438440164
 30
0.0
 10
15.8953833673
 20
11.5367016917
 30
0.0
 10
15.8729634891
 20
11.5300996294
 30
0.0
 10
15.8499815825
 20
11.5240442619
 30
0.0
 10
15.8264601871
 20
11.5185414942
 30
0.0
 10
15.8024226256
 20
11.5135967406
 30
0.0
 10
15.7861910666
 20
11.5106972547
 30
0.0
 10
15.7779965723
 20
11.509339543
 30
0.0
  0
SPLINE
  5
347
100
AcDbEntity
  8
LAYER_FEATURE
100
AcDbSpline
 62
7
  6
CONTINUOUS
 70
0
 71
3
 72
72
 73
68
 74
0
 42
0.0000001
 43
0.0000001
 44
0.0000000001
 40
0.0
 40
0.0
 40
0.0
 40
0.0
 40
0.020372368
 40
0.0405309938
 40
0.060465559
 40
0.0801676636
 40
0.0996288021
 40
0.1188411557
 40
0.1377975604
 40
0.1564914638
 40
0.1749170271
 40
0.1930691481
 40
0.2109434992
 40
0.2285365821
 40
0.2458457815
 40
0.2628694031
 40
0.2796067246
 40
0.29605806
 40
0.312224807
 40
0.3281094934
 40
0.3437158354
 40
0.3590487975
 40
0.3741146297
 40
0.3815500305
 40
0.3889216111
 40
0.4034772989
 40
0.4177927564
 40
0.4318797658
 40
0.4457515394
 40
0.4594227192
 40
0.4729093421
 40
0.4862287913
 40
0.4993997323
 40
0.5124420181
 40
0.525376565
 40
0.5382252098
 40
0.5510105468
 40
0.5637557373
 40
0.5764843073
 40
0.5892199357
 40
0.6019862362
 40
0.6148065426
 40
0.627703702
 40
0.6406998784
 40
0.6538163785
 40
0.6670735011
 40
0.6804904048
 40
0.6940849998
 40
0.707873874
 40
0.7218722384
 40
0.7360938843
 40
0.750551171
 40
0.7652550341
 40
0.7802149969
 40
0.7954391891
 40
0.810934393
 40
0.8267060883
 40
0.8427584889
 40
0.8590945952
 40
0.8757162562
 40
0.8926242186
 40
0.9098181704
 40
0.9272968041
 40
0.9450578716
 40
0.9630982256
 40
0.9814138664
 40
1.0
 40
1.0
 40
1.0
 40
1.0
 10
15.0118762688
 20
12.6757424139
 30
0.0
 10
15.0031317682
 20
12.6757424139
 30
0.0
 10
14.9857339593
 20
12.675566425
 30
0.0
 10
14.9597906701
 20
12.6747653955
 30
0.0
 10
14.9341573385
 20
12.6734293076
 30
0.0
 10
14.9088575595
 20
12.6715594327
 30
0.0
 10
14.8839140755
 20
12.6691574183
 30
0.0
 10
14.8593495596
 20
12.6662254507
 30
0.0
 10
14.8351862804
 20
12.6627661818
 30
0.0
 10
14.8114461406
 20
12.6587827114
 30
0.0
 10
14.7881506619
 20
12.6542786475
 30
0.0
 10
14.7653209567
 20
12.6492580592
 30
0.0
 10
14.7429777201
 20
12.643725462
 30
0.0
 10
14.7211412059
 20
12.6376858336
 30
0.0
 10
14.6998311993
 20
12.6311446295
 30
0.0
 10
14.6790670141
 20
12.6241077374
 30
0.0
 10
14.6588674781
 20
12.6165814702
 30
0.0
 10
14.6392509013
 20
12.6085726036
 30
0.0
 10
14.6202350624
 20
12.6000883413
 30
0.0
 10
14.6018372266
 20
12.5911363017
 30
0.0
 10
14.5840740531
 20
12.5817244793
 30
0.0
 10
14.566961828
 20
12.5718614375
 30
0.0
 10
14.5531971495
 20
12.5632360538
 30
0.0
 10
14.5425316737
 20
12.5561170631
 30
0.0
 10
14.5321863885
 20
12.5489171575
 30
0.0
 10
14.5196822282
 20
12.539654625
 30
0.0
 10
14.5053228783
 20
12.5280787526
 30
0.0
 10
14.4916860182
 20
12.5160996269
 30
0.0
 10
14.478784301
 20
12.5037281036
 30
0.0
 10
14.4666295381
 20
12.4909753111
 30
0.0
 10
14.45523294
 20
12.4778527642
 30
0.0
 10
14.4446050585
 20
12.4643723168
 30
0.0
 10
14.434755754
 20
12.4505461949
 30
0.0
 10
14.4256941701
 20
12.4363869866
 30
0.0
 10
14.4174287565
 20
12.4219076088
 30
0.0
 10
14.4099672507
 20
12.4071213052
 30
0.0
 10
14.403316603
 20
12.3920416607
 30
0.0
 10
14.397483008
 20
12.376682556
 30
0.0
 10
14.392471906
 20
12.361058148
 30
0.0
 10
14.3882879395
 20
12.3451828619
 30
0.0
 10
14.3849349216
 20
12.3290713692
 30
0.0
 10
14.3824158868
 20
12.3127385466
 30
0.0
 10
14.3807330886
 20
12.2961994601
 30
0.0
 10
14.3798879403
 20
12.2794693485
 30
0.0
 10
14.379881064
 20
12.2625635923
 30
0.0
 10
14.3807123204
 20
12.2454976964
 30
0.0
 10
14.3823807922
 20
12.2282872781
 30
0.0
 10
14.3848847572
 20
12.2109480465
 30
0.0
 10
14.3882217574
 20
12.193495792
 30
0.0
 10
14.3923886062
 20
12.1759463815
 30
0.0
 10
14.397381344
 20
12.1583157381
 30
0.0
 10
14.4031952715
 20
12.1406198331
 30
0.0
 10
14.4098249836
 20
12.122874684
 30
0.0
 10
14.4172643583
 20
12.1050963444
 30
0.0
 10
14.4255065212
 20
12.087300876
 30
0.0
 10
14.4345439043
 20
12.0695043554
 30
0.0
 10
14.4443682516
 20
12.0517228664
 30
0.0
 10
14.4549705885
 20
12.0339724714
 30
0.0
 10
14.4663412359
 20
12.0162691999
 30
0.0
 10
14.4784698474
 20
11.99862905
 30
0.0
 10
14.4913454074
 20
11.9810679744
 30
0.0
 10
14.5049562003
 20
11.9636018405
 30
0.0
 10
14.5192898634
 20
11.9462464377
 30
0.0
 10
14.5343333872
 20
11.9290174814
 30
0.0
 10
14.5500731555
 20
11.91193053
 30
0.0
 10
14.5664947453
 20
11.8950011654
 30
0.0
 10
14.5778056437
 20
11.8839100643
 30
0.0
 10
14.5835689022
 20
11.8783937275
 30
0.0
  0
SPLINE
  5
348
100
AcDbEntity
  8
LAYER_FEATURE
100
AcDbSpline
 62
7
  6
CONTINUOUS
 70
0
 71
3
 72
77
 73
73
 74
0
 42
0.0000001
 43
0.0000001
 44
0.0000000001
 40
0.0
 40
0.0
 40
0.0
 40
0.0
 40
0.0171786384
 40
0.0345303065
 40
0.0520441323
 40
0.0697097603
 40
0.087516005
 40
0.1054515097
 40
0.1235046065
 40
0.141663363
 40
0.1599156243
 40
0.178249032
 40
0.1966510546
 40
0.2151090165
 40
0.2336101252
 40
0.2521414984
 40
0.2706901905
 40
0.2892432201
 40
0.3077875972
 40
0.3263103499
 40
0.3447985501
 40
0.363239342
 40
0.3816199692
 40
0.3999278015
 40
0.4181503619
 40
0.4362753549
 40
0.4542906965
 40
0.4721845422
 40
0.4899453151
 40
0.5075617357
 40
0.5250228553
 40
0.5423180877
 40
0.5594372392
 40
0.5763705427
 40
0.5931086924
 40
0.6096428838
 40
0.6259648478
 40
0.6420668893
 40
0.6579419273
 40
0.6735835408
 40
0.6889860137
 40
0.7041443784
 40
0.7190544635
 40
0.733712946
 40
0.7481174076
 40
0.7622663869
 40
0.7761594337
 40
0.7897971671
 40
0.8031813365
 40
0.8163148825
 40
0.8292019896
 40
0.8418481418
 40
0.8542601741
 40
0.8603812579
 40
0.8664470199
 40
0.8784169498
 40
0.8901817869
 40
0.8959915749
 40
0.9017549381
 40
0.9131488226
 40
0.9243797396
 40
0.9354645469
 40
0.9464213959
 40
0.9572696215
 40
0.9626598376
 40
0.9680306188
 40
0.9733846479
 40
0.9787246486
 40
0.9840533836
 40
0.9893736427
 40
0.9946882389
 40
1.0
 40
1.0
 40
1.0
 40
1.0
 10
14.9791363851
 20
12.6888418213
 30
0.0
 10
14.9893369176
 20
12.6888418213
 30
0.0
 10
15.0098413808
 20
12.6886173674
 30
0.0
 10
15.0407308357
 20
12.6876200828
 30
0.0
 10
15.0718815171
 20
12.6859614067
 30
0.0
 10
15.1032606332
 20
12.6836431475
 30
0.0
 10
15.1348357301
 20
12.6806676631
 30
0.0
 10
15.1665738748
 20
12.6770380704
 30
0.0
 10
15.1984420518
 20
12.6727581522
 30
0.0
 10
15.2304070909
 20
12.6678323632
 30
0.0
 10
15.2624357199
 20
12.6622658302
 30
0.0
 10
15.2944945998
 20
12.6560643391
 30
0.0
 10
15.3265503602
 20
12.6492343515
 30
0.0
 10
15.3585696331
 20
12.6417829811
 30
0.0
 10
15.390519088
 20
12.6337179842
 30
0.0
 10
15.4223654649
 20
12.6250477508
 30
0.0
 10
15.4540756109
 20
12.6157813036
 30
0.0
 10
15.4856165179
 20
12.6059282963
 30
0.0
 10
15.5169553524
 20
12.5954989871
 30
0.0
 10
15.5480594907
 20
12.5845042312
 30
0.0
 10
15.5788965509
 20
12.572955467
 30
0.0
 10
15.6094344333
 20
12.5608647202
 30
0.0
 10
15.6396413516
 20
12.5482445815
 30
0.0
 10
15.6694858624
 20
12.5351081876
 30
0.0
 10
15.6989368978
 20
12.5214692084
 30
0.0
 10
15.7279637997
 20
12.5073418355
 30
0.0
 10
15.7565363588
 20
12.4927407802
 30
0.0
 10
15.7846248376
 20
12.4776812401
 30
0.0
 10
15.8122000013
 20
12.4621788867
 30
0.0
 10
15.8392331466
 20
12.4462498456
 30
0.0
 10
15.8656961407
 20
12.4299106935
 30
0.0
 10
15.8915614491
 20
12.4131784348
 30
0.0
 10
15.9168021568
 20
12.3960704763
 30
0.0
 10
15.9413919967
 20
12.3786046105
 30
0.0
 10
15.9653053781
 20
12.3607989969
 30
0.0
 10
15.988517425
 20
12.3426721568
 30
0.0
 10
16.0110039903
 20
12.3242429372
 30
0.0
 10
16.0327416784
 20
12.305530494
 30
0.0
 10
16.0537078678
 20
12.2865542679
 30
0.0
 10
16.073880745
 20
12.267333974
 30
0.0
 10
16.0932393279
 20
12.2478895805
 30
0.0
 10
16.1117634746
 20
12.2282412771
 30
0.0
 10
16.1294339046
 20
12.2084094573
 30
0.0
 10
16.1462322163
 20
12.1884146941
 30
0.0
 10
16.162140924
 20
12.1682777326
 30
0.0
 10
16.1771434589
 20
12.1480194541
 30
0.0
 10
16.1912241806
 20
12.1276608566
 30
0.0
 10
16.2043683882
 20
12.1072230335
 30
0.0
 10
16.2165623472
 20
12.0867271497
 30
0.0
 10
16.2277932981
 20
12.0661944559
 30
0.0
 10
16.2380494888
 20
12.0456461446
 30
0.0
 10
16.2473200349
 20
12.0251037488
 30
0.0
 10
16.2542478585
 20
12.0079285792
 30
0.0
 10
16.2592803005
 20
11.994215224
 30
0.0
 10
16.2639327612
 20
11.9806455966
 30
0.0
 10
16.2691255864
 20
11.9637229925
 30
0.0
 10
16.2735108963
 20
11.9467297743
 30
0.0
 10
16.2764995494
 20
11.9331967915
 30
0.0
 10
16.2791236393
 20
11.9198128938
 30
0.0
 10
16.2817695227
 20
11.9031577975
 30
0.0
 10
16.2839240707
 20
11.883249257
 30
0.0
 10
16.2850435258
 20
11.8635150624
 30
0.0
 10
16.2851264526
 20
11.8439766049
 30
0.0
 10
16.2843296517
 20
11.8278393025
 30
0.0
 10
16.2831720251
 20
11.8150589175
 30
0.0
 10
16.2820472023
 20
11.8055550143
 30
0.0
 10
16.2806642811
 20
11.7961154166
 30
0.0
 10
16.2790235644
 20
11.7867425129
 30
0.0
 10
16.2771255398
 20
11.7774387763
 30
0.0
 10
16.2749706555
 20
11.7682066162
 30
0.0
 10
16.272559502
 20
11.7590485471
 30
0.0
 10
16.2707814339
 20
11.752993379
 30
0.0
 10
16.2698502009
 20
11.7499799055
 30
0.0
  0
SPLINE
  5
349
100
AcDbEntity
  8
LAYER_FEATURE
100
AcDbSpline
 62
7
  6
CONTINUOUS
 70
0
 71
3
 72
11
 73
7
 74
0
 42
0.0000001
 43
0.0000001
 44
0.0000000001
 40
0.0
 40
0.0
 40
0.0
 40
0.0
 40
0.2615238893
 40
0.5156680026
 40
0.761973337
 40
1.0
 40
1.0
 40
1.0
 40
1.0
 10
14.7890338888
 20
13.3555758138
 30
0.0
 10
14.7885540052
 20
13.3555544945
 30
0.0
 10
14.7876085992
 20
13.3554898241
 30
0.0
 10
14.7862183795
 20
13.3553229801
 30
0.0
 10
14.7848817362
 20
13.3550883655
 30
0.0
 10
14.784015289
 20
13.3548839218
 30
0.0
 10
14.7835931701
 20
13.3547700893
 30
0.0
  0
SPLINE
  5
34A
100
AcDbEntity
  8
LAYER_FEATURE
100
AcDbSpline
 62
7
  6
CONTINUOUS
 70
0
 71
3
 72
14
 73
10
 74
0
 42
0.0000001
 43
0.0000001
 44
0.0000000001
 40
0.0
 40
0.0
 40
0.0
 40
0.0
 40
0.1164805358
 40
0.2361408418
 40
0.3586290395
 40
0.4835968278
 40
0.6106481143
 40
0.7393625343
 40
1.0
 40
1.0
 40
1.0
 40
1.0
 10
16.4704039248
 20
12.9401116674
 30
0.0
 10
16.4700164789
 20
12.9404346781
 30
0.0
 10
16.4692129918
 20
12.9410681769
 30
0.0
 10
16.4679456638
 20
12.9419669458
 30
0.0
 10
16.4666054165
 20
12.9428232351
 30
0.0
 10
16.4651993231
 20
12.9436325761
 30
0.0
 10
16.4637345587
 20
12.9443908039
 30
0.0
 10
16.4617054571
 20
12.9453321084
 30
0.0
 10
16.4601314339
 20
12.945943884
 30
0.0
 10
16.4590634997
 20
12.9463092849
 30
0.0
  0
SPLINE
  5
34B
100
AcDbEntity
  8
LAYER_FEATURE
100
AcDbSpline
 62
7
  6
CONTINUOUS
 70
0
 71
3
 72
14
 73
10
 74
0
 42
0.0000001
 43
0.0000001
 44
0.0000000001
 40
0.0
 40
0.0
 40
0.0
 40
0.0
 40
0.1218210208
 40
0.2454152938
 40
0.3703459098
 40
0.4962017908
 40
0.62254225
 40
0.7489213563
 40
1.0
 40
1.0
 40
1.0
 40
1.0
 10
16.4506892486
 20
13.0778731536
 30
0.0
 10
16.4502136968
 20
13.0781434957
 30
0.0
 10
16.449243124
 20
13.0786663378
 30
0.0
 10
16.4477455206
 20
13.0793904651
 30
0.0
 10
16.4462017287
 20
13.0800572246
 30
0.0
 10
16.4446198858
 20
13.0806631429
 30
0.0
 10
16.4430080765
 20
13.0812050881
 30
0.0
 10
16.4408354835
 20
13.0818371164
 30
0.0
 10
16.4391793298
 20
13.082209708
 30
0.0
 10
16.4380698182
 20
13.0824099678
 30
0.0
  0
SPLINE
  5
34C
100
AcDbEntity
  8
LAYER_FEATURE
100
AcDbSpline
 62
7
  6
CONTINUOUS
 70
0
 71
3
 72
14
 73
10
 74
0
 42
0.0000001
 43
0.0000001
 44
0.0000000001
 40
0.0
 40
0.0
 40
0.0
 40
0.0
 40
0.2585376715
 40
0.3867490196
 40
0.513655992
 40
0.6388285158
 40
0.7618562332
 40
0.8823720973
 40
1.0
 40
1.0
 40
1.0
 40
1.0
 10
14.8480138863
 20
13.4732837405
 30
0.0
 10
14.8469324682
 20
13.4736213481
 30
0.0
 10
14.8452929012
 20
13.4740601912
 30
0.0
 10
14.8430859771
 20
13.4745047442
 30
0.0
 10
14.8414393256
 20
13.4747641629
 30
0.0
 10
14.8398055443
 20
13.4749490716
 30
0.0
 10
14.8381929958
 20
13.4750585555
 30
0.0
 10
14.83661016
 20
13.4750919981
 30
0.0
 10
14.8355665119
 20
13.4750631342
 30
0.0
 10
14.8350518186
 20
13.4750354703
 30
0.0
  0
SPLINE
  5
34D
100
AcDbEntity
  8
LAYER_FEATURE
100
AcDbSpline
 62
7
  6
CONTINUOUS
 70
0
 71
3
 72
14
 73
10
 74
0
 42
0.0000001
 43
0.0000001
 44
0.0000000001
 40
0.0
 40
0.0
 40
0.0
 40
0.0
 40
0.2548423986
 40
0.382154235
 40
0.5087902377
 40
0.6343091087
 40
0.7582818546
 40
0.8803156781
 40
1.0
 40
1.0
 40
1.0
 40
1.0
 10
16.3747097567
 20
13.2193054193
 30
0.0
 10
16.3736485372
 20
13.2197056138
 30
0.0
 10
16.3720311475
 20
13.2202398542
 30
0.0
 10
16.3698408449
 20
13.2208159051
 30
0.0
 10
16.3681906019
 20
13.2211772753
 30
0.0
 10
16.3665412636
 20
13.2214661233
 30
0.0
 10
16.364901278
 20
13.2216810024
 30
0.0
 10
16.363279268
 20
13.2218207441
 30
0.0
 10
16.3622039001
 20
13.2218638273
 30
0.0
 10
16.3616713144
 20
13.2218722538
 30
0.0
  0
SPLINE
  5
34E
100
AcDbEntity
  8
LAYER_FEATURE
100
AcDbSpline
 62
7
  6
CONTINUOUS
 70
0
 71
3
 72
11
 73
7
 74
0
 42
0.0000001
 43
0.0000001
 44
0.0000000001
 40
0.0
 40
0.0
 40
0.0
 40
0.0
 40
0.2490423954
 40
0.501057133
 40
0.7525377557
 40
1.0
 40
1.0
 40
1.0
 40
1.0
 10
14.9532346638
 20
13.5680996639
 30
0.0
 10
14.9522283708
 20
13.568591937
 30
0.0
 10
14.9501595817
 20
13.5694943824
 30
0.0
 10
14.9469518357
 20
13.570587115
 30
0.0
 10
14.9436721026
 20
13.5714111423
 30
0.0
 10
14.9414540755
 20
13.5717746508
 30
0.0
 10
14.9403486722
 20
13.5719056752
 30
0.0
  0
SPLINE
  5
34F
100
AcDbEntity
  8
LAYER_FEATURE
100
AcDbSpline
 62
7
  6
CONTINUOUS
 70
0
 71
3
 72
15
 73
11
 74
0
 42
0.0000001
 43
0.0000001
 44
0.0000000001
 40
0.0
 40
0.0
 40
0.0
 40
0.0
 40
0.1329539186
 40
0.2644604537
 40
0.3940546283
 40
0.5213365165
 40
0.6459105618
 40
0.7674146295
 40
0.8855435961
 40
1.0
 40
1.0
 40
1.0
 40
1.0
 10
16.2476433259
 20
13.3547700893
 30
0.0
 10
16.2470949847
 20
13.3548870138
 30
0.0
 10
16.2459992642
 20
13.3550968225
 30
0.0
 10
16.244354836
 20
13.3553394327
 30
0.0
 10
16.2427250953
 20
13.3555072905
 30
0.0
 10
16.2411185912
 20
13.3555995511
 30
0.0
 10
16.2395436034
 20
13.3556157031
 30
0.0
 10
16.2380082412
 20
13.3555556887
 30
0.0
 10
16.2365205659
 20
13.3554197759
 30
0.0
 10
16.2355496004
 20
13.3552766856
 30
0.0
 10
16.2350744199
 20
13.3551920186
 30
0.0
  0
SPLINE
  5
350
100
AcDbEntity
  8
LAYER_FEATURE
100
AcDbSpline
 62
7
  6
CONTINUOUS
 70
0
 71
3
 72
15
 73
11
 74
0
 42
0.0000001
 43
0.0000001
 44
0.0000000001
 40
0.0
 40
0.0
 40
0.0
 40
0.0
 40
0.1250351098
 40
0.2516515918
 40
0.3790599624
 40
0.5064500119
 40
0.6330140933
 40
0.7579598761
 40
0.8805263416
 40
1.0
 40
1.0
 40
1.0
 40
1.0
 10
14.971199393
 20
13.5591575639
 30
0.0
 10
14.9733663089
 20
13.5580601969
 30
0.0
 10
14.9777940614
 20
13.5559805128
 30
0.0
 10
14.9846299406
 20
13.5532331165
 30
0.0
 10
14.9916521346
 20
13.550857136
 30
0.0
 10
14.998794396
 20
13.5488750762
 30
0.0
 10
15.0059896114
 20
13.5473055309
 30
0.0
 10
15.01317027
 20
13.5461632482
 30
0.0
 10
15.0202685399
 20
13.545458967
 30
0.0
 10
15.0249708955
 20
13.545283295
 30
0.0
 10
15.0272917755
 20
13.5452734665
 30
0.0
  0
SPLINE
  5
351
100
AcDbEntity
  8
LAYER_FEATURE
100
AcDbSpline
 62
7
  6
CONTINUOUS
 70
0
 71
3
 72
14
 73
10
 74
0
 42
0.0000001
 43
0.0000001
 44
0.0000000001
 40
0.0
 40
0.0
 40
0.0
 40
0.0
 40
0.1185130989
 40
0.2396845771
 40
0.3631222235
 40
0.4884467914
 40
0.6152389071
 40
0.7430627709
 40
1.0
 40
1.0
 40
1.0
 40
1.0
 10
15.1042396809
 20
13.6331782402
 30
0.0
 10
15.1038145658
 20
13.633483303
 30
0.0
 10
15.1029391167
 20
13.6340786906
 30
0.0
 10
15.1015717136
 20
13.6349166957
 30
0.0
 10
15.1001412127
 20
13.6357060774
 30
0.0
 10
15.0986551584
 20
13.6364427177
 30
0.0
 10
15.0971211416
 20
13.6371228178
 30
0.0
 10
15.0950193468
 20
13.6379507717
 30
0.0
 10
15.0934006877
 20
13.638474639
 30
0.0
 10
15.0923079246
 20
13.6387791597
 30
0.0
  0
SPLINE
  5
352
100
AcDbEntity
  8
LAYER_FEATURE
100
AcDbSpline
 62
7
  6
CONTINUOUS
 70
0
 71
3
 72
15
 73
11
 74
0
 42
0.0000001
 43
0.0000001
 44
0.0000000001
 40
0.0
 40
0.0
 40
0.0
 40
0.0
 40
0.1384333535
 40
0.2736458744
 40
0.4052402386
 40
0.5329122347
 40
0.6563896325
 40
0.7754658085
 40
0.890025153
 40
1.0
 40
1.0
 40
1.0
 40
1.0
 10
16.0781493235
 20
13.4750354703
 30
0.0
 10
16.077620267
 20
13.4750624813
 30
0.0
 10
16.0765730523
 20
13.4750918649
 30
0.0
 10
16.0750220242
 20
13.4750602432
 30
0.0
 10
16.0735156113
 20
13.4749525564
 30
0.0
 10
16.0720616947
 20
13.4747693919
 30
0.0
 10
16.0706677461
 20
13.4745116321
 30
0.0
 10
16.0693408979
 20
13.4741805901
 30
0.0
 10
16.0680881421
 20
13.4737779208
 30
0.0
 10
16.0672902652
 20
13.4734564718
 30
0.0
 10
16.0669065041
 20
13.4732837405
 30
0.0
  0
SPLINE
  5
353
100
AcDbEntity
  8
LAYER_FEATURE
100
AcDbSpline
 62
7
  6
CONTINUOUS
 70
0
 71
3
 72
23
 73
19
 74
0
 42
0.0000001
 43
0.0000001
 44
0.0000000001
 40
0.0
 40
0.0
 40
0.0
 40
0.0
 40
0.0605424378
 40
0.1227120596
 40
0.1862496934
 40
0.2508722764
 40
0.3162813568
 40
0.3821664881
 40
0.4482104345
 40
0.514093655
 40
0.5794989187
 40
0.6441159146
 40
0.7076459774
 40
0.7698069981
 40
0.8303386046
 40
0.8890077311
 40
0.945614705
 40
1.0
 40
1.0
 40
1.0
 40
1.0
 10
15.1193267162
 20
13.6221693721
 30
0.0
 10
15.1209177289
 20
13.6209888032
 30
0.0
 10
15.1242154469
 20
13.6186928219
 30
0.0
 10
15.1294072257
 20
13.6154948815
 30
0.0
 10
15.134879792
 20
13.6125151143
 30
0.0
 10
15.1405937756
 20
13.6097750128
 30
0.0
 10
15.1465082956
 20
13.6072941433
 30
0.0
 10
15.1525809671
 20
13.6050902961
 30
0.0
 10
15.1587682697
 20
13.6031792607
 30
0.0
 10
15.1650258554
 20
13.6015747366
 30
0.0
 10
15.1713088764
 20
13.6002882232
 30
0.0
 10
15.1775723167
 20
13.5993289399
 30
0.0
 10
15.1837713206
 20
13.5987037613
 30
0.0
 10
15.1898615395
 20
13.5984171762
 30
0.0
 10
15.195799408
 20
13.5984712556
 30
0.0
 10
15.201542659
 20
13.5988657034
 30
0.0
 10
15.2070499482
 20
13.5995977147
 30
0.0
 10
15.2106127405
 20
13.6003226632
 30
0.0
 10
15.2123419109
 20
13.6007437035
 30
0.0
  0
SPLINE
  5
354
100
AcDbEntity
  8
LAYER_FEATURE
100
AcDbSpline
 62
7
  6
CONTINUOUS
 70
0
 71
3
 72
15
 73
11
 74
0
 42
0.0000001
 43
0.0000001
 44
0.0000000001
 40
0.0
 40
0.0
 40
0.0
 40
0.0
 40
0.1426553655
 40
0.2803876856
 40
0.4129872932
 40
0.5403832216
 40
0.6625845949
 40
0.7797198659
 40
0.8920645452
 40
1.0
 40
1.0
 40
1.0
 40
1.0
 10
15.8777784857
 20
13.5719056752
 30
0.0
 10
15.877304156
 20
13.5718420509
 30
0.0
 10
15.8763750631
 20
13.5716912038
 30
0.0
 10
15.8750224345
 20
13.5713873323
 30
0.0
 10
15.8737412258
 20
13.5710111256
 30
0.0
 10
15.8725381281
 20
13.5705645163
 30
0.0
 10
15.8714193298
 20
13.5700496533
 30
0.0
 10
15.8703905621
 20
13.5694690452
 30
0.0
 10
15.8694573921
 20
13.5688255919
 30
0.0
 10
15.8688916391
 20
13.5683478074
 30
0.0
 10
15.8686279323
 20
13.5680996639
 30
0.0
  0
SPLINE
  5
355
100
AcDbEntity
  8
LAYER_FEATURE
100
AcDbSpline
 62
7
  6
CONTINUOUS
 70
0
 71
3
 72
41
 73
37
 74
0
 42
0.0000001
 43
0.0000001
 44
0.0000000001
 40
0.0
 40
0.0
 40
0.0
 40
0.0
 40
0.0112671861
 40
0.0227522079
 40
0.0464497001
 40
0.0587105673
 40
0.0712632086
 40
0.0972798686
 40
0.1245684675
 40
0.1531495814
 40
0.1830088997
 40
0.2141018305
 40
0.2463578105
 40
0.2796841752
 40
0.3139696278
 40
0.349087358
 40
0.3848978793
 40
0.4212516471
 40
0.4579915153
 40
0.4949550758
 40
0.5319769228
 40
0.5688908751
 40
0.605532189
 40
0.6417397887
 40
0.6773585502
 40
0.7122416709
 40
0.7462531691
 40
0.7792705615
 40
0.8111877773
 40
0.8419183761
 40
0.871399128
 40
0.8995940278
 40
0.9264986662
 40
0.952145096
 40
0.9766060842
 40
1.0
 40
1.0
 40
1.0
 40
1.0
 10
15.7192264174
 20
13.6050212722
 30
0.0
 10
15.7192862509
 20
13.6043905836
 30
0.0
 10
15.7194485002
 20
13.6031205596
 30
0.0
 10
15.7199396254
 20
13.6005541554
 30
0.0
 10
15.7206775035
 20
13.5979833523
 30
0.0
 10
15.7216400481
 20
13.5954302748
 30
0.0
 10
15.7227866747
 20
13.5928110247
 30
0.0
 10
15.7245258616
 20
13.5895349468
 30
0.0
 10
15.7270451878
 20
13.585674609
 30
0.0
 10
15.7300044887
 20
13.5818633414
 30
0.0
 10
15.7333838001
 20
13.5781261376
 30
0.0
 10
15.7371607027
 20
13.57448727
 30
0.0
 10
15.7413101413
 20
13.570970606
 30
0.0
 10
15.7458046199
 20
13.567599282
 30
0.0
 10
15.7506143386
 20
13.564395562
 30
0.0
 10
15.7557073847
 20
13.5613806544
 30
0.0
 10
15.7610499398
 20
13.5585745557
 30
0.0
 10
15.7666065049
 20
13.5559959013
 30
0.0
 10
15.7723401394
 20
13.5536618312
 30
0.0
 10
15.7782127112
 20
13.5515878681
 30
0.0
 10
15.7841851556
 20
13.5497878084
 30
0.0
 10
15.7902177414
 20
13.5482736267
 30
0.0
 10
15.7962703412
 20
13.5470553947
 30
0.0
 10
15.8023027061
 20
13.5461412142
 30
0.0
 10
15.8082747407
 20
13.5455371659
 30
0.0
 10
15.814146778
 20
13.5452472733
 30
0.0
 10
15.819879852
 20
13.5452734849
 30
0.0
 10
15.8254359653
 20
13.5456156751
 30
0.0
 10
15.8307783474
 20
13.5462716644
 30
0.0
 10
15.835871702
 20
13.547237266
 30
0.0
 10
15.8406824276
 20
13.548506345
 30
0.0
 10
15.8451788291
 20
13.5500709389
 30
0.0
 10
15.8493311988
 20
13.5519212699
 30
0.0
 10
15.8531121428
 20
13.5540461673
 30
0.0
 10
15.856495688
 20
13.5564320733
 30
0.0
 10
15.8585125683
 20
13.5582242854
 30
0.0
 10
15.8594394938
 20
13.5591575639
 30
0.0
  0
SPLINE
  5
356
100
AcDbEntity
  8
LAYER_FEATURE
100
AcDbSpline
 62
7
  6
CONTINUOUS
 70
0
 71
3
 72
15
 73
11
 74
0
 42
0.0000001
 43
0.0000001
 44
0.0000000001
 40
0.0
 40
0.0
 40
0.0
 40
0.0
 40
0.1081533212
 40
0.220416533
 40
0.337304759
 40
0.459216747
 40
0.5863906978
 40
0.7189310392
 40
0.8568480592
 40
1.0
 40
1.0
 40
1.0
 40
1.0
 10
15.7178247662
 20
13.6174273914
 30
0.0
 10
15.7177790921
 20
13.6177760865
 30
0.0
 10
15.7176456188
 20
13.6184819428
 30
0.0
 10
15.7173306562
 20
13.6195343233
 30
0.0
 10
15.7168994133
 20
13.6205930316
 30
0.0
 10
15.7163544295
 20
13.6216525003
 30
0.0
 10
15.7156986148
 20
13.6227074173
 30
0.0
 10
15.7149354606
 20
13.6237524913
 30
0.0
 10
15.7140689909
 20
13.6247823056
 30
0.0
 10
15.7134368722
 20
13.6254433067
 30
0.0
 10
15.713105515
 20
13.6257702169
 30
0.0
  0
SPLINE
  5
357
100
AcDbEntity
  8
LAYER_FEATURE
100
AcDbSpline
 62
7
  6
CONTINUOUS
 70
0
 71
3
 72
16
 73
12
 74
0
 42
0.0000001
 43
0.0000001
 44
0.0000000001
 40
0.0
 40
0.0
 40
0.0
 40
0.0
 40
0.1424579607
 40
0.2790484544
 40
0.4099855118
 40
0.473478272
 40
0.5357263582
 40
0.6567577179
 40
0.773853448
 40
0.8879286526
 40
1.0
 40
1.0
 40
1.0
 40
1.0
 10
15.6601857539
 20
13.6387791597
 30
0.0
 10
15.6597969697
 20
13.6386300295
 30
0.0
 10
15.6590455552
 20
13.63831031
 30
0.0
 10
15.657982676
 20
13.6377539761
 30
0.0
 10
15.6571664577
 20
13.637231619
 30
0.0
 10
15.6565649194
 20
13.6367827716
 30
0.0
 10
15.6560085691
 20
13.6363232942
 30
0.0
 10
15.6553748725
 20
13.6357130346
 30
0.0
 10
15.6547150194
 20
13.6349199262
 30
0.0
 10
15.654166688
 20
13.6340769801
 30
0.0
 10
15.6538758701
 20
13.6334811175
 30
0.0
 10
15.6537510617
 20
13.6331782402
 30
0.0
  0
SPLINE
  5
358
100
AcDbEntity
  8
LAYER_FEATURE
100
AcDbSpline
 62
7
  6
CONTINUOUS
 70
0
 71
3
 72
45
 73
41
 74
0
 42
0.0000001
 43
0.0000001
 44
0.0000000001
 40
0.0
 40
0.0
 40
0.0
 40
0.0
 40
0.0264396712
 40
0.0401438964
 40
0.0541727043
 40
0.0685272848
 40
0.0832057697
 40
0.1135130743
 40
0.1450496291
 40
0.1777395926
 40
0.2114856575
 40
0.2461724112
 40
0.2816694282
 40
0.3178340713
 40
0.3545140915
 40
0.3915500721
 40
0.4287777658
 40
0.4660303619
 40
0.5031407185
 40
0.5399435898
 40
0.5762778801
 40
0.6119889568
 40
0.6469310586
 40
0.6809698426
 40
0.7139851227
 40
0.7458738583
 40
0.7765534612
 40
0.8059654849
 40
0.8340797381
 40
0.8608988061
 40
0.8864628243
 40
0.9108541293
 40
0.9226532445
 40
0.9342113335
 40
0.9455518916
 40
0.9567011682
 40
0.9676880081
 40
0.9785443823
 40
0.9893041294
 40
1.0
 40
1.0
 40
1.0
 40
1.0
 10
15.5065339966
 20
13.6459101745
 30
0.0
 10
15.5071858806
 20
13.6445847259
 30
0.0
 10
15.5082767356
 20
13.6426203665
 30
0.0
 10
15.5099166008
 20
13.6400761204
 30
0.0
 10
15.5112731759
 20
13.638154739
 30
0.0
 10
15.5127392068
 20
13.6362465706
 30
0.0
 10
15.5148591627
 20
13.633696991
 30
0.0
 10
15.5177743233
 20
13.6305646911
 30
0.0
 10
15.5216284014
 20
13.6269486836
 30
0.0
 10
15.525849792
 20
13.6234594841
 30
0.0
 10
15.5304103509
 20
13.62012023
 30
0.0
 10
15.5352798839
 20
13.6169529401
 30
0.0
 10
15.5404260629
 20
13.6139786034
 30
0.0
 10
15.5458147155
 20
13.6112169496
 30
0.0
 10
15.551410031
 20
13.6086863235
 30
0.0
 10
15.5571748083
 20
13.6064035478
 30
0.0
 10
15.563070706
 20
13.6043838052
 30
0.0
 10
15.5690585035
 20
13.6026405317
 30
0.0
 10
15.5750983678
 20
13.6011853241
 30
0.0
 10
15.5811501249
 20
13.6000278618
 30
0.0
 10
15.5871735346
 20
13.5991758428
 30
0.0
 10
15.5931285657
 20
13.5986349349
 30
0.0
 10
15.5989756707
 20
13.5984087436
 30
0.0
 10
15.6046760577
 20
13.5984987983
 30
0.0
 10
15.6101919563
 20
13.598904556
 30
0.0
 10
15.6154868746
 20
13.5996234285
 30
0.0
 10
15.6205258391
 20
13.6006508272
 30
0.0
 10
15.6252756265
 20
13.6019802483
 30
0.0
 10
15.6297049053
 20
13.603603326
 30
0.0
 10
15.6337845265
 20
13.6055100892
 30
0.0
 10
15.6374870512
 20
13.6076885541
 30
0.0
 10
15.6402685068
 20
13.6097424739
 30
0.0
 10
15.6422702135
 20
13.6115076746
 30
0.0
 10
15.6436459705
 20
13.6128749986
 30
0.0
 10
15.6449101422
 20
13.6142979291
 30
0.0
 10
15.6460606205
 20
13.6157741047
 30
0.0
 10
15.6470953727
 20
13.6173010797
 30
0.0
 10
15.6480126462
 20
13.6188763434
 30
0.0
 10
15.6488106824
 20
13.6204970798
 30
0.0
 10
15.649263284
 20
13.6216082764
 30
0.0
 10
15.6494687621
 20
13.6221693721
 30
0.0
  0
SPLINE
  5
359
100
AcDbEntity
  8
LAYER_FEATURE
100
AcDbSpline
 62
7
  6
CONTINUOUS
 70
0
 71
3
 72
15
 73
11
 74
0
 42
0.0000001
 43
0.0000001
 44
0.0000000001
 40
0.0
 40
0.0
 40
0.0
 40
0.0
 40
0.109222365
 40
0.2231196845
 40
0.3417000402
 40
0.4649118526
 40
0.5926021813
 40
0.7245428487
 40
0.8604653488
 40
1.0
 40
1.0
 40
1.0
 40
1.0
 10
15.5000206413
 20
13.6587121509
 30
0.0
 10
15.4998312178
 20
13.6590724511
 30
0.0
 10
15.4994126284
 20
13.6597921902
 30
0.0
 10
15.4986891091
 20
13.6608414829
 30
0.0
 10
15.49786062
 20
13.6618776418
 30
0.0
 10
15.4969315987
 20
13.6628952843
 30
0.0
 10
15.4959068042
 20
13.6638892281
 30
0.0
 10
15.4947915389
 20
13.6648544263
 30
0.0
 10
15.4935916231
 20
13.6657858185
 30
0.0
 10
15.4927495836
 20
13.6663739269
 30
0.0
 10
15.4923163008
 20
13.6666614982
 30
0.0
  0
SPLINE
  5
35A
100
AcDbEntity
  8
LAYER_FEATURE
100
AcDbSpline
 62
7
  6
CONTINUOUS
 70
0
 71
3
 72
14
 73
10
 74
0
 42
0.0000001
 43
0.0000001
 44
0.0000000001
 40
0.0
 40
0.0
 40
0.0
 40
0.0
 40
0.2630570612
 40
0.3903635576
 40
0.5152778793
 40
0.6382291664
 40
0.7596747661
 40
0.8800968689
 40
1.0
 40
1.0
 40
1.0
 40
1.0
 10
15.4401997133
 20
13.6710986063
 30
0.0
 10
15.4398457899
 20
13.6708132526
 30
0.0
 10
15.4393458468
 20
13.6703562881
 30
0.0
 10
15.4387552887
 20
13.66968898
 30
0.0
 10
15.4383615511
 20
13.6691730347
 30
0.0
 10
15.4380132733
 20
13.6686374394
 30
0.0
 10
15.4377111387
 20
13.6680832976
 30
0.0
 10
15.4374559043
 20
13.6675118447
 30
0.0
 10
15.437317239
 20
13.6671197718
 30
0.0
 10
15.4372560538
 20
13.6669217872
 30
0.0
  0
SPLINE
  5
35B
100
AcDbEntity
  8
LAYER_FEATURE
100
AcDbSpline
 62
7
  6
CONTINUOUS
 70
0
 71
3
 72
38
 73
34
 74
0
 42
0.0000001
 43
0.0000001
 44
0.0000000001
 40
0.0
 40
0.0
 40
0.0
 40
0.0
 40
0.028382378
 40
0.0576248752
 40
0.0876873704
 40
0.1185257679
 40
0.1500856643
 40
0.1823067236
 40
0.2151225388
 40
0.248461635
 40
0.2822482847
 40
0.3164031908
 40
0.3508441936
 40
0.3854869557
 40
0.4202456406
 40
0.4550335543
 40
0.4897637788
 40
0.5243498182
 40
0.5587062588
 40
0.5927494174
 40
0.6263979975
 40
0.6595737699
 40
0.6922023122
 40
0.7242137566
 40
0.7555435602
 40
0.7861333376
 40
0.815931767
 40
0.8448956101
 40
0.8729907518
 40
0.9001933341
 40
0.9264909976
 40
0.9518842276
 40
1.0
 40
1.0
 40
1.0
 40
1.0
 10
15.3019193802
 20
13.651759072
 30
0.0
 10
15.3027610901
 20
13.6508121918
 30
0.0
 10
15.3045231015
 20
13.6489363411
 30
0.0
 10
15.3073453799
 20
13.6462221695
 30
0.0
 10
15.3103771506
 20
13.6435743661
 30
0.0
 10
15.3136069879
 20
13.641002803
 30
0.0
 10
15.317023042
 20
13.6385169332
 30
0.0
 10
15.3206126292
 20
13.6361259574
 30
0.0
 10
15.3243624601
 20
13.6338387124
 30
0.0
 10
15.3282586398
 20
13.6316636656
 30
0.0
 10
15.3322867296
 20
13.6296088735
 30
0.0
 10
15.3364318007
 20
13.6276819558
 30
0.0
 10
15.3406784845
 20
13.625890058
 30
0.0
 10
15.34501103
 20
13.6242398194
 30
0.0
 10
15.3494133689
 20
13.6227373594
 30
0.0
 10
15.3538691736
 20
13.6213882514
 30
0.0
 10
15.3583619187
 20
13.6201975045
 30
0.0
 10
15.36287494
 20
13.6191695348
 30
0.0
 10
15.3673914995
 20
13.6183081495
 30
0.0
 10
15.3718948498
 20
13.6176165423
 30
0.0
 10
15.3763682956
 20
13.6170972793
 30
0.0
 10
15.3807952566
 20
13.6167522936
 30
0.0
 10
15.38515933
 20
13.6165828642
 30
0.0
 10
15.3894443541
 20
13.6165896206
 30
0.0
 10
15.3936344684
 20
13.6167725481
 30
0.0
 10
15.3977141705
 20
13.6171309879
 30
0.0
 10
15.4016683792
 20
13.6176636483
 30
0.0
 10
15.4054824755
 20
13.618368587
 30
0.0
 10
15.4091424208
 20
13.6192432724
 30
0.0
 10
15.4126345643
 20
13.6202844769
 30
0.0
 10
15.4159465345
 20
13.6214887374
 30
0.0
 10
15.4200304315
 20
13.6232729084
 30
0.0
 10
15.4229046866
 20
13.6248870411
 30
0.0
 10
15.4246864227
 20
13.6260863126
 30
0.0
  0
SPLINE
  5
35C
100
AcDbEntity
  8
LAYER_FEATURE
100
AcDbSpline
 62
7
  6
CONTINUOUS
 70
0
 71
3
 72
15
 73
11
 74
0
 42
0.0000001
 43
0.0000001
 44
0.0000000001
 40
0.0
 40
0.0
 40
0.0
 40
0.0
 40
0.1133787046
 40
0.230679269
 40
0.3516416159
 40
0.4759908298
 40
0.6033890534
 40
0.7334592546
 40
0.8658151042
 40
1.0
 40
1.0
 40
1.0
 40
1.0
 10
15.2907381953
 20
13.6640844721
 30
0.0
 10
15.2904191352
 20
13.664429208
 30
0.0
 10
15.2897475248
 20
13.6651101069
 30
0.0
 10
15.2886653925
 20
13.6660865723
 30
0.0
 10
15.2874962958
 20
13.6670311607
 30
0.0
 10
15.2862464045
 20
13.6679389538
 30
0.0
 10
15.2849221343
 20
13.6688052649
 30
0.0
 10
15.2835303287
 20
13.6696256631
 30
0.0
 10
15.2820782657
 20
13.6703958181
 30
0.0
 10
15.2810807458
 20
13.6708704343
 30
0.0
 10
15.2805738036
 20
13.6710986063
 30
0.0
  0
ENDSEC
  0
SECTION
  2
OBJECTS
  0
DICTIONARY
  5
C
100
AcDbDictionary
280
0
281
1
  3
ACAD_GROUP
350
D
  3
ACAD_MLINESTYLE
350
17
  3
ACAD_LAYOUT
350
1A
  3
ACAD_PLOTSETTINGS
350
19
  3
ACAD_PLOTSTYLENAME
350
E
  0
DICTIONARY
  5
D
102
{ACAD_REACTORS
330
C
102
}
100
AcDbDictionary
280
0
281
1
  0
ACDBDICTIONARYWDFLT
  5
E
102
{ACAD_REACTORS
330
C
102
}
100
AcDbDictionary
281
1
  3
Normal
350
F
100
AcDbDictionaryWithDefault
340
F
  0
DICTIONARY
  5
17
102
{ACAD_REACTORS
330
C
102
}
100
AcDbDictionary
280
0
281
1
  3
Standard
350
18
  0
DICTIONARY
  5
19
102
{ACAD_REACTORS
330
C
102
}
100
AcDbDictionary
281
1
  0
DICTIONARY
  5
1A
102
{ACAD_REACTORS
330
C
102
}
100
AcDbDictionary
281
1
  3
Model
350
35D
  3
Layout1
350
35E
  0
ACDBPLACEHOLDER
  5
F
102
{ACAD_REACTORS
330
E
102
}
  0
MLINESTYLE
  5
18
102
{ACAD_REACTORS
330
17
102
}
100
AcDbMlineStyle
  2
STANDARD
 70
0
  3

 62
256
 51
90.0
 52
90.0
 71
2
 49
0.5
 62
256
  6
BYLAYER
 49
-0.5
 62
256
  6
BYLAYER
  0
LAYOUT
  5
35D
102
{ACAD_REACTORS
330
1A
102
}
100
AcDbPlotSettings
  1

  2
none_device
  4
ANSI_C_(22.00_x_17.00_Inches)
  6

 40
0.0
 41
0.0
 42
0.0
 43
0.0
 44
558.8
 45
431.8
 46
0.0
 47
0.0
 48
0.0
 49
0.0
140
0.0
141
0.0
142
1.0
143
1.0
 70
1024
 72
0
 73
0
 74
0
  7

 75
0
147
1.0
148
0.0
149
0.0
100
AcDbLayout
  1
Model
 70
0
 71
0
 10
0.0
 20
0.0
 11
22.0
 21
17.0
 12
0.0
 22
0.0
 32
0.0
 14
0.0
 24
0.0
 34
0.0
 15
0.0
 25
0.0
 35
0.0
146
0.0
 13
0.0
 23
0.0
 33
0.0
 16
1.0
 26
0.0
 36
0.0
 17
0.0
 27
1.0
 37
0.0
 76
0
330
222
345
0
346
0
  0
LAYOUT
  5
35E
102
{ACAD_REACTORS
330
1A
102
}
100
AcDbPlotSettings
  1

  2
none_device
  4
ANSI_C_(22.00_x_17.00_Inches)
  6

 40
0.0
 41
0.0
 42
0.0
 43
0.0
 44
558.8
 45
431.8
 46
0.0
 47
0.0
 48
0.0
 49
0.0
140
0.0
141
0.0
142
1.0
143
1.0
 70
0
 72
0
 73
0
 74
0
  7

 75
0
147
1.0
148
0.0
149
0.0
100
AcDbLayout
  1
Layout1
 70
0
 71
1
 10
0.0
 20
0.0
 11
22.0
 21
17.0
 12
0.0
 22
0.0
 32
0.0
 14
0.0
 24
0.0
 34
0.0
 15
0.0
 25
0.0
 35
0.0
146
0.0
 13
0.0
 23
0.0
 33
0.0
 16
1.0
 26
0.0
 36
0.0
 17
0.0
 27
1.0
 37
0.0
 76
0
330
223
345
0
346
0
  0
ENDSEC
  0
EOF