999
DXF file: _cgs_temp_output.dxf
999
Pro/ENGINEER 2016360 by Parametric Technology Corporation
  0
SECTION
  2
HEADER
  9
$ACADVER
  1
AC1021
  9
$DWGCODEPAGE
  3
ANSI_1252
  9
$EXTMAX
 10
22.0
 20
17.0
 30
0.0
  9
$EXTMIN
 10
0.0
 20
0.0
 30
0.0
  9
$LIMMIN
 10
0.0
 20
0.0
  9
$LIMMAX
 10
22.0
 20
17.0
  9
$VIEWCTR
 10
11.0
 20
8.5
  9
$VIEWSIZE
 40
17.0
  9
$CLAYER
  8
0
  9
$LTSCALE
 40
1.21
  9
$CELTYPE
  6
BYLAYER
  9
$DIMSCALE
 40
1.0
  9
$DIMASZ
 40
0.1875
  9
$DIMEXO
 40
0.0625
  9
$DIMDLI
 40
0.836
  9
$DIMEXE
 40
0.125
  9
$DIMCEN
 40
0.198
  9
$DIMLFAC
 40
1.0
  9
$DIMBLK
  1
_CLOSED
  9
$DIMALT
 70
0
  9
$DIMALTF
 40
25.4
  9
$DIMTXT
 40
0.15625
  9
$DIMTOL
 70
0
  9
$DIMLIM
 70
0
  9
$DIMTFAC
 40
1.0
  9
$DIMGAP
 40
0.09
  9
$DIMDSEP
 70
46
  9
$AUNITS
 70
0
  9
$PDMODE
 70
3
  9
$PDSIZE
 40
0.3125
  9
$HANDSEED
  5
325
  9
$TILEMODE
 70
1
  9
$MEASUREMENT
 70
0
  9
$INSUNITS
 70
1
  0
ENDSEC
  0
SECTION
  2
CLASSES
  0
CLASS
  1
ACDBDICTIONARYWDFLT
  2
AcDbDictionaryWithDefault
  3
AutoCAD 2000
 90
0
 91
1
280
0
281
0
  0
CLASS
  1
ACDBPLACEHOLDER
  2
AcDbPlaceHolder
  3
AutoCAD 2000
 90
0
 91
1
280
0
281
0
  0
CLASS
  1
LAYOUT
  2
AcDbLayout
  3
AutoCAD 2000
 90
0
 91
0
280
0
281
0
  0
ENDSEC
  0
SECTION
  2
TABLES
  0
TABLE
  2
VPORT
  5
8
100
AcDbSymbolTable
 70
2
  0
VPORT
  5
1F4
100
AcDbSymbolTableRecord
100
AcDbViewportTableRecord
  2
*ACTIVE
 70
0
 10
0.0
 20
0.0
 11
1.0
 21
1.0
 12
11.0
 22
8.5
 13
0.0
 23
0.0
 14
1.0
 24
1.0
 15
0.0
 25
0.0
 16
0.0
 26
0.0
 36
1.0
 17
0.0
 27
0.0
 37
0.0
 40
17.0
 41
1.2941176471
 42
50.0
 43
0.0
 44
0.0
 50
0.0
 51
0.0
 71
0
 72
100
 73
1
 74
1
 75
0
 76
0
 77
0
 78
0
  0
ENDTAB
  0
TABLE
  2
LTYPE
  5
5
100
AcDbSymbolTable
 70
6
  0
LTYPE
  5
14
100
AcDbSymbolTableRecord
100
AcDbLinetypeTableRecord
  2
BYBLOCK
 70
0
  3

 72
65
 73
0
 40
0.0
  0
LTYPE
  5
15
100
AcDbSymbolTableRecord
100
AcDbLinetypeTableRecord
  2
BYLAYER
 70
0
  3

 72
65
 73
0
 40
0.0
  0
LTYPE
  5
16
100
AcDbSymbolTableRecord
100
AcDbLinetypeTableRecord
  2
CONTINUOUS
 70
64
  3
Solid line
 72
65
 73
0
 40
0.0
  0
LTYPE
  5
1F5
100
AcDbSymbolTableRecord
100
AcDbLinetypeTableRecord
  2
CENTER
 70
64
  3
____ _ ____ _ ____ _ ____ _ ____ _ ____ _ ____
 72
65
 73
4
 40
0.6
 49
0.375
 74
0
 49
-0.075
 74
0
 49
0.075
 74
0
 49
-0.075
 74
0
  0
LTYPE
  5
1F6
100
AcDbSymbolTableRecord
100
AcDbLinetypeTableRecord
  2
HIDDEN
 70
64
  3
- - - - - - - - - - - - - - - - - - - -
 72
65
 73
2
 40
0.2
 49
0.1
 74
0
 49
-0.1
 74
0
  0
LTYPE
  5
1F7
100
AcDbSymbolTableRecord
100
AcDbLinetypeTableRecord
  2
PHANTOM
 70
64
  3
_____ _ _ _____ _ _ _____ _ _ _____
 72
65
 73
6
 40
0.8
 49
0.45
 74
0
 49
-0.05
 74
0
 49
0.1
 74
0
 49
-0.05
 74
0
 49
0.1
 74
0
 49
-0.05
 74
0
  0
LTYPE
  5
1F8
100
AcDbSymbolTableRecord
100
AcDbLinetypeTableRecord
  2
DOT
 70
64
  3
. . . . . . . . . . . . . . . . . . . .
 72
65
 73
2
 40
0.2
 49
0.1
 74
0
 49
-0.1
 74
0
  0
LTYPE
  5
1F9
100
AcDbSymbolTableRecord
100
AcDbLinetypeTableRecord
  2
DASHED
 70
64
  3
- - - - - - - - - - - - - - - - - - - -
 72
65
 73
2
 40
0.2
 49
0.1
 74
0
 49
-0.1
 74
0
  0
ENDTAB
  0
TABLE
  2
LAYER
  5
2
100
AcDbSymbolTable
 70
36
  0
LAYER
  5
10
100
AcDbSymbolTableRecord
100
AcDbLayerTableRecord
  2
0
 70
0
 62
7
  6
CONTINUOUS
370
-3
390
F
  0
LAYER
  5
1FA
100
AcDbSymbolTableRecord
100
AcDbLayerTableRecord
  2
DEFAULT_1
 70
0
 62
7
  6
CENTER
370
-3
390
F
  0
LAYER
  5
1FB
100
AcDbSymbolTableRecord
100
AcDbLayerTableRecord
  2
DEFAULT_2
 70
0
 62
8
  6
HIDDEN
370
-3
390
F
  0
LAYER
  5
1FC
100
AcDbSymbolTableRecord
100
AcDbLayerTableRecord
  2
DEFAULT_3
 70
0
 62
7
  6
PHANTOM
370
-3
390
F
  0
LAYER
  5
1FD
100
AcDbSymbolTableRecord
100
AcDbLayerTableRecord
  2
01_ALL_DTM_PLN
 70
0
 62
7
  6
CONTINUOUS
370
-3
390
F
  0
LAYER
  5
1FE
100
AcDbSymbolTableRecord
100
AcDbLayerTableRecord
  2
01__ASM_ALL_DTM_PLN
 70
0
 62
7
  6
CONTINUOUS
370
-3
390
F
  0
LAYER
  5
1FF
100
AcDbSymbolTableRecord
100
AcDbLayerTableRecord
  2
01__ASM_DEF_DTM_PLN
 70
0
 62
7
  6
CONTINUOUS
370
-3
390
F
  0
LAYER
  5
200
100
AcDbSymbolTableRecord
100
AcDbLayerTableRecord
  2
01___PRT_ALL_DTM_PLN
 70
0
 62
7
  6
CONTINUOUS
370
-3
390
F
  0
LAYER
  5
201
100
AcDbSymbolTableRecord
100
AcDbLayerTableRecord
  2
01___PRT_DEF_DTM_PLN
 70
0
 62
7
  6
CONTINUOUS
370
-3
390
F
  0
LAYER
  5
202
100
AcDbSymbolTableRecord
100
AcDbLayerTableRecord
  2
02_ALL_AXES
 70
0
 62
7
  6
CONTINUOUS
370
-3
390
F
  0
LAYER
  5
203
100
AcDbSymbolTableRecord
100
AcDbLayerTableRecord
  2
02__ASM_ALL_AXES
 70
0
 62
7
  6
CONTINUOUS
370
-3
390
F
  0
LAYER
  5
204
100
AcDbSymbolTableRecord
100
AcDbLayerTableRecord
  2
02___PRT_ALL_AXES
 70
0
 62
7
  6
CONTINUOUS
370
-3
390
F
  0
LAYER
  5
205
100
AcDbSymbolTableRecord
100
AcDbLayerTableRecord
  2
03_ALL_CURVES
 70
0
 62
7
  6
CONTINUOUS
370
-3
390
F
  0
LAYER
  5
206
100
AcDbSymbolTableRecord
100
AcDbLayerTableRecord
  2
03__ASM_ALL_CURVES
 70
0
 62
7
  6
CONTINUOUS
370
-3
390
F
  0
LAYER
  5
207
100
AcDbSymbolTableRecord
100
AcDbLayerTableRecord
  2
03___PRT_ALL_CURVES
 70
0
 62
7
  6
CONTINUOUS
370
-3
390
F
  0
LAYER
  5
208
100
AcDbSymbolTableRecord
100
AcDbLayerTableRecord
  2
04_ALL_DTM_PNT
 70
0
 62
7
  6
CONTINUOUS
370
-3
390
F
  0
LAYER
  5
209
100
AcDbSymbolTableRecord
100
AcDbLayerTableRecord
  2
04__ASM_ALL_DTM_PNT
 70
0
 62
7
  6
CONTINUOUS
370
-3
390
F
  0
LAYER
  5
20A
100
AcDbSymbolTableRecord
100
AcDbLayerTableRecord
  2
04___PRT_ALL_DTM_PNT
 70
0
 62
7
  6
CONTINUOUS
370
-3
390
F
  0
LAYER
  5
20B
100
AcDbSymbolTableRecord
100
AcDbLayerTableRecord
  2
05_ALL_DTM_CSYS
 70
0
 62
7
  6
CONTINUOUS
370
-3
390
F
  0
LAYER
  5
20C
100
AcDbSymbolTableRecord
100
AcDbLayerTableRecord
  2
05__ASM_ALL_DTM_CSYS
 70
0
 62
7
  6
CONTINUOUS
370
-3
390
F
  0
LAYER
  5
20D
100
AcDbSymbolTableRecord
100
AcDbLayerTableRecord
  2
05__ASM_DEF_DTM_CSYS
 70
0
 62
7
  6
CONTINUOUS
370
-3
390
F
  0
LAYER
  5
20E
100
AcDbSymbolTableRecord
100
AcDbLayerTableRecord
  2
05___PRT_ALL_DTM_CSYS
 70
0
 62
7
  6
CONTINUOUS
370
-3
390
F
  0
LAYER
  5
20F
100
AcDbSymbolTableRecord
100
AcDbLayerTableRecord
  2
05___PRT_DEF_DTM_CSYS
 70
0
 62
7
  6
CONTINUOUS
370
-3
390
F
  0
LAYER
  5
210
100
AcDbSymbolTableRecord
100
AcDbLayerTableRecord
  2
06_ALL_SURFS
 70
0
 62
7
  6
CONTINUOUS
370
-3
390
F
  0
LAYER
  5
211
100
AcDbSymbolTableRecord
100
AcDbLayerTableRecord
  2
06__ASM_ALL_SURFS
 70
0
 62
7
  6
CONTINUOUS
370
-3
390
F
  0
LAYER
  5
212
100
AcDbSymbolTableRecord
100
AcDbLayerTableRecord
  2
06___PRT_ALL_SURFS
 70
0
 62
7
  6
CONTINUOUS
370
-3
390
F
  0
LAYER
  5
213
100
AcDbSymbolTableRecord
100
AcDbLayerTableRecord
  2
07__ASM_ALL_SKELETONS
 70
0
 62
7
  6
CONTINUOUS
370
-3
390
F
  0
LAYER
  5
214
100
AcDbSymbolTableRecord
100
AcDbLayerTableRecord
  2
XSEC_DATUMS
 70
0
 62
7
  6
CONTINUOUS
370
-3
390
F
  0
ENDTAB
  0
TABLE
  2
STYLE
  5
3
100
AcDbSymbolTable
 70
1
  0
STYLE
  5
11
100
AcDbSymbolTableRecord
100
AcDbTextStyleTableRecord
  2
STANDARD
 70
0
 40
0.0
 41
0.8
 50
0.0
 71
0
 42
0.2
  3
txt
  4

  0
STYLE
  5
215
100
AcDbSymbolTableRecord
100
AcDbTextStyleTableRecord
  2
TEXTSTYLE_1
 70
0
 40
0.0
 41
0.8
 50
0.0
 71
0
 42
0.2
  3
gdt
  4

  0
ENDTAB
  0
TABLE
  2
VIEW
  5
6
100
AcDbSymbolTable
 70
0
  0
ENDTAB
  0
TABLE
  2
UCS
  5
7
100
AcDbSymbolTable
 70
0
  0
ENDTAB
  0
TABLE
  2
APPID
  5
9
100
AcDbSymbolTable
 70
1
  0
APPID
  5
216
100
AcDbSymbolTableRecord
100
AcDbRegAppTableRecord
  2
ACAD
 70
0
  0
ENDTAB
  0
TABLE
  2
BLOCK_RECORD
  5
1
100
AcDbSymbolTable
 70
0
  0
BLOCK_RECORD
  5
217
100
AcDbSymbolTableRecord
100
AcDbBlockTableRecord
  2
*Model_Space
  0
BLOCK_RECORD
  5
218
100
AcDbSymbolTableRecord
100
AcDbBlockTableRecord
  2
*Paper_Space
  0
ENDTAB
  0
TABLE
  2
DIMSTYLE
  5
A
100
AcDbSymbolTable
 70
1
100
AcDbDimStyleTable
 71
0
  0
DIMSTYLE
105
219
100
AcDbSymbolTableRecord
100
AcDbDimStyleTableRecord
  2
STANDARD
 70
0
  3

  4

 40
1.0
 41
0.1875
 42
0.0625
 43
0.38
 44
0.125
 45
0.0
 46
0.0
 47
0.0001
 48
0.0001
140
0.15625
141
0.09
142
0.0
143
25.4
144
1.0
145
0.0
146
1.0
147
0.09
 71
0.0
 72
0.0
 73
1
 74
1
 75
0
 76
0
 77
0
 78
4
 79
1
170
0
171
3
172
0
173
0
174
0
175
0
176
0
177
0
178
0
270
2
179
4
271
4
272
4
273
2
274
2
275
0
280
0
281
0
282
0
283
1
284
4
285
0
286
0
287
3
288
0
340
11
278
46
  0
ENDTAB
  0
ENDSEC
  0
SECTION
  2
BLOCKS
  0
BLOCK
  5
20
100
AcDbEntity
  8
0
100
AcDbBlockBegin
  2
*Model_Space
 70
0
 10
0.0
 20
0.0
 30
0.0
  3
*Model_Space
  1

  0
ENDBLK
  5
21
100
AcDbEntity
  8
0
100
AcDbBlockEnd
  0
BLOCK
  5
1C
100
AcDbEntity
  8
0
100
AcDbBlockBegin
  2
*Paper_Space
 70
0
 10
0.0
 20
0.0
 30
0.0
  3
*Paper_Space
  1

  0
ENDBLK
  5
1D
100
AcDbEntity
  8
0
100
AcDbBlockEnd
  0
ENDSEC
  0
SECTION
  2
ENTITIES
  0
MTEXT
  5
21A
100
AcDbEntity
  8
0
100
AcDbMText
 62
7
  6
CONTINUOUS
  7
STANDARD
 71
1
 72
1
 10
15.9560215477
 20
0.9479130325
 30
0.0
 11
1.0
 21
0.0
 31
0.0
 44
0.9
  1
SCALE: 1:2.000
 40
0.3
 41
3.36
  0
LINE
  5
21B
100
AcDbEntity
  8
0
100
AcDbLine
 62
7
  6
CONTINUOUS
 10
0.0
 20
0.0
 11
0.0
 21
17.0
  0
LINE
  5
21C
100
AcDbEntity
  8
0
100
AcDbLine
 62
7
  6
CONTINUOUS
 10
0.0
 20
0.0
 11
22.0
 21
0.0
  0
LINE
  5
21D
100
AcDbEntity
  8
0
100
AcDbLine
 62
7
  6
CONTINUOUS
 10
0.0
 20
17.0
 11
22.0
 21
17.0
  0
LINE
  5
21E
100
AcDbEntity
  8
0
100
AcDbLine
 62
7
  6
CONTINUOUS
 10
22.0
 20
0.0
 11
22.0
 21
17.0
  0
LINE
  5
21F
100
AcDbEntity
  8
02___PRT_ALL_AXES
100
AcDbLine
 62
7
  6
CONTINUOUS
 10
5.1432212186
 20
6.4651198968
 11
5.0667168381
 21
6.4417301604
  0
LINE
  5
220
100
AcDbEntity
  8
02___PRT_ALL_AXES
100
AcDbLine
 62
7
  6
CONTINUOUS
 10
5.1432212186
 20
4.5751198968
 11
5.0667168381
 21
4.5985096331
  0
LINE
  5
221
100
AcDbEntity
  8
02___PRT_ALL_AXES
100
AcDbLine
 62
7
  6
CONTINUOUS
 10
5.0667168381
 20
6.4417301604
 11
5.0667168381
 21
4.5985096331
  0
LINE
  5
222
100
AcDbEntity
  8
02___PRT_ALL_AXES
100
AcDbLine
 62
7
  6
CONTINUOUS
 10
5.1432212186
 20
6.4651198968
 11
5.1432212186
 21
4.5751198968
  0
LINE
  5
223
100
AcDbEntity
  8
02___PRT_ALL_AXES
100
AcDbLine
 62
7
  6
CONTINUOUS
 10
5.1860177142
 20
6.325138867
 11
5.1860177142
 21
4.7151009265
  0
LINE
  5
224
100
AcDbEntity
  8
02___PRT_ALL_AXES
100
AcDbLine
 62
7
  6
CONTINUOUS
 10
5.1860177142
 20
4.7221198968
 11
6.4580177142
 21
4.7221198968
  0
LINE
  5
225
100
AcDbEntity
  8
0
100
AcDbLine
 62
7
  6
CONTINUOUS
 10
5.1860177142
 20
4.7487766046
 11
6.4580177142
 21
4.7487766046
  0
LINE
  5
226
100
AcDbEntity
  8
02___PRT_ALL_AXES
100
AcDbLine
 62
7
  6
CONTINUOUS
 10
5.1860177142
 20
4.7151009265
 11
5.1432212186
 21
4.5751198968
  0
LINE
  5
227
100
AcDbEntity
  8
0
100
AcDbLine
 62
7
  6
CONTINUOUS
 10
5.1860177142
 20
4.8353173881
 11
6.4580177142
 21
4.8353173881
  0
LINE
  5
228
100
AcDbEntity
  8
02___PRT_ALL_AXES
100
AcDbLine
 62
7
  6
CONTINUOUS
 10
5.1860177142
 20
6.325138867
 11
5.1432212186
 21
6.4651198968
  0
LINE
  5
229
100
AcDbEntity
  8
0
100
AcDbLine
 62
7
  6
CONTINUOUS
 10
7.1740177142
 20
4.9581198968
 11
6.5773185903
 21
4.9581198968
  0
LINE
  5
22A
100
AcDbEntity
  8
0
100
AcDbLine
 62
7
  6
CONTINUOUS
 10
5.1860177142
 20
4.9749063765
 11
6.4580177142
 21
4.9749063765
  0
LINE
  5
22B
100
AcDbEntity
  8
0
100
AcDbLine
 62
7
  6
CONTINUOUS
 10
5.1860177142
 20
5.1562349002
 11
6.4580177142
 21
5.1562349002
  0
LINE
  5
22C
100
AcDbEntity
  8
02___PRT_ALL_AXES
100
AcDbLine
 62
7
  6
CONTINUOUS
 10
6.4580177142
 20
6.325138867
 11
6.5008142098
 21
6.4651198968
  0
LINE
  5
22D
100
AcDbEntity
  8
02___PRT_ALL_AXES
100
AcDbLine
 62
7
  6
CONTINUOUS
 10
6.4580177142
 20
4.7151009265
 11
6.5008142098
 21
4.5751198968
  0
LINE
  5
22E
100
AcDbEntity
  8
02___PRT_ALL_AXES
100
AcDbLine
 62
7
  6
CONTINUOUS
 10
6.4580177142
 20
4.7151009265
 11
6.4580177142
 21
6.325138867
  0
LINE
  5
22F
100
AcDbEntity
  8
02___PRT_ALL_AXES
100
AcDbLine
 62
7
  6
CONTINUOUS
 10
6.5008142098
 20
4.5751198968
 11
6.5008142098
 21
6.4651198968
  0
LINE
  5
230
100
AcDbEntity
  8
0
100
AcDbLine
 62
7
  6
CONTINUOUS
 10
6.4580177142
 20
5.8840048933
 11
5.1860177142
 21
5.8840048933
  0
LINE
  5
231
100
AcDbEntity
  8
02___PRT_ALL_AXES
100
AcDbLine
 62
7
  6
CONTINUOUS
 10
6.5773185903
 20
4.5985096331
 11
6.5773185903
 21
6.4417301604
  0
LINE
  5
232
100
AcDbEntity
  8
0
100
AcDbLine
 62
7
  6
CONTINUOUS
 10
6.4580177142
 20
6.065333417
 11
5.1860177142
 21
6.065333417
  0
LINE
  5
233
100
AcDbEntity
  8
02___PRT_ALL_AXES
100
AcDbLine
 62
7
  6
CONTINUOUS
 10
7.1740177142
 20
6.0821198968
 11
6.9770177142
 21
6.0821198968
  0
LINE
  5
234
100
AcDbEntity
  8
02___PRT_ALL_AXES
100
AcDbLine
 62
7
  6
CONTINUOUS
 10
6.7990177142
 20
6.0821198968
 11
6.5773185903
 21
6.0821198968
  0
LINE
  5
235
100
AcDbEntity
  8
0
100
AcDbLine
 62
7
  6
CONTINUOUS
 10
6.4580177142
 20
6.2049224054
 11
5.1860177142
 21
6.2049224054
  0
LINE
  5
236
100
AcDbEntity
  8
0
100
AcDbLine
 62
7
  6
CONTINUOUS
 10
6.4580177142
 20
6.2914631889
 11
5.1860177142
 21
6.2914631889
  0
LINE
  5
237
100
AcDbEntity
  8
02___PRT_ALL_AXES
100
AcDbLine
 62
7
  6
CONTINUOUS
 10
5.1860177142
 20
6.3181198968
 11
6.4580177142
 21
6.3181198968
  0
LINE
  5
238
100
AcDbEntity
  8
0
100
AcDbLine
 62
7
  6
CONTINUOUS
 10
7.1740177142
 20
4.9581198968
 11
7.1740177142
 21
6.0821198968
  0
LINE
  5
239
100
AcDbEntity
  8
02___PRT_ALL_AXES
100
AcDbLine
 62
7
  6
CONTINUOUS
 10
6.5008142098
 20
4.5751198968
 11
6.5773185903
 21
4.5985096331
  0
LINE
  5
23A
100
AcDbEntity
  8
02___PRT_ALL_AXES
100
AcDbLine
 62
7
  6
CONTINUOUS
 10
6.5008142098
 20
6.4651198968
 11
6.5773185903
 21
6.4417301604
  0
LINE
  5
23B
100
AcDbEntity
  8
0
100
AcDbLine
 62
7
  6
CONTINUOUS
 10
7.1940177142
 20
4.9781198968
 11
7.1940177142
 21
6.0621198968
  0
LINE
  5
23C
100
AcDbEntity
  8
0
100
AcDbLine
 62
7
  6
CONTINUOUS
 10
7.1740177142
 20
4.9581198968
 11
7.1940177142
 21
4.9781198968
  0
LINE
  5
23D
100
AcDbEntity
  8
0
100
AcDbLine
 62
7
  6
CONTINUOUS
 10
7.1740177142
 20
6.0821198967
 11
7.1940177142
 21
6.0621198967
  0
LINE
  5
23E
100
AcDbEntity
  8
02___PRT_ALL_AXES
100
AcDbLine
 62
7
  6
CONTINUOUS
 10
5.0072216458
 20
13.521658045
 11
5.0837260263
 21
13.5450477814
  0
LINE
  5
23F
100
AcDbEntity
  8
02___PRT_ALL_AXES
100
AcDbLine
 62
7
  6
CONTINUOUS
 10
5.0072216458
 20
11.6784375177
 11
5.0837260263
 21
11.6550477814
  0
LINE
  5
240
100
AcDbEntity
  8
02___PRT_ALL_AXES
100
AcDbLine
 62
7
  6
CONTINUOUS
 10
5.0072216458
 20
11.6784375177
 11
5.0072216458
 21
13.521658045
  0
LINE
  5
241
100
AcDbEntity
  8
02___PRT_ALL_AXES
100
AcDbLine
 62
7
  6
CONTINUOUS
 10
5.0837260263
 20
11.6550477814
 11
5.0837260263
 21
13.5450477814
  0
LINE
  5
242
100
AcDbEntity
  8
02___PRT_ALL_AXES
100
AcDbLine
 62
7
  6
CONTINUOUS
 10
5.1265225219
 20
11.7950303597
 11
5.1265225219
 21
13.405065203
  0
LINE
  5
243
100
AcDbEntity
  8
0
100
AcDbLine
 62
7
  6
CONTINUOUS
 10
5.1265225219
 20
11.8077041509
 11
6.3985225219
 21
11.8077041509
  0
LINE
  5
244
100
AcDbEntity
  8
02___PRT_ALL_AXES
100
AcDbLine
 62
7
  6
CONTINUOUS
 10
5.0837260263
 20
11.6550477814
 11
5.1265225219
 21
11.7950288111
  0
LINE
  5
245
100
AcDbEntity
  8
0
100
AcDbLine
 62
7
  6
CONTINUOUS
 10
5.1265225219
 20
11.8647964392
 11
6.3985225219
 21
11.8647964392
  0
LINE
  5
246
100
AcDbEntity
  8
02___PRT_ALL_AXES
100
AcDbLine
 62
7
  6
CONTINUOUS
 10
5.0837260263
 20
13.5450477814
 11
5.1265225219
 21
13.4050667516
  0
LINE
  5
247
100
AcDbEntity
  8
0
100
AcDbLine
 62
7
  6
CONTINUOUS
 10
5.1265225219
 20
11.979023997
 11
6.3985225219
 21
11.979023997
  0
LINE
  5
248
100
AcDbEntity
  8
02___PRT_ALL_AXES
100
AcDbLine
 62
7
  6
CONTINUOUS
 10
6.517823398
 20
12.0380477814
 11
7.1145225219
 21
12.0380477814
  0
LINE
  5
249
100
AcDbEntity
  8
0
100
AcDbLine
 62
7
  6
CONTINUOUS
 10
5.1265225219
 20
12.1411327868
 11
6.3985225219
 21
12.1411327868
  0
LINE
  5
24A
100
AcDbEntity
  8
0
100
AcDbLine
 62
7
  6
CONTINUOUS
 10
5.1265225219
 20
12.33657775
 11
6.3985225219
 21
12.33657775
  0
LINE
  5
24B
100
AcDbEntity
  8
02___PRT_ALL_AXES
100
AcDbLine
 62
7
  6
CONTINUOUS
 10
6.4413190175
 20
13.5450477814
 11
6.3985225219
 21
13.4050667516
  0
LINE
  5
24C
100
AcDbEntity
  8
02___PRT_ALL_AXES
100
AcDbLine
 62
7
  6
CONTINUOUS
 10
6.4413190175
 20
11.6550477814
 11
6.3985225219
 21
11.7950288111
  0
LINE
  5
24D
100
AcDbEntity
  8
0
100
AcDbLine
 62
7
  6
CONTINUOUS
 10
5.1265225219
 20
12.8635178127
 11
6.3985225219
 21
12.8635178127
  0
LINE
  5
24E
100
AcDbEntity
  8
02___PRT_ALL_AXES
100
AcDbLine
 62
7
  6
CONTINUOUS
 10
6.3985225219
 20
11.7950303597
 11
6.3985225219
 21
13.405065203
  0
LINE
  5
24F
100
AcDbEntity
  8
02___PRT_ALL_AXES
100
AcDbLine
 62
7
  6
CONTINUOUS
 10
6.4413190175
 20
11.6550477814
 11
6.4413190175
 21
13.5450477814
  0
LINE
  5
250
100
AcDbEntity
  8
02___PRT_ALL_AXES
100
AcDbLine
 62
7
  6
CONTINUOUS
 10
6.517823398
 20
11.6784375177
 11
6.517823398
 21
13.521658045
  0
LINE
  5
251
100
AcDbEntity
  8
0
100
AcDbLine
 62
7
  6
CONTINUOUS
 10
6.3985225219
 20
13.058962776
 11
5.1265225219
 21
13.058962776
  0
LINE
  5
252
100
AcDbEntity
  8
02___PRT_ALL_AXES
100
AcDbLine
 62
7
  6
CONTINUOUS
 10
6.517823398
 20
13.1620477814
 11
6.7395225219
 21
13.1620477814
  0
LINE
  5
253
100
AcDbEntity
  8
02___PRT_ALL_AXES
100
AcDbLine
 62
7
  6
CONTINUOUS
 10
6.9175225219
 20
13.1620477814
 11
7.1145225219
 21
13.1620477814
  0
LINE
  5
254
100
AcDbEntity
  8
0
100
AcDbLine
 62
7
  6
CONTINUOUS
 10
6.3985225219
 20
13.2210715658
 11
5.1265225219
 21
13.2210715658
  0
LINE
  5
255
100
AcDbEntity
  8
0
100
AcDbLine
 62
7
  6
CONTINUOUS
 10
6.3985225219
 20
13.3352991235
 11
5.1265225219
 21
13.3352991235
  0
LINE
  5
256
100
AcDbEntity
  8
0
100
AcDbLine
 62
7
  6
CONTINUOUS
 10
6.3985225219
 20
13.3923914118
 11
5.1265225219
 21
13.3923914118
  0
LINE
  5
257
100
AcDbEntity
  8
0
100
AcDbLine
 62
7
  6
CONTINUOUS
 10
7.1145225219
 20
12.0380477814
 11
7.1145225219
 21
13.1620477814
  0
LINE
  5
258
100
AcDbEntity
  8
02___PRT_ALL_AXES
100
AcDbLine
 62
7
  6
CONTINUOUS
 10
6.517823398
 20
11.6784375177
 11
6.4413190175
 21
11.6550477814
  0
LINE
  5
259
100
AcDbEntity
  8
02___PRT_ALL_AXES
100
AcDbLine
 62
7
  6
CONTINUOUS
 10
6.517823398
 20
13.521658045
 11
6.4413190175
 21
13.5450477814
  0
LINE
  5
25A
100
AcDbEntity
  8
0
100
AcDbLine
 62
7
  6
CONTINUOUS
 10
7.1345225219
 20
12.0580477814
 11
7.1345225219
 21
13.1420477814
  0
LINE
  5
25B
100
AcDbEntity
  8
0
100
AcDbLine
 62
7
  6
CONTINUOUS
 10
7.1345225219
 20
12.0580477814
 11
7.1145225219
 21
12.0380477814
  0
LINE
  5
25C
100
AcDbEntity
  8
0
100
AcDbLine
 62
7
  6
CONTINUOUS
 10
7.1345225219
 20
13.1420477814
 11
7.1145225219
 21
13.1620477814
  0
LINE
  5
25D
100
AcDbEntity
  8
02___PRT_ALL_AXES
100
AcDbLine
 62
7
  6
CONTINUOUS
 10
14.5188818322
 20
13.4246835218
 11
14.5881696743
 21
13.4478770329
  0
LINE
  5
25E
100
AcDbEntity
  8
02___PRT_ALL_AXES
100
AcDbLine
 62
7
  6
CONTINUOUS
 10
14.5188818322
 20
11.596926464
 11
14.5881696743
 21
11.5737329529
  0
LINE
  5
25F
100
AcDbEntity
  8
0
100
AcDbLine
 62
7
  6
CONTINUOUS
 10
14.5811138763
 20
13.2713869166
 11
14.5846492905
 21
13.2727934061
  0
LINE
  5
260
100
AcDbEntity
  8
0
100
AcDbLine
 62
7
  6
CONTINUOUS
 10
14.6095857368
 20
11.7314920007
 11
14.6070244016
 21
11.7322203659
  0
LINE
  5
261
100
AcDbEntity
  8
0
100
AcDbLine
 62
7
  6
CONTINUOUS
 10
14.6708945048
 20
11.7314787824
 11
14.6710418256
 21
11.7306382531
  0
LINE
  5
262
100
AcDbEntity
  8
0
100
AcDbLine
 62
7
  6
CONTINUOUS
 10
14.6709046492
 20
11.7314904647
 11
14.6710418256
 21
11.7306382531
  0
LINE
  5
263
100
AcDbEntity
  8
0
100
AcDbLine
 62
7
  6
CONTINUOUS
 10
15.6895298972
 20
11.7129882268
 11
14.6816885412
 21
11.7129882268
  0
LINE
  5
264
100
AcDbEntity
  8
0
100
AcDbLine
 62
7
  6
CONTINUOUS
 10
14.609585736
 20
11.7314904647
 11
15.6785573841
 21
11.7314904647
  0
LINE
  5
265
100
AcDbEntity
  8
0
100
AcDbLine
 62
7
  6
CONTINUOUS
 10
14.5300331236
 20
11.8092810235
 11
15.6399527374
 21
11.8092810235
  0
LINE
  5
266
100
AcDbEntity
  8
02___PRT_ALL_AXES
100
AcDbLine
 62
7
  6
CONTINUOUS
 10
15.8969484321
 20
11.8883049929
 11
15.9443779461
 21
11.8883049929
  0
LINE
  5
267
100
AcDbEntity
  8
0
100
AcDbLine
 62
7
  6
CONTINUOUS
 10
14.4622374952
 20
11.9414744606
 11
15.5928477236
 21
11.9414744606
  0
LINE
  5
268
100
AcDbEntity
  8
02___PRT_ALL_AXES
100
AcDbLine
 62
7
  6
CONTINUOUS
 10
15.9443779461
 20
11.9488049929
 11
16.5062251524
 21
11.9488049929
  0
LINE
  5
269
100
AcDbEntity
  8
0
100
AcDbLine
 62
7
  6
CONTINUOUS
 10
14.4116912494
 20
12.11736125
 11
15.5518896381
 21
12.11736125
  0
LINE
  5
26A
100
AcDbEntity
  8
0
100
AcDbLine
 62
7
  6
CONTINUOUS
 10
15.5262621901
 20
12.316812403
 11
14.4057494235
 21
12.316812403
  0
LINE
  5
26B
100
AcDbEntity
  8
02___PRT_ALL_AXES
100
AcDbLine
 62
7
  6
CONTINUOUS
 10
15.7386919262
 20
11.8695973133
 11
15.7382546835
 21
11.870416044
  0
LINE
  5
26C
100
AcDbEntity
  8
02___PRT_ALL_AXES
100
AcDbLine
 62
7
  6
CONTINUOUS
 10
15.7387403269
 20
11.8697680788
 11
15.738316213
 21
11.8706323321
  0
LINE
  5
26D
100
AcDbEntity
  8
02___PRT_ALL_AXES
100
AcDbLine
 62
7
  6
CONTINUOUS
 10
15.6651127045
 20
11.9747672879
 11
15.6645952502
 21
11.976586999
  0
LINE
  5
26E
100
AcDbEntity
  8
02___PRT_ALL_AXES
100
AcDbLine
 62
7
  6
CONTINUOUS
 10
15.6648315298
 20
11.9742502628
 11
15.6643211003
 21
11.9760854918
  0
LINE
  5
26F
100
AcDbEntity
  8
0
100
AcDbLine
 62
7
  6
CONTINUOUS
 10
15.5422631493
 20
12.8445079182
 11
14.4005085199
 21
12.8445079182
  0
LINE
  5
270
100
AcDbEntity
  8
0
100
AcDbLine
 62
7
  6
CONTINUOUS
 10
15.578957835
 20
13.0309400494
 11
14.4449073407
 21
13.0309400494
  0
LINE
  5
271
100
AcDbEntity
  8
02___PRT_ALL_AXES
100
AcDbLine
 62
7
  6
CONTINUOUS
 10
15.9443779461
 20
13.0728049929
 11
16.5062251524
 21
13.0728049929
  0
LINE
  5
272
100
AcDbEntity
  8
02___PRT_ALL_AXES
100
AcDbLine
 62
7
  6
CONTINUOUS
 10
15.898312723
 20
13.1333049929
 11
15.9443779461
 21
13.1333049929
  0
LINE
  5
273
100
AcDbEntity
  8
0
100
AcDbLine
 62
7
  6
CONTINUOUS
 10
15.6258263867
 20
13.177664099
 11
14.5080076367
 21
13.177664099
  0
LINE
  5
274
100
AcDbEntity
  8
02___PRT_ALL_AXES
100
AcDbLine
 62
7
  6
CONTINUOUS
 10
15.9443567277
 20
13.1337823909
 11
15.9439342992
 21
13.1338884342
  0
LINE
  5
275
100
AcDbEntity
  8
02___PRT_ALL_AXES
100
AcDbLine
 62
7
  6
CONTINUOUS
 10
15.9443330016
 20
13.1331646913
 11
15.9439122883
 21
13.1333049929
  0
LINE
  5
276
100
AcDbEntity
  8
0
100
AcDbLine
 62
7
  6
CONTINUOUS
 10
14.66836807
 20
13.3086146014
 11
14.6686232464
 21
13.3086185065
  0
LINE
  5
277
100
AcDbEntity
  8
0
100
AcDbLine
 62
7
  6
CONTINUOUS
 10
15.6685628269
 20
13.2727936112
 11
14.5846492906
 21
13.2727936112
  0
LINE
  5
278
100
AcDbEntity
  8
0
100
AcDbLine
 62
7
  6
CONTINUOUS
 10
15.6894686404
 20
13.308621759
 11
14.6686232515
 21
13.308621759
  0
LINE
  5
279
100
AcDbEntity
  8
02___PRT_ALL_AXES
100
AcDbLine
 62
7
  6
CONTINUOUS
 10
16.0030195448
 20
11.596926464
 11
15.9337317027
 21
11.5737329529
  0
LINE
  5
27A
100
AcDbEntity
  8
02___PRT_ALL_AXES
100
AcDbLine
 62
7
  6
CONTINUOUS
 10
16.0030195448
 20
13.4246835218
 11
15.9337317027
 21
13.4478770329
  0
LINE
  5
27B
100
AcDbEntity
  8
0
100
AcDbLine
 62
7
  6
CONTINUOUS
 10
16.5979384764
 20
13.018990666
 11
16.5983335891
 21
13.0187010011
  0
LINE
  5
27C
100
AcDbEntity
  8
0
100
AcDbLine
 62
7
  6
CONTINUOUS
 10
16.5979495347
 20
13.0190673416
 11
16.5983335891
 21
13.0187010011
  0
LINE
  5
27D
100
AcDbEntity
  8
0
100
AcDbLine
 62
7
  6
CONTINUOUS
 10
16.6138831137
 20
12.0196304019
 11
16.5987547625
 21
12.0015058782
  0
LINE
  5
27E
100
AcDbEntity
  8
0
100
AcDbLine
 62
7
  6
CONTINUOUS
 10
16.6138831137
 20
13.0019795839
 11
16.5987547625
 21
13.0201041076
  0
CIRCLE
  5
27F
100
AcDbEntity
  8
02___PRT_ALL_AXES
100
AcDbCircle
 62
7
  6
CONTINUOUS
 10
6.8285225219
 20
12.6000477814
 40
0.089
  0
CIRCLE
  5
280
100
AcDbEntity
  8
02___PRT_ALL_AXES
100
AcDbCircle
 62
7
  6
CONTINUOUS
 10
15.5603552569
 20
5.4606247044
 40
0.945
  0
CIRCLE
  5
281
100
AcDbEntity
  8
02___PRT_ALL_AXES
100
AcDbCircle
 62
7
  6
CONTINUOUS
 10
15.5603552569
 20
5.4606247044
 40
0.9216102636
  0
CIRCLE
  5
282
100
AcDbEntity
  8
02___PRT_ALL_AXES
100
AcDbCircle
 62
7
  6
CONTINUOUS
 10
15.5603552569
 20
5.4606247044
 40
0.7930628901
  0
CIRCLE
  5
283
100
AcDbEntity
  8
02___PRT_ALL_AXES
100
AcDbCircle
 62
7
  6
CONTINUOUS
 10
15.5603552569
 20
5.4606247044
 40
0.626
  0
CIRCLE
  5
284
100
AcDbEntity
  8
02___PRT_ALL_AXES
100
AcDbCircle
 62
7
  6
CONTINUOUS
 10
15.5603552569
 20
5.4606247044
 40
0.6225
  0
CIRCLE
  5
285
100
AcDbEntity
  8
0
100
AcDbCircle
 62
7
  6
CONTINUOUS
 10
15.5603552569
 20
5.4606247044
 40
0.562
  0
CIRCLE
  5
286
100
AcDbEntity
  8
0
100
AcDbCircle
 62
7
  6
CONTINUOUS
 10
15.5603552569
 20
5.4606247044
 40
0.542
  0
CIRCLE
  5
287
100
AcDbEntity
  8
0
100
AcDbCircle
 62
7
  6
CONTINUOUS
 10
15.5603552569
 20
5.4606247044
 40
0.208
  0
CIRCLE
  5
288
100
AcDbEntity
  8
0
100
AcDbCircle
 62
7
  6
CONTINUOUS
 10
15.5603552569
 20
5.4606247044
 40
0.188
  0
ARC
  5
289
100
AcDbEntity
  8
02___PRT_ALL_AXES
100
AcDbCircle
 62
7
  6
CONTINUOUS
 10
14.9787644917
 20
12.3269680615
 40
1.3177337655
100
AcDbArc
 50
342.8281853817
 51
343.3087923077
  0
ARC
  5
28A
100
AcDbEntity
  8
02___PRT_ALL_AXES
100
AcDbCircle
 62
7
  6
CONTINUOUS
 10
15.3654078385
 20
12.2958051858
 40
0.9783111244
100
AcDbArc
 50
199.2230045344
 51
200.774212409
  0
ARC
  5
28B
100
AcDbEntity
  8
0
100
AcDbCircle
 62
7
  6
CONTINUOUS
 10
15.3356075577
 20
12.2889781399
 40
0.9444590023
100
AcDbArc
 50
199.4056593512
 51
201.0069818778
  0
ARC
  5
28C
100
AcDbEntity
  8
02___PRT_ALL_AXES
100
AcDbCircle
 62
7
  6
CONTINUOUS
 10
15.3040756125
 20
12.272817172
 40
0.9128128943
100
AcDbArc
 50
200.7905469765
 51
201.5185100119
  0
ARC
  5
28D
100
AcDbEntity
  8
0
100
AcDbCircle
 62
7
  6
CONTINUOUS
 10
15.3135639145
 20
11.8143265242
 40
0.8074258664
100
AcDbArc
 50
172.1853718869
 51
176.743112512
  0
ARC
  5
28E
100
AcDbEntity
  8
02___PRT_ALL_AXES
100
AcDbCircle
 62
7
  6
CONTINUOUS
 10
14.9126816684
 20
12.0794897015
 40
0.475525503
100
AcDbArc
 50
211.9930453621
 51
214.5086926503
  0
ARC
  5
28F
100
AcDbEntity
  8
0
100
AcDbCircle
 62
7
  6
CONTINUOUS
 10
14.8933040593
 20
12.071801763
 40
0.4506320493
100
AcDbArc
 50
212.4180620641
 51
215.0435060847
  0
ARC
  5
290
100
AcDbEntity
  8
02___PRT_ALL_AXES
100
AcDbCircle
 62
7
  6
CONTINUOUS
 10
14.8780212133
 20
12.0560229205
 40
0.4336693308
100
AcDbArc
 50
214.548151121
 51
215.4196633605
  0
ARC
  5
291
100
AcDbEntity
  8
0
100
AcDbCircle
 62
7
  6
CONTINUOUS
 10
14.698122577
 20
11.8899315082
 40
0.1821309473
100
AcDbArc
 50
235.1853048476
 51
239.988120298
  0
ARC
  5
292
100
AcDbEntity
  8
0
100
AcDbCircle
 62
7
  6
CONTINUOUS
 10
14.3878772467
 20
11.9197545282
 40
0.1270033327
100
AcDbArc
 50
8.1120714621
 51
9.9287746681
  0
ARC
  5
293
100
AcDbEntity
  8
0
100
AcDbCircle
 62
7
  6
CONTINUOUS
 10
15.4314947614
 20
13.2160095142
 40
0.8707827193
100
AcDbArc
 50
178.8313753943
 51
182.5251733299
  0
ARC
  5
294
100
AcDbEntity
  8
0
100
AcDbCircle
 62
7
  6
CONTINUOUS
 10
15.4035775414
 20
13.1833610757
 40
0.7658039947
100
AcDbArc
 50
172.2107971459
 51
173.2902096738
  0
ARC
  5
295
100
AcDbEntity
  8
0
100
AcDbCircle
 62
7
  6
CONTINUOUS
 10
15.24030117
 20
13.1908059782
 40
0.7572463268
100
AcDbArc
 50
185.2270879186
 51
189.9842138419
  0
ARC
  5
296
100
AcDbEntity
  8
02___PRT_ALL_AXES
100
AcDbCircle
 62
7
  6
CONTINUOUS
 10
15.0264996618
 20
12.8748770504
 40
0.6077503591
100
AcDbArc
 50
150.4101486053
 51
152.5407155475
  0
ARC
  5
297
100
AcDbEntity
  8
0
100
AcDbCircle
 62
7
  6
CONTINUOUS
 10
15.0131303547
 20
12.8773007704
 40
0.5907239193
100
AcDbArc
 50
150.0135868331
 51
152.1904914852
  0
ARC
  5
298
100
AcDbEntity
  8
02___PRT_ALL_AXES
100
AcDbCircle
 62
7
  6
CONTINUOUS
 10
14.9827379152
 20
12.8993888926
 40
0.5575923419
100
AcDbArc
 50
149.5602646927
 51
150.3799433705
  0
ARC
  5
299
100
AcDbEntity
  8
02___PRT_ALL_AXES
100
AcDbCircle
 62
7
  6
CONTINUOUS
 10
14.7405726285
 20
13.0824730709
 40
0.2528936987
100
AcDbArc
 50
130.0394473143
 51
133.9636938544
  0
ARC
  5
29A
100
AcDbEntity
  8
0
100
AcDbCircle
 62
7
  6
CONTINUOUS
 10
14.7354705803
 20
13.0825376174
 40
0.2439058218
100
AcDbArc
 50
129.260979236
 51
133.1850058007
  0
ARC
  5
29B
100
AcDbEntity
  8
02___PRT_ALL_AXES
100
AcDbCircle
 62
7
  6
CONTINUOUS
 10
14.7255848278
 20
13.0998755785
 40
0.2299286039
100
AcDbArc
 50
129.0242813712
 51
129.9698252657
  0
ARC
  5
29C
100
AcDbEntity
  8
0
100
AcDbCircle
 62
7
  6
CONTINUOUS
 10
14.6753241713
 20
13.1854891824
 40
0.1233217586
100
AcDbArc
 50
93.2335485544
 51
99.4352649452
  0
ARC
  5
29D
100
AcDbEntity
  8
02___PRT_ALL_AXES
100
AcDbCircle
 62
7
  6
CONTINUOUS
 10
16.417729485
 20
12.5108259617
 40
2.0560650285
100
AcDbArc
 50
178.2594085404
 51
183.6546162224
  0
ARC
  5
29E
100
AcDbEntity
  8
02___PRT_ALL_AXES
100
AcDbCircle
 62
7
  6
CONTINUOUS
 10
16.4003883305
 20
12.5115606109
 40
2.0387105342
100
AcDbArc
 50
177.3080603352
 51
178.2652424484
  0
ARC
  5
29F
100
AcDbEntity
  8
0
100
AcDbCircle
 62
7
  6
CONTINUOUS
 10
16.3894835989
 20
12.5113932434
 40
2.025075585
100
AcDbArc
 50
177.2913748046
 51
178.2516680212
  0
ARC
  5
2A0
100
AcDbEntity
  8
02___PRT_ALL_AXES
100
AcDbCircle
 62
7
  6
CONTINUOUS
 10
16.343180988
 20
12.5067666478
 40
1.9814074584
100
AcDbArc
 50
183.6748810394
 51
184.6493918989
  0
ARC
  5
2A1
100
AcDbEntity
  8
0
100
AcDbCircle
 62
7
  6
CONTINUOUS
 10
16.321649078
 20
12.5062920221
 40
1.9571248502
100
AcDbArc
 50
183.6994910307
 51
184.682737726
  0
ARC
  5
2A2
100
AcDbEntity
  8
02___PRT_ALL_AXES
100
AcDbCircle
 62
7
  6
CONTINUOUS
 10
15.9271987376
 20
12.4492409794
 40
1.5612280237
100
AcDbArc
 50
190.573491784
 51
191.7130589482
  0
ARC
  5
2A3
100
AcDbEntity
  8
0
100
AcDbCircle
 62
7
  6
CONTINUOUS
 10
15.8973056782
 20
12.446025844
 40
1.5282726199
100
AcDbArc
 50
190.6522822906
 51
191.8128651837
  0
ARC
  5
2A4
100
AcDbEntity
  8
0
100
AcDbCircle
 62
7
  6
CONTINUOUS
 10
15.4521941382
 20
11.8121695176
 40
0.8678502322
100
AcDbArc
 50
180.1907043136
 51
183.1013429678
  0
ARC
  5
2A5
100
AcDbEntity
  8
02___PRT_ALL_AXES
100
AcDbCircle
 62
7
  6
CONTINUOUS
 10
15.9390809047
 20
12.0022128753
 40
0.1146973573
100
AcDbArc
 50
291.8729608473
 51
292.7498698978
  0
ARC
  5
2A6
100
AcDbEntity
  8
02___PRT_ALL_AXES
100
AcDbCircle
 62
7
  6
CONTINUOUS
 10
15.9396835962
 20
12.0007080715
 40
0.1130763484
100
AcDbArc
 50
291.1188717528
 51
291.8736243365
  0
ARC
  5
2A7
100
AcDbEntity
  8
02___PRT_ALL_AXES
100
AcDbCircle
 62
7
  6
CONTINUOUS
 10
15.9192500717
 20
11.9869616632
 40
0.1022638099
100
AcDbArc
 50
283.1874773746
 51
284.1932121223
  0
ARC
  5
2A8
100
AcDbEntity
  8
0
100
AcDbCircle
 62
7
  6
CONTINUOUS
 10
16.5078830758
 20
12.3573696508
 40
0.034813135
100
AcDbArc
 50
244.8183250428
 51
249.1450562421
  0
ARC
  5
2A9
100
AcDbEntity
  8
02___PRT_ALL_AXES
100
AcDbCircle
 62
7
  6
CONTINUOUS
 10
16.0684524429
 20
12.5473625053
 40
1.7046837338
100
AcDbArc
 50
170.5559826473
 51
171.6342003769
  0
ARC
  5
2AA
100
AcDbEntity
  8
0
100
AcDbCircle
 62
7
  6
CONTINUOUS
 10
16.0645521499
 20
12.5457467849
 40
1.6981693387
100
AcDbArc
 50
170.4881631979
 51
171.5670901368
  0
ARC
  5
2AB
100
AcDbEntity
  8
02___PRT_ALL_AXES
100
AcDbCircle
 62
7
  6
CONTINUOUS
 10
15.539118101
 20
12.6683805073
 40
1.1612852674
100
AcDbArc
 50
162.8293905529
 51
163.6844397632
  0
ARC
  5
2AC
100
AcDbEntity
  8
0
100
AcDbCircle
 62
7
  6
CONTINUOUS
 10
15.5176660304
 20
12.6711749297
 40
1.1366300911
100
AcDbArc
 50
162.1232937222
 51
163.5319634046
  0
ARC
  5
2AD
100
AcDbEntity
  8
02___PRT_ALL_AXES
100
AcDbCircle
 62
7
  6
CONTINUOUS
 10
15.5034163163
 20
12.6793893459
 40
1.123924707
100
AcDbArc
 50
162.2827846173
 51
162.8282876226
  0
ARC
  5
2AE
100
AcDbEntity
  8
02___PRT_ALL_AXES
100
AcDbCircle
 62
7
  6
CONTINUOUS
 10
15.468493913
 20
12.6905284785
 40
1.0872688174
100
AcDbArc
 50
161.5776488477
 51
162.2819016035
  0
ARC
  5
2AF
100
AcDbEntity
  8
02___PRT_ALL_AXES
100
AcDbCircle
 62
7
  6
CONTINUOUS
 10
15.8395290603
 20
12.9018717359
 40
0.2700716513
100
AcDbArc
 50
39.4339291185
 51
39.7427087409
  0
ARC
  5
2B0
100
AcDbEntity
  8
02___PRT_ALL_AXES
100
AcDbCircle
 62
7
  6
CONTINUOUS
 10
15.9195282914
 20
13.0358133851
 40
0.1010661589
100
AcDbArc
 50
76.0257700154
 51
79.0703292328
  0
ARC
  5
2B1
100
AcDbEntity
  8
02___PRT_ALL_AXES
100
AcDbCircle
 62
7
  6
CONTINUOUS
 10
15.9203752294
 20
13.0405468123
 40
0.0962580328
100
AcDbArc
 50
79.0311027511
 51
89.9671844389
  0
SPLINE
  5
2B2
100
AcDbEntity
  8
02___PRT_ALL_AXES
100
AcDbSpline
 62
7
  6
CONTINUOUS
 70
0
 71
3
 72
15
 73
11
 74
0
 42
0.0000001
 43
0.0000001
 44
0.0000000001
 40
0.0
 40
0.0
 40
0.0
 40
0.0
 40
0.0384169392
 40
0.1471773078
 40
0.3091378111
 40
0.4999714594
 40
0.6908147436
 40
0.8527970013
 40
0.9615757967
 40
1.0
 40
1.0
 40
1.0
 40
1.0
 10
6.9770177142
 20
6.0821198968
 30
0.0
 10
6.974757155
 20
6.081761883
 30
0.0
 10
6.9660888206
 20
6.0804400708
 30
0.0
 10
6.9478213041
 20
6.0780686676
 30
0.0
 10
6.9204156209
 20
6.0756760711
 30
0.0
 10
6.8880222464
 20
6.0746780177
 30
0.0
 10
6.8556275652
 20
6.0756756955
 30
0.0
 10
6.8282188846
 20
6.078068113
 30
0.0
 10
6.8099485431
 20
6.0804397374
 30
0.0
 10
6.8012786988
 20
6.0817618022
 30
0.0
 10
6.7990177142
 20
6.0821198968
 30
0.0
  0
SPLINE
  5
2B3
100
AcDbEntity
  8
02___PRT_ALL_AXES
100
AcDbSpline
 62
7
  6
CONTINUOUS
 70
0
 71
3
 72
15
 73
11
 74
0
 42
0.0000001
 43
0.0000001
 44
0.0000000001
 40
0.0
 40
0.0
 40
0.0
 40
0.0
 40
0.0384212131
 40
0.1471925212
 40
0.3091650031
 40
0.4999995317
 40
0.6908343017
 40
0.8528071545
 40
0.9615786927
 40
1.0
 40
1.0
 40
1.0
 40
1.0
 10
6.9175225219
 20
13.1620477814
 30
0.0
 10
6.9152617123
 20
13.1616897206
 30
0.0
 10
6.9065924837
 20
13.1603677597
 30
0.0
 10
6.8883233484
 20
13.1579962278
 30
0.0
 10
6.860916229
 20
13.1556037674
 30
0.0
 10
6.8285225913
 20
13.1546059167
 30
0.0
 10
6.7961289313
 20
13.1556037607
 30
0.0
 10
6.7687217613
 20
13.1579962198
 30
0.0
 10
6.7504525847
 20
13.1603677556
 30
0.0
 10
6.741783337
 20
13.1616897196
 30
0.0
 10
6.7395225219
 20
13.1620477814
 30
0.0
  0
SPLINE
  5
2B4
100
AcDbEntity
  8
02___PRT_ALL_AXES
100
AcDbSpline
 62
7
  6
CONTINUOUS
 70
0
 71
3
 72
49
 73
45
 74
0
 42
0.0000001
 43
0.0000001
 44
0.0000000001
 40
0.0
 40
0.0
 40
0.0
 40
0.0
 40
0.032026888
 40
0.0652340277
 40
0.099509832
 40
0.1347440243
 40
0.1708147712
 40
0.2075952623
 40
0.2449540983
 40
0.2827558547
 40
0.3208622641
 40
0.3591330959
 40
0.3974271024
 40
0.4356028656
 40
0.4735197076
 40
0.511038648
 40
0.5480232643
 40
0.5843405912
 40
0.6198622174
 40
0.6544652695
 40
0.6880334088
 40
0.7204580455
 40
0.7516398347
 40
0.7814900301
 40
0.7958922273
 40
0.8099340998
 40
0.8236082227
 40
0.836908516
 40
0.8498299816
 40
0.8623687028
 40
0.8745224884
 40
0.8862904189
 40
0.8976732638
 40
0.9086738758
 40
0.9192968346
 40
0.929549183
 40
0.9394404855
 40
0.9489827934
 40
0.9581914508
 40
0.9670848936
 40
0.9756849522
 40
0.9840173442
 40
0.9921113323
 40
1.0
 40
1.0
 40
1.0
 40
1.0
 10
14.2841427977
 20
13.0836871196
 30
0.0
 10
14.2791382593
 20
13.0674924275
 30
0.0
 10
14.269585647
 20
13.0343053202
 30
0.0
 10
14.2568106591
 20
12.983202488
 30
0.0
 10
14.2453724434
 20
12.9300464038
 30
0.0
 10
14.235320688
 20
12.8750703638
 30
0.0
 10
14.2266995073
 20
12.8185111267
 30
0.0
 10
14.2195464109
 20
12.7606148169
 30
0.0
 10
14.2138925907
 20
12.7016328495
 30
0.0
 10
14.209762946
 20
12.6418214201
 30
0.0
 10
14.2071755343
 20
12.5814404955
 30
0.0
 10
14.2061415233
 20
12.5207525298
 30
0.0
 10
14.2066654438
 20
12.4600213209
 30
0.0
 10
14.2087451654
 20
12.399510869
 30
0.0
 10
14.2123715313
 20
12.3394841966
 30
0.0
 10
14.2175285719
 20
12.2802021711
 30
0.0
 10
14.2241937685
 20
12.2219223923
 30
0.0
 10
14.232338158
 20
12.1648980552
 30
0.0
 10
14.2419260127
 20
12.1093767453
 30
0.0
 10
14.2529153774
 20
12.0555993385
 30
0.0
 10
14.26525834
 20
12.0037991085
 30
0.0
 10
14.2789012493
 20
11.9542002325
 30
0.0
 10
14.2937844847
 20
11.9070179757
 30
0.0
 10
14.3073236527
 20
11.8694459858
 30
0.0
 10
14.3187526092
 20
11.8407860247
 30
0.0
 10
14.3274900482
 20
11.8202762489
 30
0.0
 10
14.3364862672
 20
11.8005176103
 30
0.0
 10
14.3457313204
 20
11.7815313525
 30
0.0
 10
14.3552150342
 20
11.7633379794
 30
0.0
 10
14.3649276882
 20
11.7459574287
 30
0.0
 10
14.3748582742
 20
11.729408244
 30
0.0
 10
14.3849963274
 20
11.7137083979
 30
0.0
 10
14.3953312512
 20
11.6988750409
 30
0.0
 10
14.4058514612
 20
11.6849238459
 30
0.0
 10
14.4165462785
 20
11.6718702183
 30
0.0
 10
14.4274042751
 20
11.6597282516
 30
0.0
 10
14.4384136895
 20
11.6485108228
 30
0.0
 10
14.4495635995
 20
11.6382307546
 30
0.0
 10
14.4608419208
 20
11.6288989876
 30
0.0
 10
14.4722369864
 20
11.6205259299
 30
0.0
 10
14.483737256
 20
11.6131217924
 30
0.0
 10
14.4953304523
 20
11.6066944871
 30
0.0
 10
14.5070036417
 20
11.6012526867
 30
0.0
 10
14.5149226706
 20
11.5982519248
 30
0.0
 10
14.51888184
 20
11.5969266177
 30
0.0
  0
SPLINE
  5
2B5
100
AcDbEntity
  8
02___PRT_ALL_AXES
100
AcDbSpline
 62
7
  6
CONTINUOUS
 70
0
 71
3
 72
23
 73
19
 74
0
 42
0.0000001
 43
0.0000001
 44
0.0000000001
 40
0.0
 40
0.0
 40
0.0
 40
0.0
 40
0.0540943302
 40
0.1071205555
 40
0.1596057498
 40
0.2120970485
 40
0.2651413233
 40
0.3192650284
 40
0.3749554723
 40
0.4326501152
 40
0.4927271626
 40
0.5555064462
 40
0.6212478405
 40
0.6901585586
 40
0.7623947781
 40
0.8380702698
 40
0.9172584864
 40
1.0
 40
1.0
 40
1.0
 40
1.0
 10
14.588169682
 20
13.4478768827
 30
0.0
 10
14.5933751398
 20
13.4496193981
 30
0.0
 10
14.603866249
 20
13.4525536068
 30
0.0
 10
14.6198722144
 20
13.4552245546
 30
0.0
 10
14.6359155269
 20
13.4561034157
 30
0.0
 10
14.651957997
 20
13.455184842
 30
0.0
 10
14.6679641015
 20
13.4524738949
 30
0.0
 10
14.6838985369
 20
13.4479773735
 30
0.0
 10
14.6997291884
 20
13.4417102113
 30
0.0
 10
14.7154249769
 20
13.4336873916
 30
0.0
 10
14.7309581287
 20
13.4239295146
 30
0.0
 10
14.7463004764
 20
13.4124566319
 30
0.0
 10
14.7614262834
 20
13.3992932801
 30
0.0
 10
14.7763084469
 20
13.3844642708
 30
0.0
 10
14.7909217163
 20
13.3679985829
 30
0.0
 10
14.8052395453
 20
13.3499263685
 30
0.0
 10
14.8192366192
 20
13.3302821974
 30
0.0
 10
14.8281419657
 20
13.3164646897
 30
0.0
 10
14.8325419664
 20
13.3093134794
 30
0.0
  0
SPLINE
  5
2B6
100
AcDbEntity
  8
02___PRT_ALL_AXES
100
AcDbSpline
 62
7
  6
CONTINUOUS
 70
0
 71
3
 72
23
 73
19
 74
0
 42
0.0000001
 43
0.0000001
 44
0.0000000001
 40
0.0
 40
0.0
 40
0.0
 40
0.0
 40
0.0838346687
 40
0.1650436693
 40
0.2434895293
 40
0.3190804931
 40
0.3917410857
 40
0.4614081462
 40
0.528039855
 40
0.591620661
 40
0.6521628064
 40
0.7097098985
 40
0.7643437711
 40
0.8161881557
 40
0.8654171491
 40
0.9122586948
 40
0.95700246
 40
1.0
 40
1.0
 40
1.0
 40
1.0
 10
14.2841427977
 20
13.0836871196
 30
0.0
 10
14.2876689591
 20
13.0950977822
 30
0.0
 10
14.2949197369
 20
13.1174679197
 30
0.0
 10
14.3065882405
 20
13.1501394236
 30
0.0
 10
14.3188556361
 20
13.1813330711
 30
0.0
 10
14.3316920189
 20
13.2109749979
 30
0.0
 10
14.3450685931
 20
13.2389983057
 30
0.0
 10
14.3589546033
 20
13.2653391525
 30
0.0
 10
14.3733186948
 20
13.2899367984
 30
0.0
 10
14.3881282755
 20
13.3127350625
 30
0.0
 10
14.4033500877
 20
13.3336821427
 30
0.0
 10
14.4189509546
 20
13.352729959
 30
0.0
 10
14.434896341
 20
13.3698352441
 30
0.0
 10
14.4511529821
 20
13.3849576524
 30
0.0
 10
14.4676855001
 20
13.3980618818
 30
0.0
 10
14.4844611293
 20
13.4091142485
 30
0.0
 10
14.5014402302
 20
13.4180850345
 30
0.0
 10
14.5130732224
 20
13.4227389536
 30
0.0
 10
14.5188818397
 20
13.4246833753
 30
0.0
  0
SPLINE
  5
2B7
100
AcDbEntity
  8
02___PRT_ALL_AXES
100
AcDbSpline
 62
7
  6
CONTINUOUS
 70
0
 71
3
 72
23
 73
19
 74
0
 42
0.0000001
 43
0.0000001
 44
0.0000000001
 40
0.0
 40
0.0
 40
0.0
 40
0.0
 40
0.0540903581
 40
0.1071125495
 40
0.1595938722
 40
0.212081627
 40
0.2651228801
 40
0.319244201
 40
0.3749330677
 40
0.4326269191
 40
0.4927041338
 40
0.5554843697
 40
0.6212276968
 40
0.6901410115
 40
0.7623807626
 40
0.83806036
 40
0.9172534559
 40
1.0
 40
1.0
 40
1.0
 40
1.0
 10
14.5881696824
 20
11.5737331105
 30
0.0
 10
14.5933761914
 20
11.5719902643
 30
0.0
 10
14.6038694153
 20
11.5690555185
 30
0.0
 10
14.6198786885
 20
11.5663846052
 30
0.0
 10
14.6359252972
 20
11.5655064566
 30
0.0
 10
14.6519710479
 20
11.5664264953
 30
0.0
 10
14.6679803776
 20
11.5691396596
 30
0.0
 10
14.6839179892
 20
11.573639062
 30
0.0
 10
14.6997516958
 20
11.5799098913
 30
0.0
 10
14.7154504915
 20
11.5879369641
 30
0.0
 10
14.7309864586
 20
11.5976998811
 30
0.0
 10
14.7463315852
 20
11.609178337
 30
0.0
 10
14.7614599108
 20
11.6223480176
 30
0.0
 10
14.7763445647
 20
11.637183846
 30
0.0
 10
14.7909600095
 20
11.6536570627
 30
0.0
 10
14.8052799716
 20
11.6717372712
 30
0.0
 10
14.8192788036
 20
11.6913900562
 30
0.0
 10
14.8281852633
 20
11.7052134028
 30
0.0
 10
14.8325857436
 20
11.7123676204
 30
0.0
  0
SPLINE
  5
2B8
100
AcDbEntity
  8
02___PRT_ALL_AXES
100
AcDbSpline
 62
7
  6
CONTINUOUS
 70
0
 71
3
 72
11
 73
7
 74
0
 42
0.0000001
 43
0.0000001
 44
0.0000000001
 40
0.0
 40
0.0
 40
0.0
 40
0.0
 40
0.2657419578
 40
0.5212453607
 40
0.7661012009
 40
1.0
 40
1.0
 40
1.0
 40
1.0
 10
14.4369445734
 20
13.0341262684
 30
0.0
 10
14.4406165582
 20
13.045148093
 30
0.0
 10
14.4481733197
 20
13.0666514297
 30
0.0
 10
14.4604089042
 20
13.0978361624
 30
0.0
 10
14.4732922043
 20
13.1272458663
 30
0.0
 10
14.4825025155
 20
13.1460493055
 30
0.0
 10
14.4872192256
 20
13.155121783
 30
0.0
  0
SPLINE
  5
2B9
100
AcDbEntity
  8
02___PRT_ALL_AXES
100
AcDbSpline
 62
7
  6
CONTINUOUS
 70
0
 71
3
 72
11
 73
7
 74
0
 42
0.0000001
 43
0.0000001
 44
0.0000000001
 40
0.0
 40
0.0
 40
0.0
 40
0.0
 40
0.2722848027
 40
0.5295254788
 40
0.771942781
 40
1.0
 40
1.0
 40
1.0
 40
1.0
 10
14.5020026958
 20
13.1818829077
 30
0.0
 10
14.5067947584
 20
13.1900363701
 30
0.0
 10
14.51652879
 20
13.2056549916
 30
0.0
 10
14.5320535214
 20
13.2275371629
 30
0.0
 10
14.5480393527
 20
13.2471417829
 30
0.0
 10
14.5593094357
 20
13.2590042234
 30
0.0
 10
14.5650132126
 20
13.2645008555
 30
0.0
  0
SPLINE
  5
2BA
100
AcDbEntity
  8
02___PRT_ALL_AXES
100
AcDbSpline
 62
7
  6
CONTINUOUS
 70
0
 71
3
 72
20
 73
16
 74
0
 42
0.0000001
 43
0.0000001
 44
0.0000000001
 40
0.0
 40
0.0
 40
0.0
 40
0.0
 40
0.1405960956
 40
0.2737720481
 40
0.4007235025
 40
0.4623408851
 40
0.5229687887
 40
0.5828253728
 40
0.6421390982
 40
0.7011467507
 40
0.7600897714
 40
0.8192103227
 40
0.8787482405
 40
0.9389368855
 40
1.0
 40
1.0
 40
1.0
 40
1.0
 10
14.5808103557
 20
13.2785023265
 30
0.0
 10
14.5860649531
 20
13.282760542
 30
0.0
 10
14.5966778255
 20
13.2906004445
 30
0.0
 10
14.6133134649
 20
13.3004095887
 30
0.0
 10
14.6274973496
 20
13.3067075405
 30
0.0
 10
14.6388722725
 20
13.3105132684
 30
0.0
 10
14.6473486936
 20
13.3127499198
 30
0.0
 10
14.6558467314
 20
13.3143946038
 30
0.0
 10
14.664360151
 20
13.3154456073
 30
0.0
 10
14.6728821432
 20
13.3159016448
 30
0.0
 10
14.6814059293
 20
13.315762849
 30
0.0
 10
14.6899247546
 20
13.3150293165
 30
0.0
 10
14.6984319186
 20
13.3137011345
 30
0.0
 10
14.706920333
 20
13.3117801015
 30
0.0
 10
14.7125166704
 20
13.3101190708
 30
0.0
 10
14.7153048242
 20
13.3091945443
 30
0.0
  0
SPLINE
  5
2BB
100
AcDbEntity
  8
02___PRT_ALL_AXES
100
AcDbSpline
 62
7
  6
CONTINUOUS
 70
0
 71
3
 72
23
 73
19
 74
0
 42
0.0000001
 43
0.0000001
 44
0.0000000001
 40
0.0
 40
0.0
 40
0.0
 40
0.0
 40
0.0838346687
 40
0.1650436693
 40
0.2434895293
 40
0.3190804931
 40
0.3917410857
 40
0.4614081462
 40
0.528039855
 40
0.591620661
 40
0.6521628064
 40
0.7097098985
 40
0.7643437711
 40
0.8161881557
 40
0.8654171491
 40
0.9122586948
 40
0.95700246
 40
1.0
 40
1.0
 40
1.0
 40
1.0
 10
14.3474731496
 20
13.0982264129
 30
0.0
 10
14.3510888022
 20
13.109926669
 30
0.0
 10
14.358523599
 20
13.1328645428
 30
0.0
 10
14.3704882399
 20
13.1663652236
 30
0.0
 10
14.3830669723
 20
13.198350541
 30
0.0
 10
14.3962291322
 20
13.2287447564
 30
0.0
 10
14.4099451933
 20
13.2574792735
 30
0.0
 10
14.4241836194
 20
13.2844886301
 30
0.0
 10
14.4389122601
 20
13.3097105447
 30
0.0
 10
14.4540976962
 20
13.3330874106
 30
0.0
 10
14.4697058259
 20
13.3545661111
 30
0.0
 10
14.4857026304
 20
13.3740973458
 30
0.0
 10
14.502052698
 20
13.3916367495
 30
0.0
 10
14.5187219197
 20
13.4071429525
 30
0.0
 10
14.53567402
 20
13.4205797569
 30
0.0
 10
14.5528754013
 20
13.4319126238
 30
0.0
 10
14.5702854183
 20
13.4411110812
 30
0.0
 10
14.5822136466
 20
13.4458831131
 30
0.0
 10
14.588169682
 20
13.4478768827
 30
0.0
  0
SPLINE
  5
2BC
100
AcDbEntity
  8
02___PRT_ALL_AXES
100
AcDbSpline
 62
7
  6
CONTINUOUS
 70
0
 71
3
 72
49
 73
45
 74
0
 42
0.0000001
 43
0.0000001
 44
0.0000000001
 40
0.0
 40
0.0
 40
0.0
 40
0.0
 40
0.032026888
 40
0.0652340277
 40
0.099509832
 40
0.1347440243
 40
0.1708147712
 40
0.2075952623
 40
0.2449540983
 40
0.2827558547
 40
0.3208622641
 40
0.3591330959
 40
0.3974271024
 40
0.4356028656
 40
0.4735197076
 40
0.511038648
 40
0.5480232643
 40
0.5843405912
 40
0.6198622174
 40
0.6544652695
 40
0.6880334088
 40
0.7204580455
 40
0.7516398347
 40
0.7814900301
 40
0.7958922273
 40
0.8099340998
 40
0.8236082227
 40
0.836908516
 40
0.8498299816
 40
0.8623687028
 40
0.8745224884
 40
0.8862904189
 40
0.8976732638
 40
0.9086738758
 40
0.9192968346
 40
0.929549183
 40
0.9394404855
 40
0.9489827934
 40
0.9581914508
 40
0.9670848936
 40
0.9756849522
 40
0.9840173442
 40
0.9921113323
 40
1.0
 40
1.0
 40
1.0
 40
1.0
 10
14.3474731496
 20
13.0982264129
 30
0.0
 10
14.3423416
 20
13.0816207124
 30
0.0
 10
14.33254655
 20
13.0475913427
 30
0.0
 10
14.3194473431
 20
12.9951915611
 30
0.0
 10
14.3077188345
 20
12.9406864178
 30
0.0
 10
14.2974119735
 20
12.8843151296
 30
0.0
 10
14.2885719941
 20
12.8263204639
 30
0.0
 10
14.2812373578
 20
12.7669547917
 30
0.0
 10
14.2754400481
 20
12.7064759089
 30
0.0
 10
14.2712055963
 20
12.6451465129
 30
0.0
 10
14.2685525182
 20
12.5832331685
 30
0.0
 10
14.2674922649
 20
12.5210049904
 30
0.0
 10
14.268029482
 20
12.4587324716
 30
0.0
 10
14.2701619853
 20
12.3966863125
 30
0.0
 10
14.2738803854
 20
12.3351362109
 30
0.0
 10
14.2791683077
 20
12.2743496547
 30
0.0
 10
14.2860026617
 20
12.2145907814
 30
0.0
 10
14.2943537493
 20
12.1561192119
 30
0.0
 10
14.3041849361
 20
12.0991888152
 30
0.0
 10
14.3154532022
 20
12.0440465806
 30
0.0
 10
14.3281094193
 20
11.9909317019
 30
0.0
 10
14.3420985748
 20
11.9400740458
 30
0.0
 10
14.3573595349
 20
11.8916943409
 30
0.0
 10
14.3712423162
 20
11.8531688037
 30
0.0
 10
14.3829613306
 20
11.8237814755
 30
0.0
 10
14.3919205189
 20
11.802751178
 30
0.0
 10
14.4011450548
 20
11.7824910808
 30
0.0
 10
14.4106247401
 20
11.7630229668
 30
0.0
 10
14.420349143
 20
11.7443678603
 30
0.0
 10
14.4303082964
 20
11.7265462051
 30
0.0
 10
14.4404909129
 20
11.7095770153
 30
0.0
 10
14.4508862618
 20
11.6934787195
 30
0.0
 10
14.4614834777
 20
11.6782689037
 30
0.0
 10
14.4722706823
 20
11.6639636385
 30
0.0
 10
14.4832369255
 20
11.6505787202
 30
0.0
 10
14.4943704895
 20
11.6381286
 30
0.0
 10
14.5056593141
 20
11.6266264817
 30
0.0
 10
14.5170921999
 20
11.6160855136
 30
0.0
 10
14.5286567561
 20
11.6065169137
 30
0.0
 10
14.5403410194
 20
11.5979313545
 30
0.0
 10
14.5521331567
 20
11.5903393058
 30
0.0
 10
14.5640205791
 20
11.5837488807
 30
0.0
 10
14.5759900247
 20
11.5781689717
 30
0.0
 10
14.5841100323
 20
11.5750920529
 30
0.0
 10
14.5881696824
 20
11.5737331105
 30
0.0
  0
SPLINE
  5
2BD
100
AcDbEntity
  8
02___PRT_ALL_AXES
100
AcDbSpline
 62
7
  6
CONTINUOUS
 70
0
 71
3
 72
11
 73
7
 74
0
 42
0.0000001
 43
0.0000001
 44
0.0000000001
 40
0.0
 40
0.0
 40
0.0
 40
0.0
 40
0.2391293421
 40
0.4859556347
 40
0.7398068166
 40
1.0
 40
1.0
 40
1.0
 40
1.0
 10
14.4245989133
 20
12.9946173116
 30
0.0
 10
14.4207499046
 20
12.9814723712
 30
0.0
 10
14.4133858007
 20
12.9546234703
 30
0.0
 10
14.4034712021
 20
12.9134184949
 30
0.0
 10
14.394538678
 20
12.8707564495
 30
0.0
 10
14.3893192098
 20
12.841774862
 30
0.0
 10
14.3868733179
 20
12.8270735682
 30
0.0
  0
SPLINE
  5
2BE
100
AcDbEntity
  8
02___PRT_ALL_AXES
100
AcDbSpline
 62
7
  6
CONTINUOUS
 70
0
 71
3
 72
11
 73
7
 74
0
 42
0.0000001
 43
0.0000001
 44
0.0000000001
 40
0.0
 40
0.0
 40
0.0
 40
0.0
 40
0.2449561724
 40
0.4937768595
 40
0.7457132741
 40
1.0
 40
1.0
 40
1.0
 40
1.0
 10
14.3819076435
 20
12.795381198
 30
0.0
 10
14.3796608392
 20
12.7801133706
 30
0.0
 10
14.3755386778
 20
12.7492755914
 30
0.0
 10
14.3704953345
 20
12.7025623801
 30
0.0
 10
14.3665549004
 20
12.6551534709
 30
0.0
 10
14.3646800463
 20
12.623312944
 30
0.0
 10
14.3639275297
 20
12.607310541
 30
0.0
  0
SPLINE
  5
2BF
100
AcDbEntity
  8
02___PRT_ALL_AXES
100
AcDbSpline
 62
7
  6
CONTINUOUS
 70
0
 71
3
 72
11
 73
7
 74
0
 42
0.0000001
 43
0.0000001
 44
0.0000000001
 40
0.0
 40
0.0
 40
0.0
 40
0.0
 40
0.2560099137
 40
0.5085125679
 40
0.7567532962
 40
1.0
 40
1.0
 40
1.0
 40
1.0
 10
14.3682936035
 20
12.3461573874
 30
0.0
 10
14.3695743921
 20
12.3304169166
 30
0.0
 10
14.3724962556
 20
12.2991809311
 30
0.0
 10
14.3780007849
 20
12.2528198769
 30
0.0
 10
14.3845805593
 20
12.2073944023
 30
0.0
 10
14.3897257788
 20
12.1775112574
 30
0.0
 10
14.3924798192
 20
12.1627609915
 30
0.0
  0
SPLINE
  5
2C0
100
AcDbEntity
  8
02___PRT_ALL_AXES
100
AcDbSpline
 62
7
  6
CONTINUOUS
 70
0
 71
3
 72
11
 73
7
 74
0
 42
0.0000001
 43
0.0000001
 44
0.0000000001
 40
0.0
 40
0.0
 40
0.0
 40
0.0
 40
0.2621355596
 40
0.5166180213
 40
0.7627779622
 40
1.0
 40
1.0
 40
1.0
 40
1.0
 10
14.3984808433
 20
12.1322953349
 30
0.0
 10
14.4014002475
 20
12.118223612
 30
0.0
 10
14.407548354
 20
12.0905708297
 30
0.0
 10
14.4178653276
 20
12.0500378228
 30
0.0
 10
14.4291110122
 20
12.0111720808
 30
0.0
 10
14.4373599452
 20
11.9859803119
 30
0.0
 10
14.4416431821
 20
11.9737003648
 30
0.0
  0
SPLINE
  5
2C1
100
AcDbEntity
  8
02___PRT_ALL_AXES
100
AcDbSpline
 62
7
  6
CONTINUOUS
 70
0
 71
3
 72
11
 73
7
 74
0
 42
0.0000001
 43
0.0000001
 44
0.0000000001
 40
0.0
 40
0.0
 40
0.0
 40
0.0
 40
0.2678068376
 40
0.5239291737
 40
0.7680605377
 40
1.0
 40
1.0
 40
1.0
 40
1.0
 10
14.4548865826
 20
11.9379957694
 30
0.0
 10
14.4589252126
 20
11.9277547951
 30
0.0
 10
14.4671975502
 20
11.9078630791
 30
0.0
 10
14.4805142048
 20
11.8792261937
 30
0.0
 10
14.4944274051
 20
11.8525254167
 30
0.0
 10
14.5043293508
 20
11.8356334043
 30
0.0
 10
14.509382587
 20
11.8275485279
 30
0.0
  0
SPLINE
  5
2C2
100
AcDbEntity
  8
02___PRT_ALL_AXES
100
AcDbSpline
 62
7
  6
CONTINUOUS
 70
0
 71
3
 72
11
 73
7
 74
0
 42
0.0000001
 43
0.0000001
 44
0.0000000001
 40
0.0
 40
0.0
 40
0.0
 40
0.0
 40
0.2735000612
 40
0.53081661
 40
0.7726359658
 40
1.0
 40
1.0
 40
1.0
 40
1.0
 10
14.5246115235
 20
11.8046851406
 30
0.0
 10
14.52969585
 20
11.7975372119
 30
0.0
 10
14.5399972163
 20
11.7839642471
 30
0.0
 10
14.5563755565
 20
11.7653366433
 30
0.0
 10
14.5731525669
 20
11.7491283605
 30
0.0
 10
14.5849159872
 20
11.7396979801
 30
0.0
 10
14.5908418953
 20
11.735448556
 30
0.0
  0
SPLINE
  5
2C3
100
AcDbEntity
  8
02___PRT_ALL_AXES
100
AcDbSpline
 62
7
  6
CONTINUOUS
 70
0
 71
3
 72
9
 73
5
 74
0
 42
0.0000001
 43
0.0000001
 44
0.0000000001
 40
0.0
 40
0.0
 40
0.0
 40
0.0
 40
0.2542372335
 40
1.0
 40
1.0
 40
1.0
 40
1.0
 10
14.5908418953
 20
11.735448556
 30
0.0
 10
14.591955438
 20
11.7346500429
 30
0.0
 10
14.5963669537
 20
11.7315536054
 30
0.0
 10
14.6009064012
 20
11.7286385891
 30
0.0
 10
14.604360193
 20
11.7265826123
 30
0.0
  0
SPLINE
  5
2C4
100
AcDbEntity
  8
02___PRT_ALL_AXES
100
AcDbSpline
 62
7
  6
CONTINUOUS
 70
0
 71
3
 72
16
 73
12
 74
0
 42
0.0000001
 43
0.0000001
 44
0.0000000001
 40
0.0
 40
0.0
 40
0.0
 40
0.0
 40
0.1341340426
 40
0.2632869097
 40
0.3885118092
 40
0.450042621
 40
0.5110469652
 40
0.6320874035
 40
0.753032001
 40
0.8752353031
 40
1.0
 40
1.0
 40
1.0
 40
1.0
 10
14.604360193
 20
11.7265826123
 30
0.0
 10
14.608838438
 20
11.7239167979
 30
0.0
 10
14.6178654494
 20
11.7190668441
 30
0.0
 10
14.6318170994
 20
11.713240811
 30
0.0
 10
14.643600849
 20
11.7097129017
 30
0.0
 10
14.6530247382
 20
11.7077267283
 30
0.0
 10
14.6623843063
 20
11.706296812
 30
0.0
 10
14.6741590412
 20
11.7055173611
 30
0.0
 10
14.6883228728
 20
11.7062232714
 30
0.0
 10
14.702453622
 20
11.7085703671
 30
0.0
 10
14.7117080899
 20
11.7111885731
 30
0.0
 10
14.7162977556
 20
11.7127487901
 30
0.0
  0
SPLINE
  5
2C5
100
AcDbEntity
  8
02___PRT_ALL_AXES
100
AcDbSpline
 62
7
  6
CONTINUOUS
 70
0
 71
3
 72
26
 73
22
 74
0
 42
0.0000001
 43
0.0000001
 44
0.0000000001
 40
0.0
 40
0.0
 40
0.0
 40
0.0
 40
0.0212794805
 40
0.0426527887
 40
0.0642122116
 40
0.0860469306
 40
0.1082421413
 40
0.1308781344
 40
0.1777406918
 40
0.2271730992
 40
0.279584556
 40
0.3352847285
 40
0.3944928518
 40
0.4573520233
 40
0.5239386926
 40
0.5942758262
 40
0.6683341906
 40
0.7460474411
 40
0.8273234984
 40
0.9120393633
 40
1.0
 40
1.0
 40
1.0
 40
1.0
 10
15.9204303602
 20
13.1368048292
 30
0.0
 10
15.9181437754
 20
13.1368048803
 30
0.0
 10
15.9135588013
 20
13.1366391329
 30
0.0
 10
15.9066936809
 20
13.1358931284
 30
0.0
 10
15.8998399629
 20
13.1346507498
 30
0.0
 10
15.8930038713
 20
13.1329135813
 30
0.0
 10
15.8861907029
 20
13.1306830308
 30
0.0
 10
15.8770408824
 20
13.1270118651
 30
0.0
 10
15.8656536129
 20
13.121137242
 30
0.0
 10
15.8523462403
 20
13.112238739
 30
0.0
 10
15.8392717593
 20
13.1014445587
 30
0.0
 10
15.8264684652
 20
13.0887920452
 30
0.0
 10
15.8139709377
 20
13.0743225084
 30
0.0
 10
15.8018158766
 20
13.0580808129
 30
0.0
 10
15.7900381003
 20
13.0401177208
 30
0.0
 10
15.7786741916
 20
13.0204883454
 30
0.0
 10
15.7677576896
 20
12.9992545238
 30
0.0
 10
15.7573231583
 20
12.9764813904
 30
0.0
 10
15.7474018686
 20
12.9522388229
 30
0.0
 10
15.7380271901
 20
12.9266050746
 30
0.0
 10
15.7322647716
 20
12.9089632825
 30
0.0
 10
15.7294741517
 20
12.899932833
 30
0.0
  0
SPLINE
  5
2C6
100
AcDbEntity
  8
02___PRT_ALL_AXES
100
AcDbSpline
 62
7
  6
CONTINUOUS
 70
0
 71
3
 72
36
 73
32
 74
0
 42
0.0000001
 43
0.0000001
 44
0.0000000001
 40
0.0
 40
0.0
 40
0.0
 40
0.0
 40
0.0229081766
 40
0.0454407191
 40
0.0677172927
 40
0.0898626756
 40
0.1120043902
 40
0.1342700636
 40
0.1567846572
 40
0.1796682382
 40
0.2030333726
 40
0.2269841634
 40
0.2769835783
 40
0.3032159955
 40
0.3303496958
 40
0.3584382357
 40
0.3875268881
 40
0.4176518614
 40
0.4488417117
 40
0.4811186521
 40
0.5144975104
 40
0.5489877725
 40
0.5845940758
 40
0.6213154639
 40
0.6591474201
 40
0.6980810714
 40
0.7381028015
 40
0.77919661
 40
0.8213445204
 40
0.9087160097
 40
1.0
 40
1.0
 40
1.0
 40
1.0
 10
15.9337316947
 20
13.4478768753
 30
0.0
 10
15.9298570447
 20
13.44917389
 30
0.0
 10
15.9220713531
 20
13.4514600573
 30
0.0
 10
15.9102388068
 20
13.4539444353
 30
0.0
 10
15.8983780894
 20
13.4554478774
 30
0.0
 10
15.8865034996
 20
13.4559683818
 30
0.0
 10
15.8746284572
 20
13.4555042294
 30
0.0
 10
15.8627667378
 20
13.454056931
 30
0.0
 10
15.8509316802
 20
13.4516285467
 30
0.0
 10
15.8391368452
 20
13.4482218274
 30
0.0
 10
15.8273941864
 20
13.4438419979
 30
0.0
 10
15.8116014769
 20
13.4366103375
 30
0.0
 10
15.7961678036
 20
13.4274864112
 30
0.0
 10
15.7811959849
 20
13.4167166896
 30
0.0
 10
15.7698961705
 20
13.4075717669
 30
0.0
 10
15.7587199337
 20
13.397500943
 30
0.0
 10
15.7476776024
 20
13.3865134793
 30
0.0
 10
15.7367802343
 20
13.374621378
 30
0.0
 10
15.7260384474
 20
13.3618369782
 30
0.0
 10
15.715463616
 20
13.3481730668
 30
0.0
 10
15.7050659051
 20
13.3336441025
 30
0.0
 10
15.6948559473
 20
13.3182649426
 30
0.0
 10
15.6848445094
 20
13.3020511602
 30
0.0
 10
15.6750412527
 20
13.2850196793
 30
0.0
 10
15.6654565335
 20
13.2671878043
 30
0.0
 10
15.6561003512
 20
13.248573937
 30
0.0
 10
15.6469819211
 20
13.2291976932
 30
0.0
 10
15.6381109701
 20
13.2090788201
 30
0.0
 10
15.626485725
 20
13.180953244
 30
0.0
 10
15.6126703751
 20
13.1440592743
 30
0.0
 10
15.6027062245
 20
13.1137822751
 30
0.0
 10
15.5978990995
 20
13.0982264129
 30
0.0
  0
SPLINE
  5
2C7
100
AcDbEntity
  8
02___PRT_ALL_AXES
100
AcDbSpline
 62
7
  6
CONTINUOUS
 70
0
 71
3
 72
23
 73
19
 74
0
 42
0.0000001
 43
0.0000001
 44
0.0000000001
 40
0.0
 40
0.0
 40
0.0
 40
0.0
 40
0.0838346687
 40
0.1650436693
 40
0.2434895293
 40
0.3190804931
 40
0.3917410857
 40
0.4614081462
 40
0.528039855
 40
0.591620661
 40
0.6521628064
 40
0.7097098985
 40
0.7643437711
 40
0.8161881557
 40
0.8654171491
 40
0.9122586948
 40
0.95700246
 40
1.0
 40
1.0
 40
1.0
 40
1.0
 10
16.2377585793
 20
11.9379228662
 30
0.0
 10
16.2342324179
 20
11.9265122036
 30
0.0
 10
16.2269816401
 20
11.9041420661
 30
0.0
 10
16.2153131365
 20
11.8714705622
 30
0.0
 10
16.2030457409
 20
11.8402769147
 30
0.0
 10
16.1902093581
 20
11.8106349879
 30
0.0
 10
16.1768327839
 20
11.7826116801
 30
0.0
 10
16.1629467737
 20
11.7562708333
 30
0.0
 10
16.1485826822
 20
11.7316731874
 30
0.0
 10
16.1337731015
 20
11.7088749234
 30
0.0
 10
16.1185512893
 20
11.6879278431
 30
0.0
 10
16.1029504224
 20
11.6688800268
 30
0.0
 10
16.087005036
 20
11.6517747417
 30
0.0
 10
16.070748395
 20
11.6366523334
 30
0.0
 10
16.0542158769
 20
11.623548104
 30
0.0
 10
16.0374402477
 20
11.6124957373
 30
0.0
 10
16.0204611468
 20
11.6035249513
 30
0.0
 10
16.0088281546
 20
11.5988710322
 30
0.0
 10
16.0030195373
 20
11.5969266105
 30
0.0
  0
SPLINE
  5
2C8
100
AcDbEntity
  8
02___PRT_ALL_AXES
100
AcDbSpline
 62
7
  6
CONTINUOUS
 70
0
 71
3
 72
23
 73
19
 74
0
 42
0.0000001
 43
0.0000001
 44
0.0000000001
 40
0.0
 40
0.0
 40
0.0
 40
0.0
 40
0.0840193434
 40
0.1653987516
 40
0.2440186112
 40
0.3197754621
 40
0.3925813386
 40
0.4623689979
 40
0.5290913927
 40
0.5927278653
 40
0.6532852658
 40
0.7108044055
 40
0.7653641256
 40
0.817087588
 40
0.8661493967
 40
0.9127808851
 40
0.9572775476
 40
1.0
 40
1.0
 40
1.0
 40
1.0
 10
16.2409554475
 20
13.0731868887
 30
0.0
 10
16.2374283555
 20
13.0849460223
 30
0.0
 10
16.2301664446
 20
13.1080009563
 30
0.0
 10
16.2184500851
 20
13.1416820652
 30
0.0
 10
16.2061053091
 20
13.173848959
 30
0.0
 10
16.1931625089
 20
13.2044246725
 30
0.0
 10
16.1796516789
 20
13.233336123
 30
0.0
 10
16.165605841
 20
13.260514795
 30
0.0
 10
16.1510572831
 20
13.2858957964
 30
0.0
 10
16.1360409128
 20
13.3094193211
 30
0.0
 10
16.1205909699
 20
13.331029404
 30
0.0
 10
16.1047432354
 20
13.3506751011
 30
0.0
 10
16.0885333571
 20
13.3683096721
 30
0.0
 10
16.0719970123
 20
13.3838905287
 30
0.0
 10
16.055170951
 20
13.3973795213
 30
0.0
 10
16.0380899948
 20
13.4087411127
 30
0.0
 10
16.0207956419
 20
13.4179432806
 30
0.0
 10
16.0089391874
 20
13.4227018023
 30
0.0
 10
16.003019537
 20
13.4246833681
 30
0.0
  0
SPLINE
  5
2C9
100
AcDbEntity
  8
02___PRT_ALL_AXES
100
AcDbSpline
 62
7
  6
CONTINUOUS
 70
0
 71
3
 72
56
 73
52
 74
0
 42
0.0000001
 43
0.0000001
 44
0.0000000001
 40
0.0
 40
0.0
 40
0.0
 40
0.0
 40
0.0081713937
 40
0.0161955972
 40
0.0241299203
 40
0.0320340437
 40
0.0399685358
 40
0.0479930774
 40
0.0561649652
 40
0.0645375673
 40
0.07315962
 40
0.0820743377
 40
0.0913193488
 40
0.1009267815
 40
0.1109231741
 40
0.1213303818
 40
0.1321653536
 40
0.143441094
 40
0.1551668361
 40
0.1673483005
 40
0.1799885297
 40
0.1930874948
 40
0.2066430909
 40
0.2206508681
 40
0.2351044071
 40
0.2499957303
 40
0.2653149222
 40
0.2810509594
 40
0.2971912136
 40
0.3137219511
 40
0.3306283871
 40
0.3478944964
 40
0.3655036014
 40
0.3834378825
 40
0.4202060619
 40
0.4580443311
 40
0.4967867931
 40
0.5362597311
 40
0.576283287
 40
0.6166730592
 40
0.6572416839
 40
0.6978003802
 40
0.7381604457
 40
0.7781347745
 40
0.817539361
 40
0.856194841
 40
0.8939285406
 40
0.9305744637
 40
0.9659800415
 40
0.9831734738
 40
1.0
 40
1.0
 40
1.0
 40
1.0
 10
15.933731695
 20
11.5737331031
 30
0.0
 10
15.9292764433
 20
11.5722417175
 30
0.0
 10
15.9203132701
 20
11.5696644016
 30
0.0
 10
15.906667636
 20
11.5670556383
 30
0.0
 10
15.8929889448
 20
11.5657501611
 30
0.0
 10
15.8792996836
 20
11.5657520942
 30
0.0
 10
15.8656212439
 20
11.5670610761
 30
0.0
 10
15.8519749301
 20
11.569673837
 30
0.0
 10
15.8383817333
 20
11.5735861213
 30
0.0
 10
15.8248610741
 20
11.5787890459
 30
0.0
 10
15.811432316
 20
11.5852744491
 30
0.0
 10
15.7981133121
 20
11.5930307469
 30
0.0
 10
15.7849215833
 20
11.6020458694
 30
0.0
 10
15.7718746681
 20
11.6123067499
 30
0.0
 10
15.7589887425
 20
11.6237978461
 30
0.0
 10
15.7462813315
 20
11.6365038358
 30
0.0
 10
15.733768296
 20
11.6504064711
 30
0.0
 10
15.7214664262
 20
11.6654870437
 30
0.0
 10
15.709392075
 20
11.6817249906
 30
0.0
 10
15.6975608201
 20
11.6990979469
 30
0.0
 10
15.6859892929
 20
11.7175827229
 30
0.0
 10
15.6746922594
 20
11.7371537502
 30
0.0
 10
15.6636856098
 20
11.7577847009
 30
0.0
 10
15.6529840352
 20
11.7794473409
 30
0.0
 10
15.6426019175
 20
11.8021120964
 30
0.0
 10
15.632553955
 20
11.8257482143
 30
0.0
 10
15.6228531467
 20
11.8503231908
 30
0.0
 10
15.6135134583
 20
11.8758036478
 30
0.0
 10
15.6045472081
 20
11.9021546041
 30
0.0
 10
15.5959667985
 20
11.9293400491
 30
0.0
 10
15.5877842514
 20
11.9573228213
 30
0.0
 10
15.5800102687
 20
11.9860644859
 30
0.0
 10
15.5726561166
 20
12.0155258797
 30
0.0
 10
15.5633462743
 20
12.0560486543
 30
0.0
 10
15.552856299
 20
12.1082241364
 30
0.0
 10
15.5421892945
 20
12.1725282599
 30
0.0
 10
15.5334000872
 20
12.2386846802
 30
0.0
 10
15.526537122
 20
12.3063308588
 30
0.0
 10
15.5216383203
 20
12.3750967704
 30
0.0
 10
15.5187307121
 20
12.4446058648
 30
0.0
 10
15.5178302866
 20
12.5144775049
 30
0.0
 10
15.5189419981
 20
12.5843290263
 30
0.0
 10
15.5220597111
 20
12.6537778941
 30
0.0
 10
15.5271662424
 20
12.7224438003
 30
0.0
 10
15.5342334973
 20
12.7899507816
 30
0.0
 10
15.5432223832
 20
12.8559294768
 30
0.0
 10
15.5540834869
 20
12.9200187644
 30
0.0
 10
15.566756602
 20
12.9818687002
 30
0.0
 10
15.5788857919
 20
13.031741127
 30
0.0
 10
15.5894702465
 20
13.0702315948
 30
0.0
 10
15.5950426934
 20
13.0889830793
 30
0.0
 10
15.5978990995
 20
13.0982264129
 30
0.0
  0
SPLINE
  5
2CA
100
AcDbEntity
  8
02___PRT_ALL_AXES
100
AcDbSpline
 62
7
  6
CONTINUOUS
 70
0
 71
3
 72
49
 73
45
 74
0
 42
0.0000001
 43
0.0000001
 44
0.0000000001
 40
0.0
 40
0.0
 40
0.0
 40
0.0
 40
0.0076945236
 40
0.0154415046
 40
0.0232921846
 40
0.0312952139
 40
0.0394957805
 40
0.0479351914
 40
0.056650016
 40
0.0656721445
 40
0.0750292233
 40
0.0847442187
 40
0.094835884
 40
0.1053196045
 40
0.1162070409
 40
0.1275065341
 40
0.1392240655
 40
0.1513628744
 40
0.1639236263
 40
0.1769053888
 40
0.190305257
 40
0.2041182716
 40
0.2329557485
 40
0.2633546478
 40
0.2952307009
 40
0.3284832579
 40
0.3629984673
 40
0.3986512816
 40
0.435306533
 40
0.4728212598
 40
0.5110458008
 40
0.5498249156
 40
0.588999515
 40
0.6284075035
 40
0.6678851182
 40
0.7072681646
 40
0.7463930371
 40
0.7850980387
 40
0.8232244852
 40
0.8606183763
 40
0.8971300155
 40
0.9326173611
 40
0.9669525001
 40
1.0
 40
1.0
 40
1.0
 40
1.0
 10
15.9204303602
 20
11.8848051566
 30
0.0
 10
15.9175819904
 20
11.8848052203
 30
0.0
 10
15.9118625488
 20
11.8850633159
 30
0.0
 10
15.9033075693
 20
11.886222198
 30
0.0
 10
15.8947755539
 20
11.888152191
 30
0.0
 10
15.8862786519
 20
11.8908491445
 30
0.0
 10
15.8778273014
 20
11.8943084132
 30
0.0
 10
15.8694324189
 20
11.8985255847
 30
0.0
 10
15.8611038827
 20
11.903493959
 30
0.0
 10
15.8528512654
 20
11.9092064141
 30
0.0
 10
15.844684691
 20
11.9156561317
 30
0.0
 10
15.836613464
 20
11.9228344979
 30
0.0
 10
15.8286466581
 20
11.9307322008
 30
0.0
 10
15.820794108
 20
11.9393400173
 30
0.0
 10
15.8130649458
 20
11.948647225
 30
0.0
 10
15.8054679308
 20
11.9586421535
 30
0.0
 10
15.7980125879
 20
11.9693130228
 30
0.0
 10
15.7907078478
 20
11.9806468109
 30
0.0
 10
15.7835620471
 20
11.9926294432
 30
0.0
 10
15.7765842444
 20
12.0052465899
 30
0.0
 10
15.7697829167
 20
12.0184829797
 30
0.0
 10
15.7608318483
 20
12.0372043502
 30
0.0
 10
15.7501729958
 20
12.0620708585
 30
0.0
 10
15.7383895422
 20
12.0936856678
 30
0.0
 10
15.7274938833
 20
12.127338691
 30
0.0
 10
15.7175388669
 20
12.1628655535
 30
0.0
 10
15.7085731744
 20
12.2000936243
 30
0.0
 10
15.700641398
 20
12.2388414502
 30
0.0
 10
15.6937820045
 20
12.2789198029
 30
0.0
 10
15.6880288711
 20
12.3201328539
 30
0.0
 10
15.683410725
 20
12.3622791335
 30
0.0
 10
15.679949769
 20
12.4051524078
 30
0.0
 10
15.6776633258
 20
12.4485428742
 30
0.0
 10
15.676562876
 20
12.4922381573
 30
0.0
 10
15.6766533368
 20
12.5360243354
 30
0.0
 10
15.6779346582
 20
12.5796870491
 30
0.0
 10
15.6804005597
 20
12.6230125383
 30
0.0
 10
15.684038434
 20
12.665788746
 30
0.0
 10
15.688830852
 20
12.70780643
 30
0.0
 10
15.6947541685
 20
12.7488598437
 30
0.0
 10
15.7017785702
 20
12.7887480555
 30
0.0
 10
15.7098703777
 20
12.827278038
 30
0.0
 10
15.7189896699
 20
12.864258459
 30
0.0
 10
15.7258622219
 20
12.888244624
 30
0.0
 10
15.7294741517
 20
12.899932833
 30
0.0
  0
SPLINE
  5
2CB
100
AcDbEntity
  8
02___PRT_ALL_AXES
100
AcDbSpline
 62
7
  6
CONTINUOUS
 70
0
 71
3
 72
29
 73
25
 74
0
 42
0.0000001
 43
0.0000001
 44
0.0000000001
 40
0.0
 40
0.0
 40
0.0
 40
0.0
 40
0.0267840826
 40
0.0532317897
 40
0.0794104538
 40
0.1053902587
 40
0.1312432724
 40
0.1570428426
 40
0.182862973
 40
0.208777408
 40
0.2348588444
 40
0.2611783654
 40
0.3147840506
 40
0.3701262414
 40
0.4276571686
 40
0.45737329
 40
0.4877753767
 40
0.5507726216
 40
0.6169164978
 40
0.686404087
 40
0.7593781461
 40
0.8359371296
 40
0.9161368406
 40
1.0
 40
1.0
 40
1.0
 40
1.0
 10
16.003019537
 20
13.4246833681
 30
0.0
 10
16.0003516153
 20
13.4255764381
 30
0.0
 10
15.995001203
 20
13.4272116761
 30
0.0
 10
15.9868987129
 20
13.4292106689
 30
0.0
 10
15.9787796461
 20
13.4307372051
 30
0.0
 10
15.9706487074
 20
13.4317906329
 30
0.0
 10
15.962510172
 20
13.432370413
 30
0.0
 10
15.9543684407
 20
13.4324759913
 30
0.0
 10
15.9462279282
 20
13.4321070232
 30
0.0
 10
15.9380931105
 20
13.4312641674
 30
0.0
 10
15.9299680964
 20
13.4299478777
 30
0.0
 10
15.9190895271
 20
13.4275486178
 30
0.0
 10
15.9054893032
 20
13.4233310739
 30
0.0
 10
15.8893944571
 20
13.416420787
 30
0.0
 10
15.8762518945
 20
13.4091880192
 30
0.0
 10
15.8658422677
 20
13.4025220755
 30
0.0
 10
15.8552575335
 20
13.3950858434
 30
0.0
 10
15.8421540956
 20
13.3846082422
 30
0.0
 10
15.8268572996
 20
13.3703949338
 30
0.0
 10
15.8118334275
 20
13.3544234638
 30
0.0
 10
15.7971111151
 20
13.3367280978
 30
0.0
 10
15.7827194748
 20
13.3173438981
 30
0.0
 10
15.7686861514
 20
13.2963112635
 30
0.0
 10
15.7597862708
 20
13.2815463094
 30
0.0
 10
15.7553948171
 20
13.2739098871
 30
0.0
  0
SPLINE
  5
2CC
100
AcDbEntity
  8
02___PRT_ALL_AXES
100
AcDbSpline
 62
7
  6
CONTINUOUS
 70
0
 71
3
 72
15
 73
11
 74
0
 42
0.0000001
 43
0.0000001
 44
0.0000000001
 40
0.0
 40
0.0
 40
0.0
 40
0.0
 40
0.1118072762
 40
0.2275234492
 40
0.3470950543
 40
0.4704551929
 40
0.5975272201
 40
0.7282255539
 40
0.8624347935
 40
1.0
 40
1.0
 40
1.0
 40
1.0
 10
15.7553948171
 20
13.2739098871
 30
0.0
 10
15.7515539728
 20
13.267230935
 30
0.0
 10
15.7439823118
 20
13.2534977551
 30
0.0
 10
15.7331302475
 20
13.2321789573
 30
0.0
 10
15.7226016166
 20
13.2098154671
 30
0.0
 10
15.712412368
 20
13.1864395559
 30
0.0
 10
15.7025765378
 20
13.1620841081
 30
0.0
 10
15.6931084496
 20
13.1367837514
 30
0.0
 10
15.6840226637
 20
13.1105774406
 30
0.0
 10
15.6782979583
 20
13.0927440697
 30
0.0
 10
15.6754991491
 20
13.0836871196
 30
0.0
  0
SPLINE
  5
2CD
100
AcDbEntity
  8
02___PRT_ALL_AXES
100
AcDbSpline
 62
7
  6
CONTINUOUS
 70
0
 71
3
 72
35
 73
31
 74
0
 42
0.0000001
 43
0.0000001
 44
0.0000000001
 40
0.0
 40
0.0
 40
0.0
 40
0.0
 40
0.0905108546
 40
0.1765646549
 40
0.2580354573
 40
0.2970317759
 40
0.3348610867
 40
0.3715242682
 40
0.4070282492
 40
0.4413850115
 40
0.4746116973
 40
0.5067330187
 40
0.5377805709
 40
0.5677929692
 40
0.5968181998
 40
0.6521191112
 40
0.6785618215
 40
0.7043034578
 40
0.7294403268
 40
0.7540788077
 40
0.7783337564
 40
0.8023267809
 40
0.8261847999
 40
0.8500373086
 40
0.8740139388
 40
0.898241886
 40
0.9228432852
 40
0.9479337295
 40
0.9736202382
 40
1.0
 40
1.0
 40
1.0
 40
1.0
 10
16.1381117936
 20
13.0733681942
 30
0.0
 10
16.1336571755
 20
13.0847345966
 30
0.0
 10
16.1245079253
 20
13.1067321691
 30
0.0
 10
16.1096543873
 20
13.138221452
 30
0.0
 10
16.0964770969
 20
13.1627810094
 30
0.0
 10
16.0855604948
 20
13.1811335874
 30
0.0
 10
16.0773314625
 20
13.1940440968
 30
0.0
 10
16.0689489825
 20
13.2062889147
 30
0.0
 10
16.0604213098
 20
13.2178564409
 30
0.0
 10
16.0517567561
 20
13.228735588
 30
0.0
 10
16.0429631246
 20
13.2389154147
 30
0.0
 10
16.0340489682
 20
13.248386284
 30
0.0
 10
16.025023119
 20
13.2571389871
 30
0.0
 10
16.0158927164
 20
13.2651650417
 30
0.0
 10
16.0037900024
 20
13.274730653
 30
0.0
 10
15.9913099875
 20
13.2830218437
 30
0.0
 10
15.9785103333
 20
13.2898485767
 30
0.0
 10
15.9689925359
 20
13.2941329436
 30
0.0
 10
15.9594243248
 20
13.297651212
 30
0.0
 10
15.9498149891
 20
13.3003996383
 30
0.0
 10
15.9401745068
 20
13.3023752044
 30
0.0
 10
15.9305127611
 20
13.3035745922
 30
0.0
 10
15.9208401722
 20
13.3039963842
 30
0.0
 10
15.9111671314
 20
13.3036405646
 30
0.0
 10
15.9015040797
 20
13.3025068715
 30
0.0
 10
15.8918613934
 20
13.3005970003
 30
0.0
 10
15.8822490392
 20
13.2979140469
 30
0.0
 10
15.872676878
 20
13.2944606447
 30
0.0
 10
15.8631549568
 20
13.290241335
 30
0.0
 10
15.856935094
 20
13.2869680036
 30
0.0
 10
15.8538399205
 20
13.2852129903
 30
0.0
  0
SPLINE
  5
2CE
100
AcDbEntity
  8
02___PRT_ALL_AXES
100
AcDbSpline
 62
7
  6
CONTINUOUS
 70
0
 71
3
 72
14
 73
10
 74
0
 42
0.0000001
 43
0.0000001
 44
0.0000000001
 40
0.0
 40
0.0
 40
0.0
 40
0.0
 40
0.223806661
 40
0.3417197934
 40
0.4639670459
 40
0.5907635505
 40
0.7222821683
 40
0.8586613216
 40
1.0
 40
1.0
 40
1.0
 40
1.0
 10
15.8538399205
 20
13.2852129903
 30
0.0
 10
15.8468586197
 20
13.2812544802
 30
0.0
 10
15.8366158516
 20
13.2744485174
 30
0.0
 10
15.8236201125
 20
13.2640530694
 30
0.0
 10
15.8138128073
 20
13.255268903
 30
0.0
 10
15.8041290979
 20
13.2456459305
 30
0.0
 10
15.7945777778
 20
13.2351942971
 30
0.0
 10
15.7851703795
 20
13.2239258164
 30
0.0
 10
15.7791100197
 20
13.2160194861
 30
0.0
 10
15.7761038953
 20
13.2119389829
 30
0.0
  0
SPLINE
  5
2CF
100
AcDbEntity
  8
02___PRT_ALL_AXES
100
AcDbSpline
 62
7
  6
CONTINUOUS
 70
0
 71
3
 72
15
 73
11
 74
0
 42
0.0000001
 43
0.0000001
 44
0.0000000001
 40
0.0
 40
0.0
 40
0.0
 40
0.0
 40
0.1058712909
 40
0.2173438969
 40
0.3344124158
 40
0.457013928
 40
0.5850367439
 40
0.7183404955
 40
0.8567505301
 40
1.0
 40
1.0
 40
1.0
 40
1.0
 10
15.7761038953
 20
13.2119389829
 30
0.0
 10
15.7712705237
 20
13.2053781803
 30
0.0
 10
15.7617586467
 20
13.1916033991
 30
0.0
 10
15.7482836219
 20
13.1696603469
 30
0.0
 10
15.735268471
 20
13.145961636
 30
0.0
 10
15.7227478463
 20
13.1205711176
 30
0.0
 10
15.7107544367
 20
13.0935551665
 30
0.0
 10
15.6993193923
 20
13.0649840455
 30
0.0
 10
15.6884747455
 20
13.0349355978
 30
0.0
 10
15.6817683675
 20
13.0143152421
 30
0.0
 10
15.6785129758
 20
13.0037807909
 30
0.0
  0
SPLINE
  5
2D0
100
AcDbEntity
  8
02___PRT_ALL_AXES
100
AcDbSpline
 62
7
  6
CONTINUOUS
 70
0
 71
3
 72
32
 73
28
 74
0
 42
0.0000001
 43
0.0000001
 44
0.0000000001
 40
0.0
 40
0.0
 40
0.0
 40
0.0
 40
0.089623621
 40
0.1751336457
 40
0.2564189785
 40
0.3334055587
 40
0.4060757373
 40
0.4408079575
 40
0.4744830753
 40
0.507117242
 40
0.5387329242
 40
0.5990118275
 40
0.6277660601
 40
0.6556542401
 40
0.7090418456
 40
0.7347013609
 40
0.7597688847
 40
0.7843329988
 40
0.8084901129
 40
0.8323427188
 40
0.8559981968
 40
0.8795675288
 40
0.9031630823
 40
0.9268968071
 40
0.9508783114
 40
0.9752127923
 40
1.0
 40
1.0
 40
1.0
 40
1.0
 10
16.1381528516
 20
11.9483463248
 30
0.0
 10
16.1339785322
 20
11.9376910665
 30
0.0
 10
16.1254171383
 20
11.9170244775
 30
0.0
 10
16.1115832718
 20
11.8873374052
 30
0.0
 10
16.0970982926
 20
11.859770135
 30
0.0
 10
16.0820099831
 20
11.8344173127
 30
0.0
 10
16.0687818999
 20
11.8149195934
 30
0.0
 10
16.0579213716
 20
11.8005439306
 30
0.0
 10
16.0497811284
 20
11.7905307761
 30
0.0
 10
16.0415293492
 20
11.7811318238
 30
0.0
 10
16.0305631094
 20
11.7696139592
 30
0.0
 10
16.0192364231
 20
11.7591343659
 30
0.0
 10
16.0075505184
 20
11.7498335738
 30
0.0
 10
15.9961150165
 20
11.7416643211
 30
0.0
 10
15.984362211
 20
11.7346407196
 30
0.0
 10
15.9723550415
 20
11.7289171571
 30
0.0
 10
15.9634202214
 20
11.7253488421
 30
0.0
 10
15.954446416
 20
11.7224535915
 30
0.0
 10
15.9454413784
 20
11.7202336707
 30
0.0
 10
15.9364132575
 20
11.7186913759
 30
0.0
 10
15.927370191
 20
11.7178291016
 30
0.0
 10
15.9183206764
 20
11.7176475325
 30
0.0
 10
15.9092731138
 20
11.7181464673
 30
0.0
 10
15.9002359758
 20
11.7193258704
 30
0.0
 10
15.8912175471
 20
11.7211844963
 30
0.0
 10
15.8822263834
 20
11.7237195146
 30
0.0
 10
15.8763164578
 20
11.7258371355
 30
0.0
 10
15.8733736939
 20
11.727002193
 30
0.0
  0
SPLINE
  5
2D1
100
AcDbEntity
  8
02___PRT_ALL_AXES
100
AcDbSpline
 62
7
  6
CONTINUOUS
 70
0
 71
3
 72
20
 73
16
 74
0
 42
0.0000001
 43
0.0000001
 44
0.0000000001
 40
0.0
 40
0.0
 40
0.0
 40
0.0
 40
0.049421552
 40
0.1000984855
 40
0.2057796921
 40
0.2610880343
 40
0.3181719726
 40
0.3771221991
 40
0.4380132551
 40
0.5009061853
 40
0.5658511891
 40
0.6328858103
 40
0.7020363847
 40
0.8467328765
 40
1.0
 40
1.0
 40
1.0
 40
1.0
 10
15.8733736939
 20
11.727002193
 30
0.0
 10
15.8703107363
 20
11.7282148358
 30
0.0
 10
15.864189232
 20
11.7308842645
 30
0.0
 10
15.8519893985
 20
11.7371695024
 30
0.0
 10
15.8400699376
 20
11.7447894837
 30
0.0
 10
15.8284879021
 20
11.7535798164
 30
0.0
 10
15.8197506797
 20
11.7609433787
 30
0.0
 10
15.8111049084
 20
11.7689700177
 30
0.0
 10
15.8025569286
 20
11.7776527247
 30
0.0
 10
15.7941141251
 20
11.7869835034
 30
0.0
 10
15.785784079
 20
11.7969544694
 30
0.0
 10
15.7775738029
 20
11.8075567386
 30
0.0
 10
15.7666303719
 20
11.8227520673
 30
0.0
 10
15.7533253449
 20
11.8433094439
 30
0.0
 10
15.7435114985
 20
11.860589339
 30
0.0
 10
15.7386919262
 20
11.8695973133
 30
0.0
  0
SPLINE
  5
2D2
100
AcDbEntity
  8
02___PRT_ALL_AXES
100
AcDbSpline
 62
7
  6
CONTINUOUS
 70
0
 71
3
 72
34
 73
30
 74
0
 42
0.0000001
 43
0.0000001
 44
0.0000000001
 40
0.0
 40
0.0
 40
0.0
 40
0.0
 40
0.0235672524
 40
0.0481647941
 40
0.0737671015
 40
0.1003415075
 40
0.1278498113
 40
0.1562483381
 40
0.1854889267
 40
0.215519237
 40
0.2462832206
 40
0.2777216799
 40
0.30977236
 40
0.3423706868
 40
0.4089368788
 40
0.4768680811
 40
0.5455872853
 40
0.614505719
 40
0.6830316503
 40
0.716965609
 40
0.7505827237
 40
0.7838120382
 40
0.8165843516
 40
0.8488321697
 40
0.8804896378
 40
0.9114929437
 40
0.9417841631
 40
0.9713074215
 40
1.0
 40
1.0
 40
1.0
 40
1.0
 10
15.7382546835
 20
11.870416044
 30
0.0
 10
15.7339762212
 20
11.8784421625
 30
0.0
 10
15.7255984264
 20
11.8950425753
 30
0.0
 10
15.7137968035
 20
11.9209571552
 30
0.0
 10
15.702517142
 20
11.9483623026
 30
0.0
 10
15.6917875998
 20
11.9771883877
 30
0.0
 10
15.6816355276
 20
12.0073632047
 30
0.0
 10
15.6720863563
 20
12.0388106634
 30
0.0
 10
15.6631643144
 20
12.0714515129
 30
0.0
 10
15.6548920844
 20
12.1052034101
 30
0.0
 10
15.6472903948
 20
12.1399811133
 30
0.0
 10
15.6403789185
 20
12.1756967753
 30
0.0
 10
15.634174604
 20
12.2122602527
 30
0.0
 10
15.6268162405
 20
12.2623658932
 30
0.0
 10
15.6195229294
 20
12.3264600951
 30
0.0
 10
15.6138498867
 20
12.4047020982
 30
0.0
 10
15.6112540626
 20
12.4840151814
 30
0.0
 10
15.6117620501
 20
12.5635975044
 30
0.0
 10
15.6147769332
 20
12.6296874489
 30
0.0
 10
15.6187498916
 20
12.6820558677
 30
0.0
 10
15.6224826944
 20
12.7207731867
 30
0.0
 10
15.6269684042
 20
12.7589590997
 30
0.0
 10
15.6321955725
 20
12.7965172899
 30
0.0
 10
15.6381512723
 20
12.8333526288
 30
0.0
 10
15.6448197853
 20
12.869371712
 30
0.0
 10
15.6521847023
 20
12.9044838759
 30
0.0
 10
15.6602273167
 20
12.9386016989
 30
0.0
 10
15.6689274782
 20
12.9716364118
 30
0.0
 10
15.6752436218
 20
12.9932011574
 30
0.0
 10
15.6785129758
 20
13.0037807909
 30
0.0
  0
SPLINE
  5
2D3
100
AcDbEntity
  8
02___PRT_ALL_AXES
100
AcDbSpline
 62
7
  6
CONTINUOUS
 70
0
 71
3
 72
9
 73
5
 74
0
 42
0.0000001
 43
0.0000001
 44
0.0000000001
 40
0.0
 40
0.0
 40
0.0
 40
0.0
 40
0.502849439
 40
1.0
 40
1.0
 40
1.0
 40
1.0
 10
15.9425803408
 20
11.8873946739
 30
0.0
 10
15.9389348407
 20
11.8865405605
 30
0.0
 10
15.931584509
 20
11.8852425148
 30
0.0
 10
15.924132146
 20
11.8848050739
 30
0.0
 10
15.9204303602
 20
11.8848051566
 30
0.0
  0
SPLINE
  5
2D4
100
AcDbEntity
  8
02___PRT_ALL_AXES
100
AcDbSpline
 62
7
  6
CONTINUOUS
 70
0
 71
3
 72
37
 73
33
 74
0
 42
0.0000001
 43
0.0000001
 44
0.0000000001
 40
0.0
 40
0.0
 40
0.0
 40
0.0
 40
0.0223726862
 40
0.0443664881
 40
0.0661103068
 40
0.0877384585
 40
0.1093880148
 40
0.1311954813
 40
0.1532938313
 40
0.1758095568
 40
0.1988602749
 40
0.2225537228
 40
0.2722144613
 40
0.2983663366
 40
0.3254762138
 40
0.3535958931
 40
0.3827670815
 40
0.4130223786
 40
0.4443871061
 40
0.4768783212
 40
0.5105069675
 40
0.5452782539
 40
0.5811911381
 40
0.6182406063
 40
0.6564166871
 40
0.6957051594
 40
0.736088903
 40
0.7775464714
 40
0.8200538232
 40
0.863584259
 40
0.9081077091
 40
1.0
 40
1.0
 40
1.0
 40
1.0
 10
16.0030195373
 20
11.5969266105
 30
0.0
 10
15.9990613983
 20
11.5956016323
 30
0.0
 10
15.9911050196
 20
11.5932807011
 30
0.0
 10
15.9790063442
 20
11.5908124644
 30
0.0
 10
15.9668786085
 20
11.5893953263
 30
0.0
 10
15.9547379448
 20
11.5890320514
 30
0.0
 10
15.9425996768
 20
11.5897238731
 30
0.0
 10
15.9304792749
 20
11.5914685406
 30
0.0
 10
15.9183919518
 20
11.594264112
 30
0.0
 10
15.9063526686
 20
11.598105892
 30
0.0
 10
15.8943748179
 20
11.6029879792
 30
0.0
 10
15.8782568144
 20
11.6109997214
 30
0.0
 10
15.8625517229
 20
11.6210187106
 30
0.0
 10
15.8473561312
 20
11.6327686948
 30
0.0
 10
15.8358870098
 20
11.6427310961
 30
0.0
 10
15.8245589542
 20
11.6536779215
 30
0.0
 10
15.8133827742
 20
11.6655973107
 30
0.0
 10
15.8023707389
 20
11.6784752067
 30
0.0
 10
15.7915354741
 20
11.6922975744
 30
0.0
 10
15.7808884338
 20
11.707048361
 30
0.0
 10
15.7704415847
 20
11.7227110652
 30
0.0
 10
15.7602069128
 20
11.739268186
 30
0.0
 10
15.7501952837
 20
11.7567007299
 30
0.0
 10
15.7404184589
 20
11.7749892854
 30
0.0
 10
15.7308872927
 20
11.7941130973
 30
0.0
 10
15.7216122515
 20
11.8140504492
 30
0.0
 10
15.7126043881
 20
11.8347790034
 30
0.0
 10
15.7038733836
 20
11.8562751133
 30
0.0
 10
15.695429309
 20
11.8785144573
 30
0.0
 10
15.6872819138
 20
11.9014720716
 30
0.0
 10
15.676715195
 20
11.9333397365
 30
0.0
 10
15.6694364624
 20
11.9577361589
 30
0.0
 10
15.6648315298
 20
11.9742502628
 30
0.0
  0
SPLINE
  5
2D5
100
AcDbEntity
  8
02___PRT_ALL_AXES
100
AcDbSpline
 62
7
  6
CONTINUOUS
 70
0
 71
3
 72
26
 73
22
 74
0
 42
0.0000001
 43
0.0000001
 44
0.0000000001
 40
0.0
 40
0.0
 40
0.0
 40
0.0
 40
0.0572562382
 40
0.116775016
 40
0.1782601628
 40
0.2413943131
 40
0.3058431146
 40
0.3712591213
 40
0.4372854809
 40
0.503559497
 40
0.5697161312
 40
0.6353914515
 40
0.7002261593
 40
0.7638689223
 40
0.8259806399
 40
0.8563616183
 40
0.8862391332
 40
0.9155764986
 40
0.9443399824
 40
0.9724943036
 40
1.0
 40
1.0
 40
1.0
 40
1.0
 10
15.6643211003
 20
11.9760854918
 30
0.0
 10
15.6586041332
 20
11.9966938708
 30
0.0
 10
15.6478838033
 20
12.03899022
 30
0.0
 10
15.6341314232
 20
12.1041551553
 30
0.0
 10
15.6224590856
 20
12.1719534117
 30
0.0
 10
15.6129433332
 20
12.2419451586
 30
0.0
 10
15.6056462115
 20
12.3136781581
 30
0.0
 10
15.6006154338
 20
12.3866879514
 30
0.0
 10
15.5978838825
 20
12.4605017695
 30
0.0
 10
15.5974694042
 20
12.5346414558
 30
0.0
 10
15.5993747019
 20
12.6086267257
 30
0.0
 10
15.6035873042
 20
12.6819782641
 30
0.0
 10
15.6100797021
 20
12.7542211716
 30
0.0
 10
15.6188094277
 20
12.8248871145
 30
0.0
 10
15.6279672228
 20
12.8824980364
 30
0.0
 10
15.6363924377
 20
12.9274255145
 30
0.0
 10
15.6431842538
 20
12.9601976101
 30
0.0
 10
15.6504844706
 20
12.9922408571
 30
0.0
 10
15.6582813688
 20
13.0235041346
 30
0.0
 10
15.66656198
 20
13.0539342493
 30
0.0
 10
15.6724657557
 20
13.0738710551
 30
0.0
 10
15.6754991491
 20
13.0836871196
 30
0.0
  0
SPLINE
  5
2D6
100
AcDbEntity
  8
0
100
AcDbSpline
 62
7
  6
CONTINUOUS
 70
0
 71
3
 72
18
 73
14
 74
0
 42
0.0000001
 43
0.0000001
 44
0.0000000001
 40
0.0
 40
0.0
 40
0.0
 40
0.0
 40
0.0393992489
 40
0.0798056564
 40
0.1220814711
 40
0.1669729756
 40
0.2150586525
 40
0.2667527522
 40
0.3819112193
 40
0.5136025926
 40
0.6615431339
 40
0.824497638
 40
1.0
 40
1.0
 40
1.0
 40
1.0
 10
14.4116912482
 20
12.1173621038
 30
0.0
 10
14.4114281057
 20
12.1173623518
 30
0.0
 10
14.4108940657
 20
12.117409436
 30
0.0
 10
14.4101021523
 20
12.1176176706
 30
0.0
 10
14.4093193843
 20
12.1179624283
 30
0.0
 10
14.408550678
 20
12.1184419191
 30
0.0
 10
14.4077985316
 20
12.1190518514
 30
0.0
 10
14.4067846612
 20
12.1200713204
 30
0.0
 10
14.4055867958
 20
12.1216775666
 30
0.0
 10
14.4043106388
 20
12.1239913012
 30
0.0
 10
14.403164846
 20
12.1267213208
 30
0.0
 10
14.4021724312
 20
12.1298179694
 30
0.0
 10
14.4016396737
 20
12.1320169063
 30
0.0
 10
14.4013996616
 20
12.1331642288
 30
0.0
  0
SPLINE
  5
2D7
100
AcDbEntity
  8
0
100
AcDbSpline
 62
7
  6
CONTINUOUS
 70
0
 71
3
 72
11
 73
7
 74
0
 42
0.0000001
 43
0.0000001
 44
0.0000000001
 40
0.0
 40
0.0
 40
0.0
 40
0.0
 40
0.2312172536
 40
0.4790749392
 40
0.7375347327
 40
1.0
 40
1.0
 40
1.0
 40
1.0
 10
14.4558118884
 20
12.0647307259
 30
0.0
 10
14.4560870663
 20
12.0657069911
 30
0.0
 10
14.4565579839
 20
12.0677583971
 30
0.0
 10
14.4570313675
 20
12.0709617947
 30
0.0
 10
14.4572851307
 20
12.0743273637
 30
0.0
 10
14.4573038728
 20
12.0766144871
 30
0.0
 10
14.4572744965
 20
12.0777654973
 30
0.0
  0
SPLINE
  5
2D8
100
AcDbEntity
  8
0
100
AcDbSpline
 62
7
  6
CONTINUOUS
 70
0
 71
3
 72
9
 73
5
 74
0
 42
0.0000001
 43
0.0000001
 44
0.0000000001
 40
0.0
 40
0.0
 40
0.0
 40
0.0
 40
0.4885505923
 40
1.0
 40
1.0
 40
1.0
 40
1.0
 10
14.4558118884
 20
12.0647307259
 30
0.0
 10
14.4532354132
 20
12.0555900092
 30
0.0
 10
14.4484707231
 20
12.0367342292
 30
0.0
 10
14.4446157408
 20
12.0176738017
 30
0.0
 10
14.4428565387
 20
12.0078886632
 30
0.0
  0
SPLINE
  5
2D9
100
AcDbEntity
  8
0
100
AcDbSpline
 62
7
  6
CONTINUOUS
 70
0
 71
3
 72
15
 73
11
 74
0
 42
0.0000001
 43
0.0000001
 44
0.0000000001
 40
0.0
 40
0.0
 40
0.0
 40
0.0
 40
0.1088977834
 40
0.2268222084
 40
0.3515921774
 40
0.4810428087
 40
0.6129628562
 40
0.7450616422
 40
0.8749615633
 40
1.0
 40
1.0
 40
1.0
 40
1.0
 10
14.4448034183
 20
11.9751775785
 30
0.0
 10
14.4444040441
 20
11.9763101806
 30
0.0
 10
14.4436851714
 20
11.9787097629
 30
0.0
 10
14.4428542395
 20
11.9825001167
 30
0.0
 10
14.4422462882
 20
11.986561844
 30
0.0
 10
14.4418716913
 20
11.9908062309
 30
0.0
 10
14.4417400731
 20
11.9951458395
 30
0.0
 10
14.4418526692
 20
11.9994910078
 30
0.0
 10
14.4422099015
 20
12.0037466613
 30
0.0
 10
14.4426125377
 20
12.0065314665
 30
0.0
 10
14.4428565387
 20
12.0078886632
 30
0.0
  0
SPLINE
  5
2DA
100
AcDbEntity
  8
0
100
AcDbSpline
 62
7
  6
CONTINUOUS
 70
0
 71
3
 72
11
 73
7
 74
0
 42
0.0000001
 43
0.0000001
 44
0.0000000001
 40
0.0
 40
0.0
 40
0.0
 40
0.0
 40
0.2470314408
 40
0.5003721527
 40
0.7535244048
 40
1.0
 40
1.0
 40
1.0
 40
1.0
 10
14.513636484
 20
11.9241110199
 30
0.0
 10
14.5137898014
 20
11.9252207224
 30
0.0
 10
14.5140154352
 20
11.9274808438
 30
0.0
 10
14.5141231701
 20
11.9308986947
 30
0.0
 10
14.5140021531
 20
11.9343135813
 30
0.0
 10
14.5137675796
 20
11.9365694173
 30
0.0
 10
14.5136097776
 20
11.9376759448
 30
0.0
  0
SPLINE
  5
2DB
100
AcDbEntity
  8
0
100
AcDbSpline
 62
7
  6
CONTINUOUS
 70
0
 71
3
 72
16
 73
12
 74
0
 42
0.0000001
 43
0.0000001
 44
0.0000000001
 40
0.0
 40
0.0
 40
0.0
 40
0.0
 40
0.045388019
 40
0.0940027042
 40
0.2003230441
 40
0.3176347983
 40
0.4442145205
 40
0.5781030304
 40
0.7170800739
 40
0.8587049638
 40
1.0
 40
1.0
 40
1.0
 40
1.0
 10
14.5128989735
 20
11.8302211044
 30
0.0
 10
14.5126482706
 20
11.8306152423
 30
0.0
 10
14.5121604419
 20
11.8314517765
 30
0.0
 10
14.5112376463
 20
11.833296535
 30
0.0
 10
14.510201879
 20
11.8359058036
 30
0.0
 10
14.5091783664
 20
11.8393655229
 30
0.0
 10
14.5083581001
 20
11.8431693336
 30
0.0
 10
14.5077602682
 20
11.847239282
 30
0.0
 10
14.5073959052
 20
11.8514919787
 30
0.0
 10
14.5072761107
 20
11.8558345232
 30
0.0
 10
14.5073585029
 20
11.8587469079
 30
0.0
 10
14.5074421634
 20
11.860198651
 30
0.0
  0
SPLINE
  5
2DC
100
AcDbEntity
  8
0
100
AcDbSpline
 62
7
  6
CONTINUOUS
 70
0
 71
3
 72
17
 73
13
 74
0
 42
0.0000001
 43
0.0000001
 44
0.0000000001
 40
0.0
 40
0.0
 40
0.0
 40
0.0
 40
0.0803281033
 40
0.1256549752
 40
0.1745658303
 40
0.2270984947
 40
0.2832044236
 40
0.405645097
 40
0.5406732144
 40
0.6864228583
 40
0.8405878883
 40
1.0
 40
1.0
 40
1.0
 40
1.0
 10
14.5941396196
 20
11.7404014894
 30
0.0
 10
14.5935475262
 20
11.7408120823
 30
0.0
 10
14.5927138747
 20
11.7415902654
 30
0.0
 10
14.5917290405
 20
11.7428079158
 30
0.0
 10
14.5909893858
 20
11.7438991636
 30
0.0
 10
14.5902841364
 20
11.7451249329
 30
0.0
 10
14.5893662288
 20
11.7469846579
 30
0.0
 10
14.5883389943
 20
11.7496087782
 30
0.0
 10
14.5873240927
 20
11.7530840523
 30
0.0
 10
14.5865127138
 20
11.756903495
 30
0.0
 10
14.5859259799
 20
11.7609841789
 30
0.0
 10
14.5856925636
 20
11.7637891053
 30
0.0
 10
14.5856149573
 20
11.7652168953
 30
0.0
  0
SPLINE
  5
2DD
100
AcDbEntity
  8
0
100
AcDbSpline
 62
7
  6
CONTINUOUS
 70
0
 71
3
 72
19
 73
15
 74
0
 42
0.0000001
 43
0.0000001
 44
0.0000000001
 40
0.0
 40
0.0
 40
0.0
 40
0.0
 40
0.0382726328
 40
0.0776867751
 40
0.1632511612
 40
0.21100633
 40
0.2626066601
 40
0.3183067187
 40
0.3782516241
 40
0.4424895823
 40
0.5109607058
 40
0.6600596982
 40
0.8240387986
 40
1.0
 40
1.0
 40
1.0
 40
1.0
 10
14.681688546
 20
11.7129883129
 30
0.0
 10
14.6814089701
 20
11.7129884868
 30
0.0
 10
14.6808401911
 20
11.7130422889
 30
0.0
 10
14.679687059
 20
11.7133663139
 30
0.0
 10
14.6785783992
 20
11.714013641
 30
0.0
 10
14.6775571773
 20
11.7148995641
 30
0.0
 10
14.6767847627
 20
11.7157311504
 30
0.0
 10
14.6760389005
 20
11.7167004688
 30
0.0
 10
14.675322273
 20
11.7178033464
 30
0.0
 10
14.6746386489
 20
11.7190345831
 30
0.0
 10
14.6737494886
 20
11.7208923497
 30
0.0
 10
14.6727542103
 20
11.7235010456
 30
0.0
 10
14.6717725759
 20
11.7269392788
 30
0.0
 10
14.6712645122
 20
11.7293723193
 30
0.0
 10
14.6710418256
 20
11.7306382531
 30
0.0
  0
SPLINE
  5
2DE
100
AcDbEntity
  8
0
100
AcDbSpline
 62
7
  6
CONTINUOUS
 70
0
 71
3
 72
14
 73
10
 74
0
 42
0.0000001
 43
0.0000001
 44
0.0000000001
 40
0.0
 40
0.0
 40
0.0
 40
0.0
 40
0.1049146939
 40
0.2121589046
 40
0.3238838017
 40
0.4419769162
 40
0.5678619657
 40
0.702485617
 40
1.0
 40
1.0
 40
1.0
 40
1.0
 10
14.5300331256
 20
11.8092812276
 30
0.0
 10
14.5297859333
 20
11.8092812886
 30
0.0
 10
14.5292851627
 20
11.8093224946
 30
0.0
 10
14.5285414824
 20
11.8095061897
 30
0.0
 10
14.5278050519
 20
11.809810809
 30
0.0
 10
14.5270796521
 20
11.8102351041
 30
0.0
 10
14.526367823
 20
11.8107758912
 30
0.0
 10
14.5254083052
 20
11.8116773341
 30
0.0
 10
14.5247669108
 20
11.8124758138
 30
0.0
 10
14.5243642653
 20
11.8130496185
 30
0.0
  0
SPLINE
  5
2DF
100
AcDbEntity
  8
0
100
AcDbSpline
 62
7
  6
CONTINUOUS
 70
0
 71
3
 72
20
 73
16
 74
0
 42
0.0000001
 43
0.0000001
 44
0.0000000001
 40
0.0
 40
0.0
 40
0.0
 40
0.0
 40
0.1722830421
 40
0.3345181073
 40
0.4835853216
 40
0.5525757253
 40
0.6176150834
 40
0.6785755935
 40
0.7354207686
 40
0.7881851305
 40
0.8369879099
 40
0.8820746325
 40
0.9238605065
 40
0.9629192716
 40
1.0
 40
1.0
 40
1.0
 40
1.0
 10
14.6448393154
 20
13.287149624
 30
0.0
 10
14.6450230234
 20
13.2884923007
 30
0.0
 10
14.6454599941
 20
13.2910893487
 30
0.0
 10
14.6463458843
 20
13.2947917958
 30
0.0
 10
14.6472732252
 20
13.29764047
 30
0.0
 10
14.6481172633
 20
13.2997021208
 30
0.0
 10
14.6487747181
 20
13.3010888252
 30
0.0
 10
14.6494700814
 20
13.3023489932
 30
0.0
 10
14.6501995666
 20
13.3034765632
 30
0.0
 10
14.6509596086
 20
13.3044659821
 30
0.0
 10
14.6517469845
 20
13.3053118597
 30
0.0
 10
14.6525588607
 20
13.3060085086
 30
0.0
 10
14.6533906036
 20
13.3065525164
 30
0.0
 10
14.6542373242
 20
13.3069403444
 30
0.0
 10
14.6548199058
 20
13.3070948072
 30
0.0
 10
14.6551076462
 20
13.3071425764
 30
0.0
  0
SPLINE
  5
2E0
100
AcDbEntity
  8
0
100
AcDbSpline
 62
7
  6
CONTINUOUS
 70
0
 71
3
 72
18
 73
14
 74
0
 42
0.0000001
 43
0.0000001
 44
0.0000000001
 40
0.0
 40
0.0
 40
0.0
 40
0.0
 40
0.1537243095
 40
0.3040356909
 40
0.4478041355
 40
0.5826497505
 40
0.7065487776
 40
0.763908816
 40
0.8179830522
 40
0.8686549684
 40
0.9158705477
 40
0.9596292977
 40
1.0
 40
1.0
 40
1.0
 40
1.0
 10
14.5608931634
 20
13.2337690694
 30
0.0
 10
14.5609226581
 20
13.2352165572
 30
0.0
 10
14.561062585
 20
13.2380784117
 30
0.0
 10
14.5615114716
 20
13.2422743247
 30
0.0
 10
14.5621930347
 20
13.2462591022
 30
0.0
 10
14.5630890702
 20
13.2499458797
 30
0.0
 10
14.5640227676
 20
13.2527774224
 30
0.0
 10
14.5648719036
 20
13.2548256744
 30
0.0
 10
14.5655334248
 20
13.2562026314
 30
0.0
 10
14.5662331654
 20
13.2574522856
 30
0.0
 10
14.5669664682
 20
13.258568274
 30
0.0
 10
14.5677286128
 20
13.2595444577
 30
0.0
 10
14.5682747564
 20
13.2601209047
 30
0.0
 10
14.5685520914
 20
13.2603809978
 30
0.0
  0
SPLINE
  5
2E1
100
AcDbEntity
  8
0
100
AcDbSpline
 62
7
  6
CONTINUOUS
 70
0
 71
3
 72
15
 73
11
 74
0
 42
0.0000001
 43
0.0000001
 44
0.0000000001
 40
0.0
 40
0.0
 40
0.0
 40
0.0
 40
0.0904047186
 40
0.1854970888
 40
0.2892424448
 40
0.4044018384
 40
0.532673365
 40
0.6749188659
 40
0.8309410932
 40
1.0
 40
1.0
 40
1.0
 40
1.0
 10
14.4622374972
 20
11.9414745102
 30
0.0
 10
14.4618493658
 20
11.9414746471
 30
0.0
 10
14.4610497849
 20
11.9415793596
 30
0.0
 10
14.4598847752
 20
11.9420380822
 30
0.0
 10
14.4587543885
 20
11.9427876018
 30
0.0
 10
14.4576657331
 20
11.9438139575
 30
0.0
 10
14.4566249405
 20
11.9451071768
 30
0.0
 10
14.4556417717
 20
11.9466557719
 30
0.0
 10
14.4547230833
 20
11.9484419012
 30
0.0
 10
14.4541806341
 20
11.9497293149
 30
0.0
 10
14.4539203702
 20
11.9504068617
 30
0.0
  0
SPLINE
  5
2E2
100
AcDbEntity
  8
0
100
AcDbSpline
 62
7
  6
CONTINUOUS
 70
0
 71
3
 72
15
 73
11
 74
0
 42
0.0000001
 43
0.0000001
 44
0.0000000001
 40
0.0
 40
0.0
 40
0.0
 40
0.0
 40
0.159296675
 40
0.3073970818
 40
0.4444540004
 40
0.5709201591
 40
0.6877501626
 40
0.7966422687
 40
0.8998280002
 40
1.0
 40
1.0
 40
1.0
 40
1.0
 10
14.5014784078
 20
13.1725414078
 30
0.0
 10
14.5017088042
 20
13.1729401585
 30
0.0
 10
14.5021794967
 20
13.1736950747
 30
0.0
 10
14.5029446097
 20
13.1747292314
 30
0.0
 10
14.5037387739
 20
13.1756181107
 30
0.0
 10
14.5045579417
 20
13.1763555173
 30
0.0
 10
14.5053990444
 20
13.1769351124
 30
0.0
 10
14.506257569
 20
13.1773533792
 30
0.0
 10
14.5071286949
 20
13.1776069718
 30
0.0
 10
14.5077180395
 20
13.1776641218
 30
0.0
 10
14.5080076367
 20
13.1776640938
 30
0.0
  0
SPLINE
  5
2E3
100
AcDbEntity
  8
0
100
AcDbSpline
 62
7
  6
CONTINUOUS
 70
0
 71
3
 72
15
 73
11
 74
0
 42
0.0000001
 43
0.0000001
 44
0.0000000001
 40
0.0
 40
0.0
 40
0.0
 40
0.0
 40
0.1362082224
 40
0.2742016269
 40
0.4110871996
 40
0.5444287483
 40
0.6719658091
 40
0.7916360872
 40
0.9015419695
 40
1.0
 40
1.0
 40
1.0
 40
1.0
 10
14.4862038985
 20
13.1218182649
 30
0.0
 10
14.486071043
 20
13.1232538403
 30
0.0
 10
14.4858910215
 20
13.1261524875
 30
0.0
 10
14.4858657439
 20
13.1305057908
 30
0.0
 10
14.4860871866
 20
13.1348233774
 30
0.0
 10
14.4865474763
 20
13.1390108829
 30
0.0
 10
14.4872384202
 20
13.1429820053
 30
0.0
 10
14.4881436203
 20
13.1466557233
 30
0.0
 10
14.4892465211
 20
13.1499521198
 30
0.0
 10
14.4901465803
 20
13.1519715432
 30
0.0
 10
14.4906329429
 20
13.1528932293
 30
0.0
  0
SPLINE
  5
2E4
100
AcDbEntity
  8
0
100
AcDbSpline
 62
7
  6
CONTINUOUS
 70
0
 71
3
 72
11
 73
7
 74
0
 42
0.0000001
 43
0.0000001
 44
0.0000000001
 40
0.0
 40
0.0
 40
0.0
 40
0.0
 40
0.25123724
 40
0.5059948447
 40
0.7577165071
 40
1.0
 40
1.0
 40
1.0
 40
1.0
 10
14.4949521641
 20
13.0459967665
 30
0.0
 10
14.4950714035
 20
13.0471266632
 30
0.0
 10
14.4952293221
 20
13.0494116174
 30
0.0
 10
14.4952365747
 20
13.0528406836
 30
0.0
 10
14.4950158458
 20
13.0562221091
 30
0.0
 10
14.4947142401
 20
13.0584381598
 30
0.0
 10
14.4945229153
 20
13.0595170056
 30
0.0
  0
SPLINE
  5
2E5
100
AcDbEntity
  8
0
100
AcDbSpline
 62
7
  6
CONTINUOUS
 70
0
 71
3
 72
16
 73
12
 74
0
 42
0.0000001
 43
0.0000001
 44
0.0000000001
 40
0.0
 40
0.0
 40
0.0
 40
0.0
 40
0.1718785851
 40
0.3305167483
 40
0.4746792235
 40
0.6038912596
 40
0.7187753576
 40
0.8208572708
 40
0.9130578214
 40
0.9568799113
 40
1.0
 40
1.0
 40
1.0
 40
1.0
 10
14.4359132565
 20
13.0200859501
 30
0.0
 10
14.4361758122
 20
13.0208992857
 30
0.0
 10
14.4367303797
 20
13.0224480322
 30
0.0
 10
14.4376908556
 20
13.02460683
 30
0.0
 10
14.4387378005
 20
13.0264866946
 30
0.0
 10
14.4398609399
 20
13.0280628586
 30
0.0
 10
14.4410476172
 20
13.0293194102
 30
0.0
 10
14.4422902981
 20
13.0302406796
 30
0.0
 10
14.4433865403
 20
13.0307222895
 30
0.0
 10
14.444259961
 20
13.0309093179
 30
0.0
 10
14.4446929267
 20
13.0309401669
 30
0.0
 10
14.4449073407
 20
13.0309400329
 30
0.0
  0
SPLINE
  5
2E6
100
AcDbEntity
  8
0
100
AcDbSpline
 62
7
  6
CONTINUOUS
 70
0
 71
3
 72
15
 73
11
 74
0
 42
0.0000001
 43
0.0000001
 44
0.0000000001
 40
0.0
 40
0.0
 40
0.0
 40
0.0
 40
0.1203728293
 40
0.2468481371
 40
0.3768803995
 40
0.5081361237
 40
0.6383325308
 40
0.7652205667
 40
0.8865568226
 40
1.0
 40
1.0
 40
1.0
 40
1.0
 10
14.4268224007
 20
12.960366799
 30
0.0
 10
14.4265319833
 20
12.9616725834
 30
0.0
 10
14.4260355369
 20
12.9643729975
 30
0.0
 10
14.4255379957
 20
12.9685339753
 30
0.0
 10
14.4252811462
 20
12.9728379458
 30
0.0
 10
14.4252677476
 20
12.9771907474
 30
0.0
 10
14.4254996614
 20
12.98150244
 30
0.0
 10
14.4259703358
 20
12.9856840362
 30
0.0
 10
14.4266723482
 20
12.9896441209
 30
0.0
 10
14.4273052722
 20
12.9921783527
 30
0.0
 10
14.4276627466
 20
12.9933872905
 30
0.0
  0
SPLINE
  5
2E7
100
AcDbEntity
  8
0
100
AcDbSpline
 62
7
  6
CONTINUOUS
 70
0
 71
3
 72
9
 73
5
 74
0
 42
0.0000001
 43
0.0000001
 44
0.0000000001
 40
0.0
 40
0.0
 40
0.0
 40
0.0
 40
0.5135351931
 40
1.0
 40
1.0
 40
1.0
 40
1.0
 10
14.4268224007
 20
12.960366799
 30
0.0
 10
14.4288954922
 20
12.951045697
 30
0.0
 10
14.4333542804
 20
12.9329853016
 30
0.0
 10
14.4387531475
 20
12.9151803301
 30
0.0
 10
14.4416396238
 20
12.906607739
 30
0.0
  0
SPLINE
  5
2E8
100
AcDbEntity
  8
0
100
AcDbSpline
 62
7
  6
CONTINUOUS
 70
0
 71
3
 72
11
 73
7
 74
0
 42
0.0000001
 43
0.0000001
 44
0.0000000001
 40
0.0
 40
0.0
 40
0.0
 40
0.0
 40
0.2675330369
 40
0.5276210113
 40
0.7737082918
 40
1.0
 40
1.0
 40
1.0
 40
1.0
 10
14.4435348151
 20
12.8939457132
 30
0.0
 10
14.4435254611
 20
12.8950916389
 30
0.0
 10
14.4434314975
 20
12.8973517258
 30
0.0
 10
14.4430671175
 20
12.9006485706
 30
0.0
 10
14.4424895246
 20
12.9037354554
 30
0.0
 10
14.4419489364
 20
12.9056891068
 30
0.0
 10
14.4416396238
 20
12.906607739
 30
0.0
  0
SPLINE
  5
2E9
100
AcDbEntity
  8
0
100
AcDbSpline
 62
7
  6
CONTINUOUS
 70
0
 71
3
 72
20
 73
16
 74
0
 42
0.0000001
 43
0.0000001
 44
0.0000000001
 40
0.0
 40
0.0
 40
0.0
 40
0.0
 40
0.1762024339
 40
0.3405259673
 40
0.4899432019
 40
0.5585341381
 40
0.6228464409
 40
0.6828122644
 40
0.7384754468
 40
0.7899740366
 40
0.8375610525
 40
0.8816530993
 40
0.9228678414
 40
0.9619979665
 40
1.0
 40
1.0
 40
1.0
 40
1.0
 10
14.389730121
 20
12.826371578
 30
0.0
 10
14.3899482585
 20
12.8276726452
 30
0.0
 10
14.390450375
 20
12.8301746675
 30
0.0
 10
14.391431731
 20
12.8337126585
 30
0.0
 10
14.3924344182
 20
12.8363992756
 30
0.0
 10
14.3933339432
 20
12.8383132169
 30
0.0
 10
14.3940268826
 20
12.8395812778
 30
0.0
 10
14.3947544265
 20
12.8407166352
 30
0.0
 10
14.3955127371
 20
12.841713912
 30
0.0
 10
14.3962982779
 20
12.8425682092
 30
0.0
 10
14.3971079412
 20
12.8432746537
 30
0.0
 10
14.3979388896
 20
12.8438277456
 30
0.0
 10
14.3987862888
 20
12.8442244033
 30
0.0
 10
14.3996446061
 20
12.8444614224
 30
0.0
 10
14.4002240148
 20
12.8445109267
 30
0.0
 10
14.4005085199
 20
12.8445079182
 30
0.0
  0
SPLINE
  5
2EA
100
AcDbEntity
  8
0
100
AcDbSpline
 62
7
  6
CONTINUOUS
 70
0
 71
3
 72
15
 73
11
 74
0
 42
0.0000001
 43
0.0000001
 44
0.0000000001
 40
0.0
 40
0.0
 40
0.0
 40
0.0
 40
0.1052944833
 40
0.2204849777
 40
0.3435375649
 40
0.4723635715
 40
0.6047920805
 40
0.7385346091
 40
0.8711864943
 40
1.0
 40
1.0
 40
1.0
 40
1.0
 10
14.3875594059
 20
12.7624945092
 30
0.0
 10
14.3871283982
 20
12.7635597687
 30
0.0
 10
14.3863441852
 20
12.76583895
 30
0.0
 10
14.3854151981
 20
12.7694745797
 30
0.0
 10
14.3847013814
 20
12.7734196809
 30
0.0
 10
14.3842153521
 20
12.7775881746
 30
0.0
 10
14.3839691335
 20
12.781894383
 30
0.0
 10
14.3839663981
 20
12.7862493767
 30
0.0
 10
14.384210128
 20
12.790557879
 30
0.0
 10
14.3845367612
 20
12.7933947813
 30
0.0
 10
14.3847429735
 20
12.7947854039
 30
0.0
  0
SPLINE
  5
2EB
100
AcDbEntity
  8
0
100
AcDbSpline
 62
7
  6
CONTINUOUS
 70
0
 71
3
 72
11
 73
7
 74
0
 42
0.0000001
 43
0.0000001
 44
0.0000000001
 40
0.0
 40
0.0
 40
0.0
 40
0.0
 40
0.2655644894
 40
0.5209024725
 40
0.7657693597
 40
1.0
 40
1.0
 40
1.0
 40
1.0
 10
14.3875594059
 20
12.7624945092
 30
0.0
 10
14.389073026
 20
12.7587535128
 30
0.0
 10
14.3921636128
 20
12.7514639375
 30
0.0
 10
14.3970932092
 20
12.7409197735
 30
0.0
 10
14.4022160319
 20
12.7310008846
 30
0.0
 10
14.4058329655
 20
12.7246789752
 30
0.0
 10
14.4076744319
 20
12.7216328879
 30
0.0
  0
SPLINE
  5
2EC
100
AcDbEntity
  8
0
100
AcDbSpline
 62
7
  6
CONTINUOUS
 70
0
 71
3
 72
12
 73
8
 74
0
 42
0.0000001
 43
0.0000001
 44
0.0000000001
 40
0.0
 40
0.0
 40
0.0
 40
0.0
 40
0.285631595
 40
0.5511870917
 40
0.7906803458
 40
0.8993642131
 40
1.0
 40
1.0
 40
1.0
 40
1.0
 10
14.4108820286
 20
12.7108548774
 30
0.0
 10
14.4107502033
 20
12.7119243235
 30
0.0
 10
14.4104227833
 20
12.7139801879
 30
0.0
 10
14.4097170058
 20
12.716881698
 30
0.0
 10
14.4089548486
 20
12.7190736194
 30
0.0
 10
14.4082499103
 20
12.7206141786
 30
0.0
 10
14.4078708408
 20
12.7213079953
 30
0.0
 10
14.4076744319
 20
12.7216328879
 30
0.0
  0
SPLINE
  5
2ED
100
AcDbEntity
  8
0
100
AcDbSpline
 62
7
  6
CONTINUOUS
 70
0
 71
3
 72
15
 73
11
 74
0
 42
0.0000001
 43
0.0000001
 44
0.0000000001
 40
0.0
 40
0.0
 40
0.0
 40
0.0
 40
0.0913297497
 40
0.1894204295
 40
0.2964486526
 40
0.41393866
 40
0.5428437571
 40
0.6836551752
 40
0.8362339631
 40
1.0
 40
1.0
 40
1.0
 40
1.0
 10
14.4002352364
 20
12.6443724273
 30
0.0
 10
14.4004642087
 20
12.6444239873
 30
0.0
 10
14.4009281936
 20
12.6445840083
 30
0.0
 10
14.4015914468
 20
12.6449661561
 30
0.0
 10
14.4022364157
 20
12.6454919485
 30
0.0
 10
14.4028584919
 20
12.6461567589
 30
0.0
 10
14.4034549831
 20
12.6469553334
 30
0.0
 10
14.4040217163
 20
12.6478823758
 30
0.0
 10
14.4045550949
 20
12.6489302402
 30
0.0
 10
14.4048749066
 20
12.6496783333
 30
0.0
 10
14.4050292101
 20
12.6500698834
 30
0.0
  0
SPLINE
  5
2EE
100
AcDbEntity
  8
0
100
AcDbSpline
 62
7
  6
CONTINUOUS
 70
0
 71
3
 72
11
 73
7
 74
0
 42
0.0000001
 43
0.0000001
 44
0.0000000001
 40
0.0
 40
0.0
 40
0.0
 40
0.0
 40
0.2359099701
 40
0.4797301674
 40
0.7337759099
 40
1.0
 40
1.0
 40
1.0
 40
1.0
 10
14.4002352364
 20
12.6443724273
 30
0.0
 10
14.3980757117
 20
12.643886146
 30
0.0
 10
14.3937405961
 20
12.6426296049
 30
0.0
 10
14.3873747317
 20
12.6399723544
 30
0.0
 10
14.3810737852
 20
12.6365268422
 30
0.0
 10
14.3770281034
 20
12.6337806531
 30
0.0
 10
14.3750225114
 20
12.6322914192
 30
0.0
  0
SPLINE
  5
2EF
100
AcDbEntity
  8
0
100
AcDbSpline
 62
7
  6
CONTINUOUS
 70
0
 71
3
 72
18
 73
14
 74
0
 42
0.0000001
 43
0.0000001
 44
0.0000000001
 40
0.0
 40
0.0
 40
0.0
 40
0.0
 40
0.1582193784
 40
0.3115803254
 40
0.4569207594
 40
0.5919163823
 40
0.7146639984
 40
0.7710295772
 40
0.8238780226
 40
0.8731447967
 40
0.918846279
 40
0.9610708854
 40
1.0
 40
1.0
 40
1.0
 40
1.0
 10
14.3666704844
 20
12.607091878
 30
0.0
 10
14.3667382985
 20
12.6085245772
 30
0.0
 10
14.3669527415
 20
12.6113428724
 30
0.0
 10
14.3675115252
 20
12.6154496785
 30
0.0
 10
14.3682967392
 20
12.6193053647
 30
0.0
 10
14.3692878393
 20
12.6228261249
 30
0.0
 10
14.3702964289
 20
12.6254944784
 30
0.0
 10
14.3712006905
 20
12.6273941077
 30
0.0
 10
14.3718974332
 20
12.6286517412
 30
0.0
 10
14.3726290891
 20
12.6297758743
 30
0.0
 10
14.3733909479
 20
12.630760957
 30
0.0
 10
14.3741782406
 20
12.6316016687
 30
0.0
 10
14.3747391775
 20
12.6320810322
 30
0.0
 10
14.3750225114
 20
12.6322914192
 30
0.0
  0
SPLINE
  5
2F0
100
AcDbEntity
  8
0
100
AcDbSpline
 62
7
  6
CONTINUOUS
 70
0
 71
3
 72
16
 73
12
 74
0
 42
0.0000001
 43
0.0000001
 44
0.0000000001
 40
0.0
 40
0.0
 40
0.0
 40
0.0
 40
0.0435766588
 40
0.0904861848
 40
0.1939104659
 40
0.3092691015
 40
0.4350165525
 40
0.569300278
 40
0.7099482069
 40
0.8545274549
 40
1.0
 40
1.0
 40
1.0
 40
1.0
 10
14.3715957683
 20
12.5442318316
 30
0.0
 10
14.3713345353
 20
12.5445816496
 30
0.0
 10
14.3708242487
 20
12.5453323846
 30
0.0
 10
14.3698516041
 20
12.5470156391
 30
0.0
 10
14.368746578
 20
12.5494445549
 30
0.0
 10
14.3676344111
 20
12.5527167239
 30
0.0
 10
14.3667157104
 20
12.5563675793
 30
0.0
 10
14.3660117463
 20
12.5603227095
 30
0.0
 10
14.3655357013
 20
12.5645013824
 30
0.0
 10
14.3653012078
 20
12.5688124462
 30
0.0
 10
14.3653062509
 20
12.5717203007
 30
0.0
 10
14.3653507282
 20
12.5731771134
 30
0.0
  0
SPLINE
  5
2F1
100
AcDbEntity
  8
0
100
AcDbSpline
 62
7
  6
CONTINUOUS
 70
0
 71
3
 72
11
 73
7
 74
0
 42
0.0000001
 43
0.0000001
 44
0.0000000001
 40
0.0
 40
0.0
 40
0.0
 40
0.0
 40
0.2699551869
 40
0.5262273202
 40
0.7693280622
 40
1.0
 40
1.0
 40
1.0
 40
1.0
 10
14.3715957683
 20
12.5442318316
 30
0.0
 10
14.3734458071
 20
12.5417544383
 30
0.0
 10
14.3771863875
 20
12.5370232088
 30
0.0
 10
14.3830777386
 20
12.5304622284
 30
0.0
 10
14.389088804
 20
12.5246397493
 30
0.0
 10
14.393272461
 20
12.5211726089
 30
0.0
 10
14.3953789975
 20
12.5195780145
 30
0.0
  0
SPLINE
  5
2F2
100
AcDbEntity
  8
0
100
AcDbSpline
 62
7
  6
CONTINUOUS
 70
0
 71
3
 72
13
 73
9
 74
0
 42
0.0000001
 43
0.0000001
 44
0.0000000001
 40
0.0
 40
0.0
 40
0.0
 40
0.0
 40
0.3055523246
 40
0.5757081659
 40
0.6962870848
 40
0.8070261452
 40
0.9081033514
 40
1.0
 40
1.0
 40
1.0
 40
1.0
 10
14.3996391391
 20
12.5115571897
 30
0.0
 10
14.3994010503
 20
12.5124660798
 30
0.0
 10
14.3988784936
 20
12.5141605471
 30
0.0
 10
14.3980239173
 20
12.5161309645
 30
0.0
 10
14.3972518188
 20
12.5174675935
 30
0.0
 10
14.396663551
 20
12.5183054219
 30
0.0
 10
14.3960488997
 20
12.5190109581
 30
0.0
 10
14.3956043028
 20
12.5194074641
 30
0.0
 10
14.3953789975
 20
12.5195780145
 30
0.0
  0
SPLINE
  5
2F3
100
AcDbEntity
  8
0
100
AcDbSpline
 62
7
  6
CONTINUOUS
 70
0
 71
3
 72
13
 73
9
 74
0
 42
0.0000001
 43
0.0000001
 44
0.0000000001
 40
0.0
 40
0.0
 40
0.0
 40
0.0
 40
0.0941256001
 40
0.1973939752
 40
0.3098701051
 40
0.4314257477
 40
0.7004792173
 40
1.0
 40
1.0
 40
1.0
 40
1.0
 10
14.3967175278
 20
12.4400651094
 30
0.0
 10
14.3969364473
 20
12.4402851391
 30
0.0
 10
14.397364969
 20
12.4407774393
 30
0.0
 10
14.3979527958
 20
12.4416149285
 30
0.0
 10
14.3985103791
 20
12.4425788029
 30
0.0
 10
14.3992316647
 20
12.4440741394
 30
0.0
 10
14.4000153877
 20
12.4462164681
 30
0.0
 10
14.4004840172
 20
12.4480345839
 30
0.0
 10
14.4006922335
 20
12.4490000755
 30
0.0
  0
SPLINE
  5
2F4
100
AcDbEntity
  8
0
100
AcDbSpline
 62
7
  6
CONTINUOUS
 70
0
 71
3
 72
11
 73
7
 74
0
 42
0.0000001
 43
0.0000001
 44
0.0000000001
 40
0.0
 40
0.0
 40
0.0
 40
0.0
 40
0.2310947179
 40
0.4745996049
 40
0.7308461393
 40
1.0
 40
1.0
 40
1.0
 40
1.0
 10
14.3967175278
 20
12.4400651094
 30
0.0
 10
14.3946710206
 20
12.4380082239
 30
0.0
 10
14.390621731
 20
12.4336290826
 30
0.0
 10
14.3848331142
 20
12.4265021665
 30
0.0
 10
14.3791871364
 20
12.4186652483
 30
0.0
 10
14.3756144646
 20
12.4131159377
 30
0.0
 10
14.3738515248
 20
12.4102328124
 30
0.0
  0
SPLINE
  5
2F5
100
AcDbEntity
  8
0
100
AcDbSpline
 62
7
  6
CONTINUOUS
 70
0
 71
3
 72
16
 73
12
 74
0
 42
0.0000001
 43
0.0000001
 44
0.0000000001
 40
0.0
 40
0.0
 40
0.0
 40
0.0
 40
0.140235941
 40
0.2811074528
 40
0.4196534649
 40
0.5534330248
 40
0.6802159614
 40
0.7980194326
 40
0.9050802975
 40
0.9541368747
 40
1.0
 40
1.0
 40
1.0
 40
1.0
 10
14.3686025012
 20
12.3800115872
 30
0.0
 10
14.3685087288
 20
12.3814609019
 30
0.0
 10
14.3684063153
 20
12.3843722358
 30
0.0
 10
14.3684963861
 20
12.3887196134
 30
0.0
 10
14.368831617
 20
12.3929882069
 30
0.0
 10
14.3694015672
 20
12.3970847418
 30
0.0
 10
14.3701957747
 20
12.4009252167
 30
0.0
 10
14.3711956083
 20
12.4044308376
 30
0.0
 10
14.3722127956
 20
12.4070846748
 30
0.0
 10
14.3731220737
 20
12.4089696164
 30
0.0
 10
14.3736037418
 20
12.4098275861
 30
0.0
 10
14.3738515248
 20
12.4102328124
 30
0.0
  0
SPLINE
  5
2F6
100
AcDbEntity
  8
0
100
AcDbSpline
 62
7
  6
CONTINUOUS
 70
0
 71
3
 72
17
 73
13
 74
0
 42
0.0000001
 43
0.0000001
 44
0.0000000001
 40
0.0
 40
0.0
 40
0.0
 40
0.0
 40
0.0779430328
 40
0.1218626829
 40
0.1693853734
 40
0.2206478747
 40
0.2756763789
 40
0.3967455932
 40
0.5317084474
 40
0.6788756224
 40
0.8360323455
 40
1.0
 40
1.0
 40
1.0
 40
1.0
 10
14.3802247669
 20
12.3232611104
 30
0.0
 10
14.3796273502
 20
12.3235642387
 30
0.0
 10
14.3787707737
 20
12.324195194
 30
0.0
 10
14.3777545437
 20
12.3252382837
 30
0.0
 10
14.376986805
 20
12.3261976588
 30
0.0
 10
14.3762503078
 20
12.3272969881
 30
0.0
 10
14.3752821319
 20
12.3289960998
 30
0.0
 10
14.3741853214
 20
12.3314412155
 30
0.0
 10
14.3730812855
 20
12.3347304556
 30
0.0
 10
14.3721710281
 20
12.33839853
 30
0.0
 10
14.3714778706
 20
12.3423661568
 30
0.0
 10
14.3711721295
 20
12.3451112083
 30
0.0
 10
14.3710570551
 20
12.3465158046
 30
0.0
  0
SPLINE
  5
2F7
100
AcDbEntity
  8
0
100
AcDbSpline
 62
7
  6
CONTINUOUS
 70
0
 71
3
 72
11
 73
7
 74
0
 42
0.0000001
 43
0.0000001
 44
0.0000000001
 40
0.0
 40
0.0
 40
0.0
 40
0.0
 40
0.2606176966
 40
0.5122993145
 40
0.757762916
 40
1.0
 40
1.0
 40
1.0
 40
1.0
 10
14.3802247669
 20
12.3232611104
 30
0.0
 10
14.3822820592
 20
12.3222172431
 30
0.0
 10
14.3864336501
 20
12.3203676264
 30
0.0
 10
14.3928404191
 20
12.3183326584
 30
0.0
 10
14.3992841549
 20
12.3171009808
 30
0.0
 10
14.4036051654
 20
12.3168182475
 30
0.0
 10
14.4057494235
 20
12.316812403
 30
0.0
  0
SPLINE
  5
2F8
100
AcDbEntity
  8
0
100
AcDbSpline
 62
7
  6
CONTINUOUS
 70
0
 71
3
 72
15
 73
11
 74
0
 42
0.0000001
 43
0.0000001
 44
0.0000000001
 40
0.0
 40
0.0
 40
0.0
 40
0.0
 40
0.1648701924
 40
0.3172628612
 40
0.4569035372
 40
0.5840832656
 40
0.6998851373
 40
0.8060436517
 40
0.9050293862
 40
1.0
 40
1.0
 40
1.0
 40
1.0
 10
14.4107169788
 20
12.3121985635
 30
0.0
 10
14.4105507735
 20
12.312553007
 30
0.0
 10
14.4102085277
 20
12.3132249624
 30
0.0
 10
14.4096418379
 20
12.3141515393
 30
0.0
 10
14.4090455909
 20
12.3149507274
 30
0.0
 10
14.4084233037
 20
12.3156157259
 30
0.0
 10
14.4077788971
 20
12.3161419808
 30
0.0
 10
14.4071149652
 20
12.3165242174
 30
0.0
 10
14.4064367697
 20
12.3167577372
 30
0.0
 10
14.4059749263
 20
12.3168117884
 30
0.0
 10
14.4057494235
 20
12.316812403
 30
0.0
  0
SPLINE
  5
2F9
100
AcDbEntity
  8
0
100
AcDbSpline
 62
7
  6
CONTINUOUS
 70
0
 71
3
 72
12
 73
8
 74
0
 42
0.0000001
 43
0.0000001
 44
0.0000000001
 40
0.0
 40
0.0
 40
0.0
 40
0.0
 40
0.1036004757
 40
0.2145832455
 40
0.4562123555
 40
0.7201030396
 40
1.0
 40
1.0
 40
1.0
 40
1.0
 10
14.4157572399
 20
12.2414887161
 30
0.0
 10
14.4159412661
 20
12.2418544671
 30
0.0
 10
14.4162943273
 20
12.2426263719
 30
0.0
 10
14.4169424137
 20
12.2443097628
 30
0.0
 10
14.4176272174
 20
12.2466526967
 30
0.0
 10
14.4182346723
 20
12.2496997427
 30
0.0
 10
14.4184946375
 20
12.2518353338
 30
0.0
 10
14.4185906707
 20
12.2529373343
 30
0.0
  0
SPLINE
  5
2FA
100
AcDbEntity
  8
0
100
AcDbSpline
 62
7
  6
CONTINUOUS
 70
0
 71
3
 72
11
 73
7
 74
0
 42
0.0000001
 43
0.0000001
 44
0.0000000001
 40
0.0
 40
0.0
 40
0.0
 40
0.0
 40
0.2358831371
 40
0.4813685013
 40
0.7361846089
 40
1.0
 40
1.0
 40
1.0
 40
1.0
 10
14.4157572399
 20
12.2414887161
 30
0.0
 10
14.4140288198
 20
12.238053492
 30
0.0
 10
14.4106450397
 20
12.2309702917
 30
0.0
 10
14.4058742959
 20
12.2199547941
 30
0.0
 10
14.4013169105
 20
12.2083587886
 30
0.0
 10
14.3984758172
 20
12.2003936439
 30
0.0
 10
14.3970904264
 20
12.1963219655
 30
0.0
  0
SPLINE
  5
2FB
100
AcDbEntity
  8
0
100
AcDbSpline
 62
7
  6
CONTINUOUS
 70
0
 71
3
 72
15
 73
11
 74
0
 42
0.0000001
 43
0.0000001
 44
0.0000000001
 40
0.0
 40
0.0
 40
0.0
 40
0.0
 40
0.1240744151
 40
0.253268891
 40
0.3849438624
 40
0.5167298491
 40
0.6463368504
 40
0.7715447589
 40
0.8901711396
 40
1.0
 40
1.0
 40
1.0
 40
1.0
 10
14.3953696509
 20
12.1635274003
 30
0.0
 10
14.3951160158
 20
12.1648748925
 30
0.0
 10
14.39469395
 20
12.1676440837
 30
0.0
 10
14.3943076761
 20
12.1718828563
 30
0.0
 10
14.3941653776
 20
12.1762221862
 30
0.0
 10
14.3942672898
 20
12.1805671264
 30
0.0
 10
14.3946128103
 20
12.1848278992
 30
0.0
 10
14.3951929411
 20
12.1889166888
 30
0.0
 10
14.3959979031
 20
12.1927441708
 30
0.0
 10
14.3966994665
 20
12.1951729302
 30
0.0
 10
14.3970904264
 20
12.1963219655
 30
0.0
  0
SPLINE
  5
2FC
100
AcDbEntity
  8
0
100
AcDbSpline
 62
7
  6
CONTINUOUS
 70
0
 71
3
 72
15
 73
11
 74
0
 42
0.0000001
 43
0.0000001
 44
0.0000000001
 40
0.0
 40
0.0
 40
0.0
 40
0.0
 40
0.1459245428
 40
0.2863977408
 40
0.4210590808
 40
0.5495835356
 40
0.6717827411
 40
0.7875840857
 40
0.8969690173
 40
1.0
 40
1.0
 40
1.0
 40
1.0
 10
16.461197664
 20
12.6400998663
 30
0.0
 10
16.4621513984
 20
12.6431861523
 30
0.0
 10
16.4641235396
 20
12.6492130967
 30
0.0
 10
16.4673400172
 20
12.6579636157
 30
0.0
 10
16.4707483554
 20
12.666226441
 30
0.0
 10
16.4743374756
 20
12.6739690438
 30
0.0
 10
16.4780948687
 20
12.6811639595
 30
0.0
 10
16.4820072558
 20
12.6877889155
 30
0.0
 10
16.4860626534
 20
12.6938226317
 30
0.0
 10
16.4889390929
 20
12.697548211
 30
0.0
 10
16.4904007095
 20
12.6992990896
 30
0.0
  0
SPLINE
  5
2FD
100
AcDbEntity
  8
0
100
AcDbSpline
 62
7
  6
CONTINUOUS
 70
0
 71
3
 72
15
 73
11
 74
0
 42
0.0000001
 43
0.0000001
 44
0.0000000001
 40
0.0
 40
0.0
 40
0.0
 40
0.0
 40
0.1459858095
 40
0.2864715146
 40
0.4210912196
 40
0.5495656901
 40
0.6717503685
 40
0.7875536315
 40
0.8969522347
 40
1.0
 40
1.0
 40
1.0
 40
1.0
 10
16.689979064
 20
12.1738923901
 30
0.0
 10
16.6874927843
 20
12.165846786
 30
0.0
 10
16.6823529309
 20
12.1501376206
 30
0.0
 10
16.6739717881
 20
12.1273334476
 30
0.0
 10
16.6650907488
 20
12.1058069581
 30
0.0
 10
16.6557390076
 20
12.0856377639
 30
0.0
 10
16.645950968
 20
12.0668918401
 30
0.0
 10
16.6357554331
 20
12.0496288199
 30
0.0
 10
16.6251863817
 20
12.0339050654
 30
0.0
 10
16.6176919853
 20
12.0241939811
 30
0.0
 10
16.6138831021
 20
12.0196304656
 30
0.0
  0
SPLINE
  5
2FE
100
AcDbEntity
  8
02___PRT_ALL_AXES
100
AcDbSpline
 62
7
  6
CONTINUOUS
 70
0
 71
3
 72
32
 73
28
 74
0
 42
0.0000001
 43
0.0000001
 44
0.0000000001
 40
0.0
 40
0.0
 40
0.0
 40
0.0
 40
0.0287193729
 40
0.0584119351
 40
0.1203608015
 40
0.1852409719
 40
0.2523038582
 40
0.2863992579
 40
0.320719208
 40
0.389595389
 40
0.4581865032
 40
0.525820657
 40
0.5591237112
 40
0.5919953837
 40
0.6562307905
 40
0.6875806722
 40
0.7183821515
 40
0.7486319718
 40
0.7783343008
 40
0.8075057247
 40
0.83617157
 40
0.8643646592
 40
0.8921281887
 40
0.9195112288
 40
0.9465717213
 40
0.9733769675
 40
1.0
 40
1.0
 40
1.0
 40
1.0
 10
16.1533426075
 20
12.8601497951
 30
0.0
 10
16.1527615338
 20
12.8582694397
 30
0.0
 10
16.1514266478
 20
12.8544907553
 30
0.0
 10
16.1481186986
 20
12.8469288687
 30
0.0
 10
16.1428022959
 20
12.8375732998
 30
0.0
 10
16.1348357143
 20
12.8269019937
 30
0.0
 10
16.1269911496
 20
12.8186216938
 30
0.0
 10
16.1200490202
 20
12.8124506815
 30
0.0
 10
16.1126665258
 20
12.8066112065
 30
0.0
 10
16.102809138
 20
12.8001215272
 30
0.0
 10
16.0902027474
 20
12.7938313961
 30
0.0
 10
16.0792047415
 20
12.7899775894
 30
0.0
 10
16.0702819408
 20
12.7878352915
 30
0.0
 10
16.0614635152
 20
12.7863532272
 30
0.0
 10
16.0526370736
 20
12.7858307733
 30
0.0
 10
16.0439828299
 20
12.786323247
 30
0.0
 10
16.0377026375
 20
12.7871871552
 30
0.0
 10
16.0316243925
 20
12.7885367443
 30
0.0
 10
16.0257882036
 20
12.7903624094
 30
0.0
 10
16.0202336682
 20
12.7926488535
 30
0.0
 10
16.0149965394
 20
12.7953737612
 30
0.0
 10
16.0101134661
 20
12.7985173518
 30
0.0
 10
16.0056165866
 20
12.8020519761
 30
0.0
 10
16.0015361348
 20
12.805949015
 30
0.0
 10
15.9979022417
 20
12.8101797829
 30
0.0
 10
15.9947389902
 20
12.8147091999
 30
0.0
 10
15.9929551173
 20
12.8179152964
 30
0.0
 10
15.9921515866
 20
12.8195532501
 30
0.0
  0
SPLINE
  5
2FF
100
AcDbEntity
  8
02___PRT_ALL_AXES
100
AcDbSpline
 62
7
  6
CONTINUOUS
 70
0
 71
3
 72
15
 73
11
 74
0
 42
0.0000001
 43
0.0000001
 44
0.0000000001
 40
0.0
 40
0.0
 40
0.0
 40
0.0
 40
0.1151171637
 40
0.2316922076
 40
0.350565327
 40
0.4724715794
 40
0.5980240432
 40
0.7277076035
 40
0.8617023631
 40
1.0
 40
1.0
 40
1.0
 40
1.0
 10
16.1519473705
 20
12.897969622
 30
0.0
 10
16.1526023467
 20
12.8966344172
 30
0.0
 10
16.1537712039
 20
12.8938710078
 30
0.0
 10
16.1550721276
 20
12.8895242009
 30
0.0
 10
16.1559213227
 20
12.884977736
 30
0.0
 10
16.1563165618
 20
12.8802540121
 30
0.0
 10
16.1562582239
 20
12.8753750731
 30
0.0
 10
16.1557458559
 20
12.870366364
 30
0.0
 10
16.1547872976
 20
12.8652569842
 30
0.0
 10
16.153870117
 20
12.8618568164
 30
0.0
 10
16.1533426075
 20
12.8601497951
 30
0.0
  0
SPLINE
  5
300
100
AcDbEntity
  8
0
100
AcDbSpline
 62
7
  6
CONTINUOUS
 70
0
 71
3
 72
17
 73
13
 74
0
 42
0.0000001
 43
0.0000001
 44
0.0000000001
 40
0.0
 40
0.0
 40
0.0
 40
0.0
 40
0.149110651
 40
0.289629422
 40
0.4221268037
 40
0.5473753269
 40
0.6664017542
 40
0.780466313
 40
0.836126209
 40
0.8911237488
 40
0.9456745126
 40
1.0
 40
1.0
 40
1.0
 40
1.0
 10
16.5987547505
 20
12.0015059443
 30
0.0
 10
16.5952525192
 20
11.9973098359
 30
0.0
 10
16.5881694927
 20
11.9893866143
 30
0.0
 10
16.5769710219
 20
11.9786842684
 30
0.0
 10
16.565550871
 20
11.969556342
 30
0.0
 10
16.5539364416
 20
11.962036637
 30
0.0
 10
16.5421625372
 20
11.9561497781
 30
0.0
 10
16.5321592403
 20
11.9525961565
 30
0.0
 10
16.5241560414
 20
11.9506247392
 30
0.0
 10
16.5181868906
 20
11.9495758856
 30
0.0
 10
16.5122086705
 20
11.9489460619
 30
0.0
 10
16.5082164401
 20
11.9488056906
 30
0.0
 10
16.5062251524
 20
11.9488055419
 30
0.0
  0
SPLINE
  5
301
100
AcDbEntity
  8
0
100
AcDbSpline
 62
7
  6
CONTINUOUS
 70
0
 71
3
 72
37
 73
33
 74
0
 42
0.0000001
 43
0.0000001
 44
0.0000000001
 40
0.0
 40
0.0
 40
0.0
 40
0.0
 40
0.0202787687
 40
0.0417770059
 40
0.0645053485
 40
0.0884576386
 40
0.1136168597
 40
0.1399513267
 40
0.1674201277
 40
0.195975408
 40
0.2255587133
 40
0.2561067306
 40
0.2875507605
 40
0.319814872
 40
0.3528205864
 40
0.3864850152
 40
0.4554349043
 40
0.4905448053
 40
0.5259520004
 40
0.5615619965
 40
0.5972787981
 40
0.668642413
 40
0.7041017548
 40
0.7392843549
 40
0.7740961285
 40
0.808444346
 40
0.8422374266
 40
0.875390531
 40
0.907824741
 40
0.9394616901
 40
0.970215958
 40
1.0
 40
1.0
 40
1.0
 40
1.0
 10
16.6138829714
 20
13.0019788005
 30
0.0
 10
16.6175884078
 20
12.997539518
 30
0.0
 10
16.624884312
 20
12.988108315
 30
0.0
 10
16.6351891272
 20
12.9728595793
 30
0.0
 10
16.6451418945
 20
12.9561478435
 30
0.0
 10
16.6547126902
 20
12.9380267832
 30
0.0
 10
16.6638692369
 20
12.9185513914
 30
0.0
 10
16.6725850243
 20
12.8977838758
 30
0.0
 10
16.6808327102
 20
12.8757894009
 30
0.0
 10
16.6885840318
 20
12.8526366411
 30
0.0
 10
16.6958169838
 20
12.8283994843
 30
0.0
 10
16.702507534
 20
12.8031542684
 30
0.0
 10
16.7086333025
 20
12.7769807044
 30
0.0
 10
16.7141770495
 20
12.749962233
 30
0.0
 10
16.7191194102
 20
12.7221839887
 30
0.0
 10
16.7249322211
 20
12.6839479634
 30
0.0
 10
16.7294119962
 20
12.6449144411
 30
0.0
 10
16.7325936874
 20
12.6052703736
 30
0.0
 10
16.7343356147
 20
12.5750555776
 30
0.0
 10
16.7354111321
 20
12.5446366621
 30
0.0
 10
16.7359542024
 20
12.5039495191
 30
0.0
 10
16.7351612648
 20
12.4632960776
 30
0.0
 10
16.7330270504
 20
12.4228567722
 30
0.0
 10
16.7307683787
 20
12.3928687178
 30
0.0
 10
16.7278550011
 20
12.3632556621
 30
0.0
 10
16.7242984981
 20
12.3341119087
 30
0.0
 10
16.7201086412
 20
12.3055302564
 30
0.0
 10
16.7152984726
 20
12.2775999279
 30
0.0
 10
16.7098838585
 20
12.2504068808
 30
0.0
 10
16.70387963
 20
12.224038653
 30
0.0
 10
16.6973092228
 20
12.1985855435
 30
0.0
 10
16.6924865869
 20
12.1820067372
 30
0.0
 10
16.689979064
 20
12.1738923901
 30
0.0
  0
SPLINE
  5
302
100
AcDbEntity
  8
0
100
AcDbSpline
 62
7
  6
CONTINUOUS
 70
0
 71
3
 72
31
 73
27
 74
0
 42
0.0000001
 43
0.0000001
 44
0.0000000001
 40
0.0
 40
0.0
 40
0.0
 40
0.0
 40
0.0202793035
 40
0.0417792028
 40
0.0645078515
 40
0.0884602205
 40
0.1136204511
 40
0.1399563324
 40
0.1674256141
 40
0.1959808458
 40
0.2255660607
 40
0.256115234
 40
0.3198184809
 40
0.3528257188
 40
0.38649047
 40
0.4554428325
 40
0.5259572121
 40
0.5972812724
 40
0.6686482457
 40
0.7392887832
 40
0.8084393391
 40
0.8422324736
 40
0.8753918878
 40
0.9394741602
 40
0.9702269304
 40
1.0
 40
1.0
 40
1.0
 40
1.0
 10
16.4904005896
 20
12.3223102346
 30
0.0
 10
16.4889784524
 20
12.3240137547
 30
0.0
 10
16.4861786012
 20
12.3276333011
 30
0.0
 10
16.4822243945
 20
12.3334855471
 30
0.0
 10
16.478404622
 20
12.3398987367
 30
0.0
 10
16.4747315312
 20
12.3468527666
 30
0.0
 10
16.4712177149
 20
12.3543268108
 30
0.0
 10
16.467873131
 20
12.3622967801
 30
0.0
 10
16.4647078413
 20
12.3707373357
 30
0.0
 10
16.4617327608
 20
12.3796223516
 30
0.0
 10
16.4589575618
 20
12.3889239669
 30
0.0
 10
16.4554857468
 20
12.402024654
 30
0.0
 10
16.4525141763
 20
12.4156383403
 30
0.0
 10
16.4500150447
 20
12.4296854141
 30
0.0
 10
16.4477835173
 20
12.4443591716
 30
0.0
 10
16.4456236359
 20
12.4631886837
 30
0.0
 10
16.4440434478
 20
12.4862083136
 30
0.0
 10
16.4434785754
 20
12.509539535
 30
0.0
 10
16.4439332304
 20
12.5328869537
 30
0.0
 10
16.4454043645
 20
12.5559540468
 30
0.0
 10
16.4474743974
 20
12.574843406
 30
0.0
 10
16.4496348685
 20
12.5895807221
 30
0.0
 10
16.4520683284
 20
12.6037125626
 30
0.0
 10
16.454977639
 20
12.6174218041
 30
0.0
 10
16.458385585
 20
12.6306261714
 30
0.0
 10
16.4602357511
 20
12.6369871154
 30
0.0
 10
16.461197664
 20
12.6400998663
 30
0.0
  0
LINE
  5
303
100
AcDbEntity
  8
0
100
AcDbLine
 62
7
  6
CONTINUOUS
 10
16.4829106177
 20
12.6890163137
 11
16.4865760405
 21
12.6919072607
  0
SPLINE
  5
304
100
AcDbEntity
  8
0
100
AcDbSpline
 62
7
  6
CONTINUOUS
 70
0
 71
3
 72
9
 73
5
 74
0
 42
0.0000001
 43
0.0000001
 44
0.0000000001
 40
0.0
 40
0.0
 40
0.0
 40
0.0
 40
0.257660621
 40
1.0
 40
1.0
 40
1.0
 40
1.0
 10
16.4865760405
 20
12.6919072607
 30
0.0
 10
16.4870529214
 20
12.6922484777
 30
0.0
 10
16.4889280795
 20
12.6935381183
 30
0.0
 10
16.4909036401
 20
12.6946840064
 30
0.0
 10
16.4924189078
 20
12.6954310506
 30
0.0
  0
SPLINE
  5
305
100
AcDbEntity
  8
0
100
AcDbSpline
 62
7
  6
CONTINUOUS
 70
0
 71
3
 72
11
 73
7
 74
0
 42
0.0000001
 43
0.0000001
 44
0.0000000001
 40
0.0
 40
0.0
 40
0.0
 40
0.0
 40
0.2601130806
 40
0.5116911993
 40
0.7573560865
 40
1.0
 40
1.0
 40
1.0
 40
1.0
 10
16.4924189078
 20
12.6954310506
 30
0.0
 10
16.4935334275
 20
12.6959805215
 30
0.0
 10
16.4957817807
 20
12.6969531905
 30
0.0
 10
16.4992468021
 20
12.6980201342
 30
0.0
 10
16.5027307828
 20
12.6986620405
 30
0.0
 10
16.5050659987
 20
12.6988044804
 30
0.0
 10
16.5062251524
 20
12.6988042809
 30
0.0
  0
SPLINE
  5
306
100
AcDbEntity
  8
02___PRT_ALL_AXES
100
AcDbSpline
 62
7
  6
CONTINUOUS
 70
0
 71
3
 72
15
 73
11
 74
0
 42
0.0000001
 43
0.0000001
 44
0.0000000001
 40
0.0
 40
0.0
 40
0.0
 40
0.0
 40
0.1165908518
 40
0.2340446823
 40
0.3532008808
 40
0.4748514125
 40
0.5997299926
 40
0.7285047112
 40
0.861761724
 40
1.0
 40
1.0
 40
1.0
 40
1.0
 10
15.9443779466
 20
13.1333043847
 30
0.0
 10
15.9473281548
 20
13.1333046049
 30
0.0
 10
15.9532541572
 20
13.1330266754
 30
0.0
 10
15.9621156895
 20
13.1317749597
 30
0.0
 10
15.970951178
 20
13.1296919117
 30
0.0
 10
15.9797471151
 20
13.1267824941
 30
0.0
 10
15.9884917102
 20
13.1230517068
 30
0.0
 10
15.9971727618
 20
13.1185041287
 30
0.0
 10
16.0057785572
 20
13.1131475264
 30
0.0
 10
16.0113517513
 20
13.1091205829
 30
0.0
 10
16.0141214399
 20
13.1069840803
 30
0.0
  0
SPLINE
  5
307
100
AcDbEntity
  8
02___PRT_ALL_AXES
100
AcDbSpline
 62
7
  6
CONTINUOUS
 70
0
 71
3
 72
10
 73
6
 74
0
 42
0.0000001
 43
0.0000001
 44
0.0000000001
 40
0.0
 40
0.0
 40
0.0
 40
0.0
 40
0.4800605766
 40
0.7348795535
 40
1.0
 40
1.0
 40
1.0
 40
1.0
 10
16.0141214399
 20
13.1069840803
 30
0.0
 10
16.020001339
 20
13.1024484011
 30
0.0
 10
16.0285490554
 20
13.0949011322
 30
0.0
 10
16.0392862536
 20
13.0837615395
 30
0.0
 10
16.0445713931
 20
13.0776930972
 30
0.0
 10
16.0471934183
 20
13.0745396579
 30
0.0
  0
SPLINE
  5
308
100
AcDbEntity
  8
0
100
AcDbSpline
 62
7
  6
CONTINUOUS
 70
0
 71
3
 72
18
 73
14
 74
0
 42
0.0000001
 43
0.0000001
 44
0.0000000001
 40
0.0
 40
0.0
 40
0.0
 40
0.0
 40
0.0543225794
 40
0.1088705293
 40
0.1638664567
 40
0.2195251425
 40
0.3335817162
 40
0.4526006634
 40
0.5144004965
 40
0.5778931598
 40
0.7103798297
 40
0.8508920965
 40
1.0
 40
1.0
 40
1.0
 40
1.0
 10
16.5062251524
 20
13.0728044439
 30
0.0
 10
16.5082164294
 20
13.0728045925
 30
0.0
 10
16.5122086721
 20
13.0726648421
 30
0.0
 10
16.5181869369
 20
13.072034965
 30
0.0
 10
16.5241560002
 20
13.0709850987
 30
0.0
 10
16.532158927
 20
13.0690125066
 30
0.0
 10
16.5421622886
 20
13.0654609407
 30
0.0
 10
16.5518531418
 20
13.0606160314
 30
0.0
 10
16.5595099543
 20
13.055964357
 30
0.0
 10
16.5673198479
 20
13.0506381392
 30
0.0
 10
16.576972023
 20
13.0429258262
 30
0.0
 10
16.5881697498
 20
13.032223622
 30
0.0
 10
16.5952521442
 20
13.0242994155
 30
0.0
 10
16.5987546149
 20
13.0201032952
 30
0.0
  0
SPLINE
  5
309
100
AcDbEntity
  8
02___PRT_ALL_AXES
100
AcDbSpline
 62
7
  6
CONTINUOUS
 70
0
 71
3
 72
11
 73
7
 74
0
 42
0.0000001
 43
0.0000001
 44
0.0000000001
 40
0.0
 40
0.0
 40
0.0
 40
0.0
 40
0.2453351724
 40
0.4925663004
 40
0.7435371942
 40
1.0
 40
1.0
 40
1.0
 40
1.0
 10
15.9443779455
 20
11.8883056011
 30
0.0
 10
15.947395855
 20
11.8883058264
 30
0.0
 10
15.9534588928
 20
11.888597698
 30
0.0
 10
15.9625242939
 20
11.8899066619
 30
0.0
 10
15.9715613873
 20
11.8920849391
 30
0.0
 10
15.9774825572
 20
11.8940898427
 30
0.0
 10
15.9804254658
 20
11.8952265062
 30
0.0
  0
SPLINE
  5
30A
100
AcDbEntity
  8
02___PRT_ALL_AXES
100
AcDbSpline
 62
7
  6
CONTINUOUS
 70
0
 71
3
 72
14
 73
10
 74
0
 42
0.0000001
 43
0.0000001
 44
0.0000000001
 40
0.0
 40
0.0
 40
0.0
 40
0.0
 40
0.1102634062
 40
0.2239919783
 40
0.4634588649
 40
0.5900394654
 40
0.721516788
 40
0.8581105804
 40
1.0
 40
1.0
 40
1.0
 40
1.0
 10
15.9834353898
 20
11.8964387603
 30
0.0
 10
15.9862725781
 20
11.8976283836
 30
0.0
 10
15.9919419742
 20
11.9002760273
 30
0.0
 10
16.0032286961
 20
11.9066050197
 30
0.0
 10
16.0141834873
 20
11.9143773406
 30
0.0
 10
16.0247528331
 20
11.9233833757
 30
0.0
 10
16.0327277881
 20
11.9309848604
 30
0.0
 10
16.0405918278
 20
11.9392971377
 30
0.0
 10
16.0456572996
 20
11.9451933974
 30
0.0
 10
16.0481709431
 20
11.9482519164
 30
0.0
  0
SPLINE
  5
30B
100
AcDbEntity
  8
0
100
AcDbSpline
 62
7
  6
CONTINUOUS
 70
0
 71
3
 72
11
 73
7
 74
0
 42
0.0000001
 43
0.0000001
 44
0.0000000001
 40
0.0
 40
0.0
 40
0.0
 40
0.0
 40
0.2454646668
 40
0.4927734603
 40
0.743716316
 40
1.0
 40
1.0
 40
1.0
 40
1.0
 10
16.5062251524
 20
12.3228057049
 30
0.0
 10
16.505326474
 20
12.3228058595
 30
0.0
 10
16.503521248
 20
12.3228916638
 30
0.0
 10
16.5008218427
 20
12.3232758995
 30
0.0
 10
16.4981306012
 20
12.3239150938
 30
0.0
 10
16.496366387
 20
12.3245034958
 30
0.0
 10
16.4954894866
 20
12.3248373082
 30
0.0
  0
SPLINE
  5
30C
100
AcDbEntity
  8
0
100
AcDbSpline
 62
7
  6
CONTINUOUS
 70
0
 71
3
 72
9
 73
5
 74
0
 42
0.0000001
 43
0.0000001
 44
0.0000000001
 40
0.0
 40
0.0
 40
0.0
 40
0.0
 40
0.4828937092
 40
1.0
 40
1.0
 40
1.0
 40
1.0
 10
16.4930704393
 20
12.3258650453
 30
0.0
 10
16.4913651929
 20
12.3266652034
 30
0.0
 10
16.4879591335
 20
12.3285970762
 30
0.0
 10
16.4848399939
 20
12.3309568268
 30
0.0
 10
16.4833004176
 20
12.3322600517
 30
0.0
  0
SPLINE
  5
30D
100
AcDbEntity
  8
0
100
AcDbSpline
 62
7
  6
CONTINUOUS
 70
0
 71
3
 72
14
 73
10
 74
0
 42
0.0000001
 43
0.0000001
 44
0.0000000001
 40
0.0
 40
0.0
 40
0.0
 40
0.0
 40
0.1375735454
 40
0.2736853539
 40
0.5366189361
 40
0.6614723713
 40
0.7807927618
 40
0.8938393757
 40
1.0
 40
1.0
 40
1.0
 40
1.0
 10
14.4572744965
 20
12.0777654973
 30
0.0
 10
14.4572267719
 20
12.0796354268
 30
0.0
 10
14.4570630697
 20
12.0833541506
 30
0.0
 10
14.4564714243
 20
12.0906273019
 30
0.0
 10
14.45549062
 20
12.0976924095
 30
0.0
 10
14.4540960018
 20
12.104446807
 30
0.0
 10
14.4528918489
 20
12.109154318
 30
0.0
 10
14.4515209137
 20
12.1135504409
 30
0.0
 10
14.4504695941
 20
12.1163418265
 30
0.0
 10
14.4499145964
 20
12.1176742913
 30
0.0
  0
SPLINE
  5
30E
100
AcDbEntity
  8
0
100
AcDbSpline
 62
7
  6
CONTINUOUS
 70
0
 71
3
 72
16
 73
12
 74
0
 42
0.0000001
 43
0.0000001
 44
0.0000000001
 40
0.0
 40
0.0
 40
0.0
 40
0.0
 40
0.1348286617
 40
0.2712319595
 40
0.4066823283
 40
0.5390467387
 40
0.6663377622
 40
0.7867190629
 40
0.8984665853
 40
0.9506063473
 40
1.0
 40
1.0
 40
1.0
 40
1.0
 10
14.4185906707
 20
12.2529373343
 30
0.0
 10
14.4188262296
 20
12.2556404225
 30
0.0
 10
14.4191465587
 20
12.2610925468
 30
0.0
 10
14.41919385
 20
12.2692802379
 30
0.0
 10
14.4188048967
 20
12.2774095554
 30
0.0
 10
14.4179919088
 20
12.2853232729
 30
0.0
 10
14.4167676709
 20
12.2928774632
 30
0.0
 10
14.4151577471
 20
12.2999344353
 30
0.0
 10
14.4134797623
 20
12.305410674
 30
0.0
 10
14.4119553386
 20
12.3094242809
 30
0.0
 10
14.4111389962
 20
12.3112985843
 30
0.0
 10
14.4107169788
 20
12.3121985635
 30
0.0
  0
SPLINE
  5
30F
100
AcDbEntity
  8
0
100
AcDbSpline
 62
7
  6
CONTINUOUS
 70
0
 71
3
 72
15
 73
11
 74
0
 42
0.0000001
 43
0.0000001
 44
0.0000000001
 40
0.0
 40
0.0
 40
0.0
 40
0.0
 40
0.1200124521
 40
0.2456521015
 40
0.3746818603
 40
0.5050574519
 40
0.6347778702
 40
0.7618604555
 40
0.8843098807
 40
1.0
 40
1.0
 40
1.0
 40
1.0
 10
14.4006922335
 20
12.4490000755
 30
0.0
 10
14.4012241487
 20
12.4514665462
 30
0.0
 10
14.4021398148
 20
12.4565535043
 30
0.0
 10
14.4030762779
 20
12.4643790733
 30
0.0
 10
14.4035877001
 20
12.4724622964
 30
0.0
 10
14.403668636
 20
12.4806468107
 30
0.0
 10
14.4033151389
 20
12.4887831589
 30
0.0
 10
14.4025363042
 20
12.4967228525
 30
0.0
 10
14.4013427399
 20
12.5043123674
 30
0.0
 10
14.4002554974
 20
12.5092042786
 30
0.0
 10
14.3996391391
 20
12.5115571897
 30
0.0
  0
SPLINE
  5
310
100
AcDbEntity
  8
0
100
AcDbSpline
 62
7
  6
CONTINUOUS
 70
0
 71
3
 72
15
 73
11
 74
0
 42
0.0000001
 43
0.0000001
 44
0.0000000001
 40
0.0
 40
0.0
 40
0.0
 40
0.0
 40
0.105800112
 40
0.2208372345
 40
0.343311728
 40
0.4713942998
 40
0.6031875188
 40
0.7366866803
 40
0.8697741153
 40
1.0
 40
1.0
 40
1.0
 40
1.0
 10
14.4050292101
 20
12.6500698834
 30
0.0
 10
14.405825908
 20
12.6520915305
 30
0.0
 10
14.4072832331
 20
12.6563935773
 30
0.0
 10
14.4090321313
 20
12.6632298422
 30
0.0
 10
14.4104016131
 20
12.6706178833
 30
0.0
 10
14.4113698768
 20
12.6784151363
 30
0.0
 10
14.4119161783
 20
12.6864799427
 30
0.0
 10
14.4120326949
 20
12.6946651439
 30
0.0
 10
14.411712597
 20
12.7028124186
 30
0.0
 10
14.4112092408
 20
12.7082003349
 30
0.0
 10
14.4108820286
 20
12.7108548774
 30
0.0
  0
SPLINE
  5
311
100
AcDbEntity
  8
0
100
AcDbSpline
 62
7
  6
CONTINUOUS
 70
0
 71
3
 72
15
 73
11
 74
0
 42
0.0000001
 43
0.0000001
 44
0.0000000001
 40
0.0
 40
0.0
 40
0.0
 40
0.0
 40
0.0991171542
 40
0.2079876202
 40
0.3256611734
 40
0.4510050616
 40
0.5827021717
 40
0.7192888486
 40
0.8590753972
 40
1.0
 40
1.0
 40
1.0
 40
1.0
 10
14.4338565175
 20
12.8440529015
 30
0.0
 10
14.434660437
 20
12.8455444525
 30
0.0
 10
14.4361762569
 20
12.8487678939
 30
0.0
 10
14.4381056969
 20
12.8539954806
 30
0.0
 10
14.4397788198
 20
12.8597784496
 30
0.0
 10
14.4411706687
 20
12.8660349213
 30
0.0
 10
14.4422620351
 20
12.8726781496
 30
0.0
 10
14.4430362933
 20
12.8796139872
 30
0.0
 10
14.443480135
 20
12.8867364405
 30
0.0
 10
14.4435544795
 20
12.8915366902
 30
0.0
 10
14.4435348151
 20
12.8939457132
 30
0.0
  0
SPLINE
  5
312
100
AcDbEntity
  8
0
100
AcDbSpline
 62
7
  6
CONTINUOUS
 70
0
 71
3
 72
9
 73
5
 74
0
 42
0.0000001
 43
0.0000001
 44
0.0000000001
 40
0.0
 40
0.0
 40
0.0
 40
0.0
 40
0.4885421944
 40
1.0
 40
1.0
 40
1.0
 40
1.0
 10
14.4924627606
 20
13.0309360845
 30
0.0
 10
14.4930256629
 20
13.0333585752
 30
0.0
 10
14.4940033885
 20
13.0383586361
 30
0.0
 10
14.4946789112
 20
13.0434074576
 30
0.0
 10
14.4949521641
 20
13.0459967665
 30
0.0
  0
SPLINE
  5
313
100
AcDbEntity
  8
02___PRT_ALL_AXES
100
AcDbSpline
 62
7
  6
CONTINUOUS
 70
0
 71
3
 72
14
 73
10
 74
0
 42
0.0000001
 43
0.0000001
 44
0.0000000001
 40
0.0
 40
0.0
 40
0.0
 40
0.0
 40
0.1228150776
 40
0.245527978
 40
0.3684917977
 40
0.4921005409
 40
0.616758006
 40
0.7428465155
 40
1.0
 40
1.0
 40
1.0
 40
1.0
 10
15.9921515866
 20
12.8195532501
 30
0.0
 10
15.9914003276
 20
12.8210846509
 30
0.0
 10
15.9900451649
 20
12.8242207341
 30
0.0
 10
15.9884766918
 20
12.8291004143
 30
0.0
 10
15.9873879539
 20
12.834120886
 30
0.0
 10
15.9867873427
 20
12.8392495749
 30
0.0
 10
15.9866796552
 20
12.8444562584
 30
0.0
 10
15.987203437
 20
12.8514983944
 30
0.0
 10
15.9883392622
 20
12.8567374693
 30
0.0
 10
15.9893937506
 20
12.8601497951
 30
0.0
  0
SPLINE
  5
314
100
AcDbEntity
  8
0
100
AcDbSpline
 62
7
  6
CONTINUOUS
 70
0
 71
3
 72
9
 73
5
 74
0
 42
0.0000001
 43
0.0000001
 44
0.0000000001
 40
0.0
 40
0.0
 40
0.0
 40
0.0
 40
0.511682817
 40
1.0
 40
1.0
 40
1.0
 40
1.0
 10
16.6138831021
 20
12.0196304656
 30
0.0
 10
16.6112041789
 20
12.0164207825
 30
0.0
 10
16.6057981399
 20
12.0102877359
 30
0.0
 10
16.6000301914
 20
12.0044918006
 30
0.0
 10
16.5971214189
 20
12.0017608886
 30
0.0
  0
SPLINE
  5
315
100
AcDbEntity
  8
0
100
AcDbSpline
 62
7
  6
CONTINUOUS
 70
0
 71
3
 72
53
 73
49
 74
0
 42
0.0000001
 43
0.0000001
 44
0.0000000001
 40
0.0
 40
0.0
 40
0.0
 40
0.0
 40
0.0103283318
 40
0.0202194648
 40
0.0388187292
 40
0.0476334727
 40
0.0561927029
 40
0.0645599836
 40
0.0728050201
 40
0.0810010581
 40
0.0892229931
 40
0.0975450931
 40
0.1060380242
 40
0.114767213
 40
0.1237919543
 40
0.1331640028
 40
0.142926738
 40
0.1531165134
 40
0.1637634089
 40
0.1748904674
 40
0.1865142224
 40
0.1986467399
 40
0.2112962579
 40
0.2244659805
 40
0.2381550332
 40
0.2523601477
 40
0.2670758539
 40
0.2822929766
 40
0.2979998604
 40
0.330827034
 40
0.347918578
 40
0.3654367736
 40
0.4016725652
 40
0.4393650938
 40
0.4783254362
 40
0.5183509807
 40
0.5592279457
 40
0.6007340283
 40
0.6426407066
 40
0.6847155976
 40
0.7267243435
 40
0.7684343928
 40
0.8096151771
 40
0.8500401627
 40
0.8894892655
 40
0.9277634363
 40
0.9646700452
 40
1.0
 40
1.0
 40
1.0
 40
1.0
 10
16.5971214189
 20
12.0017608886
 30
0.0
 10
16.5945034447
 20
11.9993029937
 30
0.0
 10
16.5892284903
 20
11.9946457601
 30
0.0
 10
16.5785209268
 20
11.9864200334
 30
0.0
 10
16.5673746711
 20
11.9796555165
 30
0.0
 10
16.5559047141
 20
11.9746318672
 30
0.0
 10
16.5473958535
 20
11.9718124457
 30
0.0
 10
16.5388443994
 20
11.9698840159
 30
0.0
 10
16.5302659504
 20
11.9688489836
 30
0.0
 10
16.5216766673
 20
11.9687097551
 30
0.0
 10
16.5130929816
 20
11.9694681586
 30
0.0
 10
16.5045317242
 20
11.9711230977
 30
0.0
 10
16.4960084096
 20
11.9736680242
 30
0.0
 10
16.487537702
 20
11.9770967971
 30
0.0
 10
16.479134188
 20
11.9814034531
 30
0.0
 10
16.4708115632
 20
11.986579399
 30
0.0
 10
16.4625818838
 20
11.9926132666
 30
0.0
 10
16.4544576769
 20
11.9994945645
 30
0.0
 10
16.4464522599
 20
12.0072128721
 30
0.0
 10
16.4385778297
 20
12.0157550262
 30
0.0
 10
16.4308457659
 20
12.0251059719
 30
0.0
 10
16.4232682688
 20
12.0352507363
 30
0.0
 10
16.4158583628
 20
12.0461738564
 30
0.0
 10
16.4086273814
 20
12.0578571723
 30
0.0
 10
16.4015862728
 20
12.070281065
 30
0.0
 10
16.3947465508
 20
12.0834256291
 30
0.0
 10
16.3881203681
 20
12.0972701984
 30
0.0
 10
16.3817176652
 20
12.111791895
 30
0.0
 10
16.37336933
 20
12.132327374
 30
0.0
 10
16.3656597164
 20
12.1538152514
 30
0.0
 10
16.3585446793
 20
12.1761576648
 30
0.0
 10
16.3516181469
 20
12.1997975438
 30
0.0
 10
16.3437071306
 20
12.2306027032
 30
0.0
 10
16.3354951189
 20
12.2689931556
 30
0.0
 10
16.328515536
 20
12.3089644341
 30
0.0
 10
16.3228132962
 20
12.3502549707
 30
0.0
 10
16.3184273423
 20
12.3925954593
 30
0.0
 10
16.3153849503
 20
12.4357089742
 30
0.0
 10
16.3137082242
 20
12.4793137597
 30
0.0
 10
16.313405872
 20
12.5231244102
 30
0.0
 10
16.3144824236
 20
12.5668545191
 30
0.0
 10
16.3169280424
 20
12.6102182707
 30
0.0
 10
16.3207299863
 20
12.6529316885
 30
0.0
 10
16.3258590095
 20
12.6947147175
 30
0.0
 10
16.3322847646
 20
12.7352957432
 30
0.0
 10
16.3399633294
 20
12.7744137072
 30
0.0
 10
16.3488469037
 20
12.8118053508
 30
0.0
 10
16.3556869922
 20
12.8359816282
 30
0.0
 10
16.3593136806
 20
12.8477175957
 30
0.0
  0
SPLINE
  5
316
100
AcDbEntity
  8
0
100
AcDbSpline
 62
7
  6
CONTINUOUS
 70
0
 71
3
 72
22
 73
18
 74
0
 42
0.0000001
 43
0.0000001
 44
0.0000000001
 40
0.0
 40
0.0
 40
0.0
 40
0.0
 40
0.0878934051
 40
0.1726155745
 40
0.2539624614
 40
0.3317456045
 40
0.4058323733
 40
0.4761770417
 40
0.5427677225
 40
0.6056288503
 40
0.6648435379
 40
0.7205590742
 40
0.8223005187
 40
0.8691713291
 40
0.9139892318
 40
0.9573664897
 40
1.0
 40
1.0
 40
1.0
 40
1.0
 10
16.5635730233
 20
12.3939423189
 30
0.0
 10
16.562735764
 20
12.3912329471
 30
0.0
 10
16.5610057906
 20
12.3859378852
 30
0.0
 10
16.5581903604
 20
12.3782411095
 30
0.0
 10
16.5552105349
 20
12.3709573975
 30
0.0
 10
16.5520761929
 20
12.3641142196
 30
0.0
 10
16.548796674
 20
12.3577356891
 30
0.0
 10
16.5453836518
 20
12.3518409562
 30
0.0
 10
16.5418472597
 20
12.3464468359
 30
0.0
 10
16.5381972144
 20
12.3415703451
 30
0.0
 10
16.5344428448
 20
12.337225008
 30
0.0
 10
16.5294686055
 20
12.3323084212
 30
0.0
 10
16.524177599
 20
12.3282853115
 30
0.0
 10
16.5186191667
 20
12.3254183387
 30
0.0
 10
16.5145156966
 20
12.323914113
 30
0.0
 10
16.5103798689
 20
12.3230071477
 30
0.0
 10
16.5076006781
 20
12.3228054682
 30
0.0
 10
16.5062251524
 20
12.3228057049
 30
0.0
  0
SPLINE
  5
317
100
AcDbEntity
  8
0
100
AcDbSpline
 62
7
  6
CONTINUOUS
 70
0
 71
3
 72
31
 73
27
 74
0
 42
0.0000001
 43
0.0000001
 44
0.0000000001
 40
0.0
 40
0.0
 40
0.0
 40
0.0
 40
0.0937684203
 40
0.1822938089
 40
0.2651271406
 40
0.3420274084
 40
0.4129355361
 40
0.4461727207
 40
0.4779618766
 40
0.5083452152
 40
0.5373794406
 40
0.5651399356
 40
0.5917284365
 40
0.6418548926
 40
0.6657540137
 40
0.689105189
 40
0.7121164967
 40
0.7350059958
 40
0.7579956612
 40
0.7813051854
 40
0.8051435238
 40
0.8297006225
 40
0.8815813326
 40
0.9092246343
 40
0.9381307907
 40
1.0
 40
1.0
 40
1.0
 40
1.0
 10
16.5880950805
 20
12.3815101195
 30
0.0
 10
16.5867312285
 20
12.3770966924
 30
0.0
 10
16.5838768081
 20
12.3685772295
 30
0.0
 10
16.5790690742
 20
12.3564259859
 30
0.0
 10
16.5738825479
 20
12.3453403037
 30
0.0
 10
16.5683547947
 20
12.3354018993
 30
0.0
 10
16.5633921347
 20
12.3279750682
 30
0.0
 10
16.559267111
 20
12.3226964385
 30
0.0
 10
16.5561792649
 20
12.3191496053
 30
0.0
 10
16.5530357266
 20
12.3159353297
 30
0.0
 10
16.5498417373
 20
12.3130597576
 30
0.0
 10
16.5466011109
 20
12.310528756
 30
0.0
 10
16.5423133288
 20
12.307676349
 30
0.0
 10
16.5378550129
 20
12.3054388558
 30
0.0
 10
16.5332934349
 20
12.3039324056
 30
0.0
 10
16.5299075106
 20
12.3031837783
 30
0.0
 10
16.5265111287
 20
12.3028001909
 30
0.0
 10
16.523110851
 20
12.3027822072
 30
0.0
 10
16.5197136628
 20
12.303130095
 30
0.0
 10
16.5163266694
 20
12.3038439693
 30
0.0
 10
16.5129564778
 20
12.3049219089
 30
0.0
 10
16.5084118528
 20
12.3068741334
 30
0.0
 10
16.5039978703
 20
12.3095388917
 30
0.0
 10
16.4997633699
 20
12.3127996317
 30
0.0
 10
16.4953993904
 20
12.3166773041
 30
0.0
 10
16.4923538567
 20
12.3199704959
 30
0.0
 10
16.4904005896
 20
12.3223102346
 30
0.0
  0
SPLINE
  5
318
100
AcDbEntity
  8
0
100
AcDbSpline
 62
7
  6
CONTINUOUS
 70
0
 71
3
 72
45
 73
41
 74
0
 42
0.0000001
 43
0.0000001
 44
0.0000000001
 40
0.0
 40
0.0
 40
0.0
 40
0.0
 40
0.011439665
 40
0.022372017
 40
0.0427937155
 40
0.0523619
 40
0.0615556317
 40
0.0704282145
 40
0.0790409752
 40
0.0874634809
 40
0.0957717698
 40
0.1040452304
 40
0.1123644201
 40
0.1208087797
 40
0.1294533906
 40
0.1475897427
 40
0.1672475436
 40
0.1777581137
 40
0.1887575096
 40
0.2122949391
 40
0.2379767371
 40
0.2658242755
 40
0.2958074873
 40
0.327843101
 40
0.3618129828
 40
0.3975692342
 40
0.4349348722
 40
0.4737178379
 40
0.5137034577
 40
0.554667667
 40
0.5963735392
 40
0.6385761737
 40
0.6810273146
 40
0.7656565177
 40
0.8073432884
 40
0.8482762835
 40
0.888227246
 40
0.9269814547
 40
0.9643171662
 40
1.0
 40
1.0
 40
1.0
 40
1.0
 10
16.4904007095
 20
12.6992990896
 30
0.0
 10
16.4914017829
 20
12.7004982809
 30
0.0
 10
16.4934216802
 20
12.702793096
 30
0.0
 10
16.4975339329
 20
12.7069472376
 30
0.0
 10
16.5018383009
 20
12.7105459227
 30
0.0
 10
16.5063224537
 20
12.7134743768
 30
0.0
 10
16.5096474513
 20
12.715269072
 30
0.0
 10
16.5130011084
 20
12.7167055973
 30
0.0
 10
16.5163779867
 20
12.7177798927
 30
0.0
 10
16.5197717669
 20
12.7184885572
 30
0.0
 10
16.5231754826
 20
12.718830854
 30
0.0
 10
16.5265822616
 20
12.718806039
 30
0.0
 10
16.5299850857
 20
12.7184139942
 30
0.0
 10
16.5333769849
 20
12.7176544561
 30
0.0
 10
16.537947229
 20
12.7161317888
 30
0.0
 10
16.5436415331
 20
12.7132569277
 30
0.0
 10
16.5489784947
 20
12.7093373651
 30
0.0
 10
16.5531500683
 20
12.7055646488
 30
0.0
 10
16.5574441326
 20
12.7011548113
 30
0.0
 10
16.5626485684
 20
12.6947660856
 30
0.0
 10
16.5684848067
 20
12.685993587
 30
0.0
 10
16.5740159702
 20
12.6760084488
 30
0.0
 10
16.5792011259
 20
12.6648767967
 30
0.0
 10
16.5840084795
 20
12.6526751152
 30
0.0
 10
16.5884036692
 20
12.6394864093
 30
0.0
 10
16.5923556161
 20
12.6254015772
 30
0.0
 10
16.5958388025
 20
12.6105183537
 30
0.0
 10
16.5988256426
 20
12.5949396486
 30
0.0
 10
16.6012985579
 20
12.5787742236
 30
0.0
 10
16.603237158
 20
12.5621343739
 30
0.0
 10
16.6046297356
 20
12.5451364632
 30
0.0
 10
16.6054660246
 20
12.5278986377
 30
0.0
 10
16.6058296342
 20
12.5047825096
 30
0.0
 10
16.6050738968
 20
12.4817294148
 30
0.0
 10
16.6031867365
 20
12.4589658903
 30
0.0
 10
16.6012313399
 20
12.442339501
 30
0.0
 10
16.5987434651
 20
12.426189504
 30
0.0
 10
16.5957394126
 20
12.4106269553
 30
0.0
 10
16.5922410582
 20
12.3957661502
 30
0.0
 10
16.5895336986
 20
12.3861654888
 30
0.0
 10
16.5880950805
 20
12.3815101195
 30
0.0
  0
SPLINE
  5
319
100
AcDbEntity
  8
0
100
AcDbSpline
 62
7
  6
CONTINUOUS
 70
0
 71
3
 72
38
 73
34
 74
0
 42
0.0000001
 43
0.0000001
 44
0.0000000001
 40
0.0
 40
0.0
 40
0.0
 40
0.0
 40
0.0938874216
 40
0.1390113989
 40
0.1828476262
 40
0.2253495073
 40
0.2664904803
 40
0.3062517813
 40
0.3446188922
 40
0.3815830892
 40
0.4171442232
 40
0.4513094269
 40
0.4840937497
 40
0.5155232669
 40
0.5456410222
 40
0.5745035181
 40
0.6021810528
 40
0.6287608555
 40
0.654351328
 40
0.6790791388
 40
0.7030887826
 40
0.7265429179
 40
0.7496209997
 40
0.7725127751
 40
0.7954134448
 40
0.81851867
 40
0.8420173016
 40
0.8660860289
 40
0.8908867984
 40
0.9165645304
 40
0.9432426989
 40
0.9710254002
 40
1.0
 40
1.0
 40
1.0
 40
1.0
 10
16.3593136806
 20
12.8477175957
 30
0.0
 10
16.362656809
 20
12.8585359633
 30
0.0
 10
16.3679623225
 20
12.8744485815
 30
0.0
 10
16.3757285807
 20
12.8950897895
 30
0.0
 10
16.3817049757
 20
12.909777309
 30
0.0
 10
16.3879010069
 20
12.9238502578
 30
0.0
 10
16.394306158
 20
12.9372870731
 30
0.0
 10
16.4009105983
 20
12.9500685175
 30
0.0
 10
16.4077048277
 20
12.9621759712
 30
0.0
 10
16.414679634
 20
12.973591067
 30
0.0
 10
16.4218237487
 20
12.9842972605
 30
0.0
 10
16.429126145
 20
12.9942784942
 30
0.0
 10
16.4365760372
 20
13.0035189562
 30
0.0
 10
16.4441634357
 20
13.0120032574
 30
0.0
 10
16.4518762571
 20
13.019719244
 30
0.0
 10
16.4597030817
 20
13.0266556357
 30
0.0
 10
16.4676328546
 20
13.0328012254
 30
0.0
 10
16.4756550645
 20
13.038144577
 30
0.0
 10
16.4837572304
 20
13.0426778187
 30
0.0
 10
16.4919272651
 20
13.0463934679
 30
0.0
 10
16.5001529653
 20
13.049283826
 30
0.0
 10
16.5084216421
 20
13.0513407838
 30
0.0
 10
16.5167188308
 20
13.0525613049
 30
0.0
 10
16.5250301324
 20
13.0529432264
 30
0.0
 10
16.5333409024
 20
13.0524849872
 30
0.0
 10
16.5416359737
 20
13.0511857549
 30
0.0
 10
16.5499009437
 20
13.0490505938
 30
0.0
 10
16.5581223054
 20
13.0460850127
 30
0.0
 10
16.5662870272
 20
13.0422945574
 30
0.0
 10
16.574381853
 20
13.0376850262
 30
0.0
 10
16.5823956166
 20
13.0322662768
 30
0.0
 10
16.5903166741
 20
13.0260482991
 30
0.0
 10
16.5954173808
 20
13.0214755105
 30
0.0
 10
16.5979495347
 20
13.0190673416
 30
0.0
  0
SPLINE
  5
31A
100
AcDbEntity
  8
0
100
AcDbSpline
 62
7
  6
CONTINUOUS
 70
0
 71
3
 72
9
 73
5
 74
0
 42
0.0000001
 43
0.0000001
 44
0.0000000001
 40
0.0
 40
0.0
 40
0.0
 40
0.0
 40
0.4891586967
 40
1.0
 40
1.0
 40
1.0
 40
1.0
 10
16.5983335891
 20
13.0187010011
 30
0.0
 10
16.6010249401
 20
13.0161261334
 30
0.0
 10
16.6063637531
 20
13.0106898186
 30
0.0
 10
16.6113903928
 20
13.0049650238
 30
0.0
 10
16.6138829714
 20
13.0019788005
 30
0.0
  0
SPLINE
  5
31B
100
AcDbEntity
  8
02___PRT_ALL_AXES
100
AcDbSpline
 62
7
  6
CONTINUOUS
 70
0
 71
3
 72
26
 73
22
 74
0
 42
0.0000001
 43
0.0000001
 44
0.0000000001
 40
0.0
 40
0.0
 40
0.0
 40
0.0
 40
0.087929201
 40
0.1726500729
 40
0.2539540855
 40
0.3316760873
 40
0.405729726
 40
0.4760591555
 40
0.5426439796
 40
0.6055066969
 40
0.664715818
 40
0.7204151167
 40
0.7728276122
 40
0.8222588135
 40
0.869121398
 40
0.8917578414
 40
0.9139534279
 40
0.9357879429
 40
0.9573471091
 40
0.9787204276
 40
1.0
 40
1.0
 40
1.0
 40
1.0
 10
15.772944417
 20
12.8601497951
 30
0.0
 10
15.775448835
 20
12.8682540948
 30
0.0
 10
15.7806218197
 20
12.8840896544
 30
0.0
 10
15.7890383733
 20
12.9071026738
 30
0.0
 10
15.7979451472
 20
12.9288711751
 30
0.0
 10
15.8073147956
 20
12.9493185638
 30
0.0
 10
15.8171146651
 20
12.9683813655
 30
0.0
 10
15.8273166405
 20
12.9860023806
 30
0.0
 10
15.8378905958
 20
13.002128038
 30
0.0
 10
15.8488022447
 20
13.0167100475
 30
0.0
 10
15.860022194
 20
13.0297006765
 30
0.0
 10
15.8715172739
 20
13.0410589384
 30
0.0
 10
15.8832540502
 20
13.0507506211
 30
0.0
 10
15.8952015902
 20
13.0587384017
 30
0.0
 10
15.9054245746
 20
13.0640122943
 30
0.0
 10
15.9136388376
 20
13.0673085757
 30
0.0
 10
15.9197553191
 20
13.06931168
 30
0.0
 10
15.9258926031
 20
13.070870903
 30
0.0
 10
15.9320456838
 20
13.0719856167
 30
0.0
 10
15.9382089254
 20
13.0726550896
 30
0.0
 10
15.942325128
 20
13.0728042906
 30
0.0
 10
15.9443779465
 20
13.0728044438
 30
0.0
  0
SPLINE
  5
31C
100
AcDbEntity
  8
0
100
AcDbSpline
 62
7
  6
CONTINUOUS
 70
0
 71
3
 72
38
 73
34
 74
0
 42
0.0000001
 43
0.0000001
 44
0.0000000001
 40
0.0
 40
0.0
 40
0.0
 40
0.0
 40
0.007695191
 40
0.0154428143
 40
0.0232938671
 40
0.0312971757
 40
0.0479267868
 40
0.0656553367
 40
0.0847193908
 40
0.1052910184
 40
0.1274748899
 40
0.1513273408
 40
0.1768696905
 40
0.2040822424
 40
0.232920496
 40
0.2633228894
 40
0.2952017324
 40
0.3284556648
 40
0.3629743874
 40
0.3986302367
 40
0.4727968696
 40
0.5110247003
 40
0.5498062299
 40
0.5889836155
 40
0.6283947504
 40
0.7072556744
 40
0.7463845522
 40
0.7850908834
 40
0.8232144278
 40
0.860608545
 40
0.9326319501
 40
0.9669756455
 40
1.0
 40
1.0
 40
1.0
 40
1.0
 10
16.5062251524
 20
12.6988042809
 30
0.0
 10
16.5070805786
 20
12.6988041337
 30
0.0
 10
16.5087982357
 20
12.6987264201
 30
0.0
 10
16.511367413
 20
12.6983784436
 30
0.0
 10
16.5139298661
 20
12.6977993549
 30
0.0
 10
16.5173755011
 20
12.6967066223
 30
0.0
 10
16.5216726536
 20
12.6947301819
 30
0.0
 10
16.5266677682
 20
12.6914866421
 30
0.0
 10
16.5315507
 20
12.6873626514
 30
0.0
 10
16.536298457
 20
12.6823785839
 30
0.0
 10
16.5408943454
 20
12.676561685
 30
0.0
 10
16.5453187055
 20
12.6699394186
 30
0.0
 10
16.5495491556
 20
12.6625416864
 30
0.0
 10
16.5535683055
 20
12.6544051295
 30
0.0
 10
16.5573571489
 20
12.6455685356
 30
0.0
 10
16.5608952017
 20
12.636073568
 30
0.0
 10
16.564167375
 20
12.6259669759
 30
0.0
 10
16.567157734
 20
12.6152977987
 30
0.0
 10
16.5698496657
 20
12.6041172704
 30
0.0
 10
16.5730678594
 20
12.5883953146
 30
0.0
 10
16.5755756087
 20
12.5721168893
 30
0.0
 10
16.5774063914
 20
12.5554101001
 30
0.0
 10
16.578446366
 20
12.5425344122
 30
0.0
 10
16.5791324922
 20
12.529503434
 30
0.0
 10
16.5795732418
 20
12.5120047009
 30
0.0
 10
16.5793001996
 20
12.4944990754
 30
0.0
 10
16.5783101876
 20
12.477106606
 30
0.0
 10
16.5772184233
 20
12.4642607312
 30
0.0
 10
16.5757791419
 20
12.4516429996
 30
0.0
 10
16.573436846
 20
12.4354083501
 30
0.0
 10
16.5704300534
 20
12.4196985411
 30
0.0
 10
16.5667196077
 20
12.4046514245
 30
0.0
 10
16.564656909
 20
12.3974497748
 30
0.0
 10
16.5635730233
 20
12.3939423189
 30
0.0
  0
SPLINE
  5
31D
100
AcDbEntity
  8
02___PRT_ALL_AXES
100
AcDbSpline
 62
7
  6
CONTINUOUS
 70
0
 71
3
 72
47
 73
43
 74
0
 42
0.0000001
 43
0.0000001
 44
0.0000000001
 40
0.0
 40
0.0
 40
0.0
 40
0.0
 40
0.0330387256
 40
0.0673798134
 40
0.102874496
 40
0.1393848547
 40
0.1767765827
 40
0.2149037861
 40
0.2536097396
 40
0.2927352036
 40
0.3715889527
 40
0.4109974567
 40
0.4501723404
 40
0.4889519948
 40
0.5271767583
 40
0.5646919142
 40
0.6013476473
 40
0.6370005402
 40
0.6715165066
 40
0.7047689706
 40
0.7366457132
 40
0.767044594
 40
0.7958826141
 40
0.823092752
 40
0.8360744693
 40
0.8486356034
 40
0.8607747732
 40
0.8724923039
 40
0.8837916616
 40
0.8946791212
 40
0.9051632378
 40
0.915255232
 40
0.9249699758
 40
0.9343269564
 40
0.9433494006
 40
0.9520644993
 40
0.9605038707
 40
0.9687044026
 40
0.9767075034
 40
0.9845583439
 40
0.9923054352
 40
1.0
 40
1.0
 40
1.0
 40
1.0
 10
15.772944417
 20
12.8601497951
 30
0.0
 10
15.7697026534
 20
12.8496594442
 30
0.0
 10
15.7635340414
 20
12.8281263947
 30
0.0
 10
15.7553455647
 20
12.7949259384
 30
0.0
 10
15.7480801697
 20
12.7603315949
 30
0.0
 10
15.741773577
 20
12.7245205553
 30
0.0
 10
15.7364566897
 20
12.6876654464
 30
0.0
 10
15.7321544918
 20
12.6499441292
 30
0.0
 10
15.7288875255
 20
12.6115406065
 30
0.0
 10
15.7259297817
 20
12.5595481458
 30
0.0
 10
15.7251141192
 20
12.507218262
 30
0.0
 10
15.7264303053
 20
12.4549086356
 30
0.0
 10
15.7284836696
 20
12.4159539148
 30
0.0
 10
15.7315902867
 20
12.377463969
 30
0.0
 10
15.7357365656
 20
12.3396265807
 30
0.0
 10
15.7409016236
 20
12.3026270583
 30
0.0
 10
15.747059145
 20
12.2666461172
 30
0.0
 10
15.7541809902
 20
12.2318598788
 30
0.0
 10
15.7622288438
 20
12.1984377094
 30
0.0
 10
15.7711672714
 20
12.1665431606
 30
0.0
 10
15.7809479978
 20
12.1363307285
 30
0.0
 10
15.7915275722
 20
12.1079476379
 30
0.0
 10
15.802850858
 20
12.0815313287
 30
0.0
 10
15.8130168918
 20
12.0609502648
 30
0.0
 10
15.8215028638
 20
12.0456064576
 30
0.0
 10
15.8279179285
 20
12.0348486082
 30
0.0
 10
15.8344756116
 20
12.0246732589
 30
0.0
 10
15.8411688499
 20
12.0150934626
 30
0.0
 10
15.8479893372
 20
12.0061207021
 30
0.0
 10
15.854928455
 20
11.997765195
 30
0.0
 10
15.8619779639
 20
11.9900370374
 30
0.0
 10
15.8691298817
 20
11.9829462804
 30
0.0
 10
15.8763763686
 20
11.9765024337
 30
0.0
 10
15.883708219
 20
11.9707125712
 30
0.0
 10
15.8911168606
 20
11.9655836766
 30
0.0
 10
15.8985936961
 20
11.9611226699
 30
0.0
 10
15.9061305057
 20
11.9573370419
 30
0.0
 10
15.9137178816
 20
11.9542318367
 30
0.0
 10
15.9213461073
 20
11.951810757
 30
0.0
 10
15.9290057525
 20
11.9500776642
 30
0.0
 10
15.936686044
 20
11.9490364884
 30
0.0
 10
15.9418207964
 20
11.9488053512
 30
0.0
 10
15.9443779456
 20
11.948805542
 30
0.0
  0
SPLINE
  5
31E
100
AcDbEntity
  8
02___PRT_ALL_AXES
100
AcDbSpline
 62
7
  6
CONTINUOUS
 70
0
 71
3
 72
49
 73
45
 74
0
 42
0.0000001
 43
0.0000001
 44
0.0000000001
 40
0.0
 40
0.0
 40
0.0
 40
0.0
 40
0.0330384045
 40
0.0673791584
 40
0.1028734959
 40
0.1393834996
 40
0.1767748642
 40
0.2149016969
 40
0.2536072742
 40
0.2927323578
 40
0.3321151264
 40
0.3715927096
 40
0.4110008305
 40
0.4501753333
 40
0.4889546108
 40
0.5271790027
 40
0.5646937938
 40
0.6013491706
 40
0.6370017169
 40
0.6715173478
 40
0.7047694885
 40
0.7366459212
 40
0.7670445065
 40
0.7816641343
 40
0.7958845984
 40
0.8230944718
 40
0.8360760629
 40
0.8486370749
 40
0.8607761267
 40
0.8724935434
 40
0.8837927914
 40
0.8946801451
 40
0.9051641598
 40
0.9152560559
 40
0.9249707052
 40
0.9343275949
 40
0.9433499513
 40
0.9520649653
 40
0.9605042546
 40
0.9687047068
 40
0.9767077299
 40
0.984558494
 40
0.99230551
 40
1.0
 40
1.0
 40
1.0
 40
1.0
 10
15.7544893841
 20
12.8977571982
 30
0.0
 10
15.7508986406
 20
12.886137548
 30
0.0
 10
15.7440659698
 20
12.8622864389
 30
0.0
 10
15.7349959933
 20
12.8255119118
 30
0.0
 10
15.7269484698
 20
12.7871934457
 30
0.0
 10
15.7199629634
 20
12.7475272968
 30
0.0
 10
15.714073711
 20
12.7067047136
 30
0.0
 10
15.7093083592
 20
12.6649225574
 30
0.0
 10
15.7056897645
 20
12.6223851993
 30
0.0
 10
15.7032386663
 20
12.5793017407
 30
0.0
 10
15.7019635424
 20
12.5358832524
 30
0.0
 10
15.7018745557
 20
12.492341986
 30
0.0
 10
15.7029680131
 20
12.4488910258
 30
0.0
 10
15.7052423705
 20
12.4057431567
 30
0.0
 10
15.7086834331
 20
12.363109621
 30
0.0
 10
15.7132760604
 20
12.3211990169
 30
0.0
 10
15.7189971442
 20
12.2802164424
 30
0.0
 10
15.7258175303
 20
12.2403621122
 30
0.0
 10
15.7337060508
 20
12.2018310835
 30
0.0
 10
15.7426202669
 20
12.1648110044
 30
0.0
 10
15.7525209236
 20
12.1294828677
 30
0.0
 10
15.7633545706
 20
12.0960183799
 30
0.0
 10
15.7732443463
 20
12.0694847637
 30
0.0
 10
15.7816049919
 20
12.0493423484
 30
0.0
 10
15.7899991488
 20
12.0304928152
 30
0.0
 10
15.7988757997
 20
12.0125227478
 30
0.0
 10
15.8082751925
 20
11.9955272726
 30
0.0
 10
15.8153808666
 20
11.9836113063
 30
0.0
 10
15.8226444874
 20
11.9723405734
 30
0.0
 10
15.8300582624
 20
11.9617294986
 30
0.0
 10
15.8376129834
 20
11.9517908097
 30
0.0
 10
15.8452991059
 20
11.9425358218
 30
0.0
 10
15.8531075032
 20
11.9339757184
 30
0.0
 10
15.8610293338
 20
11.9261216325
 30
0.0
 10
15.8690559141
 20
11.9189840977
 30
0.0
 10
15.8771770473
 20
11.9125709492
 30
0.0
 10
15.8853832384
 20
11.9068899228
 30
0.0
 10
15.8936649646
 20
11.9019486831
 30
0.0
 10
15.9020131211
 20
11.8977555276
 30
0.0
 10
15.9104172874
 20
11.8943160432
 30
0.0
 10
15.9188667011
 20
11.8916343313
 30
0.0
 10
15.9273509167
 20
11.8897146688
 30
0.0
 10
15.9358580011
 20
11.8885614092
 30
0.0
 10
15.941545516
 20
11.8883053897
 30
0.0
 10
15.9443779455
 20
11.8883056011
 30
0.0
  0
SPLINE
  5
31F
100
AcDbEntity
  8
0
100
AcDbSpline
 62
7
  6
CONTINUOUS
 70
0
 71
3
 72
47
 73
43
 74
0
 42
0.0000001
 43
0.0000001
 44
0.0000000001
 40
0.0
 40
0.0
 40
0.0
 40
0.0
 40
0.0076945649
 40
0.0154416564
 40
0.0232924969
 40
0.0312955979
 40
0.0394961299
 40
0.0479355015
 40
0.0566506004
 40
0.0656730447
 40
0.0750300255
 40
0.0847447695
 40
0.094836764
 40
0.1053208808
 40
0.1162083406
 40
0.1275076986
 40
0.1392252296
 40
0.1513643997
 40
0.1639255341
 40
0.1769072517
 40
0.2041173903
 40
0.2329554112
 40
0.2633542927
 40
0.2952310362
 40
0.328483501
 40
0.3629994683
 40
0.3986523621
 40
0.4353080961
 40
0.4728232528
 40
0.511048017
 40
0.5498276721
 40
0.5890025564
 40
0.628411061
 40
0.707264812
 40
0.7463902767
 40
0.7850962306
 40
0.823223434
 40
0.8606151621
 40
0.8971255182
 40
0.9326201951
 40
0.966961277
 40
1.0
 40
1.0
 40
1.0
 40
1.0
 10
16.5062251524
 20
11.9488055419
 30
0.0
 10
16.5036680031
 20
11.948805351
 30
0.0
 10
16.4985332506
 20
11.9490364883
 30
0.0
 10
16.4908529591
 20
11.9500776643
 30
0.0
 10
16.4831933137
 20
11.9518107571
 30
0.0
 10
16.4755650879
 20
11.9542318366
 30
0.0
 10
16.4679777118
 20
11.9573370418
 30
0.0
 10
16.4604409022
 20
11.9611226701
 30
0.0
 10
16.4529640666
 20
11.9655836769
 30
0.0
 10
16.4455554248
 20
11.9707125716
 30
0.0
 10
16.4382235743
 20
11.9765024343
 30
0.0
 10
16.4309770872
 20
11.9829462811
 30
0.0
 10
16.4238251694
 20
11.9900370384
 30
0.0
 10
16.4167756604
 20
11.9977651963
 30
0.0
 10
16.4098365424
 20
12.0061207036
 30
0.0
 10
16.4030160549
 20
12.0150934642
 30
0.0
 10
16.3963228166
 20
12.0246732609
 30
0.0
 10
16.3897651335
 20
12.0348486105
 30
0.0
 10
16.3833500687
 20
12.0456064602
 30
0.0
 10
16.3748640965
 20
12.0609502679
 30
0.0
 10
16.3646980626
 20
12.0815313324
 30
0.0
 10
16.3533747768
 20
12.1079476424
 30
0.0
 10
16.3427952022
 20
12.1363307338
 30
0.0
 10
16.3330144759
 20
12.1665431668
 30
0.0
 10
16.3240760483
 20
12.1984377165
 30
0.0
 10
16.3160281948
 20
12.2318598868
 30
0.0
 10
16.3089063497
 20
12.2666461262
 30
0.0
 10
16.3027488283
 20
12.3026270682
 30
0.0
 10
16.2975837708
 20
12.3396265914
 30
0.0
 10
16.2934374918
 20
12.3774639805
 30
0.0
 10
16.2903308753
 20
12.415953927
 30
0.0
 10
16.288277511
 20
12.4549086485
 30
0.0
 10
16.2869613256
 20
12.5072182759
 30
0.0
 10
16.2877769884
 20
12.5595481609
 30
0.0
 10
16.2907347331
 20
12.6115406225
 30
0.0
 10
16.2940016995
 20
12.6499441457
 30
0.0
 10
16.2983038985
 20
12.6876654629
 30
0.0
 10
16.3036207857
 20
12.724520571
 30
0.0
 10
16.3099273788
 20
12.7603316077
 30
0.0
 10
16.3171927726
 20
12.7949259467
 30
0.0
 10
16.3253812485
 20
12.8281263983
 30
0.0
 10
16.3315498601
 20
12.849659445
 30
0.0
 10
16.3347916233
 20
12.8601497951
 30
0.0
  0
SPLINE
  5
320
100
AcDbEntity
  8
02___PRT_ALL_AXES
100
AcDbSpline
 62
7
  6
CONTINUOUS
 70
0
 71
3
 72
31
 73
27
 74
0
 42
0.0000001
 43
0.0000001
 44
0.0000000001
 40
0.0
 40
0.0
 40
0.0
 40
0.0
 40
0.0596339255
 40
0.1218402549
 40
0.1866799245
 40
0.2540131306
 40
0.2885028933
 40
0.3234329624
 40
0.3942226089
 40
0.4655651024
 40
0.5364746509
 40
0.5714507854
 40
0.6059233265
 40
0.6397637572
 40
0.6728579799
 40
0.7363783933
 40
0.7666919699
 40
0.7959718639
 40
0.8242140702
 40
0.8514522302
 40
0.8777491716
 40
0.9032119869
 40
0.927981845
 40
0.9522318209
 40
0.9761648405
 40
1.0
 40
1.0
 40
1.0
 40
1.0
 10
15.9893937506
 20
12.8601497951
 30
0.0
 10
15.9905586377
 20
12.8639193713
 30
0.0
 10
15.9936761573
 20
12.871408579
 30
0.0
 10
16.0003162238
 20
12.881883434
 30
0.0
 10
16.0088198609
 20
12.8915925229
 30
0.0
 10
16.0171877529
 20
12.8988255486
 30
0.0
 10
16.0245603606
 20
12.9040780164
 30
0.0
 10
16.0324294182
 20
12.9089996077
 30
0.0
 10
16.0428877715
 20
12.9143369332
 30
0.0
 10
16.0560825025
 20
12.9193636753
 30
0.0
 10
16.0674374175
 20
12.9223815602
 30
0.0
 10
16.0765758619
 20
12.9240521123
 30
0.0
 10
16.0833574641
 20
12.9249215925
 30
0.0
 10
16.0900528932
 20
12.9254083029
 30
0.0
 10
16.0986858746
 20
12.9255434131
 30
0.0
 10
16.1070886851
 20
12.9249339351
 30
0.0
 10
16.1151154643
 20
12.9235163649
 30
0.0
 10
16.1207553121
 20
12.9220915258
 30
0.0
 10
16.1260736247
 20
12.9202935821
 30
0.0
 10
16.1310405702
 20
12.9181304089
 30
0.0
 10
16.1356270262
 20
12.9156074793
 30
0.0
 10
16.1398077311
 20
12.9127354785
 30
0.0
 10
16.1435595051
 20
12.9095254109
 30
0.0
 10
16.1468595173
 20
12.9059884892
 30
0.0
 10
16.1496905087
 20
12.9021428314
 30
0.0
 10
16.1512528605
 20
12.8993854184
 30
0.0
 10
16.1519473705
 20
12.897969622
 30
0.0
  0
SPLINE
  5
321
100
AcDbEntity
  8
0
100
AcDbSpline
 62
7
  6
CONTINUOUS
 70
0
 71
3
 72
26
 73
22
 74
0
 42
0.0000001
 43
0.0000001
 44
0.0000000001
 40
0.0
 40
0.0
 40
0.0
 40
0.0
 40
0.0879291987
 40
0.1726500614
 40
0.2539540599
 40
0.3316760544
 40
0.4057296934
 40
0.4760591262
 40
0.5426439551
 40
0.6055066765
 40
0.6647158001
 40
0.7204151028
 40
0.7728276019
 40
0.8222588058
 40
0.869121393
 40
0.8917578374
 40
0.9139534247
 40
0.9357879405
 40
0.9573471075
 40
0.9787204269
 40
1.0
 40
1.0
 40
1.0
 40
1.0
 10
16.3347916233
 20
12.8601497951
 30
0.0
 10
16.3372960414
 20
12.8682540946
 30
0.0
 10
16.3424690256
 20
12.8840896531
 30
0.0
 10
16.3508855778
 20
12.9071026704
 30
0.0
 10
16.3597923508
 20
12.9288711688
 30
0.0
 10
16.3691619982
 20
12.9493185557
 30
0.0
 10
16.3789618668
 20
12.9683813573
 30
0.0
 10
16.3891638426
 20
12.9860023732
 30
0.0
 10
16.3997377979
 20
13.002128032
 30
0.0
 10
16.4106494467
 20
13.0167100429
 30
0.0
 10
16.421869397
 20
13.0297006724
 30
0.0
 10
16.433364477
 20
13.0410589355
 30
0.0
 10
16.4451012537
 20
13.0507506192
 30
0.0
 10
16.4570487945
 20
13.0587384001
 30
0.0
 10
16.4672717791
 20
13.0640122935
 30
0.0
 10
16.4754860424
 20
13.0673085754
 30
0.0
 10
16.4816025241
 20
13.0693116796
 30
0.0
 10
16.4877398083
 20
13.0708709026
 30
0.0
 10
16.4938928893
 20
13.0719856164
 30
0.0
 10
16.500056131
 20
13.0726550895
 30
0.0
 10
16.5041723338
 20
13.0728042907
 30
0.0
 10
16.5062251524
 20
13.0728044439
 30
0.0
  0
SPLINE
  5
322
100
AcDbEntity
  8
02___PRT_ALL_AXES
100
AcDbSpline
 62
7
  6
CONTINUOUS
 70
0
 71
3
 72
26
 73
22
 74
0
 42
0.0000001
 43
0.0000001
 44
0.0000000001
 40
0.0
 40
0.0
 40
0.0
 40
0.0
 40
0.087929201
 40
0.1726500729
 40
0.2539540855
 40
0.3316760873
 40
0.405729726
 40
0.4760591555
 40
0.5426439796
 40
0.6055066969
 40
0.664715818
 40
0.7204151167
 40
0.7728276122
 40
0.8222588135
 40
0.869121398
 40
0.8917578414
 40
0.9139534279
 40
0.9357879429
 40
0.9573471091
 40
0.9787204276
 40
1.0
 40
1.0
 40
1.0
 40
1.0
 10
15.7544893841
 20
12.8977571982
 30
0.0
 10
15.7572634058
 20
12.9067339358
 30
0.0
 10
15.7629932688
 20
12.9242742131
 30
0.0
 10
15.7723158748
 20
12.9497646128
 30
0.0
 10
15.782181474
 20
12.9738765204
 30
0.0
 10
15.7925597767
 20
12.996525096
 30
0.0
 10
15.8034146144
 20
13.0176400319
 30
0.0
 10
15.8147148451
 20
13.0371579713
 30
0.0
 10
15.8264270999
 20
13.0550195758
 30
0.0
 10
15.8385134014
 20
13.0711713568
 30
0.0
 10
15.8509411922
 20
13.0855604432
 30
0.0
 10
15.8636737318
 20
13.0981414361
 30
0.0
 10
15.8766739867
 20
13.1088764405
 30
0.0
 10
15.8899076942
 20
13.1177241156
 30
0.0
 10
15.9012311956
 20
13.1235657493
 30
0.0
 10
15.9103297343
 20
13.1272168796
 30
0.0
 10
15.9171046626
 20
13.1294356205
 30
0.0
 10
15.9239026329
 20
13.1311626958
 30
0.0
 10
15.9307181004
 20
13.1323974098
 30
0.0
 10
15.9375448226
 20
13.1331389523
 30
0.0
 10
15.9421041396
 20
13.133304215
 30
0.0
 10
15.9443779466
 20
13.1333043847
 30
0.0
  0
ENDSEC
  0
SECTION
  2
OBJECTS
  0
DICTIONARY
  5
C
100
AcDbDictionary
280
0
281
1
  3
ACAD_GROUP
350
D
  3
ACAD_MLINESTYLE
350
17
  3
ACAD_LAYOUT
350
1A
  3
ACAD_PLOTSETTINGS
350
19
  3
ACAD_PLOTSTYLENAME
350
E
  0
DICTIONARY
  5
D
102
{ACAD_REACTORS
330
C
102
}
100
AcDbDictionary
280
0
281
1
  0
ACDBDICTIONARYWDFLT
  5
E
102
{ACAD_REACTORS
330
C
102
}
100
AcDbDictionary
281
1
  3
Normal
350
F
100
AcDbDictionaryWithDefault
340
F
  0
DICTIONARY
  5
17
102
{ACAD_REACTORS
330
C
102
}
100
AcDbDictionary
280
0
281
1
  3
Standard
350
18
  0
DICTIONARY
  5
19
102
{ACAD_REACTORS
330
C
102
}
100
AcDbDictionary
281
1
  0
DICTIONARY
  5
1A
102
{ACAD_REACTORS
330
C
102
}
100
AcDbDictionary
281
1
  3
Model
350
323
  3
Layout1
350
324
  0
ACDBPLACEHOLDER
  5
F
102
{ACAD_REACTORS
330
E
102
}
  0
MLINESTYLE
  5
18
102
{ACAD_REACTORS
330
17
102
}
100
AcDbMlineStyle
  2
STANDARD
 70
0
  3

 62
256
 51
90.0
 52
90.0
 71
2
 49
0.5
 62
256
  6
BYLAYER
 49
-0.5
 62
256
  6
BYLAYER
  0
LAYOUT
  5
323
102
{ACAD_REACTORS
330
1A
102
}
100
AcDbPlotSettings
  1

  2
none_device
  4
ANSI_C_(22.00_x_17.00_Inches)
  6

 40
0.0
 41
0.0
 42
0.0
 43
0.0
 44
558.8
 45
431.8
 46
0.0
 47
0.0
 48
0.0
 49
0.0
140
0.0
141
0.0
142
1.0
143
1.0
 70
1024
 72
0
 73
0
 74
0
  7

 75
0
147
1.0
148
0.0
149
0.0
100
AcDbLayout
  1
Model
 70
0
 71
0
 10
0.0
 20
0.0
 11
22.0
 21
17.0
 12
0.0
 22
0.0
 32
0.0
 14
0.0
 24
0.0
 34
0.0
 15
0.0
 25
0.0
 35
0.0
146
0.0
 13
0.0
 23
0.0
 33
0.0
 16
1.0
 26
0.0
 36
0.0
 17
0.0
 27
1.0
 37
0.0
 76
0
330
217
345
0
346
0
  0
LAYOUT
  5
324
102
{ACAD_REACTORS
330
1A
102
}
100
AcDbPlotSettings
  1

  2
none_device
  4
ANSI_C_(22.00_x_17.00_Inches)
  6

 40
0.0
 41
0.0
 42
0.0
 43
0.0
 44
558.8
 45
431.8
 46
0.0
 47
0.0
 48
0.0
 49
0.0
140
0.0
141
0.0
142
1.0
143
1.0
 70
0
 72
0
 73
0
 74
0
  7

 75
0
147
1.0
148
0.0
149
0.0
100
AcDbLayout
  1
Layout1
 70
0
 71
1
 10
0.0
 20
0.0
 11
22.0
 21
17.0
 12
0.0
 22
0.0
 32
0.0
 14
0.0
 24
0.0
 34
0.0
 15
0.0
 25
0.0
 35
0.0
146
0.0
 13
0.0
 23
0.0
 33
0.0
 16
1.0
 26
0.0
 36
0.0
 17
0.0
 27
1.0
 37
0.0
 76
0
330
218
345
0
346
0
  0
ENDSEC
  0
EOF