999
DXF file: _cgs_temp_output.dxf
999
Pro/ENGINEER 2016360 by Parametric Technology Corporation
  0
SECTION
  2
HEADER
  9
$ACADVER
  1
AC1021
  9
$DWGCODEPAGE
  3
ANSI_1252
  9
$EXTMAX
 10
22.0
 20
17.0
 30
0.0
  9
$EXTMIN
 10
0.0
 20
0.0
 30
0.0
  9
$LIMMIN
 10
0.0
 20
0.0
  9
$LIMMAX
 10
22.0
 20
17.0
  9
$VIEWCTR
 10
11.0
 20
8.5
  9
$VIEWSIZE
 40
17.0
  9
$CLAYER
  8
0
  9
$LTSCALE
 40
1.21
  9
$CELTYPE
  6
BYLAYER
  9
$DIMSCALE
 40
1.0
  9
$DIMASZ
 40
0.1875
  9
$DIMEXO
 40
0.0625
  9
$DIMDLI
 40
0.836
  9
$DIMEXE
 40
0.125
  9
$DIMCEN
 40
0.198
  9
$DIMLFAC
 40
1.0
  9
$DIMBLK
  1
_CLOSED
  9
$DIMALT
 70
0
  9
$DIMALTF
 40
25.4
  9
$DIMTXT
 40
0.15625
  9
$DIMTOL
 70
0
  9
$DIMLIM
 70
0
  9
$DIMTFAC
 40
1.0
  9
$DIMGAP
 40
0.09
  9
$DIMDSEP
 70
46
  9
$AUNITS
 70
0
  9
$PDMODE
 70
3
  9
$PDSIZE
 40
0.3125
  9
$HANDSEED
  5
2F6
  9
$TILEMODE
 70
1
  9
$MEASUREMENT
 70
0
  9
$INSUNITS
 70
1
  0
ENDSEC
  0
SECTION
  2
CLASSES
  0
CLASS
  1
ACDBDICTIONARYWDFLT
  2
AcDbDictionaryWithDefault
  3
AutoCAD 2000
 90
0
 91
1
280
0
281
0
  0
CLASS
  1
ACDBPLACEHOLDER
  2
AcDbPlaceHolder
  3
AutoCAD 2000
 90
0
 91
1
280
0
281
0
  0
CLASS
  1
LAYOUT
  2
AcDbLayout
  3
AutoCAD 2000
 90
0
 91
0
280
0
281
0
  0
ENDSEC
  0
SECTION
  2
TABLES
  0
TABLE
  2
VPORT
  5
8
100
AcDbSymbolTable
 70
2
  0
VPORT
  5
1F4
100
AcDbSymbolTableRecord
100
AcDbViewportTableRecord
  2
*ACTIVE
 70
0
 10
0.0
 20
0.0
 11
1.0
 21
1.0
 12
11.0
 22
8.5
 13
0.0
 23
0.0
 14
1.0
 24
1.0
 15
0.0
 25
0.0
 16
0.0
 26
0.0
 36
1.0
 17
0.0
 27
0.0
 37
0.0
 40
17.0
 41
1.2941176471
 42
50.0
 43
0.0
 44
0.0
 50
0.0
 51
0.0
 71
0
 72
100
 73
1
 74
1
 75
0
 76
0
 77
0
 78
0
  0
ENDTAB
  0
TABLE
  2
LTYPE
  5
5
100
AcDbSymbolTable
 70
6
  0
LTYPE
  5
14
100
AcDbSymbolTableRecord
100
AcDbLinetypeTableRecord
  2
BYBLOCK
 70
0
  3

 72
65
 73
0
 40
0.0
  0
LTYPE
  5
15
100
AcDbSymbolTableRecord
100
AcDbLinetypeTableRecord
  2
BYLAYER
 70
0
  3

 72
65
 73
0
 40
0.0
  0
LTYPE
  5
16
100
AcDbSymbolTableRecord
100
AcDbLinetypeTableRecord
  2
CONTINUOUS
 70
64
  3
Solid line
 72
65
 73
0
 40
0.0
  0
LTYPE
  5
1F5
100
AcDbSymbolTableRecord
100
AcDbLinetypeTableRecord
  2
CENTER
 70
64
  3
____ _ ____ _ ____ _ ____ _ ____ _ ____ _ ____
 72
65
 73
4
 40
0.6
 49
0.375
 74
0
 49
-0.075
 74
0
 49
0.075
 74
0
 49
-0.075
 74
0
  0
LTYPE
  5
1F6
100
AcDbSymbolTableRecord
100
AcDbLinetypeTableRecord
  2
HIDDEN
 70
64
  3
- - - - - - - - - - - - - - - - - - - -
 72
65
 73
2
 40
0.2
 49
0.1
 74
0
 49
-0.1
 74
0
  0
LTYPE
  5
1F7
100
AcDbSymbolTableRecord
100
AcDbLinetypeTableRecord
  2
PHANTOM
 70
64
  3
_____ _ _ _____ _ _ _____ _ _ _____
 72
65
 73
6
 40
0.8
 49
0.45
 74
0
 49
-0.05
 74
0
 49
0.1
 74
0
 49
-0.05
 74
0
 49
0.1
 74
0
 49
-0.05
 74
0
  0
LTYPE
  5
1F8
100
AcDbSymbolTableRecord
100
AcDbLinetypeTableRecord
  2
DOT
 70
64
  3
. . . . . . . . . . . . . . . . . . . .
 72
65
 73
2
 40
0.2
 49
0.1
 74
0
 49
-0.1
 74
0
  0
LTYPE
  5
1F9
100
AcDbSymbolTableRecord
100
AcDbLinetypeTableRecord
  2
DASHED
 70
64
  3
- - - - - - - - - - - - - - - - - - - -
 72
65
 73
2
 40
0.2
 49
0.1
 74
0
 49
-0.1
 74
0
  0
ENDTAB
  0
TABLE
  2
LAYER
  5
2
100
AcDbSymbolTable
 70
36
  0
LAYER
  5
10
100
AcDbSymbolTableRecord
100
AcDbLayerTableRecord
  2
0
 70
0
 62
7
  6
CONTINUOUS
370
-3
390
F
  0
LAYER
  5
1FA
100
AcDbSymbolTableRecord
100
AcDbLayerTableRecord
  2
DEFAULT_1
 70
0
 62
7
  6
CENTER
370
-3
390
F
  0
LAYER
  5
1FB
100
AcDbSymbolTableRecord
100
AcDbLayerTableRecord
  2
DEFAULT_2
 70
0
 62
8
  6
HIDDEN
370
-3
390
F
  0
LAYER
  5
1FC
100
AcDbSymbolTableRecord
100
AcDbLayerTableRecord
  2
DEFAULT_3
 70
0
 62
7
  6
PHANTOM
370
-3
390
F
  0
LAYER
  5
1FD
100
AcDbSymbolTableRecord
100
AcDbLayerTableRecord
  2
01_ALL_DTM_PLN
 70
0
 62
7
  6
CONTINUOUS
370
-3
390
F
  0
LAYER
  5
1FE
100
AcDbSymbolTableRecord
100
AcDbLayerTableRecord
  2
01__ASM_ALL_DTM_PLN
 70
0
 62
7
  6
CONTINUOUS
370
-3
390
F
  0
LAYER
  5
1FF
100
AcDbSymbolTableRecord
100
AcDbLayerTableRecord
  2
01__ASM_DEF_DTM_PLN
 70
0
 62
7
  6
CONTINUOUS
370
-3
390
F
  0
LAYER
  5
200
100
AcDbSymbolTableRecord
100
AcDbLayerTableRecord
  2
01___PRT_ALL_DTM_PLN
 70
0
 62
7
  6
CONTINUOUS
370
-3
390
F
  0
LAYER
  5
201
100
AcDbSymbolTableRecord
100
AcDbLayerTableRecord
  2
01___PRT_DEF_DTM_PLN
 70
0
 62
7
  6
CONTINUOUS
370
-3
390
F
  0
LAYER
  5
202
100
AcDbSymbolTableRecord
100
AcDbLayerTableRecord
  2
02_ALL_AXES
 70
0
 62
7
  6
CONTINUOUS
370
-3
390
F
  0
LAYER
  5
203
100
AcDbSymbolTableRecord
100
AcDbLayerTableRecord
  2
02__ASM_ALL_AXES
 70
0
 62
7
  6
CONTINUOUS
370
-3
390
F
  0
LAYER
  5
204
100
AcDbSymbolTableRecord
100
AcDbLayerTableRecord
  2
02___PRT_ALL_AXES
 70
0
 62
7
  6
CONTINUOUS
370
-3
390
F
  0
LAYER
  5
205
100
AcDbSymbolTableRecord
100
AcDbLayerTableRecord
  2
03_ALL_CURVES
 70
0
 62
7
  6
CONTINUOUS
370
-3
390
F
  0
LAYER
  5
206
100
AcDbSymbolTableRecord
100
AcDbLayerTableRecord
  2
03__ASM_ALL_CURVES
 70
0
 62
7
  6
CONTINUOUS
370
-3
390
F
  0
LAYER
  5
207
100
AcDbSymbolTableRecord
100
AcDbLayerTableRecord
  2
03___PRT_ALL_CURVES
 70
0
 62
7
  6
CONTINUOUS
370
-3
390
F
  0
LAYER
  5
208
100
AcDbSymbolTableRecord
100
AcDbLayerTableRecord
  2
04_ALL_DTM_PNT
 70
0
 62
7
  6
CONTINUOUS
370
-3
390
F
  0
LAYER
  5
209
100
AcDbSymbolTableRecord
100
AcDbLayerTableRecord
  2
04__ASM_ALL_DTM_PNT
 70
0
 62
7
  6
CONTINUOUS
370
-3
390
F
  0
LAYER
  5
20A
100
AcDbSymbolTableRecord
100
AcDbLayerTableRecord
  2
04___PRT_ALL_DTM_PNT
 70
0
 62
7
  6
CONTINUOUS
370
-3
390
F
  0
LAYER
  5
20B
100
AcDbSymbolTableRecord
100
AcDbLayerTableRecord
  2
05_ALL_DTM_CSYS
 70
0
 62
7
  6
CONTINUOUS
370
-3
390
F
  0
LAYER
  5
20C
100
AcDbSymbolTableRecord
100
AcDbLayerTableRecord
  2
05__ASM_ALL_DTM_CSYS
 70
0
 62
7
  6
CONTINUOUS
370
-3
390
F
  0
LAYER
  5
20D
100
AcDbSymbolTableRecord
100
AcDbLayerTableRecord
  2
05__ASM_DEF_DTM_CSYS
 70
0
 62
7
  6
CONTINUOUS
370
-3
390
F
  0
LAYER
  5
20E
100
AcDbSymbolTableRecord
100
AcDbLayerTableRecord
  2
05___PRT_ALL_DTM_CSYS
 70
0
 62
7
  6
CONTINUOUS
370
-3
390
F
  0
LAYER
  5
20F
100
AcDbSymbolTableRecord
100
AcDbLayerTableRecord
  2
05___PRT_DEF_DTM_CSYS
 70
0
 62
7
  6
CONTINUOUS
370
-3
390
F
  0
LAYER
  5
210
100
AcDbSymbolTableRecord
100
AcDbLayerTableRecord
  2
06_ALL_SURFS
 70
0
 62
7
  6
CONTINUOUS
370
-3
390
F
  0
LAYER
  5
211
100
AcDbSymbolTableRecord
100
AcDbLayerTableRecord
  2
06__ASM_ALL_SURFS
 70
0
 62
7
  6
CONTINUOUS
370
-3
390
F
  0
LAYER
  5
212
100
AcDbSymbolTableRecord
100
AcDbLayerTableRecord
  2
06___PRT_ALL_SURFS
 70
0
 62
7
  6
CONTINUOUS
370
-3
390
F
  0
LAYER
  5
213
100
AcDbSymbolTableRecord
100
AcDbLayerTableRecord
  2
07__ASM_ALL_SKELETONS
 70
0
 62
7
  6
CONTINUOUS
370
-3
390
F
  0
ENDTAB
  0
TABLE
  2
STYLE
  5
3
100
AcDbSymbolTable
 70
1
  0
STYLE
  5
11
100
AcDbSymbolTableRecord
100
AcDbTextStyleTableRecord
  2
STANDARD
 70
0
 40
0.0
 41
0.8
 50
0.0
 71
0
 42
0.2
  3
txt
  4

  0
STYLE
  5
214
100
AcDbSymbolTableRecord
100
AcDbTextStyleTableRecord
  2
TEXTSTYLE_1
 70
0
 40
0.0
 41
0.8
 50
0.0
 71
0
 42
0.2
  3
gdt
  4

  0
ENDTAB
  0
TABLE
  2
VIEW
  5
6
100
AcDbSymbolTable
 70
0
  0
ENDTAB
  0
TABLE
  2
UCS
  5
7
100
AcDbSymbolTable
 70
0
  0
ENDTAB
  0
TABLE
  2
APPID
  5
9
100
AcDbSymbolTable
 70
1
  0
APPID
  5
215
100
AcDbSymbolTableRecord
100
AcDbRegAppTableRecord
  2
ACAD
 70
0
  0
ENDTAB
  0
TABLE
  2
BLOCK_RECORD
  5
1
100
AcDbSymbolTable
 70
0
  0
BLOCK_RECORD
  5
216
100
AcDbSymbolTableRecord
100
AcDbBlockTableRecord
  2
*Model_Space
  0
BLOCK_RECORD
  5
217
100
AcDbSymbolTableRecord
100
AcDbBlockTableRecord
  2
*Paper_Space
  0
ENDTAB
  0
TABLE
  2
DIMSTYLE
  5
A
100
AcDbSymbolTable
 70
1
100
AcDbDimStyleTable
 71
0
  0
DIMSTYLE
105
218
100
AcDbSymbolTableRecord
100
AcDbDimStyleTableRecord
  2
STANDARD
 70
0
  3

  4

 40
1.0
 41
0.1875
 42
0.0625
 43
0.38
 44
0.125
 45
0.0
 46
0.0
 47
0.0001
 48
0.0001
140
0.15625
141
0.09
142
0.0
143
25.4
144
1.0
145
0.0
146
1.0
147
0.09
 71
0.0
 72
0.0
 73
1
 74
1
 75
0
 76
0
 77
0
 78
4
 79
1
170
0
171
3
172
0
173
0
174
0
175
0
176
0
177
0
178
0
270
2
179
4
271
4
272
4
273
2
274
2
275
0
280
0
281
0
282
0
283
1
284
4
285
0
286
0
287
3
288
0
340
11
278
46
  0
ENDTAB
  0
ENDSEC
  0
SECTION
  2
BLOCKS
  0
BLOCK
  5
20
100
AcDbEntity
  8
0
100
AcDbBlockBegin
  2
*Model_Space
 70
0
 10
0.0
 20
0.0
 30
0.0
  3
*Model_Space
  1

  0
ENDBLK
  5
21
100
AcDbEntity
  8
0
100
AcDbBlockEnd
  0
BLOCK
  5
1C
100
AcDbEntity
  8
0
100
AcDbBlockBegin
  2
*Paper_Space
 70
0
 10
0.0
 20
0.0
 30
0.0
  3
*Paper_Space
  1

  0
ENDBLK
  5
1D
100
AcDbEntity
  8
0
100
AcDbBlockEnd
  0
ENDSEC
  0
SECTION
  2
ENTITIES
  0
MTEXT
  5
219
100
AcDbEntity
  8
0
100
AcDbMText
 62
7
  6
CONTINUOUS
  7
STANDARD
 71
1
 72
1
 10
15.9560215477
 20
0.9479130325
 30
0.0
 11
1.0
 21
0.0
 31
0.0
 44
0.9
  1
SCALE: 1:1.000
 40
0.3
 41
3.36
  0
LINE
  5
21A
100
AcDbEntity
  8
0
100
AcDbLine
 62
7
  6
CONTINUOUS
 10
0.0
 20
0.0
 11
0.0
 21
17.0
  0
LINE
  5
21B
100
AcDbEntity
  8
0
100
AcDbLine
 62
7
  6
CONTINUOUS
 10
0.0
 20
0.0
 11
22.0
 21
0.0
  0
LINE
  5
21C
100
AcDbEntity
  8
0
100
AcDbLine
 62
7
  6
CONTINUOUS
 10
0.0
 20
17.0
 11
22.0
 21
17.0
  0
LINE
  5
21D
100
AcDbEntity
  8
0
100
AcDbLine
 62
7
  6
CONTINUOUS
 10
22.0
 20
0.0
 11
22.0
 21
17.0
  0
LINE
  5
21E
100
AcDbEntity
  8
0
100
AcDbLine
 62
7
  6
CONTINUOUS
 10
5.4503672762
 20
5.7701198968
 11
5.4503672762
 21
5.6681303203
  0
LINE
  5
21F
100
AcDbEntity
  8
0
100
AcDbLine
 62
7
  6
CONTINUOUS
 10
5.5338377687
 20
5.2649221045
 11
5.4525525161
 21
5.6473391512
  0
LINE
  5
220
100
AcDbEntity
  8
0
100
AcDbLine
 62
7
  6
CONTINUOUS
 10
5.5582914587
 20
5.2451198968
 11
6.7024430936
 21
5.2451198968
  0
LINE
  5
221
100
AcDbEntity
  8
0
100
AcDbLine
 62
7
  6
CONTINUOUS
 10
5.5193227557
 20
5.4284532301
 11
6.7414117966
 21
5.4284532301
  0
LINE
  5
222
100
AcDbEntity
  8
0
100
AcDbLine
 62
7
  6
CONTINUOUS
 10
6.7853672762
 20
5.7951198968
 11
5.4753672762
 21
5.7951198968
  0
LINE
  5
223
100
AcDbEntity
  8
0
100
AcDbLine
 62
7
  6
CONTINUOUS
 10
6.7268967837
 20
5.2649221045
 11
6.8081820362
 21
5.6473391512
  0
LINE
  5
224
100
AcDbEntity
  8
0
100
AcDbLine
 62
7
  6
CONTINUOUS
 10
6.8103672762
 20
5.6681303203
 11
6.8103672762
 21
5.7701198968
  0
LINE
  5
225
100
AcDbEntity
  8
0
100
AcDbLine
 62
7
  6
CONTINUOUS
 10
6.7508720839
 20
10.6000477814
 11
5.3908720839
 21
10.6000477814
  0
LINE
  5
226
100
AcDbEntity
  8
0
100
AcDbLine
 62
7
  6
CONTINUOUS
 10
5.3908720839
 20
10.6000477814
 11
5.3908720839
 21
14.6000477814
  0
LINE
  5
227
100
AcDbEntity
  8
0
100
AcDbLine
 62
7
  6
CONTINUOUS
 10
6.7508720839
 20
10.6000477814
 11
6.7508720839
 21
14.6000477814
  0
LINE
  5
228
100
AcDbEntity
  8
0
100
AcDbLine
 62
7
  6
CONTINUOUS
 10
5.3908720839
 20
14.6000477814
 11
6.7508720839
 21
14.6000477814
  0
LINE
  5
229
100
AcDbEntity
  8
0
100
AcDbLine
 62
7
  6
CONTINUOUS
 10
13.5603552569
 20
5.3689580378
 11
13.5603552569
 21
5.7356247044
  0
LINE
  5
22A
100
AcDbEntity
  8
0
100
AcDbLine
 62
7
  6
CONTINUOUS
 10
13.6723934879
 20
5.3334349611
 11
13.698317026
 21
5.2211477811
  0
LINE
  5
22B
100
AcDbEntity
  8
0
100
AcDbLine
 62
7
  6
CONTINUOUS
 10
13.9223934879
 20
5.2211477811
 11
13.948317026
 21
5.3334349611
  0
LINE
  5
22C
100
AcDbEntity
  8
0
100
AcDbLine
 62
7
  6
CONTINUOUS
 10
14.1723934879
 20
5.3334349611
 11
14.198317026
 21
5.2211477811
  0
LINE
  5
22D
100
AcDbEntity
  8
0
100
AcDbLine
 62
7
  6
CONTINUOUS
 10
14.4223934879
 20
5.2211477811
 11
14.448317026
 21
5.3334349611
  0
LINE
  5
22E
100
AcDbEntity
  8
0
100
AcDbLine
 62
7
  6
CONTINUOUS
 10
14.6723934879
 20
5.3334349611
 11
14.698317026
 21
5.2211477811
  0
LINE
  5
22F
100
AcDbEntity
  8
0
100
AcDbLine
 62
7
  6
CONTINUOUS
 10
14.9223934879
 20
5.2211477811
 11
14.948317026
 21
5.3334349611
  0
LINE
  5
230
100
AcDbEntity
  8
0
100
AcDbLine
 62
7
  6
CONTINUOUS
 10
15.1723934879
 20
5.3334349611
 11
15.198317026
 21
5.2211477811
  0
LINE
  5
231
100
AcDbEntity
  8
0
100
AcDbLine
 62
7
  6
CONTINUOUS
 10
13.742975654
 20
5.1856247044
 11
13.8777348599
 21
5.1856247044
  0
LINE
  5
232
100
AcDbEntity
  8
0
100
AcDbLine
 62
7
  6
CONTINUOUS
 10
14.242975654
 20
5.1856247044
 11
14.3777348599
 21
5.1856247044
  0
LINE
  5
233
100
AcDbEntity
  8
0
100
AcDbLine
 62
7
  6
CONTINUOUS
 10
14.742975654
 20
5.1856247044
 11
14.8777348599
 21
5.1856247044
  0
LINE
  5
234
100
AcDbEntity
  8
0
100
AcDbLine
 62
7
  6
CONTINUOUS
 10
15.242975654
 20
5.1856247044
 11
15.3777348599
 21
5.1856247044
  0
LINE
  5
235
100
AcDbEntity
  8
0
100
AcDbLine
 62
7
  6
CONTINUOUS
 10
15.742975654
 20
5.1856247044
 11
15.8777348599
 21
5.1856247044
  0
LINE
  5
236
100
AcDbEntity
  8
0
100
AcDbLine
 62
7
  6
CONTINUOUS
 10
16.242975654
 20
5.1856247044
 11
16.3777348599
 21
5.1856247044
  0
LINE
  5
237
100
AcDbEntity
  8
0
100
AcDbLine
 62
7
  6
CONTINUOUS
 10
16.742975654
 20
5.1856247044
 11
16.8777348599
 21
5.1856247044
  0
LINE
  5
238
100
AcDbEntity
  8
0
100
AcDbLine
 62
7
  6
CONTINUOUS
 10
17.242975654
 20
5.1856247044
 11
17.3777348599
 21
5.1856247044
  0
LINE
  5
239
100
AcDbEntity
  8
0
100
AcDbLine
 62
7
  6
CONTINUOUS
 10
15.4223934879
 20
5.2211477811
 11
15.448317026
 21
5.3334349611
  0
LINE
  5
23A
100
AcDbEntity
  8
0
100
AcDbLine
 62
7
  6
CONTINUOUS
 10
13.5603552569
 20
5.3689580378
 11
13.6277348599
 21
5.3689580378
  0
LINE
  5
23B
100
AcDbEntity
  8
0
100
AcDbLine
 62
7
  6
CONTINUOUS
 10
13.992975654
 20
5.3689580378
 11
14.1277348599
 21
5.3689580378
  0
LINE
  5
23C
100
AcDbEntity
  8
0
100
AcDbLine
 62
7
  6
CONTINUOUS
 10
14.492975654
 20
5.3689580378
 11
14.6277348599
 21
5.3689580378
  0
LINE
  5
23D
100
AcDbEntity
  8
0
100
AcDbLine
 62
7
  6
CONTINUOUS
 10
14.992975654
 20
5.3689580378
 11
15.1277348599
 21
5.3689580378
  0
LINE
  5
23E
100
AcDbEntity
  8
0
100
AcDbLine
 62
7
  6
CONTINUOUS
 10
15.492975654
 20
5.3689580378
 11
15.6277348599
 21
5.3689580378
  0
LINE
  5
23F
100
AcDbEntity
  8
0
100
AcDbLine
 62
7
  6
CONTINUOUS
 10
15.992975654
 20
5.3689580378
 11
16.1277348599
 21
5.3689580378
  0
LINE
  5
240
100
AcDbEntity
  8
0
100
AcDbLine
 62
7
  6
CONTINUOUS
 10
16.492975654
 20
5.3689580378
 11
16.6277348599
 21
5.3689580378
  0
LINE
  5
241
100
AcDbEntity
  8
0
100
AcDbLine
 62
7
  6
CONTINUOUS
 10
16.992975654
 20
5.3689580378
 11
17.1277348599
 21
5.3689580378
  0
LINE
  5
242
100
AcDbEntity
  8
0
100
AcDbLine
 62
7
  6
CONTINUOUS
 10
17.492975654
 20
5.3689580378
 11
17.5603552569
 21
5.3689580378
  0
LINE
  5
243
100
AcDbEntity
  8
0
100
AcDbLine
 62
7
  6
CONTINUOUS
 10
15.6723934879
 20
5.3334349611
 11
15.698317026
 21
5.2211477811
  0
LINE
  5
244
100
AcDbEntity
  8
0
100
AcDbLine
 62
7
  6
CONTINUOUS
 10
13.5603552569
 20
5.7356247044
 11
17.5603552569
 21
5.7356247044
  0
LINE
  5
245
100
AcDbEntity
  8
0
100
AcDbLine
 62
7
  6
CONTINUOUS
 10
15.9223934879
 20
5.2211477811
 11
15.948317026
 21
5.3334349611
  0
LINE
  5
246
100
AcDbEntity
  8
0
100
AcDbLine
 62
7
  6
CONTINUOUS
 10
16.1723934879
 20
5.3334349611
 11
16.198317026
 21
5.2211477811
  0
LINE
  5
247
100
AcDbEntity
  8
0
100
AcDbLine
 62
7
  6
CONTINUOUS
 10
16.4223934879
 20
5.2211477811
 11
16.448317026
 21
5.3334349611
  0
LINE
  5
248
100
AcDbEntity
  8
0
100
AcDbLine
 62
7
  6
CONTINUOUS
 10
16.6723934879
 20
5.3334349611
 11
16.698317026
 21
5.2211477811
  0
LINE
  5
249
100
AcDbEntity
  8
0
100
AcDbLine
 62
7
  6
CONTINUOUS
 10
16.9223934879
 20
5.2211477811
 11
16.948317026
 21
5.3334349611
  0
LINE
  5
24A
100
AcDbEntity
  8
0
100
AcDbLine
 62
7
  6
CONTINUOUS
 10
17.1723934879
 20
5.3334349611
 11
17.198317026
 21
5.2211477811
  0
LINE
  5
24B
100
AcDbEntity
  8
0
100
AcDbLine
 62
7
  6
CONTINUOUS
 10
17.5603552569
 20
5.3689580378
 11
17.5603552569
 21
5.7356247044
  0
LINE
  5
24C
100
AcDbEntity
  8
0
100
AcDbLine
 62
7
  6
CONTINUOUS
 10
17.4223934879
 20
5.2211477811
 11
17.448317026
 21
5.3334349611
  0
LINE
  5
24D
100
AcDbEntity
  8
0
100
AcDbLine
 62
7
  6
CONTINUOUS
 10
14.372142489
 20
10.9662510166
 11
14.4718474798
 21
10.8424985959
  0
LWPOLYLINE
  5
24E
100
AcDbEntity
  8
0
100
AcDbPolyline
 62
7
  6
CONTINUOUS
 90
5
 70
0
 10
15.6778307671
 20
10.8419361331
 10
15.686853941
 20
10.8435358704
 10
15.6949164647
 20
10.848188684
 10
15.70078336
 20
10.854767494
 10
15.7045579705
 20
10.8619415337
  0
LINE
  5
24F
100
AcDbEntity
  8
0
100
AcDbLine
 62
7
  6
CONTINUOUS
 10
14.5004113223
 20
10.8301893461
 11
15.626029869
 21
10.8301893461
  0
LINE
  5
250
100
AcDbEntity
  8
0
100
AcDbLine
 62
7
  6
CONTINUOUS
 10
15.6433980274
 20
10.8419361134
 11
15.6778300408
 21
10.8419361134
  0
LINE
  5
251
100
AcDbEntity
  8
0
100
AcDbLine
 62
7
  6
CONTINUOUS
 10
14.332676482
 20
11.042572752
 11
14.3637875727
 21
10.9791750146
  0
LINE
  5
252
100
AcDbEntity
  8
0
100
AcDbLine
 62
7
  6
CONTINUOUS
 10
15.5546668623
 20
11.0581130012
 11
14.3480769601
 21
11.0581130012
  0
LWPOLYLINE
  5
253
100
AcDbEntity
  8
0
100
AcDbPolyline
 62
7
  6
CONTINUOUS
 90
5
 70
0
 10
15.7988639288
 20
11.2335995879
 10
15.8078871027
 20
11.2351993253
 10
15.8159496264
 20
11.2398521388
 10
15.8218165217
 20
11.2464309488
 10
15.8255911322
 20
11.2536049885
  0
LINE
  5
254
100
AcDbEntity
  8
0
100
AcDbLine
 62
7
  6
CONTINUOUS
 10
15.7644311891
 20
11.2335995682
 11
15.7988632025
 21
11.2335995682
  0
LWPOLYLINE
  5
255
100
AcDbEntity
  8
0
100
AcDbPolyline
 62
7
  6
CONTINUOUS
 90
5
 70
0
 10
15.9198970905
 20
11.6252630427
 10
15.9289202644
 20
11.6268627801
 10
15.9369827881
 20
11.6315155936
 10
15.9428496834
 20
11.6380944036
 10
15.9466242939
 20
11.6452684433
  0
LINE
  5
256
100
AcDbEntity
  8
0
100
AcDbLine
 62
7
  6
CONTINUOUS
 10
15.8854643508
 20
11.625263023
 11
15.9198963642
 21
11.625263023
  0
LINE
  5
257
100
AcDbEntity
  8
0
100
AcDbLine
 62
7
  6
CONTINUOUS
 10
14.3318174857
 20
11.0499539362
 11
15.3000827793
 21
14.1832615748
  0
LWPOLYLINE
  5
258
100
AcDbEntity
  8
0
100
AcDbPolyline
 62
7
  6
CONTINUOUS
 90
5
 70
0
 10
16.0409302522
 20
12.0169264976
 10
16.0499534261
 20
12.0185262349
 10
16.0580159498
 20
12.0231790485
 10
16.0638828451
 20
12.0297578585
 10
16.0676574556
 20
12.0369318981
  0
LINE
  5
259
100
AcDbEntity
  8
0
100
AcDbLine
 62
7
  6
CONTINUOUS
 10
15.6164305246
 20
10.9791750146
 11
15.5853194338
 21
11.042572752
  0
LINE
  5
25A
100
AcDbEntity
  8
0
100
AcDbLine
 62
7
  6
CONTINUOUS
 10
16.0064975125
 20
12.0169264778
 11
16.0409295259
 21
12.0169264778
  0
LWPOLYLINE
  5
25B
100
AcDbEntity
  8
0
100
AcDbPolyline
 62
7
  6
CONTINUOUS
 90
5
 70
0
 10
16.1619634139
 20
12.4085899524
 10
16.1709865878
 20
12.4101896897
 10
16.1790491115
 20
12.4148425033
 10
16.1849160069
 20
12.4214213133
 10
16.1886906173
 20
12.4285953529
  0
LINE
  5
25C
100
AcDbEntity
  8
0
100
AcDbLine
 62
7
  6
CONTINUOUS
 10
15.6425127067
 20
10.8424985959
 11
15.6207599624
 21
10.9662510166
  0
LINE
  5
25D
100
AcDbEntity
  8
0
100
AcDbLine
 62
7
  6
CONTINUOUS
 10
16.1275306742
 20
12.4085899327
 11
16.1619626876
 21
12.4085899327
  0
LWPOLYLINE
  5
25E
100
AcDbEntity
  8
0
100
AcDbPolyline
 62
7
  6
CONTINUOUS
 90
5
 70
0
 10
16.2829965756
 20
12.8002534072
 10
16.2920197495
 20
12.8018531445
 10
16.3000822732
 20
12.8065059581
 10
16.3059491686
 20
12.8130847681
 10
16.309723779
 20
12.8202588077
  0
LINE
  5
25F
100
AcDbEntity
  8
0
100
AcDbLine
 62
7
  6
CONTINUOUS
 10
15.743356919
 20
11.0079771636
 11
15.7373631535
 21
11.0980825986
  0
LWPOLYLINE
  5
260
100
AcDbEntity
  8
0
100
AcDbPolyline
 62
7
  6
CONTINUOUS
 90
7
 70
0
 10
15.7373610667
 20
11.0981062543
 10
15.7370877953
 20
11.1046555895
 10
15.7373946017
 20
11.1199695937
 10
15.7389350697
 20
11.1373392305
 10
15.7416050423
 20
11.1547769036
 10
15.7450349379
 20
11.1702623061
 10
15.7470068433
 20
11.1772179424
  0
LINE
  5
261
100
AcDbEntity
  8
0
100
AcDbLine
 62
7
  6
CONTINUOUS
 10
15.7435105018
 20
11.0016369553
 11
15.7433527303
 21
11.0080373865
  0
LINE
  5
262
100
AcDbEntity
  8
0
100
AcDbLine
 62
7
  6
CONTINUOUS
 10
15.6422883672
 20
10.8383487118
 11
15.6425127067
 21
10.8424985959
  0
LINE
  5
263
100
AcDbEntity
  8
0
100
AcDbLine
 62
7
  6
CONTINUOUS
 10
15.8643900807
 20
11.3996406184
 11
15.8583963152
 21
11.4897460534
  0
LWPOLYLINE
  5
264
100
AcDbEntity
  8
0
100
AcDbPolyline
 62
7
  6
CONTINUOUS
 90
7
 70
0
 10
15.8583942284
 20
11.4897697091
 10
15.858120957
 20
11.4963190443
 10
15.8584277634
 20
11.5116330485
 10
15.8599682314
 20
11.5290026853
 10
15.862638204
 20
11.5464403584
 10
15.8660680996
 20
11.5619257609
 10
15.868040005
 20
11.5688813972
  0
LINE
  5
265
100
AcDbEntity
  8
0
100
AcDbLine
 62
7
  6
CONTINUOUS
 10
15.8645436635
 20
11.3933004102
 11
15.864385892
 21
11.3997008413
  0
LINE
  5
266
100
AcDbEntity
  8
0
100
AcDbLine
 62
7
  6
CONTINUOUS
 10
16.5110637576
 20
13.6460998582
 11
16.511710954
 21
13.6471931094
  0
LINE
  5
267
100
AcDbEntity
  8
0
100
AcDbLine
 62
7
  6
CONTINUOUS
 10
16.3900305959
 20
13.2544364034
 11
16.3906777923
 21
13.2555296546
  0
LINE
  5
268
100
AcDbEntity
  8
0
100
AcDbLine
 62
7
  6
CONTINUOUS
 10
16.2485638359
 20
12.8002533875
 11
16.2829958493
 21
12.8002533875
  0
LINE
  5
269
100
AcDbEntity
  8
0
100
AcDbLine
 62
7
  6
CONTINUOUS
 10
15.9854232424
 20
11.7913040732
 11
15.9794294769
 21
11.8814095082
  0
LWPOLYLINE
  5
26A
100
AcDbEntity
  8
0
100
AcDbPolyline
 62
7
  6
CONTINUOUS
 90
7
 70
0
 10
15.9794273901
 20
11.8814331639
 10
15.9791541187
 20
11.8879824992
 10
15.9794609251
 20
11.9032965033
 10
15.9810013931
 20
11.9206661401
 10
15.9836713657
 20
11.9381038133
 10
15.9871012613
 20
11.9535892157
 10
15.9890731667
 20
11.9605448521
  0
LINE
  5
26B
100
AcDbEntity
  8
0
100
AcDbLine
 62
7
  6
CONTINUOUS
 10
15.9855768252
 20
11.784963865
 11
15.9854190537
 21
11.7913642961
  0
LWPOLYLINE
  5
26C
100
AcDbEntity
  8
0
100
AcDbPolyline
 62
7
  6
CONTINUOUS
 90
3
 70
0
 10
15.740684648
 20
10.9787019364
 10
15.7426961186
 20
10.9901068678
 10
15.7435105018
 20
11.0016369553
  0
LINE
  5
26D
100
AcDbEntity
  8
0
100
AcDbLine
 62
7
  6
CONTINUOUS
 10
16.2689974342
 20
12.8627729486
 11
16.2696446306
 21
12.8638661998
  0
LWPOLYLINE
  5
26E
100
AcDbEntity
  8
0
100
AcDbPolyline
 62
7
  6
CONTINUOUS
 90
5
 70
0
 10
16.4040297373
 20
13.191916862
 10
16.4130529112
 20
13.1935165993
 10
16.4211154349
 20
13.1981694129
 10
16.4269823303
 20
13.2047482229
 10
16.4307569407
 20
13.2119222625
  0
LINE
  5
26F
100
AcDbEntity
  8
0
100
AcDbLine
 62
7
  6
CONTINUOUS
 10
16.1064564041
 20
12.182967528
 11
16.1004626386
 21
12.273072963
  0
LWPOLYLINE
  5
270
100
AcDbEntity
  8
0
100
AcDbPolyline
 62
7
  6
CONTINUOUS
 90
7
 70
0
 10
16.1004605518
 20
12.2730966187
 10
16.1001872804
 20
12.279645954
 10
16.1004940868
 20
12.2949599582
 10
16.1020345548
 20
12.3123295949
 10
16.1047045274
 20
12.3297672681
 10
16.108134423
 20
12.3452526705
 10
16.1101063284
 20
12.3522083069
  0
LINE
  5
271
100
AcDbEntity
  8
0
100
AcDbLine
 62
7
  6
CONTINUOUS
 10
16.1066099869
 20
12.1766273198
 11
16.1064522154
 21
12.1830277509
  0
LWPOLYLINE
  5
272
100
AcDbEntity
  8
0
100
AcDbPolyline
 62
7
  6
CONTINUOUS
 90
3
 70
0
 10
15.8617178097
 20
11.3703653912
 10
15.8637292803
 20
11.3817703226
 10
15.8645436635
 20
11.3933004102
  0
LWPOLYLINE
  5
273
100
AcDbEntity
  8
0
100
AcDbPolyline
 62
7
  6
CONTINUOUS
 90
3
 70
0
 10
15.9827509714
 20
11.762028846
 10
15.984762442
 20
11.7734337774
 10
15.9855768252
 20
11.784963865
  0
LWPOLYLINE
  5
274
100
AcDbEntity
  8
0
100
AcDbPolyline
 62
7
  6
CONTINUOUS
 90
3
 70
0
 10
16.1037841331
 20
12.1536923008
 10
16.1057956037
 20
12.1650972322
 10
16.1066099869
 20
12.1766273198
  0
LINE
  5
275
100
AcDbEntity
  8
0
100
AcDbLine
 62
7
  6
CONTINUOUS
 10
15.7391354395
 20
10.9729581574
 11
15.740684648
 21
10.9787019364
  0
LINE
  5
276
100
AcDbEntity
  8
0
100
AcDbLine
 62
7
  6
CONTINUOUS
 10
15.8601686012
 20
11.3646216123
 11
15.8617178097
 21
11.3703653912
  0
LINE
  5
277
100
AcDbEntity
  8
0
100
AcDbLine
 62
7
  6
CONTINUOUS
 10
15.9812017629
 20
11.7562850671
 11
15.9827509714
 21
11.762028846
  0
LINE
  5
278
100
AcDbEntity
  8
0
100
AcDbLine
 62
7
  6
CONTINUOUS
 10
15.6434795212
 20
10.8421998276
 11
15.6585996769
 21
10.8911286694
  0
LINE
  5
279
100
AcDbEntity
  8
0
100
AcDbLine
 62
7
  6
CONTINUOUS
 10
15.7470121724
 20
11.1772316097
 11
15.7796328386
 21
11.2827921242
  0
LINE
  5
27A
100
AcDbEntity
  8
0
100
AcDbLine
 62
7
  6
CONTINUOUS
 10
15.8680453341
 20
11.5688950645
 11
15.9006660003
 21
11.674455579
  0
LINE
  5
27B
100
AcDbEntity
  8
0
100
AcDbLine
 62
7
  6
CONTINUOUS
 10
15.9890784958
 20
11.9605585193
 11
16.021699162
 21
12.0661190338
  0
LINE
  5
27C
100
AcDbEntity
  8
0
100
AcDbLine
 62
7
  6
CONTINUOUS
 10
16.1101116575
 20
12.3522219742
 11
16.1427323237
 21
12.4577824887
  0
LINE
  5
27D
100
AcDbEntity
  8
0
100
AcDbLine
 62
7
  6
CONTINUOUS
 10
16.2311448192
 20
12.743885429
 11
16.2637654854
 21
12.8494459435
  0
LINE
  5
27E
100
AcDbEntity
  8
0
100
AcDbLine
 62
7
  6
CONTINUOUS
 10
16.3521779809
 20
13.1355488838
 11
16.3847986471
 21
13.2411093983
  0
LINE
  5
27F
100
AcDbEntity
  8
0
100
AcDbLine
 62
7
  6
CONTINUOUS
 10
16.4732111426
 20
13.5272123386
 11
16.5058318088
 21
13.6327728531
  0
LINE
  5
280
100
AcDbEntity
  8
0
100
AcDbLine
 62
7
  6
CONTINUOUS
 10
16.5942443043
 20
13.9188757934
 11
16.6105546371
 21
13.9716560496
  0
LINE
  5
281
100
AcDbEntity
  8
0
100
AcDbLine
 62
7
  6
CONTINUOUS
 10
16.5058320662
 20
13.6327762408
 11
16.5066212335
 21
13.635243141
  0
LINE
  5
282
100
AcDbEntity
  8
0
100
AcDbLine
 62
7
  6
CONTINUOUS
 10
16.3847989045
 20
13.241112786
 11
16.3855880718
 21
13.2435796862
  0
LINE
  5
283
100
AcDbEntity
  8
0
100
AcDbLine
 62
7
  6
CONTINUOUS
 10
16.2637657428
 20
12.8494493311
 11
16.2645549101
 21
12.8519162314
  0
LINE
  5
284
100
AcDbEntity
  8
0
100
AcDbLine
 62
7
  6
CONTINUOUS
 10
16.1427325811
 20
12.4577858763
 11
16.1435217484
 21
12.4602527766
  0
LINE
  5
285
100
AcDbEntity
  8
0
100
AcDbLine
 62
7
  6
CONTINUOUS
 10
16.0216994194
 20
12.0661224215
 11
16.0224885867
 21
12.0685893217
  0
LINE
  5
286
100
AcDbEntity
  8
0
100
AcDbLine
 62
7
  6
CONTINUOUS
 10
15.9006662577
 20
11.6744589667
 11
15.901455425
 21
11.6769258669
  0
LINE
  5
287
100
AcDbEntity
  8
0
100
AcDbLine
 62
7
  6
CONTINUOUS
 10
15.779633096
 20
11.2827955119
 11
15.7804222633
 21
11.2852624121
  0
LINE
  5
288
100
AcDbEntity
  8
0
100
AcDbLine
 62
7
  6
CONTINUOUS
 10
15.6585999343
 20
10.8911320571
 11
15.6593891016
 21
10.8935989573
  0
LINE
  5
289
100
AcDbEntity
  8
0
100
AcDbLine
 62
7
  6
CONTINUOUS
 10
16.5517901024
 20
13.6035857174
 11
16.5537615897
 21
13.6090889709
  0
LINE
  5
28A
100
AcDbEntity
  8
0
100
AcDbLine
 62
7
  6
CONTINUOUS
 10
16.4307569407
 20
13.2119222625
 11
16.432728428
 21
13.2174255161
  0
LINE
  5
28B
100
AcDbEntity
  8
0
100
AcDbLine
 62
7
  6
CONTINUOUS
 10
16.309723779
 20
12.8202588077
 11
16.3116952663
 21
12.8257620613
  0
LWPOLYLINE
  5
28C
100
AcDbEntity
  8
0
100
AcDbPolyline
 62
7
  6
CONTINUOUS
 90
3
 70
0
 10
16.5066212335
 20
13.635243141
 10
16.5090901866
 20
13.6419199833
 10
16.5110637576
 20
13.6460998582
  0
LWPOLYLINE
  5
28D
100
AcDbEntity
  8
0
100
AcDbPolyline
 62
7
  6
CONTINUOUS
 90
3
 70
0
 10
16.3855880718
 20
13.2435796862
 10
16.3880570249
 20
13.2502565285
 10
16.3900305959
 20
13.2544364034
  0
LWPOLYLINE
  5
28E
100
AcDbEntity
  8
0
100
AcDbPolyline
 62
7
  6
CONTINUOUS
 90
3
 70
0
 10
16.2645549101
 20
12.8519162314
 10
16.2670238632
 20
12.8585930737
 10
16.2689974342
 20
12.8627729486
  0
LWPOLYLINE
  5
28F
100
AcDbEntity
  8
0
100
AcDbPolyline
 62
7
  6
CONTINUOUS
 90
3
 70
0
 10
16.1435217484
 20
12.4602527766
 10
16.1459907015
 20
12.4669296189
 10
16.1479642725
 20
12.4711094938
  0
LWPOLYLINE
  5
290
100
AcDbEntity
  8
0
100
AcDbPolyline
 62
7
  6
CONTINUOUS
 90
3
 70
0
 10
16.0224885867
 20
12.0685893217
 10
16.0249575398
 20
12.0752661641
 10
16.0269311108
 20
12.079446039
  0
LWPOLYLINE
  5
291
100
AcDbEntity
  8
0
100
AcDbPolyline
 62
7
  6
CONTINUOUS
 90
3
 70
0
 10
15.901455425
 20
11.6769258669
 10
15.9039243781
 20
11.6836027093
 10
15.9058979491
 20
11.6877825842
  0
LINE
  5
292
100
AcDbEntity
  8
0
100
AcDbLine
 62
7
  6
CONTINUOUS
 10
16.1479642725
 20
12.4711094938
 11
16.1486114689
 21
12.472202745
  0
LINE
  5
293
100
AcDbEntity
  8
0
100
AcDbLine
 62
7
  6
CONTINUOUS
 10
16.3695969976
 20
13.1919168423
 11
16.404029011
 21
13.1919168423
  0
LINE
  5
294
100
AcDbEntity
  8
0
100
AcDbLine
 62
7
  6
CONTINUOUS
 10
16.2274895658
 20
12.5746309828
 11
16.2214958003
 21
12.6647364178
  0
LWPOLYLINE
  5
295
100
AcDbEntity
  8
0
100
AcDbPolyline
 62
7
  6
CONTINUOUS
 90
7
 70
0
 10
16.2214937135
 20
12.6647600736
 10
16.2212204421
 20
12.6713094088
 10
16.2215272485
 20
12.686623413
 10
16.2230677165
 20
12.7039930498
 10
16.2257376891
 20
12.7214307229
 10
16.2291675847
 20
12.7369161254
 10
16.2311394901
 20
12.7438717617
  0
LINE
  5
296
100
AcDbEntity
  8
0
100
AcDbLine
 62
7
  6
CONTINUOUS
 10
16.2276431486
 20
12.5682907746
 11
16.2274853771
 21
12.5746912057
  0
LWPOLYLINE
  5
297
100
AcDbEntity
  8
0
100
AcDbPolyline
 62
7
  6
CONTINUOUS
 90
3
 70
0
 10
16.2248172948
 20
12.5453557556
 10
16.2268287654
 20
12.556760687
 10
16.2276431486
 20
12.5682907746
  0
LWPOLYLINE
  5
298
100
AcDbEntity
  8
0
100
AcDbPolyline
 62
7
  6
CONTINUOUS
 90
3
 70
0
 10
16.3458504565
 20
12.9370192104
 10
16.3478619271
 20
12.9484241418
 10
16.3486763103
 20
12.9599542294
  0
LINE
  5
299
100
AcDbEntity
  8
0
100
AcDbLine
 62
7
  6
CONTINUOUS
 10
16.1022349246
 20
12.1479485219
 11
16.1037841331
 21
12.1536923008
  0
LINE
  5
29A
100
AcDbEntity
  8
0
100
AcDbLine
 62
7
  6
CONTINUOUS
 10
16.2232680863
 20
12.5396119767
 11
16.2248172948
 21
12.5453557556
  0
LINE
  5
29B
100
AcDbEntity
  8
0
100
AcDbLine
 62
7
  6
CONTINUOUS
 10
16.344301248
 20
12.9312754315
 11
16.3458504565
 21
12.9370192104
  0
LINE
  5
29C
100
AcDbEntity
  8
0
100
AcDbLine
 62
7
  6
CONTINUOUS
 10
16.4653344097
 20
13.3229388863
 11
16.4668836182
 21
13.3286826653
  0
LINE
  5
29D
100
AcDbEntity
  8
0
100
AcDbLine
 62
7
  6
CONTINUOUS
 10
16.5863675714
 20
13.7146023411
 11
16.5879167799
 21
13.7203461201
  0
LINE
  5
29E
100
AcDbEntity
  8
0
100
AcDbLine
 62
7
  6
CONTINUOUS
 10
15.7065273815
 20
10.8674380548
 11
15.739148047
 21
10.9729985672
  0
LINE
  5
29F
100
AcDbEntity
  8
0
100
AcDbLine
 62
7
  6
CONTINUOUS
 10
15.8275605432
 20
11.2591015096
 11
15.8601812087
 21
11.364662022
  0
LINE
  5
2A0
100
AcDbEntity
  8
0
100
AcDbLine
 62
7
  6
CONTINUOUS
 10
15.9485937049
 20
11.6507649644
 11
15.9812143704
 21
11.7563254768
  0
LINE
  5
2A1
100
AcDbEntity
  8
0
100
AcDbLine
 62
7
  6
CONTINUOUS
 10
16.0696268666
 20
12.0424284192
 11
16.1022475321
 21
12.1479889316
  0
LINE
  5
2A2
100
AcDbEntity
  8
0
100
AcDbLine
 62
7
  6
CONTINUOUS
 10
16.1906600283
 20
12.434091874
 11
16.2232806938
 21
12.5396523864
  0
LINE
  5
2A3
100
AcDbEntity
  8
0
100
AcDbLine
 62
7
  6
CONTINUOUS
 10
16.31169319
 20
12.8257553289
 11
16.3443138555
 21
12.9313158412
  0
LINE
  5
2A4
100
AcDbEntity
  8
0
100
AcDbLine
 62
7
  6
CONTINUOUS
 10
16.4327263517
 20
13.2174187837
 11
16.4653470172
 21
13.322979296
  0
LINE
  5
2A5
100
AcDbEntity
  8
0
100
AcDbLine
 62
7
  6
CONTINUOUS
 10
16.5537595134
 20
13.6090822385
 11
16.5863801789
 21
13.7146427509
  0
LINE
  5
2A6
100
AcDbEntity
  8
0
100
AcDbLine
 62
7
  6
CONTINUOUS
 10
16.1886906173
 20
12.4285953529
 11
16.1906621046
 21
12.4340986065
  0
LINE
  5
2A7
100
AcDbEntity
  8
0
100
AcDbLine
 62
7
  6
CONTINUOUS
 10
16.0676574556
 20
12.0369318981
 11
16.0696289429
 21
12.0424351516
  0
LINE
  5
2A8
100
AcDbEntity
  8
0
100
AcDbLine
 62
7
  6
CONTINUOUS
 10
15.9466242939
 20
11.6452684433
 11
15.9485957812
 21
11.6507716968
  0
LINE
  5
2A9
100
AcDbEntity
  8
0
100
AcDbLine
 62
7
  6
CONTINUOUS
 10
15.8255911322
 20
11.2536049885
 11
15.8275626195
 21
11.259108242
  0
LINE
  5
2AA
100
AcDbEntity
  8
0
100
AcDbLine
 62
7
  6
CONTINUOUS
 10
15.7045579705
 20
10.8619415337
 11
15.7065294578
 21
10.8674447872
  0
LWPOLYLINE
  5
2AB
100
AcDbEntity
  8
0
100
AcDbPolyline
 62
7
  6
CONTINUOUS
 90
3
 70
0
 10
15.7804222633
 20
11.2852624121
 10
15.7828912164
 20
11.2919392545
 10
15.7848647874
 20
11.2961191294
  0
LWPOLYLINE
  5
2AC
100
AcDbEntity
  8
0
100
AcDbPolyline
 62
7
  6
CONTINUOUS
 90
3
 70
0
 10
15.6593891016
 20
10.8935989573
 10
15.6618580547
 20
10.9002757996
 10
15.6638316257
 20
10.9044556745
  0
LINE
  5
2AD
100
AcDbEntity
  8
0
100
AcDbLine
 62
7
  6
CONTINUOUS
 10
16.0269311108
 20
12.079446039
 11
16.0275783072
 21
12.0805392902
  0
LINE
  5
2AE
100
AcDbEntity
  8
0
100
AcDbLine
 62
7
  6
CONTINUOUS
 10
15.9058979491
 20
11.6877825842
 11
15.9065451455
 21
11.6888758353
  0
LINE
  5
2AF
100
AcDbEntity
  8
0
100
AcDbLine
 62
7
  6
CONTINUOUS
 10
16.3485227275
 20
12.9662944376
 11
16.342528962
 21
13.0563998727
  0
LWPOLYLINE
  5
2B0
100
AcDbEntity
  8
0
100
AcDbPolyline
 62
7
  6
CONTINUOUS
 90
7
 70
0
 10
16.3425268752
 20
13.0564235284
 10
16.3422536039
 20
13.0629728636
 10
16.3425604102
 20
13.0782868678
 10
16.3441008782
 20
13.0956565046
 10
16.3467708508
 20
13.1130941777
 10
16.3502007464
 20
13.1285795802
 10
16.3521726518
 20
13.1355352165
  0
LINE
  5
2B1
100
AcDbEntity
  8
0
100
AcDbLine
 62
7
  6
CONTINUOUS
 10
16.3486763103
 20
12.9599542294
 11
16.3485185388
 21
12.9663546605
  0
LWPOLYLINE
  5
2B2
100
AcDbEntity
  8
0
100
AcDbPolyline
 62
7
  6
CONTINUOUS
 90
3
 70
0
 10
16.4668836182
 20
13.3286826653
 10
16.4688950888
 20
13.3400875966
 10
16.469709472
 20
13.3516176842
  0
LWPOLYLINE
  5
2B3
100
AcDbEntity
  8
0
100
AcDbPolyline
 62
7
  6
CONTINUOUS
 90
3
 70
0
 10
16.5879167799
 20
13.7203461201
 10
16.5899282505
 20
13.7317510515
 10
16.5907426338
 20
13.743281139
  0
LINE
  5
2B4
100
AcDbEntity
  8
0
100
AcDbLine
 62
7
  6
CONTINUOUS
 10
15.7848647874
 20
11.2961191294
 11
15.7855119838
 21
11.2972123805
  0
LWPOLYLINE
  5
2B5
100
AcDbEntity
  8
0
100
AcDbPolyline
 62
7
  6
CONTINUOUS
 90
5
 70
0
 10
16.525062899
 20
13.5835803168
 10
16.5340860729
 20
13.5851800541
 10
16.5421485966
 20
13.5898328677
 10
16.548015492
 20
13.5964116777
 10
16.5517901024
 20
13.6035857174
  0
LINE
  5
2B6
100
AcDbEntity
  8
0
100
AcDbLine
 62
7
  6
CONTINUOUS
 10
16.4695558892
 20
13.3579578924
 11
16.4635621237
 21
13.4480633275
  0
LWPOLYLINE
  5
2B7
100
AcDbEntity
  8
0
100
AcDbPolyline
 62
7
  6
CONTINUOUS
 90
7
 70
0
 10
16.4635600369
 20
13.4480869832
 10
16.4632867656
 20
13.4546363184
 10
16.4635935719
 20
13.4699503226
 10
16.4651340399
 20
13.4873199594
 10
16.4678040125
 20
13.5047576325
 10
16.4712339081
 20
13.520243035
 10
16.4732058135
 20
13.5271986713
  0
LINE
  5
2B8
100
AcDbEntity
  8
0
100
AcDbLine
 62
7
  6
CONTINUOUS
 10
16.469709472
 20
13.3516176842
 11
16.4695517005
 21
13.3580181153
  0
LINE
  5
2B9
100
AcDbEntity
  8
0
100
AcDbLine
 62
7
  6
CONTINUOUS
 10
16.6107780003
 20
13.9758062344
 11
16.6105536608
 21
13.9716563503
  0
LINE
  5
2BA
100
AcDbEntity
  8
0
100
AcDbLine
 62
7
  6
CONTINUOUS
 10
15.6638316257
 20
10.9044556745
 11
15.6644788221
 21
10.9055489257
  0
LINE
  5
2BB
100
AcDbEntity
  8
0
100
AcDbLine
 62
7
  6
CONTINUOUS
 10
16.4906301593
 20
13.5835802971
 11
16.5250621727
 21
13.5835802971
  0
LINE
  5
2BC
100
AcDbEntity
  8
0
100
AcDbLine
 62
7
  6
CONTINUOUS
 10
16.5905890509
 20
13.7496213473
 11
16.5845952854
 21
13.8397267823
  0
LWPOLYLINE
  5
2BD
100
AcDbEntity
  8
0
100
AcDbPolyline
 62
7
  6
CONTINUOUS
 90
7
 70
0
 10
16.5845931986
 20
13.839750438
 10
16.5843199273
 20
13.8462997732
 10
16.5846267336
 20
13.8616137774
 10
16.5861672016
 20
13.8789834142
 10
16.5888371742
 20
13.8964210873
 10
16.5922670698
 20
13.9119064898
 10
16.5942389752
 20
13.9188621261
  0
LINE
  5
2BE
100
AcDbEntity
  8
0
100
AcDbLine
 62
7
  6
CONTINUOUS
 10
16.5907426338
 20
13.743281139
 11
16.5905848622
 21
13.7496815702
  0
LINE
  5
2BF
100
AcDbEntity
  8
0
100
AcDbLine
 62
7
  6
CONTINUOUS
 10
16.6107780003
 20
13.9758062344
 11
16.589025256
 21
14.0995586551
  0
LINE
  5
2C0
100
AcDbEntity
  8
0
100
AcDbLine
 62
7
  6
CONTINUOUS
 10
16.5229321559
 20
14.1914206397
 11
15.3163422538
 21
14.1914206397
  0
LINE
  5
2C1
100
AcDbEntity
  8
0
100
AcDbLine
 62
7
  6
CONTINUOUS
 10
16.5846958182
 20
14.1124826531
 11
16.5535847274
 21
14.1758803905
  0
ARC
  5
2C2
100
AcDbEntity
  8
0
100
AcDbCircle
 62
7
  6
CONTINUOUS
 10
5.5193227557
 20
5.4534532301
 40
0.025
100
AcDbArc
 50
192.0
 51
270.0
  0
ARC
  5
2C3
100
AcDbEntity
  8
0
100
AcDbCircle
 62
7
  6
CONTINUOUS
 10
5.5582914586
 20
5.2701198971
 40
0.025
100
AcDbArc
 50
192.0000008804
 51
270.000000183
  0
ARC
  5
2C4
100
AcDbEntity
  8
0
100
AcDbCircle
 62
7
  6
CONTINUOUS
 10
5.5503672762
 20
5.6681303203
 40
0.1
100
AcDbArc
 50
180.0
 51
192.0
  0
ARC
  5
2C5
100
AcDbEntity
  8
0
100
AcDbCircle
 62
7
  6
CONTINUOUS
 10
5.4753672762
 20
5.7701198968
 40
0.025
100
AcDbArc
 50
90.0
 51
180.0
  0
ARC
  5
2C6
100
AcDbEntity
  8
0
100
AcDbCircle
 62
7
  6
CONTINUOUS
 10
6.7024430936
 20
5.2701198968
 40
0.025
100
AcDbArc
 50
270.0
 51
348.0
  0
ARC
  5
2C7
100
AcDbEntity
  8
0
100
AcDbCircle
 62
7
  6
CONTINUOUS
 10
6.7414117966
 20
5.4534532301
 40
0.025
100
AcDbArc
 50
270.0
 51
348.0
  0
ARC
  5
2C8
100
AcDbEntity
  8
0
100
AcDbCircle
 62
7
  6
CONTINUOUS
 10
6.7103672762
 20
5.6681303203
 40
0.1
100
AcDbArc
 50
348.0
 51
360.0
  0
ARC
  5
2C9
100
AcDbEntity
  8
0
100
AcDbCircle
 62
7
  6
CONTINUOUS
 10
6.7853672762
 20
5.7701198968
 40
0.025
100
AcDbArc
 50
0.0
 51
90.0
  0
ARC
  5
2CA
100
AcDbEntity
  8
0
100
AcDbCircle
 62
7
  6
CONTINUOUS
 10
13.742975654
 20
5.2314580378
 40
0.0458333333
100
AcDbArc
 50
193.0
 51
270.0
  0
ARC
  5
2CB
100
AcDbEntity
  8
0
100
AcDbCircle
 62
7
  6
CONTINUOUS
 10
13.8777348599
 20
5.2314580378
 40
0.0458333333
100
AcDbArc
 50
270.0
 51
347.0
  0
ARC
  5
2CC
100
AcDbEntity
  8
0
100
AcDbCircle
 62
7
  6
CONTINUOUS
 10
14.242975654
 20
5.2314580378
 40
0.0458333333
100
AcDbArc
 50
193.0
 51
270.0
  0
ARC
  5
2CD
100
AcDbEntity
  8
0
100
AcDbCircle
 62
7
  6
CONTINUOUS
 10
14.3777348599
 20
5.2314580378
 40
0.0458333333
100
AcDbArc
 50
270.0
 51
347.0
  0
ARC
  5
2CE
100
AcDbEntity
  8
0
100
AcDbCircle
 62
7
  6
CONTINUOUS
 10
14.742975654
 20
5.2314580378
 40
0.0458333333
100
AcDbArc
 50
193.0
 51
270.0
  0
ARC
  5
2CF
100
AcDbEntity
  8
0
100
AcDbCircle
 62
7
  6
CONTINUOUS
 10
14.8777348599
 20
5.2314580378
 40
0.0458333333
100
AcDbArc
 50
270.0
 51
347.0
  0
ARC
  5
2D0
100
AcDbEntity
  8
0
100
AcDbCircle
 62
7
  6
CONTINUOUS
 10
15.242975654
 20
5.2314580378
 40
0.0458333333
100
AcDbArc
 50
193.0
 51
270.0
  0
ARC
  5
2D1
100
AcDbEntity
  8
0
100
AcDbCircle
 62
7
  6
CONTINUOUS
 10
15.3777348599
 20
5.2314580378
 40
0.0458333333
100
AcDbArc
 50
270.0
 51
347.0
  0
ARC
  5
2D2
100
AcDbEntity
  8
0
100
AcDbCircle
 62
7
  6
CONTINUOUS
 10
13.6277348599
 20
5.3231247044
 40
0.0458333333
100
AcDbArc
 50
13.0
 51
90.0
  0
ARC
  5
2D3
100
AcDbEntity
  8
0
100
AcDbCircle
 62
7
  6
CONTINUOUS
 10
13.992975654
 20
5.3231247044
 40
0.0458333333
100
AcDbArc
 50
90.0
 51
167.0
  0
ARC
  5
2D4
100
AcDbEntity
  8
0
100
AcDbCircle
 62
7
  6
CONTINUOUS
 10
14.1277348599
 20
5.3231247044
 40
0.0458333333
100
AcDbArc
 50
13.0
 51
90.0
  0
ARC
  5
2D5
100
AcDbEntity
  8
0
100
AcDbCircle
 62
7
  6
CONTINUOUS
 10
14.492975654
 20
5.3231247044
 40
0.0458333333
100
AcDbArc
 50
90.0
 51
167.0
  0
ARC
  5
2D6
100
AcDbEntity
  8
0
100
AcDbCircle
 62
7
  6
CONTINUOUS
 10
14.6277348599
 20
5.3231247044
 40
0.0458333333
100
AcDbArc
 50
13.0
 51
90.0
  0
ARC
  5
2D7
100
AcDbEntity
  8
0
100
AcDbCircle
 62
7
  6
CONTINUOUS
 10
14.992975654
 20
5.3231247044
 40
0.0458333333
100
AcDbArc
 50
90.0
 51
167.0
  0
ARC
  5
2D8
100
AcDbEntity
  8
0
100
AcDbCircle
 62
7
  6
CONTINUOUS
 10
15.1277348599
 20
5.3231247044
 40
0.0458333333
100
AcDbArc
 50
13.0
 51
90.0
  0
ARC
  5
2D9
100
AcDbEntity
  8
0
100
AcDbCircle
 62
7
  6
CONTINUOUS
 10
15.492975654
 20
5.3231247044
 40
0.0458333333
100
AcDbArc
 50
90.0
 51
167.0
  0
ARC
  5
2DA
100
AcDbEntity
  8
0
100
AcDbCircle
 62
7
  6
CONTINUOUS
 10
17.3777348599
 20
5.2314580378
 40
0.0458333333
100
AcDbArc
 50
270.0
 51
347.0
  0
ARC
  5
2DB
100
AcDbEntity
  8
0
100
AcDbCircle
 62
7
  6
CONTINUOUS
 10
17.242975654
 20
5.2314580378
 40
0.0458333333
100
AcDbArc
 50
193.0
 51
270.0
  0
ARC
  5
2DC
100
AcDbEntity
  8
0
100
AcDbCircle
 62
7
  6
CONTINUOUS
 10
16.8777348599
 20
5.2314580378
 40
0.0458333333
100
AcDbArc
 50
270.0
 51
347.0
  0
ARC
  5
2DD
100
AcDbEntity
  8
0
100
AcDbCircle
 62
7
  6
CONTINUOUS
 10
16.742975654
 20
5.2314580378
 40
0.0458333333
100
AcDbArc
 50
193.0
 51
270.0
  0
ARC
  5
2DE
100
AcDbEntity
  8
0
100
AcDbCircle
 62
7
  6
CONTINUOUS
 10
16.3777348599
 20
5.2314580378
 40
0.0458333333
100
AcDbArc
 50
270.0
 51
347.0
  0
ARC
  5
2DF
100
AcDbEntity
  8
0
100
AcDbCircle
 62
7
  6
CONTINUOUS
 10
16.242975654
 20
5.2314580378
 40
0.0458333333
100
AcDbArc
 50
193.0
 51
270.0
  0
ARC
  5
2E0
100
AcDbEntity
  8
0
100
AcDbCircle
 62
7
  6
CONTINUOUS
 10
15.8777348599
 20
5.2314580378
 40
0.0458333333
100
AcDbArc
 50
270.0
 51
347.0
  0
ARC
  5
2E1
100
AcDbEntity
  8
0
100
AcDbCircle
 62
7
  6
CONTINUOUS
 10
15.742975654
 20
5.2314580378
 40
0.0458333333
100
AcDbArc
 50
193.0
 51
270.0
  0
ARC
  5
2E2
100
AcDbEntity
  8
0
100
AcDbCircle
 62
7
  6
CONTINUOUS
 10
17.492975654
 20
5.3231247044
 40
0.0458333333
100
AcDbArc
 50
90.0
 51
167.0
  0
ARC
  5
2E3
100
AcDbEntity
  8
0
100
AcDbCircle
 62
7
  6
CONTINUOUS
 10
17.1277348599
 20
5.3231247044
 40
0.0458333333
100
AcDbArc
 50
13.0
 51
90.0
  0
ARC
  5
2E4
100
AcDbEntity
  8
0
100
AcDbCircle
 62
7
  6
CONTINUOUS
 10
16.992975654
 20
5.3231247044
 40
0.0458333333
100
AcDbArc
 50
90.0
 51
167.0
  0
ARC
  5
2E5
100
AcDbEntity
  8
0
100
AcDbCircle
 62
7
  6
CONTINUOUS
 10
16.6277348599
 20
5.3231247044
 40
0.0458333333
100
AcDbArc
 50
13.0
 51
90.0
  0
ARC
  5
2E6
100
AcDbEntity
  8
0
100
AcDbCircle
 62
7
  6
CONTINUOUS
 10
16.492975654
 20
5.3231247044
 40
0.0458333333
100
AcDbArc
 50
90.0
 51
167.0
  0
ARC
  5
2E7
100
AcDbEntity
  8
0
100
AcDbCircle
 62
7
  6
CONTINUOUS
 10
16.1277348599
 20
5.3231247044
 40
0.0458333333
100
AcDbArc
 50
13.0
 51
90.0
  0
ARC
  5
2E8
100
AcDbEntity
  8
0
100
AcDbCircle
 62
7
  6
CONTINUOUS
 10
15.992975654
 20
5.3231247044
 40
0.0458333333
100
AcDbArc
 50
90.0
 51
167.0
  0
ARC
  5
2E9
100
AcDbEntity
  8
0
100
AcDbCircle
 62
7
  6
CONTINUOUS
 10
15.6277348599
 20
5.3231247044
 40
0.0458333333
100
AcDbArc
 50
13.0
 51
90.0
  0
SPLINE
  5
2EA
100
AcDbEntity
  8
0
100
AcDbSpline
 62
7
  6
CONTINUOUS
 70
0
 71
3
 72
15
 73
11
 74
0
 42
0.0000001
 43
0.0000001
 44
0.0000000001
 40
0.0
 40
0.0
 40
0.0
 40
0.0
 40
0.129568471
 40
0.2645755921
 40
0.4012659985
 40
0.5362717047
 40
0.6662157568
 40
0.7881011581
 40
0.8998144078
 40
1.0
 40
1.0
 40
1.0
 40
1.0
 10
16.5229321559
 20
14.1914206397
 30
0.0
 10
16.5244804139
 20
14.1914206397
 30
0.0
 10
16.5276443647
 20
14.191205412
 30
0.0
 10
16.5323668802
 20
14.1903215201
 30
0.0
 10
16.5370231883
 20
14.188894068
 30
0.0
 10
16.5414350567
 20
14.1869787486
 30
0.0
 10
16.5454412462
 20
14.1846500627
 30
0.0
 10
16.5488933287
 20
14.181988729
 30
0.0
 10
16.5516591814
 20
14.1790926835
 30
0.0
 10
16.5530573309
 20
14.1769551116
 30
0.0
 10
16.5535847274
 20
14.1758803905
 30
0.0
  0
SPLINE
  5
2EB
100
AcDbEntity
  8
0
100
AcDbSpline
 62
7
  6
CONTINUOUS
 70
0
 71
3
 72
15
 73
11
 74
0
 42
0.0000001
 43
0.0000001
 44
0.0000000001
 40
0.0
 40
0.0
 40
0.0
 40
0.0
 40
0.0996460931
 40
0.2028720569
 40
0.3125943583
 40
0.4308573531
 40
0.5588155317
 40
0.6968315346
 40
0.8443984668
 40
1.0
 40
1.0
 40
1.0
 40
1.0
 10
15.3000827642
 20
14.183261583
 30
0.0
 10
15.3002728793
 20
14.1838768245
 30
0.0
 10
15.3008115185
 20
14.1850877679
 30
0.0
 10
15.3020425073
 20
14.1867087133
 30
0.0
 10
15.3036658956
 20
14.1881238802
 30
0.0
 10
15.3056500618
 20
14.1893079387
 30
0.0
 10
15.307957605
 20
14.1902465696
 30
0.0
 10
15.3105492188
 20
14.190925296
 30
0.0
 10
15.3133760934
 20
14.1913329572
 30
0.0
 10
15.3153367059
 20
14.1914206397
 30
0.0
 10
15.3163422538
 20
14.1914206397
 30
0.0
  0
SPLINE
  5
2EC
100
AcDbEntity
  8
0
100
AcDbSpline
 62
7
  6
CONTINUOUS
 70
0
 71
3
 72
11
 73
7
 74
0
 42
0.0000001
 43
0.0000001
 44
0.0000000001
 40
0.0
 40
0.0
 40
0.0
 40
0.0
 40
0.2336946256
 40
0.4747281312
 40
0.7289544396
 40
1.0
 40
1.0
 40
1.0
 40
1.0
 10
14.3318174705
 20
11.0499539445
 30
0.0
 10
14.3316426158
 20
11.0493880882
 30
0.0
 10
14.3314123041
 20
11.0481959404
 30
0.0
 10
14.3314545941
 20
11.0463366621
 30
0.0
 10
14.3318724021
 20
11.0444294873
 30
0.0
 10
14.3323738664
 20
11.0431894176
 30
0.0
 10
14.332676482
 20
11.042572752
 30
0.0
  0
SPLINE
  5
2ED
100
AcDbEntity
  8
0
100
AcDbSpline
 62
7
  6
CONTINUOUS
 70
0
 71
3
 72
9
 73
5
 74
0
 42
0.0000001
 43
0.0000001
 44
0.0000000001
 40
0.0
 40
0.0
 40
0.0
 40
0.0
 40
0.5145054809
 40
1.0
 40
1.0
 40
1.0
 40
1.0
 10
16.5846958182
 20
14.1124826531
 30
0.0
 10
16.5857281736
 20
14.110378934
 30
0.0
 10
16.5874900177
 20
14.1061632131
 30
0.0
 10
16.5886424417
 20
14.1017365044
 30
0.0
 10
16.589025256
 20
14.0995586551
 30
0.0
  0
SPLINE
  5
2EE
100
AcDbEntity
  8
0
100
AcDbSpline
 62
7
  6
CONTINUOUS
 70
0
 71
3
 72
14
 73
10
 74
0
 42
0.0000001
 43
0.0000001
 44
0.0000000001
 40
0.0
 40
0.0
 40
0.0
 40
0.0
 40
0.1555977986
 40
0.3032421797
 40
0.568854441
 40
0.6871717804
 40
0.7968992548
 40
0.9001786912
 40
1.0
 40
1.0
 40
1.0
 40
1.0
 10
15.626029869
 20
10.8301893461
 30
0.0
 10
15.6270348136
 20
10.8301893461
 30
0.0
 10
15.6289956462
 20
10.8302772846
 30
0.0
 10
15.6326336682
 20
10.8308020241
 30
0.0
 10
15.6359547629
 20
10.8318461321
 30
0.0
 10
15.6387052734
 20
10.8334849482
 30
0.0
 10
15.640329009
 20
10.8348993811
 30
0.0
 10
15.6415596876
 20
10.8365208634
 30
0.0
 10
15.6420989756
 20
10.837732451
 30
0.0
 10
15.6422885966
 20
10.8383486411
 30
0.0
  0
SPLINE
  5
2EF
100
AcDbEntity
  8
0
100
AcDbSpline
 62
7
  6
CONTINUOUS
 70
0
 71
3
 72
15
 73
11
 74
0
 42
0.0000001
 43
0.0000001
 44
0.0000000001
 40
0.0
 40
0.0
 40
0.0
 40
0.0
 40
0.1082497191
 40
0.2255441612
 40
0.3499669622
 40
0.479440764
 40
0.6116998471
 40
0.7443050095
 40
0.8747036807
 40
1.0
 40
1.0
 40
1.0
 40
1.0
 10
14.4718474798
 20
10.8424985959
 30
0.0
 10
14.4725720201
 20
10.8415993067
 30
0.0
 10
14.4742396242
 20
10.8398505635
 30
0.0
 10
14.4771545824
 20
10.837503886
 30
0.0
 10
14.4805156945
 20
10.8353942268
 30
0.0
 10
14.4842206786
 20
10.833577047
 30
0.0
 10
14.4881689947
 20
10.8321056549
 30
0.0
 10
14.4922500352
 20
10.8310174555
 30
0.0
 10
14.4963451573
 20
10.8303509053
 30
0.0
 10
14.4990746119
 20
10.8301893461
 30
0.0
 10
14.5004113223
 20
10.8301893461
 30
0.0
  0
SPLINE
  5
2F0
100
AcDbEntity
  8
0
100
AcDbSpline
 62
7
  6
CONTINUOUS
 70
0
 71
3
 72
9
 73
5
 74
0
 42
0.0000001
 43
0.0000001
 44
0.0000000001
 40
0.0
 40
0.0
 40
0.0
 40
0.0
 40
0.2388809378
 40
1.0
 40
1.0
 40
1.0
 40
1.0
 10
14.3637875727
 20
10.9791750146
 30
0.0
 10
14.3643280593
 20
10.9780736187
 30
0.0
 10
14.3667369664
 20
10.9735350977
 30
0.0
 10
14.3696900129
 20
10.9692949953
 30
0.0
 10
14.372142489
 20
10.9662510166
 30
0.0
  0
SPLINE
  5
2F1
100
AcDbEntity
  8
0
100
AcDbSpline
 62
7
  6
CONTINUOUS
 70
0
 71
3
 72
15
 73
11
 74
0
 42
0.0000001
 43
0.0000001
 44
0.0000000001
 40
0.0
 40
0.0
 40
0.0
 40
0.0
 40
0.1001855922
 40
0.2118988419
 40
0.3337842432
 40
0.4637282953
 40
0.5987340015
 40
0.7354244079
 40
0.870431529
 40
1.0
 40
1.0
 40
1.0
 40
1.0
 10
15.5853194338
 20
11.042572752
 30
0.0
 10
15.5847920373
 20
11.0436474731
 30
0.0
 10
15.5833938878
 20
11.045785045
 30
0.0
 10
15.5806280351
 20
11.0486810905
 30
0.0
 10
15.5771759526
 20
11.0513424242
 30
0.0
 10
15.573169763
 20
11.0536711101
 30
0.0
 10
15.5687578947
 20
11.0555864295
 30
0.0
 10
15.5641015865
 20
11.0570138816
 30
0.0
 10
15.5593790711
 20
11.0578977735
 30
0.0
 10
15.5562151202
 20
11.0581130012
 30
0.0
 10
15.5546668623
 20
11.0581130012
 30
0.0
  0
SPLINE
  5
2F2
100
AcDbEntity
  8
0
100
AcDbSpline
 62
7
  6
CONTINUOUS
 70
0
 71
3
 72
15
 73
11
 74
0
 42
0.0000001
 43
0.0000001
 44
0.0000000001
 40
0.0
 40
0.0
 40
0.0
 40
0.0
 40
0.1556015332
 40
0.3031684654
 40
0.4411844683
 40
0.5691426469
 40
0.6874056417
 40
0.7971279431
 40
0.9003539069
 40
1.0
 40
1.0
 40
1.0
 40
1.0
 10
14.3480769601
 20
11.0581130012
 30
0.0
 10
14.3470714123
 20
11.0581130012
 30
0.0
 10
14.3451107998
 20
11.0580253187
 30
0.0
 10
14.3422839251
 20
11.0576176575
 30
0.0
 10
14.3396923114
 20
11.0569389311
 30
0.0
 10
14.3373847682
 20
11.0560003002
 30
0.0
 10
14.335400602
 20
11.0548162417
 30
0.0
 10
14.3337772136
 20
11.0534010748
 30
0.0
 10
14.3325462249
 20
11.0517801294
 30
0.0
 10
14.3320075857
 20
11.0505691859
 30
0.0
 10
14.3318174705
 20
11.0499539445
 30
0.0
  0
SPLINE
  5
2F3
100
AcDbEntity
  8
0
100
AcDbSpline
 62
7
  6
CONTINUOUS
 70
0
 71
3
 72
9
 73
5
 74
0
 42
0.0000001
 43
0.0000001
 44
0.0000000001
 40
0.0
 40
0.0
 40
0.0
 40
0.0
 40
0.4854945191
 40
1.0
 40
1.0
 40
1.0
 40
1.0
 10
15.6207599624
 20
10.9662510166
 30
0.0
 10
15.620377148
 20
10.9684288659
 30
0.0
 10
15.619224724
 20
10.9728555745
 30
0.0
 10
15.61746288
 20
10.9770712955
 30
0.0
 10
15.6164305246
 20
10.9791750146
 30
0.0
  0
ENDSEC
  0
SECTION
  2
OBJECTS
  0
DICTIONARY
  5
C
100
AcDbDictionary
280
0
281
1
  3
ACAD_GROUP
350
D
  3
ACAD_MLINESTYLE
350
17
  3
ACAD_LAYOUT
350
1A
  3
ACAD_PLOTSETTINGS
350
19
  3
ACAD_PLOTSTYLENAME
350
E
  0
DICTIONARY
  5
D
102
{ACAD_REACTORS
330
C
102
}
100
AcDbDictionary
280
0
281
1
  0
ACDBDICTIONARYWDFLT
  5
E
102
{ACAD_REACTORS
330
C
102
}
100
AcDbDictionary
281
1
  3
Normal
350
F
100
AcDbDictionaryWithDefault
340
F
  0
DICTIONARY
  5
17
102
{ACAD_REACTORS
330
C
102
}
100
AcDbDictionary
280
0
281
1
  3
Standard
350
18
  0
DICTIONARY
  5
19
102
{ACAD_REACTORS
330
C
102
}
100
AcDbDictionary
281
1
  0
DICTIONARY
  5
1A
102
{ACAD_REACTORS
330
C
102
}
100
AcDbDictionary
281
1
  3
Model
350
2F4
  3
Layout1
350
2F5
  0
ACDBPLACEHOLDER
  5
F
102
{ACAD_REACTORS
330
E
102
}
  0
MLINESTYLE
  5
18
102
{ACAD_REACTORS
330
17
102
}
100
AcDbMlineStyle
  2
STANDARD
 70
0
  3

 62
256
 51
90.0
 52
90.0
 71
2
 49
0.5
 62
256
  6
BYLAYER
 49
-0.5
 62
256
  6
BYLAYER
  0
LAYOUT
  5
2F4
102
{ACAD_REACTORS
330
1A
102
}
100
AcDbPlotSettings
  1

  2
none_device
  4
ANSI_C_(22.00_x_17.00_Inches)
  6

 40
0.0
 41
0.0
 42
0.0
 43
0.0
 44
558.8
 45
431.8
 46
0.0
 47
0.0
 48
0.0
 49
0.0
140
0.0
141
0.0
142
1.0
143
1.0
 70
1024
 72
0
 73
0
 74
0
  7

 75
0
147
1.0
148
0.0
149
0.0
100
AcDbLayout
  1
Model
 70
0
 71
0
 10
0.0
 20
0.0
 11
22.0
 21
17.0
 12
0.0
 22
0.0
 32
0.0
 14
0.0
 24
0.0
 34
0.0
 15
0.0
 25
0.0
 35
0.0
146
0.0
 13
0.0
 23
0.0
 33
0.0
 16
1.0
 26
0.0
 36
0.0
 17
0.0
 27
1.0
 37
0.0
 76
0
330
216
345
0
346
0
  0
LAYOUT
  5
2F5
102
{ACAD_REACTORS
330
1A
102
}
100
AcDbPlotSettings
  1

  2
none_device
  4
ANSI_C_(22.00_x_17.00_Inches)
  6

 40
0.0
 41
0.0
 42
0.0
 43
0.0
 44
558.8
 45
431.8
 46
0.0
 47
0.0
 48
0.0
 49
0.0
140
0.0
141
0.0
142
1.0
143
1.0
 70
0
 72
0
 73
0
 74
0
  7

 75
0
147
1.0
148
0.0
149
0.0
100
AcDbLayout
  1
Layout1
 70
0
 71
1
 10
0.0
 20
0.0
 11
22.0
 21
17.0
 12
0.0
 22
0.0
 32
0.0
 14
0.0
 24
0.0
 34
0.0
 15
0.0
 25
0.0
 35
0.0
146
0.0
 13
0.0
 23
0.0
 33
0.0
 16
1.0
 26
0.0
 36
0.0
 17
0.0
 27
1.0
 37
0.0
 76
0
330
217
345
0
346
0
  0
ENDSEC
  0
EOF