999
DXF file: _cgs_temp_output.dxf
999
Pro/ENGINEER 2016360 by Parametric Technology Corporation
  0
SECTION
  2
HEADER
  9
$ACADVER
  1
AC1021
  9
$DWGCODEPAGE
  3
ANSI_1252
  9
$EXTMAX
 10
22.0
 20
17.0
 30
0.0
  9
$EXTMIN
 10
0.0
 20
0.0
 30
0.0
  9
$LIMMIN
 10
0.0
 20
0.0
  9
$LIMMAX
 10
22.0
 20
17.0
  9
$VIEWCTR
 10
11.0
 20
8.5
  9
$VIEWSIZE
 40
17.0
  9
$CLAYER
  8
0
  9
$LTSCALE
 40
1.21
  9
$CELTYPE
  6
BYLAYER
  9
$DIMSCALE
 40
1.0
  9
$DIMASZ
 40
0.1875
  9
$DIMEXO
 40
0.0625
  9
$DIMDLI
 40
0.836
  9
$DIMEXE
 40
0.125
  9
$DIMCEN
 40
0.198
  9
$DIMLFAC
 40
1.0
  9
$DIMBLK
  1
_CLOSED
  9
$DIMALT
 70
0
  9
$DIMALTF
 40
25.4
  9
$DIMTXT
 40
0.15625
  9
$DIMTOL
 70
0
  9
$DIMLIM
 70
0
  9
$DIMTFAC
 40
1.0
  9
$DIMGAP
 40
0.09
  9
$DIMDSEP
 70
46
  9
$AUNITS
 70
0
  9
$PDMODE
 70
3
  9
$PDSIZE
 40
0.3125
  9
$HANDSEED
  5
31E
  9
$TILEMODE
 70
1
  9
$MEASUREMENT
 70
0
  9
$INSUNITS
 70
1
  0
ENDSEC
  0
SECTION
  2
CLASSES
  0
CLASS
  1
ACDBDICTIONARYWDFLT
  2
AcDbDictionaryWithDefault
  3
AutoCAD 2000
 90
0
 91
1
280
0
281
0
  0
CLASS
  1
ACDBPLACEHOLDER
  2
AcDbPlaceHolder
  3
AutoCAD 2000
 90
0
 91
1
280
0
281
0
  0
CLASS
  1
LAYOUT
  2
AcDbLayout
  3
AutoCAD 2000
 90
0
 91
0
280
0
281
0
  0
ENDSEC
  0
SECTION
  2
TABLES
  0
TABLE
  2
VPORT
  5
8
100
AcDbSymbolTable
 70
2
  0
VPORT
  5
1F4
100
AcDbSymbolTableRecord
100
AcDbViewportTableRecord
  2
*ACTIVE
 70
0
 10
0.0
 20
0.0
 11
1.0
 21
1.0
 12
11.0
 22
8.5
 13
0.0
 23
0.0
 14
1.0
 24
1.0
 15
0.0
 25
0.0
 16
0.0
 26
0.0
 36
1.0
 17
0.0
 27
0.0
 37
0.0
 40
17.0
 41
1.2941176471
 42
50.0
 43
0.0
 44
0.0
 50
0.0
 51
0.0
 71
0
 72
100
 73
1
 74
1
 75
0
 76
0
 77
0
 78
0
  0
ENDTAB
  0
TABLE
  2
LTYPE
  5
5
100
AcDbSymbolTable
 70
6
  0
LTYPE
  5
14
100
AcDbSymbolTableRecord
100
AcDbLinetypeTableRecord
  2
BYBLOCK
 70
0
  3

 72
65
 73
0
 40
0.0
  0
LTYPE
  5
15
100
AcDbSymbolTableRecord
100
AcDbLinetypeTableRecord
  2
BYLAYER
 70
0
  3

 72
65
 73
0
 40
0.0
  0
LTYPE
  5
16
100
AcDbSymbolTableRecord
100
AcDbLinetypeTableRecord
  2
CONTINUOUS
 70
64
  3
Solid line
 72
65
 73
0
 40
0.0
  0
LTYPE
  5
1F5
100
AcDbSymbolTableRecord
100
AcDbLinetypeTableRecord
  2
CENTER
 70
64
  3
____ _ ____ _ ____ _ ____ _ ____ _ ____ _ ____
 72
65
 73
4
 40
0.6
 49
0.375
 74
0
 49
-0.075
 74
0
 49
0.075
 74
0
 49
-0.075
 74
0
  0
LTYPE
  5
1F6
100
AcDbSymbolTableRecord
100
AcDbLinetypeTableRecord
  2
HIDDEN
 70
64
  3
- - - - - - - - - - - - - - - - - - - -
 72
65
 73
2
 40
0.2
 49
0.1
 74
0
 49
-0.1
 74
0
  0
LTYPE
  5
1F7
100
AcDbSymbolTableRecord
100
AcDbLinetypeTableRecord
  2
PHANTOM
 70
64
  3
_____ _ _ _____ _ _ _____ _ _ _____
 72
65
 73
6
 40
0.8
 49
0.45
 74
0
 49
-0.05
 74
0
 49
0.1
 74
0
 49
-0.05
 74
0
 49
0.1
 74
0
 49
-0.05
 74
0
  0
LTYPE
  5
1F8
100
AcDbSymbolTableRecord
100
AcDbLinetypeTableRecord
  2
DOT
 70
64
  3
. . . . . . . . . . . . . . . . . . . .
 72
65
 73
2
 40
0.2
 49
0.1
 74
0
 49
-0.1
 74
0
  0
LTYPE
  5
1F9
100
AcDbSymbolTableRecord
100
AcDbLinetypeTableRecord
  2
DASHED
 70
64
  3
- - - - - - - - - - - - - - - - - - - -
 72
65
 73
2
 40
0.2
 49
0.1
 74
0
 49
-0.1
 74
0
  0
ENDTAB
  0
TABLE
  2
LAYER
  5
2
100
AcDbSymbolTable
 70
36
  0
LAYER
  5
10
100
AcDbSymbolTableRecord
100
AcDbLayerTableRecord
  2
0
 70
0
 62
7
  6
CONTINUOUS
370
-3
390
F
  0
LAYER
  5
1FA
100
AcDbSymbolTableRecord
100
AcDbLayerTableRecord
  2
DEFAULT_1
 70
0
 62
7
  6
CENTER
370
-3
390
F
  0
LAYER
  5
1FB
100
AcDbSymbolTableRecord
100
AcDbLayerTableRecord
  2
DEFAULT_2
 70
0
 62
8
  6
HIDDEN
370
-3
390
F
  0
LAYER
  5
1FC
100
AcDbSymbolTableRecord
100
AcDbLayerTableRecord
  2
DEFAULT_3
 70
0
 62
7
  6
PHANTOM
370
-3
390
F
  0
LAYER
  5
1FD
100
AcDbSymbolTableRecord
100
AcDbLayerTableRecord
  2
01_ALL_DTM_PLN
 70
0
 62
7
  6
CONTINUOUS
370
-3
390
F
  0
LAYER
  5
1FE
100
AcDbSymbolTableRecord
100
AcDbLayerTableRecord
  2
01__ASM_ALL_DTM_PLN
 70
0
 62
7
  6
CONTINUOUS
370
-3
390
F
  0
LAYER
  5
1FF
100
AcDbSymbolTableRecord
100
AcDbLayerTableRecord
  2
01__ASM_DEF_DTM_PLN
 70
0
 62
7
  6
CONTINUOUS
370
-3
390
F
  0
LAYER
  5
200
100
AcDbSymbolTableRecord
100
AcDbLayerTableRecord
  2
01___PRT_ALL_DTM_PLN
 70
0
 62
7
  6
CONTINUOUS
370
-3
390
F
  0
LAYER
  5
201
100
AcDbSymbolTableRecord
100
AcDbLayerTableRecord
  2
01___PRT_DEF_DTM_PLN
 70
0
 62
7
  6
CONTINUOUS
370
-3
390
F
  0
LAYER
  5
202
100
AcDbSymbolTableRecord
100
AcDbLayerTableRecord
  2
02_ALL_AXES
 70
0
 62
7
  6
CONTINUOUS
370
-3
390
F
  0
LAYER
  5
203
100
AcDbSymbolTableRecord
100
AcDbLayerTableRecord
  2
02__ASM_ALL_AXES
 70
0
 62
7
  6
CONTINUOUS
370
-3
390
F
  0
LAYER
  5
204
100
AcDbSymbolTableRecord
100
AcDbLayerTableRecord
  2
02___PRT_ALL_AXES
 70
0
 62
7
  6
CONTINUOUS
370
-3
390
F
  0
LAYER
  5
205
100
AcDbSymbolTableRecord
100
AcDbLayerTableRecord
  2
03_ALL_CURVES
 70
0
 62
7
  6
CONTINUOUS
370
-3
390
F
  0
LAYER
  5
206
100
AcDbSymbolTableRecord
100
AcDbLayerTableRecord
  2
03__ASM_ALL_CURVES
 70
0
 62
7
  6
CONTINUOUS
370
-3
390
F
  0
LAYER
  5
207
100
AcDbSymbolTableRecord
100
AcDbLayerTableRecord
  2
03___PRT_ALL_CURVES
 70
0
 62
7
  6
CONTINUOUS
370
-3
390
F
  0
LAYER
  5
208
100
AcDbSymbolTableRecord
100
AcDbLayerTableRecord
  2
04_ALL_DTM_PNT
 70
0
 62
7
  6
CONTINUOUS
370
-3
390
F
  0
LAYER
  5
209
100
AcDbSymbolTableRecord
100
AcDbLayerTableRecord
  2
04__ASM_ALL_DTM_PNT
 70
0
 62
7
  6
CONTINUOUS
370
-3
390
F
  0
LAYER
  5
20A
100
AcDbSymbolTableRecord
100
AcDbLayerTableRecord
  2
04___PRT_ALL_DTM_PNT
 70
0
 62
7
  6
CONTINUOUS
370
-3
390
F
  0
LAYER
  5
20B
100
AcDbSymbolTableRecord
100
AcDbLayerTableRecord
  2
05_ALL_DTM_CSYS
 70
0
 62
7
  6
CONTINUOUS
370
-3
390
F
  0
LAYER
  5
20C
100
AcDbSymbolTableRecord
100
AcDbLayerTableRecord
  2
05__ASM_ALL_DTM_CSYS
 70
0
 62
7
  6
CONTINUOUS
370
-3
390
F
  0
LAYER
  5
20D
100
AcDbSymbolTableRecord
100
AcDbLayerTableRecord
  2
05__ASM_DEF_DTM_CSYS
 70
0
 62
7
  6
CONTINUOUS
370
-3
390
F
  0
LAYER
  5
20E
100
AcDbSymbolTableRecord
100
AcDbLayerTableRecord
  2
05___PRT_ALL_DTM_CSYS
 70
0
 62
7
  6
CONTINUOUS
370
-3
390
F
  0
LAYER
  5
20F
100
AcDbSymbolTableRecord
100
AcDbLayerTableRecord
  2
05___PRT_DEF_DTM_CSYS
 70
0
 62
7
  6
CONTINUOUS
370
-3
390
F
  0
LAYER
  5
210
100
AcDbSymbolTableRecord
100
AcDbLayerTableRecord
  2
06_ALL_SURFS
 70
0
 62
7
  6
CONTINUOUS
370
-3
390
F
  0
LAYER
  5
211
100
AcDbSymbolTableRecord
100
AcDbLayerTableRecord
  2
06__ASM_ALL_SURFS
 70
0
 62
7
  6
CONTINUOUS
370
-3
390
F
  0
LAYER
  5
212
100
AcDbSymbolTableRecord
100
AcDbLayerTableRecord
  2
06___PRT_ALL_SURFS
 70
0
 62
7
  6
CONTINUOUS
370
-3
390
F
  0
LAYER
  5
213
100
AcDbSymbolTableRecord
100
AcDbLayerTableRecord
  2
07__ASM_ALL_SKELETONS
 70
0
 62
7
  6
CONTINUOUS
370
-3
390
F
  0
ENDTAB
  0
TABLE
  2
STYLE
  5
3
100
AcDbSymbolTable
 70
1
  0
STYLE
  5
11
100
AcDbSymbolTableRecord
100
AcDbTextStyleTableRecord
  2
STANDARD
 70
0
 40
0.0
 41
0.8
 50
0.0
 71
0
 42
0.2
  3
txt
  4

  0
STYLE
  5
214
100
AcDbSymbolTableRecord
100
AcDbTextStyleTableRecord
  2
TEXTSTYLE_1
 70
0
 40
0.0
 41
0.8
 50
0.0
 71
0
 42
0.2
  3
gdt
  4

  0
ENDTAB
  0
TABLE
  2
VIEW
  5
6
100
AcDbSymbolTable
 70
0
  0
ENDTAB
  0
TABLE
  2
UCS
  5
7
100
AcDbSymbolTable
 70
0
  0
ENDTAB
  0
TABLE
  2
APPID
  5
9
100
AcDbSymbolTable
 70
1
  0
APPID
  5
215
100
AcDbSymbolTableRecord
100
AcDbRegAppTableRecord
  2
ACAD
 70
0
  0
ENDTAB
  0
TABLE
  2
BLOCK_RECORD
  5
1
100
AcDbSymbolTable
 70
0
  0
BLOCK_RECORD
  5
216
100
AcDbSymbolTableRecord
100
AcDbBlockTableRecord
  2
*Model_Space
  0
BLOCK_RECORD
  5
217
100
AcDbSymbolTableRecord
100
AcDbBlockTableRecord
  2
*Paper_Space
  0
ENDTAB
  0
TABLE
  2
DIMSTYLE
  5
A
100
AcDbSymbolTable
 70
1
100
AcDbDimStyleTable
 71
0
  0
DIMSTYLE
105
218
100
AcDbSymbolTableRecord
100
AcDbDimStyleTableRecord
  2
STANDARD
 70
0
  3

  4

 40
1.0
 41
0.1875
 42
0.0625
 43
0.38
 44
0.125
 45
0.0
 46
0.0
 47
0.0001
 48
0.0001
140
0.15625
141
0.09
142
0.0
143
25.4
144
1.0
145
0.0
146
1.0
147
0.09
 71
0.0
 72
0.0
 73
1
 74
1
 75
0
 76
0
 77
0
 78
4
 79
1
170
0
171
3
172
0
173
0
174
0
175
0
176
0
177
0
178
0
270
2
179
4
271
4
272
4
273
2
274
2
275
0
280
0
281
0
282
0
283
1
284
4
285
0
286
0
287
3
288
0
340
11
278
46
  0
ENDTAB
  0
ENDSEC
  0
SECTION
  2
BLOCKS
  0
BLOCK
  5
20
100
AcDbEntity
  8
0
100
AcDbBlockBegin
  2
*Model_Space
 70
0
 10
0.0
 20
0.0
 30
0.0
  3
*Model_Space
  1

  0
ENDBLK
  5
21
100
AcDbEntity
  8
0
100
AcDbBlockEnd
  0
BLOCK
  5
1C
100
AcDbEntity
  8
0
100
AcDbBlockBegin
  2
*Paper_Space
 70
0
 10
0.0
 20
0.0
 30
0.0
  3
*Paper_Space
  1

  0
ENDBLK
  5
1D
100
AcDbEntity
  8
0
100
AcDbBlockEnd
  0
ENDSEC
  0
SECTION
  2
ENTITIES
  0
MTEXT
  5
219
100
AcDbEntity
  8
0
100
AcDbMText
 62
7
  6
CONTINUOUS
  7
STANDARD
 71
1
 72
1
 10
15.9560215477
 20
0.9479130325
 30
0.0
 11
1.0
 21
0.0
 31
0.0
 44
0.9
  1
SCALE: 1:1.000
 40
0.3
 41
3.36
  0
LINE
  5
21A
100
AcDbEntity
  8
0
100
AcDbLine
 62
7
  6
CONTINUOUS
 10
0.0
 20
0.0
 11
0.0
 21
17.0
  0
LINE
  5
21B
100
AcDbEntity
  8
0
100
AcDbLine
 62
7
  6
CONTINUOUS
 10
0.0
 20
0.0
 11
22.0
 21
0.0
  0
LINE
  5
21C
100
AcDbEntity
  8
0
100
AcDbLine
 62
7
  6
CONTINUOUS
 10
0.0
 20
17.0
 11
22.0
 21
17.0
  0
LINE
  5
21D
100
AcDbEntity
  8
0
100
AcDbLine
 62
7
  6
CONTINUOUS
 10
22.0
 20
0.0
 11
22.0
 21
17.0
  0
LINE
  5
21E
100
AcDbEntity
  8
0
100
AcDbLine
 62
7
  6
CONTINUOUS
 10
5.0678672762
 20
5.7501198968
 11
5.0678672762
 21
5.6634583408
  0
LINE
  5
21F
100
AcDbEntity
  8
0
100
AcDbLine
 62
7
  6
CONTINUOUS
 10
5.1865362103
 20
5.2823944719
 11
5.0727616245
 21
5.6325566413
  0
LINE
  5
220
100
AcDbEntity
  8
0
100
AcDbLine
 62
7
  6
CONTINUOUS
 10
5.2103126232
 20
5.2651198968
 11
7.0504219292
 21
5.2651198968
  0
LINE
  5
221
100
AcDbEntity
  8
0
100
AcDbLine
 62
7
  6
CONTINUOUS
 10
5.1550762748
 20
5.4351198968
 11
7.1056582775
 21
5.4351198968
  0
LINE
  5
222
100
AcDbEntity
  8
0
100
AcDbLine
 62
7
  6
CONTINUOUS
 10
7.1678672762
 20
5.7751198968
 11
5.0928672762
 21
5.7751198968
  0
LINE
  5
223
100
AcDbEntity
  8
0
100
AcDbLine
 62
7
  6
CONTINUOUS
 10
7.1928672762
 20
5.6634583408
 11
7.1928672762
 21
5.7501198968
  0
LINE
  5
224
100
AcDbEntity
  8
0
100
AcDbLine
 62
7
  6
CONTINUOUS
 10
7.0741983421
 20
5.2823944719
 11
7.1879729278
 21
5.6325566413
  0
LINE
  5
225
100
AcDbEntity
  8
0
100
AcDbLine
 62
7
  6
CONTINUOUS
 10
7.1333720839
 20
10.6000477814
 11
5.0083720839
 21
10.6000477814
  0
LINE
  5
226
100
AcDbEntity
  8
0
100
AcDbLine
 62
7
  6
CONTINUOUS
 10
5.0083720839
 20
10.6000477814
 11
5.0083720839
 21
14.6000477814
  0
LINE
  5
227
100
AcDbEntity
  8
0
100
AcDbLine
 62
7
  6
CONTINUOUS
 10
7.1333720839
 20
10.6000477814
 11
7.1333720839
 21
14.6000477814
  0
LINE
  5
228
100
AcDbEntity
  8
0
100
AcDbLine
 62
7
  6
CONTINUOUS
 10
5.0083720839
 20
14.6000477814
 11
7.1333720839
 21
14.6000477814
  0
LINE
  5
229
100
AcDbEntity
  8
0
100
AcDbLine
 62
7
  6
CONTINUOUS
 10
13.5603552569
 20
5.3756247044
 11
13.5603552569
 21
5.7156247044
  0
LINE
  5
22A
100
AcDbEntity
  8
0
100
AcDbLine
 62
7
  6
CONTINUOUS
 10
13.673336162
 20
5.3426851243
 11
13.6973743519
 21
5.2385642846
  0
LINE
  5
22B
100
AcDbEntity
  8
0
100
AcDbLine
 62
7
  6
CONTINUOUS
 10
13.923336162
 20
5.2385642846
 11
13.9473743519
 21
5.3426851243
  0
LINE
  5
22C
100
AcDbEntity
  8
0
100
AcDbLine
 62
7
  6
CONTINUOUS
 10
14.173336162
 20
5.3426851243
 11
14.1973743519
 21
5.2385642846
  0
LINE
  5
22D
100
AcDbEntity
  8
0
100
AcDbLine
 62
7
  6
CONTINUOUS
 10
14.423336162
 20
5.2385642846
 11
14.4473743519
 21
5.3426851243
  0
LINE
  5
22E
100
AcDbEntity
  8
0
100
AcDbLine
 62
7
  6
CONTINUOUS
 10
14.673336162
 20
5.3426851243
 11
14.6973743519
 21
5.2385642846
  0
LINE
  5
22F
100
AcDbEntity
  8
0
100
AcDbLine
 62
7
  6
CONTINUOUS
 10
14.923336162
 20
5.2385642846
 11
14.9473743519
 21
5.3426851243
  0
LINE
  5
230
100
AcDbEntity
  8
0
100
AcDbLine
 62
7
  6
CONTINUOUS
 10
15.173336162
 20
5.3426851243
 11
15.1973743519
 21
5.2385642846
  0
LINE
  5
231
100
AcDbEntity
  8
0
100
AcDbLine
 62
7
  6
CONTINUOUS
 10
13.7387850796
 20
5.2056247044
 11
13.8819254342
 21
5.2056247044
  0
LINE
  5
232
100
AcDbEntity
  8
0
100
AcDbLine
 62
7
  6
CONTINUOUS
 10
14.2387850796
 20
5.2056247044
 11
14.3819254342
 21
5.2056247044
  0
LINE
  5
233
100
AcDbEntity
  8
0
100
AcDbLine
 62
7
  6
CONTINUOUS
 10
14.7387850796
 20
5.2056247044
 11
14.8819254342
 21
5.2056247044
  0
LINE
  5
234
100
AcDbEntity
  8
0
100
AcDbLine
 62
7
  6
CONTINUOUS
 10
15.2387850796
 20
5.2056247044
 11
15.3819254342
 21
5.2056247044
  0
LINE
  5
235
100
AcDbEntity
  8
0
100
AcDbLine
 62
7
  6
CONTINUOUS
 10
15.7387850796
 20
5.2056247044
 11
15.8819254342
 21
5.2056247044
  0
LINE
  5
236
100
AcDbEntity
  8
0
100
AcDbLine
 62
7
  6
CONTINUOUS
 10
16.2387850796
 20
5.2056247044
 11
16.3819254342
 21
5.2056247044
  0
LINE
  5
237
100
AcDbEntity
  8
0
100
AcDbLine
 62
7
  6
CONTINUOUS
 10
16.7387850796
 20
5.2056247044
 11
16.8819254342
 21
5.2056247044
  0
LINE
  5
238
100
AcDbEntity
  8
0
100
AcDbLine
 62
7
  6
CONTINUOUS
 10
17.2387850796
 20
5.2056247044
 11
17.3819254342
 21
5.2056247044
  0
LINE
  5
239
100
AcDbEntity
  8
0
100
AcDbLine
 62
7
  6
CONTINUOUS
 10
15.423336162
 20
5.2385642846
 11
15.4473743519
 21
5.3426851243
  0
LINE
  5
23A
100
AcDbEntity
  8
0
100
AcDbLine
 62
7
  6
CONTINUOUS
 10
13.5603552569
 20
5.3756247044
 11
13.6319254342
 21
5.3756247044
  0
LINE
  5
23B
100
AcDbEntity
  8
0
100
AcDbLine
 62
7
  6
CONTINUOUS
 10
13.9887850796
 20
5.3756247044
 11
14.1319254342
 21
5.3756247044
  0
LINE
  5
23C
100
AcDbEntity
  8
0
100
AcDbLine
 62
7
  6
CONTINUOUS
 10
14.4887850796
 20
5.3756247044
 11
14.6319254342
 21
5.3756247044
  0
LINE
  5
23D
100
AcDbEntity
  8
0
100
AcDbLine
 62
7
  6
CONTINUOUS
 10
14.9887850796
 20
5.3756247044
 11
15.1319254342
 21
5.3756247044
  0
LINE
  5
23E
100
AcDbEntity
  8
0
100
AcDbLine
 62
7
  6
CONTINUOUS
 10
15.4887850796
 20
5.3756247044
 11
15.6319254342
 21
5.3756247044
  0
LINE
  5
23F
100
AcDbEntity
  8
0
100
AcDbLine
 62
7
  6
CONTINUOUS
 10
15.9887850796
 20
5.3756247044
 11
16.1319254342
 21
5.3756247044
  0
LINE
  5
240
100
AcDbEntity
  8
0
100
AcDbLine
 62
7
  6
CONTINUOUS
 10
16.4887850796
 20
5.3756247044
 11
16.6319254342
 21
5.3756247044
  0
LINE
  5
241
100
AcDbEntity
  8
0
100
AcDbLine
 62
7
  6
CONTINUOUS
 10
16.9887850796
 20
5.3756247044
 11
17.1319254342
 21
5.3756247044
  0
LINE
  5
242
100
AcDbEntity
  8
0
100
AcDbLine
 62
7
  6
CONTINUOUS
 10
17.4887850796
 20
5.3756247044
 11
17.5603552569
 21
5.3756247044
  0
LINE
  5
243
100
AcDbEntity
  8
0
100
AcDbLine
 62
7
  6
CONTINUOUS
 10
15.673336162
 20
5.3426851243
 11
15.6973743519
 21
5.2385642846
  0
LINE
  5
244
100
AcDbEntity
  8
0
100
AcDbLine
 62
7
  6
CONTINUOUS
 10
13.5603552569
 20
5.7156247044
 11
17.5603552569
 21
5.7156247044
  0
LINE
  5
245
100
AcDbEntity
  8
0
100
AcDbLine
 62
7
  6
CONTINUOUS
 10
15.923336162
 20
5.2385642846
 11
15.9473743519
 21
5.3426851243
  0
LINE
  5
246
100
AcDbEntity
  8
0
100
AcDbLine
 62
7
  6
CONTINUOUS
 10
16.173336162
 20
5.3426851243
 11
16.1973743519
 21
5.2385642846
  0
LINE
  5
247
100
AcDbEntity
  8
0
100
AcDbLine
 62
7
  6
CONTINUOUS
 10
16.423336162
 20
5.2385642846
 11
16.4473743519
 21
5.3426851243
  0
LINE
  5
248
100
AcDbEntity
  8
0
100
AcDbLine
 62
7
  6
CONTINUOUS
 10
16.673336162
 20
5.3426851243
 11
16.6973743519
 21
5.2385642846
  0
LINE
  5
249
100
AcDbEntity
  8
0
100
AcDbLine
 62
7
  6
CONTINUOUS
 10
16.923336162
 20
5.2385642846
 11
16.9473743519
 21
5.3426851243
  0
LINE
  5
24A
100
AcDbEntity
  8
0
100
AcDbLine
 62
7
  6
CONTINUOUS
 10
17.173336162
 20
5.3426851243
 11
17.1973743519
 21
5.2385642846
  0
LINE
  5
24B
100
AcDbEntity
  8
0
100
AcDbLine
 62
7
  6
CONTINUOUS
 10
17.5603552569
 20
5.3756247044
 11
17.5603552569
 21
5.7156247044
  0
LINE
  5
24C
100
AcDbEntity
  8
0
100
AcDbLine
 62
7
  6
CONTINUOUS
 10
17.423336162
 20
5.2385642846
 11
17.4473743519
 21
5.3426851243
  0
LINE
  5
24D
100
AcDbEntity
  8
0
100
AcDbLine
 62
7
  6
CONTINUOUS
 10
14.0331402924
 20
10.9612061276
 11
14.142014584
 21
10.8492155272
  0
LINE
  5
24E
100
AcDbEntity
  8
0
100
AcDbLine
 62
7
  6
CONTINUOUS
 10
13.9927705842
 20
11.0342846191
 11
14.019205987
 21
10.980414932
  0
LWPOLYLINE
  5
24F
100
AcDbEntity
  8
0
100
AcDbPolyline
 62
7
  6
CONTINUOUS
 90
5
 70
0
 10
15.9989798298
 20
10.8564911532
 10
16.0079200965
 20
10.8581122684
 10
16.0152060449
 20
10.8623013962
 10
16.0203334012
 20
10.8678313338
 10
16.0235054588
 20
10.873435783
  0
LINE
  5
250
100
AcDbEntity
  8
0
100
AcDbLine
 62
7
  6
CONTINUOUS
 10
14.1691835791
 20
10.838477479
 11
15.9657885774
 21
10.838477479
  0
LINE
  5
251
100
AcDbEntity
  8
0
100
AcDbLine
 62
7
  6
CONTINUOUS
 10
15.9850933368
 20
10.8564910897
 11
15.9989788012
 21
10.8564910897
  0
LWPOLYLINE
  5
252
100
AcDbEntity
  8
0
100
AcDbPolyline
 62
7
  6
CONTINUOUS
 90
5
 70
0
 10
16.1200129915
 20
11.248154608
 10
16.1289532582
 20
11.2497757232
 10
16.1362392066
 20
11.253964851
 10
16.1413665629
 20
11.2594947886
 10
16.1445386205
 20
11.2650992378
  0
LINE
  5
253
100
AcDbEntity
  8
0
100
AcDbLine
 62
7
  6
CONTINUOUS
 10
15.9193726249
 20
11.0498248683
 11
14.0081710623
 21
11.0498248683
  0
LINE
  5
254
100
AcDbEntity
  8
0
100
AcDbLine
 62
7
  6
CONTINUOUS
 10
16.1061264985
 20
11.2481545445
 11
16.120011963
 21
11.2481545445
  0
LINE
  5
255
100
AcDbEntity
  8
0
100
AcDbLine
 62
7
  6
CONTINUOUS
 10
13.9919115879
 20
11.0416658033
 11
14.9601768815
 21
14.1749734418
  0
LWPOLYLINE
  5
256
100
AcDbEntity
  8
0
100
AcDbPolyline
 62
7
  6
CONTINUOUS
 90
5
 70
0
 10
16.2410461532
 20
11.6398180628
 10
16.2499864199
 20
11.641439178
 10
16.2572723683
 20
11.6456283059
 10
16.2623997246
 20
11.6511582434
 10
16.2655717822
 20
11.6567626927
  0
LINE
  5
257
100
AcDbEntity
  8
0
100
AcDbLine
 62
7
  6
CONTINUOUS
 10
16.2271596602
 20
11.6398179993
 11
16.2410451247
 21
11.6398179993
  0
LWPOLYLINE
  5
258
100
AcDbEntity
  8
0
100
AcDbPolyline
 62
7
  6
CONTINUOUS
 90
5
 70
0
 10
16.3620793149
 20
12.0314815176
 10
16.3710195816
 20
12.0331026328
 10
16.37830553
 20
12.0372917607
 10
16.3834328863
 20
12.0428216982
 10
16.3866049439
 20
12.0484261475
  0
LINE
  5
259
100
AcDbEntity
  8
0
100
AcDbLine
 62
7
  6
CONTINUOUS
 10
16.3481928219
 20
12.0314814541
 11
16.3620782864
 21
12.0314814541
  0
LWPOLYLINE
  5
25A
100
AcDbEntity
  8
0
100
AcDbPolyline
 62
7
  6
CONTINUOUS
 90
5
 70
0
 10
16.4831124766
 20
12.4231449725
 10
16.4920527433
 20
12.4247660876
 10
16.4993386917
 20
12.4289552155
 10
16.504466048
 20
12.434485153
 10
16.5076381056
 20
12.4400896023
  0
LINE
  5
25B
100
AcDbEntity
  8
0
100
AcDbLine
 62
7
  6
CONTINUOUS
 10
15.9764605992
 20
10.980414932
 11
15.9500251964
 21
11.0342846191
  0
LINE
  5
25C
100
AcDbEntity
  8
0
100
AcDbLine
 62
7
  6
CONTINUOUS
 10
16.4692259836
 20
12.423144909
 11
16.4831114481
 21
12.423144909
  0
LWPOLYLINE
  5
25D
100
AcDbEntity
  8
0
100
AcDbPolyline
 62
7
  6
CONTINUOUS
 90
5
 70
0
 10
16.6041456383
 20
12.8148084273
 10
16.613085905
 20
12.8164295425
 10
16.6203718534
 20
12.8206186703
 10
16.6254992098
 20
12.8261486078
 10
16.6286712673
 20
12.8317530571
  0
LINE
  5
25E
100
AcDbEntity
  8
0
100
AcDbLine
 62
7
  6
CONTINUOUS
 10
16.5902591453
 20
12.8148083638
 11
16.6041446098
 21
12.8148083638
  0
LWPOLYLINE
  5
25F
100
AcDbEntity
  8
0
100
AcDbPolyline
 62
7
  6
CONTINUOUS
 90
5
 70
0
 10
16.7251788
 20
13.2064718821
 10
16.7341190667
 20
13.2080929973
 10
16.7414050151
 20
13.2122821251
 10
16.7465323715
 20
13.2178120627
 10
16.749704429
 20
13.2234165119
  0
LINE
  5
260
100
AcDbEntity
  8
0
100
AcDbLine
 62
7
  6
CONTINUOUS
 10
15.9824186353
 20
10.8492155272
 11
15.9813789179
 21
10.9612061276
  0
LINE
  5
261
100
AcDbEntity
  8
0
100
AcDbLine
 62
7
  6
CONTINUOUS
 10
16.0659856166
 20
11.0204683568
 11
16.0712035706
 21
11.1040206688
  0
LINE
  5
262
100
AcDbEntity
  8
0
100
AcDbLine
 62
7
  6
CONTINUOUS
 10
16.0712046156
 20
11.1040418509
 11
16.0717175121
 21
11.1105706598
  0
LINE
  5
263
100
AcDbEntity
  8
0
100
AcDbLine
 62
7
  6
CONTINUOUS
 10
16.0655899956
 20
11.0159734755
 11
16.065988584
 21
11.0205176676
  0
LWPOLYLINE
  5
264
100
AcDbEntity
  8
0
100
AcDbPolyline
 62
7
  6
CONTINUOUS
 90
5
 70
0
 10
16.0717175121
 20
11.1105706598
 10
16.0736045467
 20
11.1263141993
 10
16.0764691431
 20
11.1435830874
 10
16.080012631
 20
11.1605910958
 10
16.0838512818
 20
11.1757445004
  0
LINE
  5
265
100
AcDbEntity
  8
0
100
AcDbLine
 62
7
  6
CONTINUOUS
 10
15.9820426084
 20
10.8466382184
 11
15.9824186353
 21
10.8492155272
  0
LINE
  5
266
100
AcDbEntity
  8
0
100
AcDbLine
 62
7
  6
CONTINUOUS
 10
16.711292307
 20
13.2064718186
 11
16.7251777715
 21
13.2064718186
  0
LINE
  5
267
100
AcDbEntity
  8
0
100
AcDbLine
 62
7
  6
CONTINUOUS
 10
16.1870187783
 20
11.4121318116
 11
16.1922367323
 21
11.4956841236
  0
LINE
  5
268
100
AcDbEntity
  8
0
100
AcDbLine
 62
7
  6
CONTINUOUS
 10
16.30805194
 20
11.8037952664
 11
16.313269894
 21
11.8873475784
  0
LINE
  5
269
100
AcDbEntity
  8
0
100
AcDbLine
 62
7
  6
CONTINUOUS
 10
16.1922377773
 20
11.4957053057
 11
16.1927506738
 21
11.5022341146
  0
LINE
  5
26A
100
AcDbEntity
  8
0
100
AcDbLine
 62
7
  6
CONTINUOUS
 10
16.313270939
 20
11.8873687606
 11
16.3137838355
 21
11.8938975694
  0
LINE
  5
26B
100
AcDbEntity
  8
0
100
AcDbLine
 62
7
  6
CONTINUOUS
 10
16.1866231573
 20
11.4076369303
 11
16.1870217457
 21
11.4121811225
  0
LINE
  5
26C
100
AcDbEntity
  8
0
100
AcDbLine
 62
7
  6
CONTINUOUS
 10
16.307656319
 20
11.7993003851
 11
16.3080549074
 21
11.8038445773
  0
LWPOLYLINE
  5
26D
100
AcDbEntity
  8
0
100
AcDbPolyline
 62
7
  6
CONTINUOUS
 90
5
 70
0
 10
16.1927506738
 20
11.5022341146
 10
16.1946377084
 20
11.5179776541
 10
16.1975023048
 20
11.5352465422
 10
16.2010457927
 20
11.5522545506
 10
16.2048844435
 20
11.5674079552
  0
LWPOLYLINE
  5
26E
100
AcDbEntity
  8
0
100
AcDbPolyline
 62
7
  6
CONTINUOUS
 90
5
 70
0
 10
16.3137838355
 20
11.8938975694
 10
16.3156708701
 20
11.9096411089
 10
16.3185354665
 20
11.926909997
 10
16.3220789544
 20
11.9439180054
 10
16.3259176052
 20
11.9590714101
  0
LINE
  5
26F
100
AcDbEntity
  8
0
100
AcDbLine
 62
7
  6
CONTINUOUS
 10
16.0641944086
 20
11.0066512241
 11
16.0655899956
 21
11.0159734755
  0
LINE
  5
270
100
AcDbEntity
  8
0
100
AcDbLine
 62
7
  6
CONTINUOUS
 10
16.1852275703
 20
11.3983146789
 11
16.1866231573
 21
11.4076369303
  0
LINE
  5
271
100
AcDbEntity
  8
0
100
AcDbLine
 62
7
  6
CONTINUOUS
 10
16.0621052162
 20
10.9972118975
 11
16.0641944086
 21
11.0066512241
  0
LINE
  5
272
100
AcDbEntity
  8
0
100
AcDbLine
 62
7
  6
CONTINUOUS
 10
16.8707375907
 20
13.6150799667
 11
16.872843176
 21
13.6204831844
  0
LWPOLYLINE
  5
273
100
AcDbEntity
  8
0
100
AcDbPolyline
 62
7
  6
CONTINUOUS
 90
3
 70
0
 10
16.8497488777
 20
13.6535964015
 10
16.8516335621
 20
13.6581446126
 10
16.8523761935
 20
13.659651836
  0
LWPOLYLINE
  5
274
100
AcDbEntity
  8
0
100
AcDbPolyline
 62
7
  6
CONTINUOUS
 90
3
 70
0
 10
16.728715716
 20
13.2619329467
 10
16.7306004004
 20
13.2664811578
 10
16.7313430318
 20
13.2679883812
  0
LWPOLYLINE
  5
275
100
AcDbEntity
  8
0
100
AcDbPolyline
 62
7
  6
CONTINUOUS
 90
3
 70
0
 10
16.6076825543
 20
12.8702694919
 10
16.6095672387
 20
12.874817703
 10
16.6103098701
 20
12.8763249264
  0
LWPOLYLINE
  5
276
100
AcDbEntity
  8
0
100
AcDbPolyline
 62
7
  6
CONTINUOUS
 90
5
 70
0
 10
16.8462119617
 20
13.5981353369
 10
16.8551522284
 20
13.5997564521
 10
16.8624381768
 20
13.6039455799
 10
16.8675655332
 20
13.6094755175
 10
16.8707375907
 20
13.6150799667
  0
LINE
  5
277
100
AcDbEntity
  8
0
100
AcDbLine
 62
7
  6
CONTINUOUS
 10
16.4290851017
 20
12.1954587213
 11
16.4343030557
 21
12.2790110333
  0
LINE
  5
278
100
AcDbEntity
  8
0
100
AcDbLine
 62
7
  6
CONTINUOUS
 10
16.4343041007
 20
12.2790322154
 11
16.4348169972
 21
12.2855610242
  0
LINE
  5
279
100
AcDbEntity
  8
0
100
AcDbLine
 62
7
  6
CONTINUOUS
 10
16.4286894807
 20
12.1909638399
 11
16.4290880691
 21
12.1955080321
  0
LWPOLYLINE
  5
27A
100
AcDbEntity
  8
0
100
AcDbPolyline
 62
7
  6
CONTINUOUS
 90
5
 70
0
 10
16.4348169972
 20
12.2855610242
 10
16.4367040319
 20
12.3013045637
 10
16.4395686282
 20
12.3185734519
 10
16.4431121161
 20
12.3355814602
 10
16.4469507669
 20
12.3507348649
  0
LWPOLYLINE
  5
27B
100
AcDbEntity
  8
0
100
AcDbPolyline
 62
7
  6
CONTINUOUS
 90
5
 70
0
 10
16.5558501589
 20
12.677224479
 10
16.5577371936
 20
12.6929680185
 10
16.5606017899
 20
12.7102369067
 10
16.5641452778
 20
12.727244915
 10
16.5679839286
 20
12.7423983197
  0
LINE
  5
27C
100
AcDbEntity
  8
0
100
AcDbLine
 62
7
  6
CONTINUOUS
 10
16.306260732
 20
11.7899781337
 11
16.307656319
 21
11.7993003851
  0
LINE
  5
27D
100
AcDbEntity
  8
0
100
AcDbLine
 62
7
  6
CONTINUOUS
 10
16.4272938937
 20
12.1816415885
 11
16.4286894807
 21
12.1909638399
  0
LINE
  5
27E
100
AcDbEntity
  8
0
100
AcDbLine
 62
7
  6
CONTINUOUS
 10
16.5483270554
 20
12.5733050433
 11
16.5497226424
 21
12.5826272948
  0
LINE
  5
27F
100
AcDbEntity
  8
0
100
AcDbLine
 62
7
  6
CONTINUOUS
 10
16.1831383779
 20
11.3888753523
 11
16.1852275703
 21
11.3983146789
  0
LINE
  5
280
100
AcDbEntity
  8
0
100
AcDbLine
 62
7
  6
CONTINUOUS
 10
16.3041715397
 20
11.7805388072
 11
16.306260732
 21
11.7899781337
  0
LINE
  5
281
100
AcDbEntity
  8
0
100
AcDbLine
 62
7
  6
CONTINUOUS
 10
16.4252047014
 20
12.172202262
 11
16.4272938937
 21
12.1816415885
  0
LINE
  5
282
100
AcDbEntity
  8
0
100
AcDbLine
 62
7
  6
CONTINUOUS
 10
16.5462378631
 20
12.5638657168
 11
16.5483270554
 21
12.5733050433
  0
LINE
  5
283
100
AcDbEntity
  8
0
100
AcDbLine
 62
7
  6
CONTINUOUS
 10
16.0608582843
 20
10.9928184562
 11
16.0621052162
 21
10.9972118975
  0
LINE
  5
284
100
AcDbEntity
  8
0
100
AcDbLine
 62
7
  6
CONTINUOUS
 10
16.181891446
 20
11.384481911
 11
16.1831383779
 21
11.3888753523
  0
LINE
  5
285
100
AcDbEntity
  8
0
100
AcDbLine
 62
7
  6
CONTINUOUS
 10
16.3029246077
 20
11.7761453659
 11
16.3041715397
 21
11.7805388072
  0
LINE
  5
286
100
AcDbEntity
  8
0
100
AcDbLine
 62
7
  6
CONTINUOUS
 10
16.4239577694
 20
12.1678088207
 11
16.4252047014
 21
12.172202262
  0
LINE
  5
287
100
AcDbEntity
  8
0
100
AcDbLine
 62
7
  6
CONTINUOUS
 10
16.5449909311
 20
12.5594722755
 11
16.5462378631
 21
12.5638657168
  0
LINE
  5
288
100
AcDbEntity
  8
0
100
AcDbLine
 62
7
  6
CONTINUOUS
 10
16.6660240928
 20
12.9511357303
 11
16.6672710248
 21
12.9555291716
  0
LINE
  5
289
100
AcDbEntity
  8
0
100
AcDbLine
 62
7
  6
CONTINUOUS
 10
16.7870572545
 20
13.3427991851
 11
16.7883041865
 21
13.3471926264
  0
LINE
  5
28A
100
AcDbEntity
  8
0
100
AcDbLine
 62
7
  6
CONTINUOUS
 10
16.9080904162
 20
13.7344626399
 11
16.9093373482
 21
13.7388560812
  0
LINE
  5
28B
100
AcDbEntity
  8
0
100
AcDbLine
 62
7
  6
CONTINUOUS
 10
16.0838512818
 20
11.1757445004
 11
16.0857504513
 21
11.1822241993
  0
LINE
  5
28C
100
AcDbEntity
  8
0
100
AcDbLine
 62
7
  6
CONTINUOUS
 10
16.2048844435
 20
11.5674079552
 11
16.206783613
 21
11.5738876541
  0
LINE
  5
28D
100
AcDbEntity
  8
0
100
AcDbLine
 62
7
  6
CONTINUOUS
 10
16.3259176052
 20
11.9590714101
 11
16.3278167747
 21
11.9655511089
  0
LINE
  5
28E
100
AcDbEntity
  8
0
100
AcDbLine
 62
7
  6
CONTINUOUS
 10
16.4469507669
 20
12.3507348649
 11
16.4488499364
 21
12.3572145637
  0
LINE
  5
28F
100
AcDbEntity
  8
0
100
AcDbLine
 62
7
  6
CONTINUOUS
 10
16.5679839286
 20
12.7423983197
 11
16.5698830981
 21
12.7488780185
  0
LINE
  5
290
100
AcDbEntity
  8
0
100
AcDbLine
 62
7
  6
CONTINUOUS
 10
16.6890170903
 20
13.1340617745
 11
16.6909162598
 21
13.1405414733
  0
LINE
  5
291
100
AcDbEntity
  8
0
100
AcDbLine
 62
7
  6
CONTINUOUS
 10
16.810050252
 20
13.5257252293
 11
16.8119494215
 21
13.5322049282
  0
LINE
  5
292
100
AcDbEntity
  8
0
100
AcDbLine
 62
7
  6
CONTINUOUS
 10
16.9310834137
 20
13.9173886841
 11
16.9329825832
 21
13.923868383
  0
LINE
  5
293
100
AcDbEntity
  8
0
100
AcDbLine
 62
7
  6
CONTINUOUS
 10
15.9828078497
 20
10.8490952508
 11
15.9993727821
 21
10.9026993914
  0
LINE
  5
294
100
AcDbEntity
  8
0
100
AcDbLine
 62
7
  6
CONTINUOUS
 10
16.0857564839
 20
11.182237153
 11
16.1204059438
 21
11.2943628462
  0
LINE
  5
295
100
AcDbEntity
  8
0
100
AcDbLine
 62
7
  6
CONTINUOUS
 10
16.2067896456
 20
11.5739006078
 11
16.2414391055
 21
11.686026301
  0
LINE
  5
296
100
AcDbEntity
  8
0
100
AcDbLine
 62
7
  6
CONTINUOUS
 10
16.3278228073
 20
11.9655640626
 11
16.3624722672
 21
12.0776897558
  0
LINE
  5
297
100
AcDbEntity
  8
0
100
AcDbLine
 62
7
  6
CONTINUOUS
 10
16.448855969
 20
12.3572275174
 11
16.4835054289
 21
12.4693532107
  0
LINE
  5
298
100
AcDbEntity
  8
0
100
AcDbLine
 62
7
  6
CONTINUOUS
 10
16.5698891307
 20
12.7488909722
 11
16.6045385906
 21
12.8610166655
  0
LINE
  5
299
100
AcDbEntity
  8
0
100
AcDbLine
 62
7
  6
CONTINUOUS
 10
16.6909222924
 20
13.140554427
 11
16.7255717523
 21
13.2526801203
  0
LINE
  5
29A
100
AcDbEntity
  8
0
100
AcDbLine
 62
7
  6
CONTINUOUS
 10
16.8119554541
 20
13.5322178819
 11
16.846604914
 21
13.6443435751
  0
LINE
  5
29B
100
AcDbEntity
  8
0
100
AcDbLine
 62
7
  6
CONTINUOUS
 10
16.9329886158
 20
13.9238813367
 11
16.9503133455
 21
13.9799441825
  0
LINE
  5
29C
100
AcDbEntity
  8
0
100
AcDbLine
 62
7
  6
CONTINUOUS
 10
16.0262209744
 20
10.880731731
 11
16.0608704339
 21
10.9928574229
  0
LINE
  5
29D
100
AcDbEntity
  8
0
100
AcDbLine
 62
7
  6
CONTINUOUS
 10
16.1472541361
 20
11.2723951858
 11
16.1819035956
 21
11.3845208777
  0
LINE
  5
29E
100
AcDbEntity
  8
0
100
AcDbLine
 62
7
  6
CONTINUOUS
 10
16.2682872978
 20
11.6640586406
 11
16.3029367573
 21
11.7761843325
  0
LINE
  5
29F
100
AcDbEntity
  8
0
100
AcDbLine
 62
7
  6
CONTINUOUS
 10
16.3893204595
 20
12.0557220954
 11
16.423969919
 21
12.1678477874
  0
LINE
  5
2A0
100
AcDbEntity
  8
0
100
AcDbLine
 62
7
  6
CONTINUOUS
 10
16.5103536212
 20
12.4473855502
 11
16.5450030807
 21
12.5595112422
  0
LINE
  5
2A1
100
AcDbEntity
  8
0
100
AcDbLine
 62
7
  6
CONTINUOUS
 10
16.631386783
 20
12.839049005
 11
16.6660362424
 21
12.951174697
  0
LINE
  5
2A2
100
AcDbEntity
  8
0
100
AcDbLine
 62
7
  6
CONTINUOUS
 10
16.7524199447
 20
13.2307124598
 11
16.7870694041
 21
13.3428381518
  0
LINE
  5
2A3
100
AcDbEntity
  8
0
100
AcDbLine
 62
7
  6
CONTINUOUS
 10
16.8734531064
 20
13.6223759147
 11
16.9081025658
 21
13.7345016066
  0
LINE
  5
2A4
100
AcDbEntity
  8
0
100
AcDbLine
 62
7
  6
CONTINUOUS
 10
16.9081025658
 20
13.7345016066
 11
16.9080904177
 21
13.7344626396
  0
LINE
  5
2A5
100
AcDbEntity
  8
0
100
AcDbLine
 62
7
  6
CONTINUOUS
 10
16.7870694041
 20
13.3428381518
 11
16.787057256
 21
13.3427991848
  0
LINE
  5
2A6
100
AcDbEntity
  8
0
100
AcDbLine
 62
7
  6
CONTINUOUS
 10
16.6660362424
 20
12.951174697
 11
16.6660240943
 21
12.95113573
  0
LINE
  5
2A7
100
AcDbEntity
  8
0
100
AcDbLine
 62
7
  6
CONTINUOUS
 10
16.5450030807
 20
12.5595112422
 11
16.5449909326
 21
12.5594722752
  0
LINE
  5
2A8
100
AcDbEntity
  8
0
100
AcDbLine
 62
7
  6
CONTINUOUS
 10
16.423969919
 20
12.1678477874
 11
16.4239577709
 21
12.1678088203
  0
LINE
  5
2A9
100
AcDbEntity
  8
0
100
AcDbLine
 62
7
  6
CONTINUOUS
 10
16.3029367573
 20
11.7761843325
 11
16.3029246092
 21
11.7761453655
  0
LINE
  5
2AA
100
AcDbEntity
  8
0
100
AcDbLine
 62
7
  6
CONTINUOUS
 10
16.1819035956
 20
11.3845208777
 11
16.1818914475
 21
11.3844819107
  0
LINE
  5
2AB
100
AcDbEntity
  8
0
100
AcDbLine
 62
7
  6
CONTINUOUS
 10
16.0608704339
 20
10.9928574229
 11
16.0608582858
 21
10.9928184559
  0
LINE
  5
2AC
100
AcDbEntity
  8
0
100
AcDbLine
 62
7
  6
CONTINUOUS
 10
16.8466063018
 20
13.6443486118
 11
16.847329525
 21
13.646640899
  0
LINE
  5
2AD
100
AcDbEntity
  8
0
100
AcDbLine
 62
7
  6
CONTINUOUS
 10
16.7255731401
 20
13.252685157
 11
16.7262963633
 21
13.2549774442
  0
LINE
  5
2AE
100
AcDbEntity
  8
0
100
AcDbLine
 62
7
  6
CONTINUOUS
 10
16.6045399784
 20
12.8610217022
 11
16.6052632016
 21
12.8633139894
  0
LINE
  5
2AF
100
AcDbEntity
  8
0
100
AcDbLine
 62
7
  6
CONTINUOUS
 10
16.4835068167
 20
12.4693582473
 11
16.4842300399
 21
12.4716505346
  0
LINE
  5
2B0
100
AcDbEntity
  8
0
100
AcDbLine
 62
7
  6
CONTINUOUS
 10
16.362473655
 20
12.0776947925
 11
16.3631968782
 21
12.0799870798
  0
LINE
  5
2B1
100
AcDbEntity
  8
0
100
AcDbLine
 62
7
  6
CONTINUOUS
 10
16.2414404933
 20
11.6860313377
 11
16.2421637165
 21
11.688323625
  0
LINE
  5
2B2
100
AcDbEntity
  8
0
100
AcDbLine
 62
7
  6
CONTINUOUS
 10
16.1204073316
 20
11.2943678829
 11
16.1211305547
 21
11.2966601702
  0
LINE
  5
2B3
100
AcDbEntity
  8
0
100
AcDbLine
 62
7
  6
CONTINUOUS
 10
15.9993741699
 20
10.9027044281
 11
16.000097393
 21
10.9049967153
  0
LINE
  5
2B4
100
AcDbEntity
  8
0
100
AcDbLine
 62
7
  6
CONTINUOUS
 10
16.872843176
 20
13.6204831844
 11
16.8734602498
 21
13.6223991624
  0
LINE
  5
2B5
100
AcDbEntity
  8
0
100
AcDbLine
 62
7
  6
CONTINUOUS
 10
16.7518100143
 20
13.2288197295
 11
16.7524270881
 21
13.2307357076
  0
LINE
  5
2B6
100
AcDbEntity
  8
0
100
AcDbLine
 62
7
  6
CONTINUOUS
 10
16.6307768526
 20
12.8371562747
 11
16.6313939264
 21
12.8390722528
  0
LINE
  5
2B7
100
AcDbEntity
  8
0
100
AcDbLine
 62
7
  6
CONTINUOUS
 10
16.5097436909
 20
12.4454928199
 11
16.5103607647
 21
12.447408798
  0
LINE
  5
2B8
100
AcDbEntity
  8
0
100
AcDbLine
 62
7
  6
CONTINUOUS
 10
16.3887105292
 20
12.0538293651
 11
16.389327603
 21
12.0557453432
  0
LINE
  5
2B9
100
AcDbEntity
  8
0
100
AcDbLine
 62
7
  6
CONTINUOUS
 10
16.2676773675
 20
11.6621659103
 11
16.2682944413
 21
11.6640818883
  0
LINE
  5
2BA
100
AcDbEntity
  8
0
100
AcDbLine
 62
7
  6
CONTINUOUS
 10
16.1466442058
 20
11.2705024555
 11
16.1472612796
 21
11.2724184335
  0
LINE
  5
2BB
100
AcDbEntity
  8
0
100
AcDbLine
 62
7
  6
CONTINUOUS
 10
16.0256110441
 20
10.8788390007
 11
16.0262281179
 21
10.8807549787
  0
LINE
  5
2BC
100
AcDbEntity
  8
0
100
AcDbLine
 62
7
  6
CONTINUOUS
 10
16.847329525
 20
13.646640899
 11
16.8497488777
 21
13.6535964015
  0
LINE
  5
2BD
100
AcDbEntity
  8
0
100
AcDbLine
 62
7
  6
CONTINUOUS
 10
16.7262963633
 20
13.2549774442
 11
16.728715716
 21
13.2619329467
  0
LINE
  5
2BE
100
AcDbEntity
  8
0
100
AcDbLine
 62
7
  6
CONTINUOUS
 10
16.6052632016
 20
12.8633139894
 11
16.6076825543
 21
12.8702694919
  0
LINE
  5
2BF
100
AcDbEntity
  8
0
100
AcDbLine
 62
7
  6
CONTINUOUS
 10
16.4842300399
 20
12.4716505346
 11
16.4866493926
 21
12.4786060371
  0
LINE
  5
2C0
100
AcDbEntity
  8
0
100
AcDbLine
 62
7
  6
CONTINUOUS
 10
16.3631968782
 20
12.0799870798
 11
16.3656162309
 21
12.0869425823
  0
LINE
  5
2C1
100
AcDbEntity
  8
0
100
AcDbLine
 62
7
  6
CONTINUOUS
 10
16.2421637165
 20
11.688323625
 11
16.2445830692
 21
11.6952791275
  0
LINE
  5
2C2
100
AcDbEntity
  8
0
100
AcDbLine
 62
7
  6
CONTINUOUS
 10
16.1211305547
 20
11.2966601702
 11
16.1235499075
 21
11.3036156727
  0
LINE
  5
2C3
100
AcDbEntity
  8
0
100
AcDbLine
 62
7
  6
CONTINUOUS
 10
16.000097393
 20
10.9049967153
 11
16.0025167458
 21
10.9119522179
  0
LINE
  5
2C4
100
AcDbEntity
  8
0
100
AcDbLine
 62
7
  6
CONTINUOUS
 10
16.749704429
 20
13.2234165119
 11
16.7518100143
 21
13.2288197295
  0
LINE
  5
2C5
100
AcDbEntity
  8
0
100
AcDbLine
 62
7
  6
CONTINUOUS
 10
16.6286712673
 20
12.8317530571
 11
16.6307768526
 21
12.8371562747
  0
LINE
  5
2C6
100
AcDbEntity
  8
0
100
AcDbLine
 62
7
  6
CONTINUOUS
 10
16.5076381056
 20
12.4400896023
 11
16.5097436909
 21
12.4454928199
  0
LINE
  5
2C7
100
AcDbEntity
  8
0
100
AcDbLine
 62
7
  6
CONTINUOUS
 10
16.3866049439
 20
12.0484261475
 11
16.3887105292
 21
12.0538293651
  0
LINE
  5
2C8
100
AcDbEntity
  8
0
100
AcDbLine
 62
7
  6
CONTINUOUS
 10
16.2655717822
 20
11.6567626927
 11
16.2676773675
 21
11.6621659103
  0
LWPOLYLINE
  5
2C9
100
AcDbEntity
  8
0
100
AcDbPolyline
 62
7
  6
CONTINUOUS
 90
3
 70
0
 10
16.4866493926
 20
12.4786060371
 10
16.488534077
 20
12.4831542482
 10
16.4892767084
 20
12.4846614716
  0
LWPOLYLINE
  5
2CA
100
AcDbEntity
  8
0
100
AcDbPolyline
 62
7
  6
CONTINUOUS
 90
3
 70
0
 10
16.3656162309
 20
12.0869425823
 10
16.3675009153
 20
12.0914907934
 10
16.3682435467
 20
12.0929980167
  0
LWPOLYLINE
  5
2CB
100
AcDbEntity
  8
0
100
AcDbPolyline
 62
7
  6
CONTINUOUS
 90
3
 70
0
 10
16.2445830692
 20
11.6952791275
 10
16.2464677536
 20
11.6998273386
 10
16.247210385
 20
11.7013345619
  0
LINE
  5
2CC
100
AcDbEntity
  8
0
100
AcDbLine
 62
7
  6
CONTINUOUS
 10
16.5501182634
 20
12.5871221761
 11
16.5553362174
 21
12.6706744881
  0
LINE
  5
2CD
100
AcDbEntity
  8
0
100
AcDbLine
 62
7
  6
CONTINUOUS
 10
16.6711514251
 20
12.9787856309
 11
16.6763693791
 21
13.0623379429
  0
LINE
  5
2CE
100
AcDbEntity
  8
0
100
AcDbLine
 62
7
  6
CONTINUOUS
 10
16.5553372624
 20
12.6706956702
 11
16.5558501589
 21
12.677224479
  0
LINE
  5
2CF
100
AcDbEntity
  8
0
100
AcDbLine
 62
7
  6
CONTINUOUS
 10
16.6763704241
 20
13.062359125
 11
16.6768833206
 21
13.0688879338
  0
LINE
  5
2D0
100
AcDbEntity
  8
0
100
AcDbLine
 62
7
  6
CONTINUOUS
 10
16.5497226424
 20
12.5826272948
 11
16.5501212308
 21
12.5871714869
  0
LINE
  5
2D1
100
AcDbEntity
  8
0
100
AcDbLine
 62
7
  6
CONTINUOUS
 10
16.6707558041
 20
12.9742907496
 11
16.6711543925
 21
12.9788349417
  0
LWPOLYLINE
  5
2D2
100
AcDbEntity
  8
0
100
AcDbPolyline
 62
7
  6
CONTINUOUS
 90
5
 70
0
 10
16.6768833206
 20
13.0688879338
 10
16.6787703553
 20
13.0846314733
 10
16.6816349517
 20
13.1019003615
 10
16.6851784395
 20
13.1189083698
 10
16.6890170903
 20
13.1340617745
  0
LWPOLYLINE
  5
2D3
100
AcDbEntity
  8
0
100
AcDbPolyline
 62
7
  6
CONTINUOUS
 90
5
 70
0
 10
16.7979164823
 20
13.4605513886
 10
16.799803517
 20
13.4762949282
 10
16.8026681134
 20
13.4935638163
 10
16.8062116012
 20
13.5105718246
 10
16.810050252
 20
13.5257252293
  0
LINE
  5
2D4
100
AcDbEntity
  8
0
100
AcDbLine
 62
7
  6
CONTINUOUS
 10
16.6693602171
 20
12.9649684982
 11
16.6707558041
 21
12.9742907496
  0
LINE
  5
2D5
100
AcDbEntity
  8
0
100
AcDbLine
 62
7
  6
CONTINUOUS
 10
16.7903933788
 20
13.356631953
 11
16.7917889658
 21
13.3659542044
  0
LINE
  5
2D6
100
AcDbEntity
  8
0
100
AcDbLine
 62
7
  6
CONTINUOUS
 10
16.6672710248
 20
12.9555291716
 11
16.6693602171
 21
12.9649684982
  0
LINE
  5
2D7
100
AcDbEntity
  8
0
100
AcDbLine
 62
7
  6
CONTINUOUS
 10
16.7883041865
 20
13.3471926264
 11
16.7903933788
 21
13.356631953
  0
LINE
  5
2D8
100
AcDbEntity
  8
0
100
AcDbLine
 62
7
  6
CONTINUOUS
 10
16.9093373482
 20
13.7388560812
 11
16.9114265405
 21
13.7482954078
  0
LINE
  5
2D9
100
AcDbEntity
  8
0
100
AcDbLine
 62
7
  6
CONTINUOUS
 10
16.1445386205
 20
11.2650992378
 11
16.1466442058
 21
11.2705024555
  0
LINE
  5
2DA
100
AcDbEntity
  8
0
100
AcDbLine
 62
7
  6
CONTINUOUS
 10
16.0235054588
 20
10.873435783
 11
16.0256110441
 21
10.8788390007
  0
LWPOLYLINE
  5
2DB
100
AcDbEntity
  8
0
100
AcDbPolyline
 62
7
  6
CONTINUOUS
 90
3
 70
0
 10
16.1235499075
 20
11.3036156727
 10
16.1254345919
 20
11.3081638838
 10
16.1261772233
 20
11.3096711071
  0
LWPOLYLINE
  5
2DC
100
AcDbEntity
  8
0
100
AcDbPolyline
 62
7
  6
CONTINUOUS
 90
3
 70
0
 10
16.0025167458
 20
10.9119522179
 10
16.0044014302
 20
10.9165004289
 10
16.0051440616
 20
10.9180076523
  0
LINE
  5
2DD
100
AcDbEntity
  8
0
100
AcDbLine
 62
7
  6
CONTINUOUS
 10
16.8323254687
 20
13.5981352734
 11
16.8462109332
 21
13.5981352734
  0
LINE
  5
2DE
100
AcDbEntity
  8
0
100
AcDbLine
 62
7
  6
CONTINUOUS
 10
16.7921845868
 20
13.3704490857
 11
16.7974025408
 21
13.4540013977
  0
LINE
  5
2DF
100
AcDbEntity
  8
0
100
AcDbLine
 62
7
  6
CONTINUOUS
 10
16.7974035858
 20
13.4540225798
 11
16.7979164823
 21
13.4605513886
  0
LINE
  5
2E0
100
AcDbEntity
  8
0
100
AcDbLine
 62
7
  6
CONTINUOUS
 10
16.9184367475
 20
13.8456860346
 11
16.918949644
 21
13.8522148435
  0
LINE
  5
2E1
100
AcDbEntity
  8
0
100
AcDbLine
 62
7
  6
CONTINUOUS
 10
16.7917889658
 20
13.3659542044
 11
16.7921875542
 21
13.3704983965
  0
LINE
  5
2E2
100
AcDbEntity
  8
0
100
AcDbLine
 62
7
  6
CONTINUOUS
 10
16.9128221275
 20
13.7576176592
 11
16.9132207159
 21
13.7621618513
  0
LWPOLYLINE
  5
2E3
100
AcDbEntity
  8
0
100
AcDbPolyline
 62
7
  6
CONTINUOUS
 90
5
 70
0
 10
16.918949644
 20
13.8522148435
 10
16.9208366787
 20
13.867958383
 10
16.9237012751
 20
13.8852272711
 10
16.9272447629
 20
13.9022352795
 10
16.9310834137
 20
13.9173886841
  0
LINE
  5
2E4
100
AcDbEntity
  8
0
100
AcDbLine
 62
7
  6
CONTINUOUS
 10
16.9506839289
 20
13.9825231657
 11
16.950307902
 21
13.9799458569
  0
LINE
  5
2E5
100
AcDbEntity
  8
0
100
AcDbLine
 62
7
  6
CONTINUOUS
 10
16.9114265405
 20
13.7482954078
 11
16.9128221275
 21
13.7576176592
  0
LINE
  5
2E6
100
AcDbEntity
  8
0
100
AcDbLine
 62
7
  6
CONTINUOUS
 10
16.9506839289
 20
13.9825231657
 11
16.9496442115
 21
14.0945137661
  0
LINE
  5
2E7
100
AcDbEntity
  8
0
100
AcDbLine
 62
7
  6
CONTINUOUS
 10
16.9132177485
 20
13.7621125405
 11
16.9184357025
 21
13.8456648525
  0
LINE
  5
2E8
100
AcDbEntity
  8
0
100
AcDbLine
 62
7
  6
CONTINUOUS
 10
16.8876379185
 20
14.1831325068
 11
14.976436356
 21
14.1831325068
  0
LINE
  5
2E9
100
AcDbEntity
  8
0
100
AcDbLine
 62
7
  6
CONTINUOUS
 10
16.9447258928
 20
14.1137225705
 11
16.91829049
 21
14.1675922576
  0
ARC
  5
2EA
100
AcDbEntity
  8
0
100
AcDbCircle
 62
7
  6
CONTINUOUS
 10
5.1550762748
 20
5.4601198968
 40
0.025
100
AcDbArc
 50
198.0
 51
270.0
  0
ARC
  5
2EB
100
AcDbEntity
  8
0
100
AcDbCircle
 62
7
  6
CONTINUOUS
 10
5.2103126189
 20
5.29011991
 40
0.025
100
AcDbArc
 50
198.0000319017
 51
270.0000098581
  0
ARC
  5
2EC
100
AcDbEntity
  8
0
100
AcDbCircle
 62
7
  6
CONTINUOUS
 10
5.1678672762
 20
5.6634583408
 40
0.1
100
AcDbArc
 50
180.0
 51
198.0
  0
ARC
  5
2ED
100
AcDbEntity
  8
0
100
AcDbCircle
 62
7
  6
CONTINUOUS
 10
5.0928672762
 20
5.7501198968
 40
0.025
100
AcDbArc
 50
90.0
 51
180.0
  0
ARC
  5
2EE
100
AcDbEntity
  8
0
100
AcDbCircle
 62
7
  6
CONTINUOUS
 10
7.0504219292
 20
5.2901198968
 40
0.025
100
AcDbArc
 50
270.0
 51
342.0
  0
ARC
  5
2EF
100
AcDbEntity
  8
0
100
AcDbCircle
 62
7
  6
CONTINUOUS
 10
7.1056582775
 20
5.4601198968
 40
0.025
100
AcDbArc
 50
270.0
 51
342.0
  0
ARC
  5
2F0
100
AcDbEntity
  8
0
100
AcDbCircle
 62
7
  6
CONTINUOUS
 10
7.0928672762
 20
5.6634583408
 40
0.1
100
AcDbArc
 50
342.0
 51
360.0
  0
ARC
  5
2F1
100
AcDbEntity
  8
0
100
AcDbCircle
 62
7
  6
CONTINUOUS
 10
7.1678672762
 20
5.7501198968
 40
0.025
100
AcDbArc
 50
0.0
 51
90.0
  0
ARC
  5
2F2
100
AcDbEntity
  8
0
100
AcDbCircle
 62
7
  6
CONTINUOUS
 10
13.7387850796
 20
5.2481247044
 40
0.0425
100
AcDbArc
 50
193.0
 51
270.0
  0
ARC
  5
2F3
100
AcDbEntity
  8
0
100
AcDbCircle
 62
7
  6
CONTINUOUS
 10
13.8819254342
 20
5.2481247044
 40
0.0425
100
AcDbArc
 50
270.0
 51
347.0
  0
ARC
  5
2F4
100
AcDbEntity
  8
0
100
AcDbCircle
 62
7
  6
CONTINUOUS
 10
14.2387850796
 20
5.2481247044
 40
0.0425
100
AcDbArc
 50
193.0
 51
270.0
  0
ARC
  5
2F5
100
AcDbEntity
  8
0
100
AcDbCircle
 62
7
  6
CONTINUOUS
 10
14.3819254342
 20
5.2481247044
 40
0.0425
100
AcDbArc
 50
270.0
 51
347.0
  0
ARC
  5
2F6
100
AcDbEntity
  8
0
100
AcDbCircle
 62
7
  6
CONTINUOUS
 10
14.7387850796
 20
5.2481247044
 40
0.0425
100
AcDbArc
 50
193.0
 51
270.0
  0
ARC
  5
2F7
100
AcDbEntity
  8
0
100
AcDbCircle
 62
7
  6
CONTINUOUS
 10
14.8819254342
 20
5.2481247044
 40
0.0425
100
AcDbArc
 50
270.0
 51
347.0
  0
ARC
  5
2F8
100
AcDbEntity
  8
0
100
AcDbCircle
 62
7
  6
CONTINUOUS
 10
15.2387850796
 20
5.2481247044
 40
0.0425
100
AcDbArc
 50
193.0
 51
270.0
  0
ARC
  5
2F9
100
AcDbEntity
  8
0
100
AcDbCircle
 62
7
  6
CONTINUOUS
 10
15.3819254342
 20
5.2481247044
 40
0.0425
100
AcDbArc
 50
270.0
 51
347.0
  0
ARC
  5
2FA
100
AcDbEntity
  8
0
100
AcDbCircle
 62
7
  6
CONTINUOUS
 10
13.6319254342
 20
5.3331247044
 40
0.0425
100
AcDbArc
 50
13.0
 51
90.0
  0
ARC
  5
2FB
100
AcDbEntity
  8
0
100
AcDbCircle
 62
7
  6
CONTINUOUS
 10
13.9887850796
 20
5.3331247044
 40
0.0425
100
AcDbArc
 50
90.0
 51
167.0
  0
ARC
  5
2FC
100
AcDbEntity
  8
0
100
AcDbCircle
 62
7
  6
CONTINUOUS
 10
14.1319254342
 20
5.3331247044
 40
0.0425
100
AcDbArc
 50
13.0
 51
90.0
  0
ARC
  5
2FD
100
AcDbEntity
  8
0
100
AcDbCircle
 62
7
  6
CONTINUOUS
 10
14.4887850796
 20
5.3331247044
 40
0.0425
100
AcDbArc
 50
90.0
 51
167.0
  0
ARC
  5
2FE
100
AcDbEntity
  8
0
100
AcDbCircle
 62
7
  6
CONTINUOUS
 10
14.6319254342
 20
5.3331247044
 40
0.0425
100
AcDbArc
 50
13.0
 51
90.0
  0
ARC
  5
2FF
100
AcDbEntity
  8
0
100
AcDbCircle
 62
7
  6
CONTINUOUS
 10
14.9887850796
 20
5.3331247044
 40
0.0425
100
AcDbArc
 50
90.0
 51
167.0
  0
ARC
  5
300
100
AcDbEntity
  8
0
100
AcDbCircle
 62
7
  6
CONTINUOUS
 10
15.1319254342
 20
5.3331247044
 40
0.0425
100
AcDbArc
 50
13.0
 51
90.0
  0
ARC
  5
301
100
AcDbEntity
  8
0
100
AcDbCircle
 62
7
  6
CONTINUOUS
 10
15.4887850796
 20
5.3331247044
 40
0.0425
100
AcDbArc
 50
90.0
 51
167.0
  0
ARC
  5
302
100
AcDbEntity
  8
0
100
AcDbCircle
 62
7
  6
CONTINUOUS
 10
17.3819254342
 20
5.2481247044
 40
0.0425
100
AcDbArc
 50
270.0
 51
347.0
  0
ARC
  5
303
100
AcDbEntity
  8
0
100
AcDbCircle
 62
7
  6
CONTINUOUS
 10
17.2387850796
 20
5.2481247044
 40
0.0425
100
AcDbArc
 50
193.0
 51
270.0
  0
ARC
  5
304
100
AcDbEntity
  8
0
100
AcDbCircle
 62
7
  6
CONTINUOUS
 10
16.8819254342
 20
5.2481247044
 40
0.0425
100
AcDbArc
 50
270.0
 51
347.0
  0
ARC
  5
305
100
AcDbEntity
  8
0
100
AcDbCircle
 62
7
  6
CONTINUOUS
 10
16.7387850796
 20
5.2481247044
 40
0.0425
100
AcDbArc
 50
193.0
 51
270.0
  0
ARC
  5
306
100
AcDbEntity
  8
0
100
AcDbCircle
 62
7
  6
CONTINUOUS
 10
16.3819254342
 20
5.2481247044
 40
0.0425
100
AcDbArc
 50
270.0
 51
347.0
  0
ARC
  5
307
100
AcDbEntity
  8
0
100
AcDbCircle
 62
7
  6
CONTINUOUS
 10
16.2387850796
 20
5.2481247044
 40
0.0425
100
AcDbArc
 50
193.0
 51
270.0
  0
ARC
  5
308
100
AcDbEntity
  8
0
100
AcDbCircle
 62
7
  6
CONTINUOUS
 10
15.8819254342
 20
5.2481247044
 40
0.0425
100
AcDbArc
 50
270.0
 51
347.0
  0
ARC
  5
309
100
AcDbEntity
  8
0
100
AcDbCircle
 62
7
  6
CONTINUOUS
 10
15.7387850796
 20
5.2481247044
 40
0.0425
100
AcDbArc
 50
193.0
 51
270.0
  0
ARC
  5
30A
100
AcDbEntity
  8
0
100
AcDbCircle
 62
7
  6
CONTINUOUS
 10
17.4887850796
 20
5.3331247044
 40
0.0425
100
AcDbArc
 50
90.0
 51
167.0
  0
ARC
  5
30B
100
AcDbEntity
  8
0
100
AcDbCircle
 62
7
  6
CONTINUOUS
 10
17.1319254342
 20
5.3331247044
 40
0.0425
100
AcDbArc
 50
13.0
 51
90.0
  0
ARC
  5
30C
100
AcDbEntity
  8
0
100
AcDbCircle
 62
7
  6
CONTINUOUS
 10
16.9887850796
 20
5.3331247044
 40
0.0425
100
AcDbArc
 50
90.0
 51
167.0
  0
ARC
  5
30D
100
AcDbEntity
  8
0
100
AcDbCircle
 62
7
  6
CONTINUOUS
 10
16.6319254342
 20
5.3331247044
 40
0.0425
100
AcDbArc
 50
13.0
 51
90.0
  0
ARC
  5
30E
100
AcDbEntity
  8
0
100
AcDbCircle
 62
7
  6
CONTINUOUS
 10
16.4887850796
 20
5.3331247044
 40
0.0425
100
AcDbArc
 50
90.0
 51
167.0
  0
ARC
  5
30F
100
AcDbEntity
  8
0
100
AcDbCircle
 62
7
  6
CONTINUOUS
 10
16.1319254342
 20
5.3331247044
 40
0.0425
100
AcDbArc
 50
13.0
 51
90.0
  0
ARC
  5
310
100
AcDbEntity
  8
0
100
AcDbCircle
 62
7
  6
CONTINUOUS
 10
15.9887850796
 20
5.3331247044
 40
0.0425
100
AcDbArc
 50
90.0
 51
167.0
  0
ARC
  5
311
100
AcDbEntity
  8
0
100
AcDbCircle
 62
7
  6
CONTINUOUS
 10
15.6319254342
 20
5.3331247044
 40
0.0425
100
AcDbArc
 50
13.0
 51
90.0
  0
SPLINE
  5
312
100
AcDbEntity
  8
0
100
AcDbSpline
 62
7
  6
CONTINUOUS
 70
0
 71
3
 72
15
 73
11
 74
0
 42
0.0000001
 43
0.0000001
 44
0.0000000001
 40
0.0
 40
0.0
 40
0.0
 40
0.0
 40
0.1295691364
 40
0.2645766367
 40
0.4012661297
 40
0.5362716041
 40
0.6662154982
 40
0.7881001241
 40
0.899813723
 40
1.0
 40
1.0
 40
1.0
 40
1.0
 10
16.8876379185
 20
14.1831325068
 30
0.0
 10
16.8891861844
 20
14.1831325068
 30
0.0
 10
16.8923501467
 20
14.1829172667
 30
0.0
 10
16.8970726657
 20
14.1820333887
 30
0.0
 10
16.9017289638
 20
14.1806059324
 30
0.0
 10
16.9061408133
 20
14.1786906103
 30
0.0
 10
16.9101469948
 20
14.1763619405
 30
0.0
 10
16.9135990804
 20
14.1737006197
 30
0.0
 10
16.9163649196
 20
14.1708045587
 30
0.0
 10
16.9177630899
 20
14.168666986
 30
0.0
 10
16.91829049
 20
14.1675922576
 30
0.0
  0
SPLINE
  5
313
100
AcDbEntity
  8
0
100
AcDbSpline
 62
7
  6
CONTINUOUS
 70
0
 71
3
 72
15
 73
11
 74
0
 42
0.0000001
 43
0.0000001
 44
0.0000000001
 40
0.0
 40
0.0
 40
0.0
 40
0.0
 40
0.0996455626
 40
0.2028715647
 40
0.3125938495
 40
0.4308560286
 40
0.5588132456
 40
0.6968297244
 40
0.8443978302
 40
1.0
 40
1.0
 40
1.0
 40
1.0
 10
14.9601768583
 20
14.1749734521
 30
0.0
 10
14.9603669735
 20
14.1755886899
 30
0.0
 10
14.960905618
 20
14.1767996278
 30
0.0
 10
14.9621366083
 20
14.1784205669
 30
0.0
 10
14.9637599875
 20
14.1798357355
 30
0.0
 10
14.9657441367
 20
14.1810197998
 30
0.0
 10
14.9680516706
 20
14.1819584336
 30
0.0
 10
14.970643292
 20
14.1826371488
 30
0.0
 10
14.9734701797
 20
14.1830448183
 30
0.0
 10
14.975430804
 20
14.1831325068
 30
0.0
 10
14.976436356
 20
14.1831325068
 30
0.0
  0
SPLINE
  5
314
100
AcDbEntity
  8
0
100
AcDbSpline
 62
7
  6
CONTINUOUS
 70
0
 71
3
 72
11
 73
7
 74
0
 42
0.0000001
 43
0.0000001
 44
0.0000000001
 40
0.0
 40
0.0
 40
0.0
 40
0.0
 40
0.233692913
 40
0.4747268894
 40
0.7289542813
 40
1.0
 40
1.0
 40
1.0
 40
1.0
 10
13.9919115646
 20
11.0416658135
 30
0.0
 10
13.9917367103
 20
11.0410999618
 30
0.0
 10
13.9915064007
 20
11.039907816
 30
0.0
 10
13.9915487062
 20
11.0380485391
 30
0.0
 10
13.9919665074
 20
11.0361413598
 30
0.0
 10
13.9924679685
 20
11.034901285
 30
0.0
 10
13.9927705842
 20
11.0342846191
 30
0.0
  0
SPLINE
  5
315
100
AcDbEntity
  8
0
100
AcDbSpline
 62
7
  6
CONTINUOUS
 70
0
 71
3
 72
10
 73
6
 74
0
 42
0.0000001
 43
0.0000001
 44
0.0000000001
 40
0.0
 40
0.0
 40
0.0
 40
0.0
 40
0.519883476
 40
0.7641608583
 40
1.0
 40
1.0
 40
1.0
 40
1.0
 10
16.9447258928
 20
14.1137225705
 30
0.0
 10
16.9462505167
 20
14.1106157138
 30
0.0
 10
16.9480935102
 20
14.1058221072
 30
0.0
 10
16.9493903046
 20
14.0992811134
 30
0.0
 10
16.9496296368
 20
14.0960836439
 30
0.0
 10
16.9496442115
 20
14.0945137661
 30
0.0
  0
SPLINE
  5
316
100
AcDbEntity
  8
0
100
AcDbSpline
 62
7
  6
CONTINUOUS
 70
0
 71
3
 72
15
 73
11
 74
0
 42
0.0000001
 43
0.0000001
 44
0.0000000001
 40
0.0
 40
0.0
 40
0.0
 40
0.0
 40
0.1555721592
 40
0.3031138598
 40
0.441107997
 40
0.5690451773
 40
0.6872780939
 40
0.7969641536
 40
0.9002174468
 40
1.0
 40
1.0
 40
1.0
 40
1.0
 10
15.9657885774
 20
10.838477479
 30
0.0
 10
15.9667939349
 20
10.838477479
 30
0.0
 10
15.9687541922
 20
10.8385650941
 30
0.0
 10
15.9715805963
 20
10.8389725592
 30
0.0
 10
15.9741717766
 20
10.8396512285
 30
0.0
 10
15.9764788549
 20
10.8405896914
 30
0.0
 10
15.9784629167
 20
10.841772684
 30
0.0
 10
15.980087128
 20
10.8431865424
 30
0.0
 10
15.9813186066
 20
10.844808392
 30
0.0
 10
15.9818564857
 20
10.8460208208
 30
0.0
 10
15.9820467378
 20
10.8466369426
 30
0.0
  0
SPLINE
  5
317
100
AcDbEntity
  8
0
100
AcDbSpline
 62
7
  6
CONTINUOUS
 70
0
 71
3
 72
15
 73
11
 74
0
 42
0.0000001
 43
0.0000001
 44
0.0000000001
 40
0.0
 40
0.0
 40
0.0
 40
0.0
 40
0.1121026707
 40
0.231770445
 40
0.3571201819
 40
0.4862728132
 40
0.617260501
 40
0.7480187345
 40
0.8764059329
 40
1.0
 40
1.0
 40
1.0
 40
1.0
 10
14.142014584
 20
10.8492155272
 30
0.0
 10
14.1427936025
 20
10.8484142108
 30
0.0
 10
14.1445192046
 20
10.8468672699
 30
0.0
 10
14.1474252531
 20
10.8447997839
 30
0.0
 10
14.1506761749
 20
10.84295809
 30
0.0
 10
14.154187906
 20
10.8413839379
 30
0.0
 10
14.1578785692
 20
10.8401167818
 30
0.0
 10
14.1616600048
 20
10.8391842517
 30
0.0
 10
14.1654380677
 20
10.8386144777
 30
0.0
 10
14.1679514421
 20
10.838477479
 30
0.0
 10
14.1691835791
 20
10.838477479
 30
0.0
  0
SPLINE
  5
318
100
AcDbEntity
  8
0
100
AcDbSpline
 62
7
  6
CONTINUOUS
 70
0
 71
3
 72
9
 73
5
 74
0
 42
0.0000001
 43
0.0000001
 44
0.0000000001
 40
0.0
 40
0.0
 40
0.0
 40
0.0
 40
0.4779587953
 40
1.0
 40
1.0
 40
1.0
 40
1.0
 10
14.019205987
 20
10.980414932
 30
0.0
 10
14.0208766824
 20
10.9770104125
 30
0.0
 10
14.0250712342
 20
10.9702218759
 30
0.0
 10
14.0302529783
 20
10.9641760853
 30
0.0
 10
14.0331402924
 20
10.9612061276
 30
0.0
  0
SPLINE
  5
319
100
AcDbEntity
  8
0
100
AcDbSpline
 62
7
  6
CONTINUOUS
 70
0
 71
3
 72
10
 73
6
 74
0
 42
0.0000001
 43
0.0000001
 44
0.0000000001
 40
0.0
 40
0.0
 40
0.0
 40
0.0
 40
0.2358391417
 40
0.480116524
 40
1.0
 40
1.0
 40
1.0
 40
1.0
 10
15.9813789179
 20
10.9612061276
 30
0.0
 10
15.9813643432
 20
10.9627760054
 30
0.0
 10
15.981125011
 20
10.9659734749
 30
0.0
 10
15.9798282166
 20
10.9725144687
 30
0.0
 10
15.9779852231
 20
10.9773080753
 30
0.0
 10
15.9764605992
 20
10.980414932
 30
0.0
  0
SPLINE
  5
31A
100
AcDbEntity
  8
0
100
AcDbSpline
 62
7
  6
CONTINUOUS
 70
0
 71
3
 72
15
 73
11
 74
0
 42
0.0000001
 43
0.0000001
 44
0.0000000001
 40
0.0
 40
0.0
 40
0.0
 40
0.0
 40
0.100186277
 40
0.2118998759
 40
0.3337845018
 40
0.4637283959
 40
0.5987338703
 40
0.7354233633
 40
0.8704308636
 40
1.0
 40
1.0
 40
1.0
 40
1.0
 10
15.9500251964
 20
11.0342846191
 30
0.0
 10
15.9494977963
 20
11.0353593475
 30
0.0
 10
15.948099626
 20
11.0374969202
 30
0.0
 10
15.9453337867
 20
11.0403929811
 30
0.0
 10
15.9418817011
 20
11.043054302
 30
0.0
 10
15.9378755197
 20
11.0453829717
 30
0.0
 10
15.9334636702
 20
11.0472982939
 30
0.0
 10
15.9288073721
 20
11.0487257502
 30
0.0
 10
15.9240848531
 20
11.0496096282
 30
0.0
 10
15.9209208908
 20
11.0498248683
 30
0.0
 10
15.9193726249
 20
11.0498248683
 30
0.0
  0
SPLINE
  5
31B
100
AcDbEntity
  8
0
100
AcDbSpline
 62
7
  6
CONTINUOUS
 70
0
 71
3
 72
15
 73
11
 74
0
 42
0.0000001
 43
0.0000001
 44
0.0000000001
 40
0.0
 40
0.0
 40
0.0
 40
0.0
 40
0.1556021698
 40
0.3031702756
 40
0.4411867544
 40
0.5691439714
 40
0.6874061505
 40
0.7971284353
 40
0.9003544374
 40
1.0
 40
1.0
 40
1.0
 40
1.0
 10
14.0081710623
 20
11.0498248683
 30
0.0
 10
14.0071655104
 20
11.0498248683
 30
0.0
 10
14.0052048861
 20
11.0497371798
 30
0.0
 10
14.0023779983
 20
11.0493295103
 30
0.0
 10
13.999786377
 20
11.0486507951
 30
0.0
 10
13.9974788431
 20
11.0477121613
 30
0.0
 10
13.9954946939
 20
11.0465280969
 30
0.0
 10
13.9938713146
 20
11.0451129283
 30
0.0
 10
13.9926403244
 20
11.0434919893
 30
0.0
 10
13.9921016799
 20
11.0422810514
 30
0.0
 10
13.9919115646
 20
11.0416658135
 30
0.0
  0
ENDSEC
  0
SECTION
  2
OBJECTS
  0
DICTIONARY
  5
C
100
AcDbDictionary
280
0
281
1
  3
ACAD_GROUP
350
D
  3
ACAD_MLINESTYLE
350
17
  3
ACAD_LAYOUT
350
1A
  3
ACAD_PLOTSETTINGS
350
19
  3
ACAD_PLOTSTYLENAME
350
E
  0
DICTIONARY
  5
D
102
{ACAD_REACTORS
330
C
102
}
100
AcDbDictionary
280
0
281
1
  0
ACDBDICTIONARYWDFLT
  5
E
102
{ACAD_REACTORS
330
C
102
}
100
AcDbDictionary
281
1
  3
Normal
350
F
100
AcDbDictionaryWithDefault
340
F
  0
DICTIONARY
  5
17
102
{ACAD_REACTORS
330
C
102
}
100
AcDbDictionary
280
0
281
1
  3
Standard
350
18
  0
DICTIONARY
  5
19
102
{ACAD_REACTORS
330
C
102
}
100
AcDbDictionary
281
1
  0
DICTIONARY
  5
1A
102
{ACAD_REACTORS
330
C
102
}
100
AcDbDictionary
281
1
  3
Model
350
31C
  3
Layout1
350
31D
  0
ACDBPLACEHOLDER
  5
F
102
{ACAD_REACTORS
330
E
102
}
  0
MLINESTYLE
  5
18
102
{ACAD_REACTORS
330
17
102
}
100
AcDbMlineStyle
  2
STANDARD
 70
0
  3

 62
256
 51
90.0
 52
90.0
 71
2
 49
0.5
 62
256
  6
BYLAYER
 49
-0.5
 62
256
  6
BYLAYER
  0
LAYOUT
  5
31C
102
{ACAD_REACTORS
330
1A
102
}
100
AcDbPlotSettings
  1

  2
none_device
  4
ANSI_C_(22.00_x_17.00_Inches)
  6

 40
0.0
 41
0.0
 42
0.0
 43
0.0
 44
558.8
 45
431.8
 46
0.0
 47
0.0
 48
0.0
 49
0.0
140
0.0
141
0.0
142
1.0
143
1.0
 70
1024
 72
0
 73
0
 74
0
  7

 75
0
147
1.0
148
0.0
149
0.0
100
AcDbLayout
  1
Model
 70
0
 71
0
 10
0.0
 20
0.0
 11
22.0
 21
17.0
 12
0.0
 22
0.0
 32
0.0
 14
0.0
 24
0.0
 34
0.0
 15
0.0
 25
0.0
 35
0.0
146
0.0
 13
0.0
 23
0.0
 33
0.0
 16
1.0
 26
0.0
 36
0.0
 17
0.0
 27
1.0
 37
0.0
 76
0
330
216
345
0
346
0
  0
LAYOUT
  5
31D
102
{ACAD_REACTORS
330
1A
102
}
100
AcDbPlotSettings
  1

  2
none_device
  4
ANSI_C_(22.00_x_17.00_Inches)
  6

 40
0.0
 41
0.0
 42
0.0
 43
0.0
 44
558.8
 45
431.8
 46
0.0
 47
0.0
 48
0.0
 49
0.0
140
0.0
141
0.0
142
1.0
143
1.0
 70
0
 72
0
 73
0
 74
0
  7

 75
0
147
1.0
148
0.0
149
0.0
100
AcDbLayout
  1
Layout1
 70
0
 71
1
 10
0.0
 20
0.0
 11
22.0
 21
17.0
 12
0.0
 22
0.0
 32
0.0
 14
0.0
 24
0.0
 34
0.0
 15
0.0
 25
0.0
 35
0.0
146
0.0
 13
0.0
 23
0.0
 33
0.0
 16
1.0
 26
0.0
 36
0.0
 17
0.0
 27
1.0
 37
0.0
 76
0
330
217
345
0
346
0
  0
ENDSEC
  0
EOF