999
DXF file: _cgs_temp_output.dxf
999
Pro/ENGINEER 2016360 by Parametric Technology Corporation
  0
SECTION
  2
HEADER
  9
$ACADVER
  1
AC1021
  9
$DWGCODEPAGE
  3
ANSI_1252
  9
$EXTMAX
 10
22.0
 20
17.0
 30
0.0
  9
$EXTMIN
 10
0.0
 20
0.0
 30
0.0
  9
$LIMMIN
 10
0.0
 20
0.0
  9
$LIMMAX
 10
22.0
 20
17.0
  9
$VIEWCTR
 10
11.0
 20
8.5
  9
$VIEWSIZE
 40
17.0
  9
$CLAYER
  8
0
  9
$LTSCALE
 40
1.21
  9
$CELTYPE
  6
BYLAYER
  9
$DIMSCALE
 40
1.0
  9
$DIMASZ
 40
0.1875
  9
$DIMEXO
 40
0.0625
  9
$DIMDLI
 40
0.836
  9
$DIMEXE
 40
0.125
  9
$DIMCEN
 40
0.198
  9
$DIMLFAC
 40
1.0
  9
$DIMBLK
  1
_CLOSED
  9
$DIMALT
 70
0
  9
$DIMALTF
 40
25.4
  9
$DIMTXT
 40
0.15625
  9
$DIMTOL
 70
0
  9
$DIMLIM
 70
0
  9
$DIMTFAC
 40
1.0
  9
$DIMGAP
 40
0.09
  9
$DIMDSEP
 70
46
  9
$AUNITS
 70
0
  9
$PDMODE
 70
3
  9
$PDSIZE
 40
0.3125
  9
$HANDSEED
  5
2F9
  9
$TILEMODE
 70
1
  9
$MEASUREMENT
 70
0
  9
$INSUNITS
 70
1
  0
ENDSEC
  0
SECTION
  2
CLASSES
  0
CLASS
  1
ACDBDICTIONARYWDFLT
  2
AcDbDictionaryWithDefault
  3
AutoCAD 2000
 90
0
 91
1
280
0
281
0
  0
CLASS
  1
ACDBPLACEHOLDER
  2
AcDbPlaceHolder
  3
AutoCAD 2000
 90
0
 91
1
280
0
281
0
  0
CLASS
  1
LAYOUT
  2
AcDbLayout
  3
AutoCAD 2000
 90
0
 91
0
280
0
281
0
  0
ENDSEC
  0
SECTION
  2
TABLES
  0
TABLE
  2
VPORT
  5
8
100
AcDbSymbolTable
 70
2
  0
VPORT
  5
1F4
100
AcDbSymbolTableRecord
100
AcDbViewportTableRecord
  2
*ACTIVE
 70
0
 10
0.0
 20
0.0
 11
1.0
 21
1.0
 12
11.0
 22
8.5
 13
0.0
 23
0.0
 14
1.0
 24
1.0
 15
0.0
 25
0.0
 16
0.0
 26
0.0
 36
1.0
 17
0.0
 27
0.0
 37
0.0
 40
17.0
 41
1.2941176471
 42
50.0
 43
0.0
 44
0.0
 50
0.0
 51
0.0
 71
0
 72
100
 73
1
 74
1
 75
0
 76
0
 77
0
 78
0
  0
ENDTAB
  0
TABLE
  2
LTYPE
  5
5
100
AcDbSymbolTable
 70
6
  0
LTYPE
  5
14
100
AcDbSymbolTableRecord
100
AcDbLinetypeTableRecord
  2
BYBLOCK
 70
0
  3

 72
65
 73
0
 40
0.0
  0
LTYPE
  5
15
100
AcDbSymbolTableRecord
100
AcDbLinetypeTableRecord
  2
BYLAYER
 70
0
  3

 72
65
 73
0
 40
0.0
  0
LTYPE
  5
16
100
AcDbSymbolTableRecord
100
AcDbLinetypeTableRecord
  2
CONTINUOUS
 70
64
  3
Solid line
 72
65
 73
0
 40
0.0
  0
LTYPE
  5
1F5
100
AcDbSymbolTableRecord
100
AcDbLinetypeTableRecord
  2
CENTER
 70
64
  3
____ _ ____ _ ____ _ ____ _ ____ _ ____ _ ____
 72
65
 73
4
 40
0.6
 49
0.375
 74
0
 49
-0.075
 74
0
 49
0.075
 74
0
 49
-0.075
 74
0
  0
LTYPE
  5
1F6
100
AcDbSymbolTableRecord
100
AcDbLinetypeTableRecord
  2
HIDDEN
 70
64
  3
- - - - - - - - - - - - - - - - - - - -
 72
65
 73
2
 40
0.2
 49
0.1
 74
0
 49
-0.1
 74
0
  0
LTYPE
  5
1F7
100
AcDbSymbolTableRecord
100
AcDbLinetypeTableRecord
  2
PHANTOM
 70
64
  3
_____ _ _ _____ _ _ _____ _ _ _____
 72
65
 73
6
 40
0.8
 49
0.45
 74
0
 49
-0.05
 74
0
 49
0.1
 74
0
 49
-0.05
 74
0
 49
0.1
 74
0
 49
-0.05
 74
0
  0
LTYPE
  5
1F8
100
AcDbSymbolTableRecord
100
AcDbLinetypeTableRecord
  2
DOT
 70
64
  3
. . . . . . . . . . . . . . . . . . . .
 72
65
 73
2
 40
0.2
 49
0.1
 74
0
 49
-0.1
 74
0
  0
LTYPE
  5
1F9
100
AcDbSymbolTableRecord
100
AcDbLinetypeTableRecord
  2
DASHED
 70
64
  3
- - - - - - - - - - - - - - - - - - - -
 72
65
 73
2
 40
0.2
 49
0.1
 74
0
 49
-0.1
 74
0
  0
ENDTAB
  0
TABLE
  2
LAYER
  5
2
100
AcDbSymbolTable
 70
36
  0
LAYER
  5
10
100
AcDbSymbolTableRecord
100
AcDbLayerTableRecord
  2
0
 70
0
 62
7
  6
CONTINUOUS
370
-3
390
F
  0
LAYER
  5
1FA
100
AcDbSymbolTableRecord
100
AcDbLayerTableRecord
  2
DEFAULT_1
 70
0
 62
7
  6
CENTER
370
-3
390
F
  0
LAYER
  5
1FB
100
AcDbSymbolTableRecord
100
AcDbLayerTableRecord
  2
DEFAULT_2
 70
0
 62
8
  6
HIDDEN
370
-3
390
F
  0
LAYER
  5
1FC
100
AcDbSymbolTableRecord
100
AcDbLayerTableRecord
  2
DEFAULT_3
 70
0
 62
7
  6
PHANTOM
370
-3
390
F
  0
LAYER
  5
1FD
100
AcDbSymbolTableRecord
100
AcDbLayerTableRecord
  2
01_ALL_DTM_PLN
 70
0
 62
7
  6
CONTINUOUS
370
-3
390
F
  0
LAYER
  5
1FE
100
AcDbSymbolTableRecord
100
AcDbLayerTableRecord
  2
01__ASM_ALL_DTM_PLN
 70
0
 62
7
  6
CONTINUOUS
370
-3
390
F
  0
LAYER
  5
1FF
100
AcDbSymbolTableRecord
100
AcDbLayerTableRecord
  2
01__ASM_DEF_DTM_PLN
 70
0
 62
7
  6
CONTINUOUS
370
-3
390
F
  0
LAYER
  5
200
100
AcDbSymbolTableRecord
100
AcDbLayerTableRecord
  2
01___PRT_ALL_DTM_PLN
 70
0
 62
7
  6
CONTINUOUS
370
-3
390
F
  0
LAYER
  5
201
100
AcDbSymbolTableRecord
100
AcDbLayerTableRecord
  2
01___PRT_DEF_DTM_PLN
 70
0
 62
7
  6
CONTINUOUS
370
-3
390
F
  0
LAYER
  5
202
100
AcDbSymbolTableRecord
100
AcDbLayerTableRecord
  2
02_ALL_AXES
 70
0
 62
7
  6
CONTINUOUS
370
-3
390
F
  0
LAYER
  5
203
100
AcDbSymbolTableRecord
100
AcDbLayerTableRecord
  2
02__ASM_ALL_AXES
 70
0
 62
7
  6
CONTINUOUS
370
-3
390
F
  0
LAYER
  5
204
100
AcDbSymbolTableRecord
100
AcDbLayerTableRecord
  2
02___PRT_ALL_AXES
 70
0
 62
7
  6
CONTINUOUS
370
-3
390
F
  0
LAYER
  5
205
100
AcDbSymbolTableRecord
100
AcDbLayerTableRecord
  2
03_ALL_CURVES
 70
0
 62
7
  6
CONTINUOUS
370
-3
390
F
  0
LAYER
  5
206
100
AcDbSymbolTableRecord
100
AcDbLayerTableRecord
  2
03__ASM_ALL_CURVES
 70
0
 62
7
  6
CONTINUOUS
370
-3
390
F
  0
LAYER
  5
207
100
AcDbSymbolTableRecord
100
AcDbLayerTableRecord
  2
03___PRT_ALL_CURVES
 70
0
 62
7
  6
CONTINUOUS
370
-3
390
F
  0
LAYER
  5
208
100
AcDbSymbolTableRecord
100
AcDbLayerTableRecord
  2
04_ALL_DTM_PNT
 70
0
 62
7
  6
CONTINUOUS
370
-3
390
F
  0
LAYER
  5
209
100
AcDbSymbolTableRecord
100
AcDbLayerTableRecord
  2
04__ASM_ALL_DTM_PNT
 70
0
 62
7
  6
CONTINUOUS
370
-3
390
F
  0
LAYER
  5
20A
100
AcDbSymbolTableRecord
100
AcDbLayerTableRecord
  2
04___PRT_ALL_DTM_PNT
 70
0
 62
7
  6
CONTINUOUS
370
-3
390
F
  0
LAYER
  5
20B
100
AcDbSymbolTableRecord
100
AcDbLayerTableRecord
  2
05_ALL_DTM_CSYS
 70
0
 62
7
  6
CONTINUOUS
370
-3
390
F
  0
LAYER
  5
20C
100
AcDbSymbolTableRecord
100
AcDbLayerTableRecord
  2
05__ASM_ALL_DTM_CSYS
 70
0
 62
7
  6
CONTINUOUS
370
-3
390
F
  0
LAYER
  5
20D
100
AcDbSymbolTableRecord
100
AcDbLayerTableRecord
  2
05__ASM_DEF_DTM_CSYS
 70
0
 62
7
  6
CONTINUOUS
370
-3
390
F
  0
LAYER
  5
20E
100
AcDbSymbolTableRecord
100
AcDbLayerTableRecord
  2
05___PRT_ALL_DTM_CSYS
 70
0
 62
7
  6
CONTINUOUS
370
-3
390
F
  0
LAYER
  5
20F
100
AcDbSymbolTableRecord
100
AcDbLayerTableRecord
  2
05___PRT_DEF_DTM_CSYS
 70
0
 62
7
  6
CONTINUOUS
370
-3
390
F
  0
LAYER
  5
210
100
AcDbSymbolTableRecord
100
AcDbLayerTableRecord
  2
06_ALL_SURFS
 70
0
 62
7
  6
CONTINUOUS
370
-3
390
F
  0
LAYER
  5
211
100
AcDbSymbolTableRecord
100
AcDbLayerTableRecord
  2
06__ASM_ALL_SURFS
 70
0
 62
7
  6
CONTINUOUS
370
-3
390
F
  0
LAYER
  5
212
100
AcDbSymbolTableRecord
100
AcDbLayerTableRecord
  2
06___PRT_ALL_SURFS
 70
0
 62
7
  6
CONTINUOUS
370
-3
390
F
  0
LAYER
  5
213
100
AcDbSymbolTableRecord
100
AcDbLayerTableRecord
  2
07__ASM_ALL_SKELETONS
 70
0
 62
7
  6
CONTINUOUS
370
-3
390
F
  0
ENDTAB
  0
TABLE
  2
STYLE
  5
3
100
AcDbSymbolTable
 70
1
  0
STYLE
  5
11
100
AcDbSymbolTableRecord
100
AcDbTextStyleTableRecord
  2
STANDARD
 70
0
 40
0.0
 41
0.8
 50
0.0
 71
0
 42
0.2
  3
txt
  4

  0
STYLE
  5
214
100
AcDbSymbolTableRecord
100
AcDbTextStyleTableRecord
  2
TEXTSTYLE_1
 70
0
 40
0.0
 41
0.8
 50
0.0
 71
0
 42
0.2
  3
gdt
  4

  0
ENDTAB
  0
TABLE
  2
VIEW
  5
6
100
AcDbSymbolTable
 70
0
  0
ENDTAB
  0
TABLE
  2
UCS
  5
7
100
AcDbSymbolTable
 70
0
  0
ENDTAB
  0
TABLE
  2
APPID
  5
9
100
AcDbSymbolTable
 70
1
  0
APPID
  5
215
100
AcDbSymbolTableRecord
100
AcDbRegAppTableRecord
  2
ACAD
 70
0
  0
ENDTAB
  0
TABLE
  2
BLOCK_RECORD
  5
1
100
AcDbSymbolTable
 70
0
  0
BLOCK_RECORD
  5
216
100
AcDbSymbolTableRecord
100
AcDbBlockTableRecord
  2
*Model_Space
  0
BLOCK_RECORD
  5
217
100
AcDbSymbolTableRecord
100
AcDbBlockTableRecord
  2
*Paper_Space
  0
ENDTAB
  0
TABLE
  2
DIMSTYLE
  5
A
100
AcDbSymbolTable
 70
1
100
AcDbDimStyleTable
 71
0
  0
DIMSTYLE
105
218
100
AcDbSymbolTableRecord
100
AcDbDimStyleTableRecord
  2
STANDARD
 70
0
  3

  4

 40
1.0
 41
0.1875
 42
0.0625
 43
0.38
 44
0.125
 45
0.0
 46
0.0
 47
0.0001
 48
0.0001
140
0.15625
141
0.09
142
0.0
143
25.4
144
1.0
145
0.0
146
1.0
147
0.09
 71
0.0
 72
0.0
 73
1
 74
1
 75
0
 76
0
 77
0
 78
4
 79
1
170
0
171
3
172
0
173
0
174
0
175
0
176
0
177
0
178
0
270
2
179
4
271
4
272
4
273
2
274
2
275
0
280
0
281
0
282
0
283
1
284
4
285
0
286
0
287
3
288
0
340
11
278
46
  0
ENDTAB
  0
ENDSEC
  0
SECTION
  2
BLOCKS
  0
BLOCK
  5
20
100
AcDbEntity
  8
0
100
AcDbBlockBegin
  2
*Model_Space
 70
0
 10
0.0
 20
0.0
 30
0.0
  3
*Model_Space
  1

  0
ENDBLK
  5
21
100
AcDbEntity
  8
0
100
AcDbBlockEnd
  0
BLOCK
  5
1C
100
AcDbEntity
  8
0
100
AcDbBlockBegin
  2
*Paper_Space
 70
0
 10
0.0
 20
0.0
 30
0.0
  3
*Paper_Space
  1

  0
ENDBLK
  5
1D
100
AcDbEntity
  8
0
100
AcDbBlockEnd
  0
ENDSEC
  0
SECTION
  2
ENTITIES
  0
MTEXT
  5
219
100
AcDbEntity
  8
0
100
AcDbMText
 62
7
  6
CONTINUOUS
  7
STANDARD
 71
1
 72
1
 10
15.9560215477
 20
0.9479130325
 30
0.0
 11
1.0
 21
0.0
 31
0.0
 44
0.9
  1
SCALE: 1:1.000
 40
0.3
 41
3.36
  0
LINE
  5
21A
100
AcDbEntity
  8
0
100
AcDbLine
 62
7
  6
CONTINUOUS
 10
0.0
 20
0.0
 11
0.0
 21
17.0
  0
LINE
  5
21B
100
AcDbEntity
  8
0
100
AcDbLine
 62
7
  6
CONTINUOUS
 10
0.0
 20
0.0
 11
22.0
 21
0.0
  0
LINE
  5
21C
100
AcDbEntity
  8
0
100
AcDbLine
 62
7
  6
CONTINUOUS
 10
0.0
 20
17.0
 11
22.0
 21
17.0
  0
LINE
  5
21D
100
AcDbEntity
  8
0
100
AcDbLine
 62
7
  6
CONTINUOUS
 10
22.0
 20
0.0
 11
22.0
 21
17.0
  0
LINE
  5
21E
100
AcDbEntity
  8
0
100
AcDbLine
 62
7
  6
CONTINUOUS
 10
5.1303672762
 20
5.8461198968
 11
5.1303672762
 21
5.7114583408
  0
LINE
  5
21F
100
AcDbEntity
  8
0
100
AcDbLine
 62
7
  6
CONTINUOUS
 10
5.2958246465
 20
5.1863944719
 11
5.1352616245
 21
5.6805566413
  0
LINE
  5
220
100
AcDbEntity
  8
0
100
AcDbLine
 62
7
  6
CONTINUOUS
 10
5.3196010594
 20
5.1691198968
 11
6.9411334929
 21
5.1691198968
  0
LINE
  5
221
100
AcDbEntity
  8
0
100
AcDbLine
 62
7
  6
CONTINUOUS
 10
5.2435698505
 20
5.4031198968
 11
7.0171647018
 21
5.4031198968
  0
LINE
  5
222
100
AcDbEntity
  8
0
100
AcDbLine
 62
7
  6
CONTINUOUS
 10
7.1053672762
 20
5.8711198968
 11
5.1553672762
 21
5.8711198968
  0
LINE
  5
223
100
AcDbEntity
  8
0
100
AcDbLine
 62
7
  6
CONTINUOUS
 10
6.9649099058
 20
5.1863944719
 11
7.1254729278
 21
5.6805566413
  0
LINE
  5
224
100
AcDbEntity
  8
0
100
AcDbLine
 62
7
  6
CONTINUOUS
 10
7.1303672762
 20
5.7114583408
 11
7.1303672762
 21
5.8461198968
  0
LINE
  5
225
100
AcDbEntity
  8
0
100
AcDbLine
 62
7
  6
CONTINUOUS
 10
7.0708720839
 20
10.6000477814
 11
5.0708720839
 21
10.6000477814
  0
LINE
  5
226
100
AcDbEntity
  8
0
100
AcDbLine
 62
7
  6
CONTINUOUS
 10
5.0708720839
 20
10.6000477814
 11
5.0708720839
 21
14.6000477814
  0
LINE
  5
227
100
AcDbEntity
  8
0
100
AcDbLine
 62
7
  6
CONTINUOUS
 10
7.0708720839
 20
10.6000477814
 11
7.0708720839
 21
14.6000477814
  0
LINE
  5
228
100
AcDbEntity
  8
0
100
AcDbLine
 62
7
  6
CONTINUOUS
 10
5.0708720839
 20
14.6000477814
 11
7.0708720839
 21
14.6000477814
  0
LINE
  5
229
100
AcDbEntity
  8
0
100
AcDbLine
 62
7
  6
CONTINUOUS
 10
13.5603552569
 20
5.3436247044
 11
13.5603552569
 21
5.8116247044
  0
LINE
  5
22A
100
AcDbEntity
  8
0
100
AcDbLine
 62
7
  6
CONTINUOUS
 10
13.6688113262
 20
5.2982843411
 11
13.7018991876
 21
5.1549650678
  0
LINE
  5
22B
100
AcDbEntity
  8
0
100
AcDbLine
 62
7
  6
CONTINUOUS
 10
13.9188113262
 20
5.1549650678
 11
13.9518991876
 21
5.2982843411
  0
LINE
  5
22C
100
AcDbEntity
  8
0
100
AcDbLine
 62
7
  6
CONTINUOUS
 10
14.1688113262
 20
5.2982843411
 11
14.2018991876
 21
5.1549650678
  0
LINE
  5
22D
100
AcDbEntity
  8
0
100
AcDbLine
 62
7
  6
CONTINUOUS
 10
14.4188113262
 20
5.1549650678
 11
14.4518991876
 21
5.2982843411
  0
LINE
  5
22E
100
AcDbEntity
  8
0
100
AcDbLine
 62
7
  6
CONTINUOUS
 10
14.6688113262
 20
5.2982843411
 11
14.7018991876
 21
5.1549650678
  0
LINE
  5
22F
100
AcDbEntity
  8
0
100
AcDbLine
 62
7
  6
CONTINUOUS
 10
14.9188113262
 20
5.1549650678
 11
14.9518991876
 21
5.2982843411
  0
LINE
  5
230
100
AcDbEntity
  8
0
100
AcDbLine
 62
7
  6
CONTINUOUS
 10
15.1688113262
 20
5.2982843411
 11
15.2018991876
 21
5.1549650678
  0
LINE
  5
231
100
AcDbEntity
  8
0
100
AcDbLine
 62
7
  6
CONTINUOUS
 10
13.7588998364
 20
5.1096247044
 11
13.8618106774
 21
5.1096247044
  0
LINE
  5
232
100
AcDbEntity
  8
0
100
AcDbLine
 62
7
  6
CONTINUOUS
 10
14.2588998364
 20
5.1096247044
 11
14.3618106774
 21
5.1096247044
  0
LINE
  5
233
100
AcDbEntity
  8
0
100
AcDbLine
 62
7
  6
CONTINUOUS
 10
14.7588998364
 20
5.1096247044
 11
14.8618106774
 21
5.1096247044
  0
LINE
  5
234
100
AcDbEntity
  8
0
100
AcDbLine
 62
7
  6
CONTINUOUS
 10
15.2588998364
 20
5.1096247044
 11
15.3618106774
 21
5.1096247044
  0
LINE
  5
235
100
AcDbEntity
  8
0
100
AcDbLine
 62
7
  6
CONTINUOUS
 10
15.7588998364
 20
5.1096247044
 11
15.8618106774
 21
5.1096247044
  0
LINE
  5
236
100
AcDbEntity
  8
0
100
AcDbLine
 62
7
  6
CONTINUOUS
 10
16.2588998364
 20
5.1096247044
 11
16.3618106774
 21
5.1096247044
  0
LINE
  5
237
100
AcDbEntity
  8
0
100
AcDbLine
 62
7
  6
CONTINUOUS
 10
16.7588998364
 20
5.1096247044
 11
16.8618106774
 21
5.1096247044
  0
LINE
  5
238
100
AcDbEntity
  8
0
100
AcDbLine
 62
7
  6
CONTINUOUS
 10
17.2588998364
 20
5.1096247044
 11
17.3618106774
 21
5.1096247044
  0
LINE
  5
239
100
AcDbEntity
  8
0
100
AcDbLine
 62
7
  6
CONTINUOUS
 10
15.4188113262
 20
5.1549650678
 11
15.4518991876
 21
5.2982843411
  0
LINE
  5
23A
100
AcDbEntity
  8
0
100
AcDbLine
 62
7
  6
CONTINUOUS
 10
13.5603552569
 20
5.3436247044
 11
13.6118106774
 21
5.3436247044
  0
LINE
  5
23B
100
AcDbEntity
  8
0
100
AcDbLine
 62
7
  6
CONTINUOUS
 10
14.0088998364
 20
5.3436247044
 11
14.1118106774
 21
5.3436247044
  0
LINE
  5
23C
100
AcDbEntity
  8
0
100
AcDbLine
 62
7
  6
CONTINUOUS
 10
14.5088998364
 20
5.3436247044
 11
14.6118106774
 21
5.3436247044
  0
LINE
  5
23D
100
AcDbEntity
  8
0
100
AcDbLine
 62
7
  6
CONTINUOUS
 10
15.0088998364
 20
5.3436247044
 11
15.1118106774
 21
5.3436247044
  0
LINE
  5
23E
100
AcDbEntity
  8
0
100
AcDbLine
 62
7
  6
CONTINUOUS
 10
15.5088998364
 20
5.3436247044
 11
15.6118106774
 21
5.3436247044
  0
LINE
  5
23F
100
AcDbEntity
  8
0
100
AcDbLine
 62
7
  6
CONTINUOUS
 10
16.0088998364
 20
5.3436247044
 11
16.1118106774
 21
5.3436247044
  0
LINE
  5
240
100
AcDbEntity
  8
0
100
AcDbLine
 62
7
  6
CONTINUOUS
 10
16.5088998364
 20
5.3436247044
 11
16.6118106774
 21
5.3436247044
  0
LINE
  5
241
100
AcDbEntity
  8
0
100
AcDbLine
 62
7
  6
CONTINUOUS
 10
17.0088998364
 20
5.3436247044
 11
17.1118106774
 21
5.3436247044
  0
LINE
  5
242
100
AcDbEntity
  8
0
100
AcDbLine
 62
7
  6
CONTINUOUS
 10
17.5088998364
 20
5.3436247044
 11
17.5603552569
 21
5.3436247044
  0
LINE
  5
243
100
AcDbEntity
  8
0
100
AcDbLine
 62
7
  6
CONTINUOUS
 10
15.6688113262
 20
5.2982843411
 11
15.7018991876
 21
5.1549650678
  0
LINE
  5
244
100
AcDbEntity
  8
0
100
AcDbLine
 62
7
  6
CONTINUOUS
 10
15.9188113262
 20
5.1549650678
 11
15.9518991876
 21
5.2982843411
  0
LINE
  5
245
100
AcDbEntity
  8
0
100
AcDbLine
 62
7
  6
CONTINUOUS
 10
13.5603552569
 20
5.8116247044
 11
17.5603552569
 21
5.8116247044
  0
LINE
  5
246
100
AcDbEntity
  8
0
100
AcDbLine
 62
7
  6
CONTINUOUS
 10
16.1688113262
 20
5.2982843411
 11
16.2018991876
 21
5.1549650678
  0
LINE
  5
247
100
AcDbEntity
  8
0
100
AcDbLine
 62
7
  6
CONTINUOUS
 10
16.4188113262
 20
5.1549650678
 11
16.4518991876
 21
5.2982843411
  0
LINE
  5
248
100
AcDbEntity
  8
0
100
AcDbLine
 62
7
  6
CONTINUOUS
 10
16.6688113262
 20
5.2982843411
 11
16.7018991876
 21
5.1549650678
  0
LINE
  5
249
100
AcDbEntity
  8
0
100
AcDbLine
 62
7
  6
CONTINUOUS
 10
16.9188113262
 20
5.1549650678
 11
16.9518991876
 21
5.2982843411
  0
LINE
  5
24A
100
AcDbEntity
  8
0
100
AcDbLine
 62
7
  6
CONTINUOUS
 10
17.1688113262
 20
5.2982843411
 11
17.2018991876
 21
5.1549650678
  0
LINE
  5
24B
100
AcDbEntity
  8
0
100
AcDbLine
 62
7
  6
CONTINUOUS
 10
17.5603552569
 20
5.3436247044
 11
17.5603552569
 21
5.8116247044
  0
LINE
  5
24C
100
AcDbEntity
  8
0
100
AcDbLine
 62
7
  6
CONTINUOUS
 10
17.4188113262
 20
5.1549650678
 11
17.4518991876
 21
5.2982843411
  0
LINE
  5
24D
100
AcDbEntity
  8
0
100
AcDbLine
 62
7
  6
CONTINUOUS
 10
14.4265896274
 20
10.8000927042
 11
14.4346302169
 21
10.7957848808
  0
LINE
  5
24E
100
AcDbEntity
  8
0
100
AcDbLine
 62
7
  6
CONTINUOUS
 10
14.4265896162
 20
10.8000926874
 11
14.4196471335
 21
10.8047275758
  0
LINE
  5
24F
100
AcDbEntity
  8
0
100
AcDbLine
 62
7
  6
CONTINUOUS
 10
14.0977967675
 20
10.9771850218
 11
14.2550160771
 21
10.8154656239
  0
LWPOLYLINE
  5
250
100
AcDbEntity
  8
0
100
AcDbPolyline
 62
7
  6
CONTINUOUS
 90
5
 70
0
 10
15.9511336746
 20
10.7926604222
 10
15.9608319818
 20
10.7945442505
 10
15.9684022615
 20
10.799185773
 10
15.9735972726
 20
10.8050654751
 10
15.9770306351
 20
10.8111672511
  0
LINE
  5
251
100
AcDbEntity
  8
0
100
AcDbLine
 62
7
  6
CONTINUOUS
 10
14.4346302169
 20
10.7957848808
 11
14.4500418625
 21
10.7926604388
  0
LINE
  5
252
100
AcDbEntity
  8
0
100
AcDbLine
 62
7
  6
CONTINUOUS
 10
14.0427850497
 20
11.0801007917
 11
14.083862462
 21
10.9963938262
  0
LINE
  5
253
100
AcDbEntity
  8
0
100
AcDbLine
 62
7
  6
CONTINUOUS
 10
14.4500172535
 20
10.7926603382
 11
15.9511339699
 21
10.7926603382
  0
LINE
  5
254
100
AcDbEntity
  8
0
100
AcDbLine
 62
7
  6
CONTINUOUS
 10
14.2821850722
 20
10.8047275758
 11
15.9157741089
 21
10.8047275758
  0
LWPOLYLINE
  5
255
100
AcDbEntity
  8
0
100
AcDbPolyline
 62
7
  6
CONTINUOUS
 90
5
 70
0
 10
16.0721668364
 20
11.184323877
 10
16.0818651435
 20
11.1862077053
 10
16.0894354232
 20
11.1908492278
 10
16.0946304343
 20
11.19672893
 10
16.0980637968
 20
11.2028307059
  0
LINE
  5
256
100
AcDbEntity
  8
0
100
AcDbLine
 62
7
  6
CONTINUOUS
 10
15.8542544661
 20
11.0956410409
 11
14.0581855278
 21
11.0956410409
  0
LINE
  5
257
100
AcDbEntity
  8
0
100
AcDbLine
 62
7
  6
CONTINUOUS
 10
16.0468163449
 20
11.184323793
 11
16.0721671316
 21
11.184323793
  0
LWPOLYLINE
  5
258
100
AcDbEntity
  8
0
100
AcDbPolyline
 62
7
  6
CONTINUOUS
 90
5
 70
0
 10
16.1931999981
 20
11.5759873319
 10
16.2028983052
 20
11.5778711601
 10
16.2104685849
 20
11.5825126826
 10
16.215663596
 20
11.5883923848
 10
16.2190969585
 20
11.5944941607
  0
LINE
  5
259
100
AcDbEntity
  8
0
100
AcDbLine
 62
7
  6
CONTINUOUS
 10
14.0419260534
 20
11.087481976
 11
15.010191347
 21
14.2207896145
  0
LINE
  5
25A
100
AcDbEntity
  8
0
100
AcDbLine
 62
7
  6
CONTINUOUS
 10
16.1678495066
 20
11.5759872478
 11
16.1932002933
 21
11.5759872478
  0
LWPOLYLINE
  5
25B
100
AcDbEntity
  8
0
100
AcDbPolyline
 62
7
  6
CONTINUOUS
 90
5
 70
0
 10
16.3142331598
 20
11.9676507867
 10
16.3239314669
 20
11.9695346149
 10
16.3315017466
 20
11.9741761374
 10
16.3366967578
 20
11.9800558396
 10
16.3401301202
 20
11.9861576156
  0
LINE
  5
25C
100
AcDbEntity
  8
0
100
AcDbLine
 62
7
  6
CONTINUOUS
 10
16.2888826683
 20
11.9676507027
 11
16.314233455
 21
11.9676507027
  0
LWPOLYLINE
  5
25D
100
AcDbEntity
  8
0
100
AcDbPolyline
 62
7
  6
CONTINUOUS
 90
5
 70
0
 10
16.4352663215
 20
12.3593142415
 10
16.4449646286
 20
12.3611980697
 10
16.4525349083
 20
12.3658395922
 10
16.4577299195
 20
12.3717192944
 10
16.4611632819
 20
12.3778210704
  0
LINE
  5
25E
100
AcDbEntity
  8
0
100
AcDbLine
 62
7
  6
CONTINUOUS
 10
16.40991583
 20
12.3593141575
 11
16.4352666167
 21
12.3593141575
  0
LINE
  5
25F
100
AcDbEntity
  8
0
100
AcDbLine
 62
7
  6
CONTINUOUS
 10
15.9259844501
 20
10.9963938262
 11
15.8849070377
 21
11.0801007917
  0
LWPOLYLINE
  5
260
100
AcDbEntity
  8
0
100
AcDbPolyline
 62
7
  6
CONTINUOUS
 90
5
 70
0
 10
16.5562994832
 20
12.7509776963
 10
16.5659977903
 20
12.7528615246
 10
16.57356807
 20
12.757503047
 10
16.5787630812
 20
12.7633827492
 10
16.5821964436
 20
12.7694845252
  0
LINE
  5
261
100
AcDbEntity
  8
0
100
AcDbLine
 62
7
  6
CONTINUOUS
 10
16.5309489917
 20
12.7509776123
 11
16.5562997784
 21
12.7509776123
  0
LINE
  5
262
100
AcDbEntity
  8
0
100
AcDbLine
 62
7
  6
CONTINUOUS
 10
15.9324041668
 20
10.8154656239
 11
15.9309027688
 21
10.9771850218
  0
LWPOLYLINE
  5
263
100
AcDbEntity
  8
0
100
AcDbPolyline
 62
7
  6
CONTINUOUS
 90
5
 70
0
 10
16.6773326449
 20
13.1426411511
 10
16.687030952
 20
13.1445249794
 10
16.6946012317
 20
13.1491665019
 10
16.6997962429
 20
13.155046204
 10
16.7032296053
 20
13.16114798
  0
LINE
  5
264
100
AcDbEntity
  8
0
100
AcDbLine
 62
7
  6
CONTINUOUS
 10
16.0151736173
 20
10.9510994404
 11
16.0223559775
 21
11.0661067411
  0
LINE
  5
265
100
AcDbEntity
  8
0
100
AcDbLine
 62
7
  6
CONTINUOUS
 10
16.136206779
 20
11.3427628952
 11
16.1433891392
 21
11.4577701959
  0
LWPOLYLINE
  5
266
100
AcDbEntity
  8
0
100
AcDbPolyline
 62
7
  6
CONTINUOUS
 90
7
 70
0
 10
16.0223570587
 20
11.0661281669
 10
16.0231748391
 20
11.0761592847
 10
16.0255144294
 20
11.0951214513
 10
16.0289628498
 20
11.1157856455
 10
16.0332049806
 20
11.1362284237
 10
16.0378140231
 20
11.1546328652
 10
16.0406063935
 20
11.1642328762
  0
LWPOLYLINE
  5
267
100
AcDbEntity
  8
0
100
AcDbPolyline
 62
7
  6
CONTINUOUS
 90
7
 70
0
 10
16.1433902204
 20
11.4577916217
 10
16.1442080008
 20
11.4678227395
 10
16.1465475911
 20
11.4867849061
 10
16.1499960115
 20
11.5074491004
 10
16.1542381423
 20
11.5278918785
 10
16.1588471848
 20
11.54629632
 10
16.1616395552
 20
11.555896331
  0
LINE
  5
268
100
AcDbEntity
  8
0
100
AcDbLine
 62
7
  6
CONTINUOUS
 10
16.0145176331
 20
10.9436483923
 11
16.0151761773
 21
10.9511417129
  0
LINE
  5
269
100
AcDbEntity
  8
0
100
AcDbLine
 62
7
  6
CONTINUOUS
 10
16.1355507948
 20
11.3353118471
 11
16.136209339
 21
11.3428051677
  0
LINE
  5
26A
100
AcDbEntity
  8
0
100
AcDbLine
 62
7
  6
CONTINUOUS
 10
15.9320282024
 20
10.8128882959
 11
15.9324041668
 21
10.8154656239
  0
LWPOLYLINE
  5
26B
100
AcDbEntity
  8
0
100
AcDbPolyline
 62
7
  6
CONTINUOUS
 90
5
 70
0
 10
16.7983658066
 20
13.5343046059
 10
16.8080641137
 20
13.5361884342
 10
16.8156343934
 20
13.5408299567
 10
16.8208294046
 20
13.5467096588
 10
16.824262767
 20
13.5528114348
  0
LINE
  5
26C
100
AcDbEntity
  8
0
100
AcDbLine
 62
7
  6
CONTINUOUS
 10
16.6519821534
 20
13.1426410671
 11
16.6773329401
 21
13.1426410671
  0
LINE
  5
26D
100
AcDbEntity
  8
0
100
AcDbLine
 62
7
  6
CONTINUOUS
 10
16.2572399407
 20
11.73442635
 11
16.2644223009
 21
11.8494336507
  0
LWPOLYLINE
  5
26E
100
AcDbEntity
  8
0
100
AcDbPolyline
 62
7
  6
CONTINUOUS
 90
7
 70
0
 10
16.2644233821
 20
11.8494550765
 10
16.2652411626
 20
11.8594861943
 10
16.2675807528
 20
11.8784483609
 10
16.2710291732
 20
11.8991125552
 10
16.275271304
 20
11.9195553333
 10
16.2798803465
 20
11.9379597748
 10
16.2826727169
 20
11.9475597858
  0
LINE
  5
26F
100
AcDbEntity
  8
0
100
AcDbLine
 62
7
  6
CONTINUOUS
 10
16.2565839565
 20
11.7269753019
 11
16.2572425007
 21
11.7344686225
  0
LWPOLYLINE
  5
270
100
AcDbEntity
  8
0
100
AcDbPolyline
 62
7
  6
CONTINUOUS
 90
4
 70
0
 10
16.0081212805
 20
10.9097136467
 10
16.0107632917
 20
10.9207634439
 10
16.0129099746
 20
10.9321055576
 10
16.0145176331
 20
10.9436483923
  0
LINE
  5
271
100
AcDbEntity
  8
0
100
AcDbLine
 62
7
  6
CONTINUOUS
 10
16.7923077398
 20
13.5967132628
 11
16.7947640077
 21
13.6040115205
  0
LWPOLYLINE
  5
272
100
AcDbEntity
  8
0
100
AcDbPolyline
 62
7
  6
CONTINUOUS
 90
4
 70
0
 10
16.7947640077
 20
13.6040115205
 10
16.7969849884
 20
13.6098025329
 10
16.79878271
 20
13.6138151589
 10
16.7994813488
 20
13.6151583936
  0
LWPOLYLINE
  5
273
100
AcDbEntity
  8
0
100
AcDbPolyline
 62
7
  6
CONTINUOUS
 90
4
 70
0
 10
16.673730846
 20
13.2123480657
 10
16.6759518267
 20
13.2181390781
 10
16.6777495483
 20
13.2221517041
 10
16.6784481871
 20
13.2234949388
  0
LWPOLYLINE
  5
274
100
AcDbEntity
  8
0
100
AcDbPolyline
 62
7
  6
CONTINUOUS
 90
4
 70
0
 10
16.5526976843
 20
12.8206846109
 10
16.554918665
 20
12.8264756233
 10
16.5567163866
 20
12.8304882493
 10
16.5574150254
 20
12.831831484
  0
LINE
  5
275
100
AcDbEntity
  8
0
100
AcDbLine
 62
7
  6
CONTINUOUS
 10
16.824262767
 20
13.5528114348
 11
16.827101985
 21
13.5598298338
  0
LINE
  5
276
100
AcDbEntity
  8
0
100
AcDbLine
 62
7
  6
CONTINUOUS
 10
16.7032296053
 20
13.16114798
 11
16.7060688232
 21
13.168166379
  0
LINE
  5
277
100
AcDbEntity
  8
0
100
AcDbLine
 62
7
  6
CONTINUOUS
 10
16.3782731024
 20
12.1260898048
 11
16.3854554626
 21
12.2410971055
  0
LINE
  5
278
100
AcDbEntity
  8
0
100
AcDbLine
 62
7
  6
CONTINUOUS
 10
16.4993062641
 20
12.5177532596
 11
16.5064886243
 21
12.6327605603
  0
LWPOLYLINE
  5
279
100
AcDbEntity
  8
0
100
AcDbPolyline
 62
7
  6
CONTINUOUS
 90
7
 70
0
 10
16.3854565438
 20
12.2411185313
 10
16.3862743243
 20
12.2511496491
 10
16.3886139145
 20
12.2701118157
 10
16.3920623349
 20
12.29077601
 10
16.3963044657
 20
12.3112187881
 10
16.4009135082
 20
12.3296232296
 10
16.4037058787
 20
12.3392232407
  0
LWPOLYLINE
  5
27A
100
AcDbEntity
  8
0
100
AcDbPolyline
 62
7
  6
CONTINUOUS
 90
7
 70
0
 10
16.5064897055
 20
12.6327819861
 10
16.507307486
 20
12.642813104
 10
16.5096470762
 20
12.6617752705
 10
16.5130954966
 20
12.6824394648
 10
16.5173376274
 20
12.7028822429
 10
16.5219466699
 20
12.7212866844
 10
16.5247390404
 20
12.7308866955
  0
LINE
  5
27B
100
AcDbEntity
  8
0
100
AcDbLine
 62
7
  6
CONTINUOUS
 10
16.3776171182
 20
12.1186387567
 11
16.3782756624
 21
12.1261320773
  0
LINE
  5
27C
100
AcDbEntity
  8
0
100
AcDbLine
 62
7
  6
CONTINUOUS
 10
16.4986502799
 20
12.5103022115
 11
16.4993088241
 21
12.5177955321
  0
LWPOLYLINE
  5
27D
100
AcDbEntity
  8
0
100
AcDbPolyline
 62
7
  6
CONTINUOUS
 90
4
 70
0
 10
16.1291544422
 20
11.3013771015
 10
16.1317964534
 20
11.3124268987
 10
16.1339431363
 20
11.3237690124
 10
16.1355507948
 20
11.3353118471
  0
LWPOLYLINE
  5
27E
100
AcDbEntity
  8
0
100
AcDbPolyline
 62
7
  6
CONTINUOUS
 90
4
 70
0
 10
16.2501876039
 20
11.6930405563
 10
16.2528296152
 20
11.7040903535
 10
16.254976298
 20
11.7154324672
 10
16.2565839565
 20
11.7269753019
  0
LWPOLYLINE
  5
27F
100
AcDbEntity
  8
0
100
AcDbPolyline
 62
7
  6
CONTINUOUS
 90
4
 70
0
 10
16.3712207656
 20
12.0847040111
 10
16.3738627769
 20
12.0957538083
 10
16.3760094597
 20
12.107095922
 10
16.3776171182
 20
12.1186387567
  0
LWPOLYLINE
  5
280
100
AcDbEntity
  8
0
100
AcDbPolyline
 62
7
  6
CONTINUOUS
 90
4
 70
0
 10
16.4922539273
 20
12.4763674659
 10
16.4948959386
 20
12.4874172631
 10
16.4970426214
 20
12.4987593768
 10
16.4986502799
 20
12.5103022115
  0
LWPOLYLINE
  5
281
100
AcDbEntity
  8
0
100
AcDbPolyline
 62
7
  6
CONTINUOUS
 90
4
 70
0
 10
16.613287089
 20
12.8680309208
 10
16.6159291003
 20
12.8790807179
 10
16.6180757831
 20
12.8904228316
 10
16.6196834416
 20
12.9019656663
  0
LWPOLYLINE
  5
282
100
AcDbEntity
  8
0
100
AcDbPolyline
 62
7
  6
CONTINUOUS
 90
4
 70
0
 10
16.7343202507
 20
13.2596943756
 10
16.736962262
 20
13.2707441727
 10
16.7391089449
 20
13.2820862864
 10
16.7407166033
 20
13.2936291212
  0
LINE
  5
283
100
AcDbEntity
  8
0
100
AcDbLine
 62
7
  6
CONTINUOUS
 10
16.0063483928
 20
10.9035440894
 11
16.0081212805
 21
10.9097136467
  0
LINE
  5
284
100
AcDbEntity
  8
0
100
AcDbLine
 62
7
  6
CONTINUOUS
 10
16.1273815545
 20
11.2952075442
 11
16.1291544422
 21
11.3013771015
  0
LINE
  5
285
100
AcDbEntity
  8
0
100
AcDbLine
 62
7
  6
CONTINUOUS
 10
16.2484147162
 20
11.686870999
 11
16.2501876039
 21
11.6930405563
  0
LINE
  5
286
100
AcDbEntity
  8
0
100
AcDbLine
 62
7
  6
CONTINUOUS
 10
16.3694478779
 20
12.0785344538
 11
16.3712207656
 21
12.0847040111
  0
LINE
  5
287
100
AcDbEntity
  8
0
100
AcDbLine
 62
7
  6
CONTINUOUS
 10
16.4904810396
 20
12.4701979086
 11
16.4922539273
 21
12.4763674659
  0
LINE
  5
288
100
AcDbEntity
  8
0
100
AcDbLine
 62
7
  6
CONTINUOUS
 10
16.6115142013
 20
12.8618613634
 11
16.613287089
 21
12.8680309208
  0
LINE
  5
289
100
AcDbEntity
  8
0
100
AcDbLine
 62
7
  6
CONTINUOUS
 10
16.7325473631
 20
13.2535248183
 11
16.7343202507
 21
13.2596943756
  0
LINE
  5
28A
100
AcDbEntity
  8
0
100
AcDbLine
 62
7
  6
CONTINUOUS
 10
16.8535805248
 20
13.6451882731
 11
16.8553534124
 21
13.6513578304
  0
LINE
  5
28B
100
AcDbEntity
  8
0
100
AcDbLine
 62
7
  6
CONTINUOUS
 10
16.8878432525
 20
13.9058878637
 11
16.900298877
 21
13.9461942792
  0
LINE
  5
28C
100
AcDbEntity
  8
0
100
AcDbLine
 62
7
  6
CONTINUOUS
 10
15.9814449557
 20
10.82295522
 11
16.0063562053
 21
10.9035680533
  0
LINE
  5
28D
100
AcDbEntity
  8
0
100
AcDbLine
 62
7
  6
CONTINUOUS
 10
16.1024781174
 20
11.2146186748
 11
16.127389367
 21
11.2952315081
  0
LINE
  5
28E
100
AcDbEntity
  8
0
100
AcDbLine
 62
7
  6
CONTINUOUS
 10
16.2235112791
 20
11.6062821296
 11
16.2484225287
 21
11.6868949629
  0
LINE
  5
28F
100
AcDbEntity
  8
0
100
AcDbLine
 62
7
  6
CONTINUOUS
 10
16.3445444408
 20
11.9979455844
 11
16.3694556904
 21
12.0785584178
  0
LINE
  5
290
100
AcDbEntity
  8
0
100
AcDbLine
 62
7
  6
CONTINUOUS
 10
16.4655776025
 20
12.3896090392
 11
16.4904888521
 21
12.4702218726
  0
LINE
  5
291
100
AcDbEntity
  8
0
100
AcDbLine
 62
7
  6
CONTINUOUS
 10
16.5866107642
 20
12.7812724941
 11
16.6115220138
 21
12.8618853274
  0
LINE
  5
292
100
AcDbEntity
  8
0
100
AcDbLine
 62
7
  6
CONTINUOUS
 10
16.7076439259
 20
13.1729359489
 11
16.7325551755
 21
13.2535487822
  0
LINE
  5
293
100
AcDbEntity
  8
0
100
AcDbLine
 62
7
  6
CONTINUOUS
 10
16.8286770876
 20
13.5645994037
 11
16.8535883372
 21
13.645212237
  0
LINE
  5
294
100
AcDbEntity
  8
0
100
AcDbLine
 62
7
  6
CONTINUOUS
 10
16.7668100908
 20
13.5142244089
 11
16.7923077398
 21
13.5967132628
  0
LINE
  5
295
100
AcDbEntity
  8
0
100
AcDbLine
 62
7
  6
CONTINUOUS
 10
16.6457769291
 20
13.122560954
 11
16.6712745781
 21
13.2050498079
  0
LINE
  5
296
100
AcDbEntity
  8
0
100
AcDbLine
 62
7
  6
CONTINUOUS
 10
16.5247437674
 20
12.7308974992
 11
16.5502414164
 21
12.8133863531
  0
LINE
  5
297
100
AcDbEntity
  8
0
100
AcDbLine
 62
7
  6
CONTINUOUS
 10
16.4037106057
 20
12.3392340444
 11
16.4292082547
 21
12.4217228983
  0
LINE
  5
298
100
AcDbEntity
  8
0
100
AcDbLine
 62
7
  6
CONTINUOUS
 10
16.282677444
 20
11.9475705896
 11
16.308175093
 21
12.0300594435
  0
LINE
  5
299
100
AcDbEntity
  8
0
100
AcDbLine
 62
7
  6
CONTINUOUS
 10
16.1616442823
 20
11.5559071348
 11
16.1871419313
 21
11.6383959887
  0
LINE
  5
29A
100
AcDbEntity
  8
0
100
AcDbLine
 62
7
  6
CONTINUOUS
 10
16.0406111206
 20
11.16424368
 11
16.0661087696
 21
11.2467325339
  0
LINE
  5
29B
100
AcDbEntity
  8
0
100
AcDbLine
 62
7
  6
CONTINUOUS
 10
15.9327933812
 20
10.8153453475
 11
15.9450756079
 21
10.8550690791
  0
LINE
  5
29C
100
AcDbEntity
  8
0
100
AcDbLine
 62
7
  6
CONTINUOUS
 10
16.827101985
 20
13.5598298338
 11
16.8286817604
 21
13.5646158511
  0
LINE
  5
29D
100
AcDbEntity
  8
0
100
AcDbLine
 62
7
  6
CONTINUOUS
 10
16.7060688232
 20
13.168166379
 11
16.7076485987
 21
13.1729523963
  0
LINE
  5
29E
100
AcDbEntity
  8
0
100
AcDbLine
 62
7
  6
CONTINUOUS
 10
16.5850356615
 20
12.7765029242
 11
16.586615437
 21
12.7812889415
  0
LINE
  5
29F
100
AcDbEntity
  8
0
100
AcDbLine
 62
7
  6
CONTINUOUS
 10
16.4640024998
 20
12.3848394694
 11
16.4655822753
 21
12.3896254866
  0
LINE
  5
2A0
100
AcDbEntity
  8
0
100
AcDbLine
 62
7
  6
CONTINUOUS
 10
16.3429693381
 20
11.9931760145
 11
16.3445491136
 21
11.9979620318
  0
LINE
  5
2A1
100
AcDbEntity
  8
0
100
AcDbLine
 62
7
  6
CONTINUOUS
 10
16.2219361764
 20
11.6015125597
 11
16.2235159519
 21
11.606298577
  0
LINE
  5
2A2
100
AcDbEntity
  8
0
100
AcDbLine
 62
7
  6
CONTINUOUS
 10
16.1009030147
 20
11.2098491049
 11
16.1024827902
 21
11.2146351222
  0
LINE
  5
2A3
100
AcDbEntity
  8
0
100
AcDbLine
 62
7
  6
CONTINUOUS
 10
15.979869853
 20
10.8181856501
 11
15.9814496285
 21
10.8229716674
  0
LINE
  5
2A4
100
AcDbEntity
  8
0
100
AcDbLine
 62
7
  6
CONTINUOUS
 10
16.6712745781
 20
13.2050498079
 11
16.673730846
 21
13.2123480657
  0
LINE
  5
2A5
100
AcDbEntity
  8
0
100
AcDbLine
 62
7
  6
CONTINUOUS
 10
16.5502414164
 20
12.8133863531
 11
16.5526976843
 21
12.8206846109
  0
LINE
  5
2A6
100
AcDbEntity
  8
0
100
AcDbLine
 62
7
  6
CONTINUOUS
 10
16.4292082547
 20
12.4217228983
 11
16.4316645226
 21
12.4290211561
  0
LINE
  5
2A7
100
AcDbEntity
  8
0
100
AcDbLine
 62
7
  6
CONTINUOUS
 10
16.308175093
 20
12.0300594435
 11
16.3106313609
 21
12.0373577013
  0
LINE
  5
2A8
100
AcDbEntity
  8
0
100
AcDbLine
 62
7
  6
CONTINUOUS
 10
16.1871419313
 20
11.6383959887
 11
16.1895981992
 21
11.6456942465
  0
LINE
  5
2A9
100
AcDbEntity
  8
0
100
AcDbLine
 62
7
  6
CONTINUOUS
 10
16.0661087696
 20
11.2467325339
 11
16.0685650375
 21
11.2540307916
  0
LINE
  5
2AA
100
AcDbEntity
  8
0
100
AcDbLine
 62
7
  6
CONTINUOUS
 10
15.9450756079
 20
10.8550690791
 11
15.9475318758
 21
10.8623673368
  0
LWPOLYLINE
  5
2AB
100
AcDbEntity
  8
0
100
AcDbPolyline
 62
7
  6
CONTINUOUS
 90
4
 70
0
 10
16.4316645226
 20
12.4290211561
 10
16.4338855033
 20
12.4348121685
 10
16.4356832249
 20
12.4388247944
 10
16.4363818637
 20
12.4401680292
  0
LWPOLYLINE
  5
2AC
100
AcDbEntity
  8
0
100
AcDbPolyline
 62
7
  6
CONTINUOUS
 90
4
 70
0
 10
16.3106313609
 20
12.0373577013
 10
16.3128523416
 20
12.0431487137
 10
16.3146500632
 20
12.0471613396
 10
16.315348702
 20
12.0485045743
  0
LWPOLYLINE
  5
2AD
100
AcDbEntity
  8
0
100
AcDbPolyline
 62
7
  6
CONTINUOUS
 90
4
 70
0
 10
16.1895981992
 20
11.6456942465
 10
16.1918191799
 20
11.6514852589
 10
16.1936169015
 20
11.6554978848
 10
16.1943155403
 20
11.6568411195
  0
LWPOLYLINE
  5
2AE
100
AcDbEntity
  8
0
100
AcDbPolyline
 62
7
  6
CONTINUOUS
 90
4
 70
0
 10
16.0685650375
 20
11.2540307916
 10
16.0707860182
 20
11.2598218041
 10
16.0725837398
 20
11.26383443
 10
16.0732823786
 20
11.2651776647
  0
LWPOLYLINE
  5
2AF
100
AcDbEntity
  8
0
100
AcDbPolyline
 62
7
  6
CONTINUOUS
 90
4
 70
0
 10
15.9475318758
 20
10.8623673368
 10
15.9497528565
 20
10.8681583493
 10
15.9515505781
 20
10.8721709752
 10
15.9522492169
 20
10.8735142099
  0
LINE
  5
2B0
100
AcDbEntity
  8
0
100
AcDbLine
 62
7
  6
CONTINUOUS
 10
16.5821964436
 20
12.7694845252
 11
16.5850356615
 21
12.7765029242
  0
LINE
  5
2B1
100
AcDbEntity
  8
0
100
AcDbLine
 62
7
  6
CONTINUOUS
 10
16.4611632819
 20
12.3778210704
 11
16.4640024998
 21
12.3848394694
  0
LINE
  5
2B2
100
AcDbEntity
  8
0
100
AcDbLine
 62
7
  6
CONTINUOUS
 10
16.3401301202
 20
11.9861576156
 11
16.3429693381
 21
11.9931760145
  0
LINE
  5
2B3
100
AcDbEntity
  8
0
100
AcDbLine
 62
7
  6
CONTINUOUS
 10
16.2190969585
 20
11.5944941607
 11
16.2219361764
 21
11.6015125597
  0
LINE
  5
2B4
100
AcDbEntity
  8
0
100
AcDbLine
 62
7
  6
CONTINUOUS
 10
16.7730153151
 20
13.5343045219
 11
16.7983661018
 21
13.5343045219
  0
LINE
  5
2B5
100
AcDbEntity
  8
0
100
AcDbLine
 62
7
  6
CONTINUOUS
 10
16.6203394258
 20
12.9094167145
 11
16.627521786
 21
13.0244240151
  0
LWPOLYLINE
  5
2B6
100
AcDbEntity
  8
0
100
AcDbPolyline
 62
7
  6
CONTINUOUS
 90
7
 70
0
 10
16.6275228672
 20
13.0244454409
 10
16.6283406477
 20
13.0344765588
 10
16.6306802379
 20
13.0534387253
 10
16.6341286583
 20
13.0741029196
 10
16.6383707891
 20
13.0945456977
 10
16.6429798317
 20
13.1129501392
 10
16.6457722021
 20
13.1225501503
  0
LWPOLYLINE
  5
2B7
100
AcDbEntity
  8
0
100
AcDbPolyline
 62
7
  6
CONTINUOUS
 90
7
 70
0
 10
16.7485560289
 20
13.4161088957
 10
16.7493738094
 20
13.4261400136
 10
16.7517133996
 20
13.4451021801
 10
16.75516182
 20
13.4657663744
 10
16.7594039508
 20
13.4862091525
 10
16.7640129934
 20
13.504613594
 10
16.7668053638
 20
13.5142136051
  0
LINE
  5
2B8
100
AcDbEntity
  8
0
100
AcDbLine
 62
7
  6
CONTINUOUS
 10
16.6196834416
 20
12.9019656663
 11
16.6203419858
 21
12.9094589869
  0
LINE
  5
2B9
100
AcDbEntity
  8
0
100
AcDbLine
 62
7
  6
CONTINUOUS
 10
16.7407166033
 20
13.2936291212
 11
16.7413751475
 21
13.3011224417
  0
LINE
  5
2BA
100
AcDbEntity
  8
0
100
AcDbLine
 62
7
  6
CONTINUOUS
 10
16.9006694604
 20
13.9487732624
 11
16.900293496
 21
13.9461959344
  0
LWPOLYLINE
  5
2BB
100
AcDbEntity
  8
0
100
AcDbPolyline
 62
7
  6
CONTINUOUS
 90
4
 70
0
 10
16.8553534124
 20
13.6513578304
 10
16.8579954237
 20
13.6624076276
 10
16.8601421066
 20
13.6737497413
 10
16.861749765
 20
13.685292576
  0
LINE
  5
2BC
100
AcDbEntity
  8
0
100
AcDbLine
 62
7
  6
CONTINUOUS
 10
16.0980637968
 20
11.2028307059
 11
16.1009030147
 21
11.2098491049
  0
LINE
  5
2BD
100
AcDbEntity
  8
0
100
AcDbLine
 62
7
  6
CONTINUOUS
 10
15.9770306351
 20
10.8111672511
 11
15.979869853
 21
10.8181856501
  0
LINE
  5
2BE
100
AcDbEntity
  8
0
100
AcDbLine
 62
7
  6
CONTINUOUS
 10
16.7413725875
 20
13.3010801693
 11
16.7485549477
 21
13.4160874699
  0
LINE
  5
2BF
100
AcDbEntity
  8
0
100
AcDbLine
 62
7
  6
CONTINUOUS
 10
16.8624057492
 20
13.6927436241
 11
16.8695881094
 21
13.8077509248
  0
LWPOLYLINE
  5
2C0
100
AcDbEntity
  8
0
100
AcDbPolyline
 62
7
  6
CONTINUOUS
 90
7
 70
0
 10
16.8695891906
 20
13.8077723505
 10
16.8704069711
 20
13.8178034684
 10
16.8727465613
 20
13.836765635
 10
16.8761949817
 20
13.8574298292
 10
16.8804371125
 20
13.8778726073
 10
16.8850461551
 20
13.8962770489
 10
16.8878385255
 20
13.9058770599
  0
LINE
  5
2C1
100
AcDbEntity
  8
0
100
AcDbLine
 62
7
  6
CONTINUOUS
 10
16.861749765
 20
13.685292576
 11
16.8624083092
 21
13.6927858965
  0
LINE
  5
2C2
100
AcDbEntity
  8
0
100
AcDbLine
 62
7
  6
CONTINUOUS
 10
16.9006694604
 20
13.9487732624
 11
16.8991680624
 21
14.1104926603
  0
LINE
  5
2C3
100
AcDbEntity
  8
0
100
AcDbLine
 62
7
  6
CONTINUOUS
 10
16.8225197598
 20
14.2289486794
 11
15.0264508215
 21
14.2289486794
  0
LINE
  5
2C4
100
AcDbEntity
  8
0
100
AcDbLine
 62
7
  6
CONTINUOUS
 10
16.8942497437
 20
14.1297014647
 11
16.8531723313
 21
14.2134084302
  0
ARC
  5
2C5
100
AcDbEntity
  8
0
100
AcDbCircle
 62
7
  6
CONTINUOUS
 10
5.2435698505
 20
5.4281198968
 40
0.025
100
AcDbArc
 50
198.0
 51
270.0
  0
ARC
  5
2C6
100
AcDbEntity
  8
0
100
AcDbCircle
 62
7
  6
CONTINUOUS
 10
5.319600507
 20
5.194121597
 40
0.025
100
AcDbArc
 50
198.0040971276
 51
270.0012655428
  0
ARC
  5
2C7
100
AcDbEntity
  8
0
100
AcDbCircle
 62
7
  6
CONTINUOUS
 10
5.2303672762
 20
5.7114583408
 40
0.1
100
AcDbArc
 50
180.0
 51
198.0
  0
ARC
  5
2C8
100
AcDbEntity
  8
0
100
AcDbCircle
 62
7
  6
CONTINUOUS
 10
5.1553672762
 20
5.8461198968
 40
0.025
100
AcDbArc
 50
90.0
 51
180.0
  0
ARC
  5
2C9
100
AcDbEntity
  8
0
100
AcDbCircle
 62
7
  6
CONTINUOUS
 10
6.9411334929
 20
5.1941198968
 40
0.025
100
AcDbArc
 50
270.0
 51
342.0
  0
ARC
  5
2CA
100
AcDbEntity
  8
0
100
AcDbCircle
 62
7
  6
CONTINUOUS
 10
7.0171647018
 20
5.4281198968
 40
0.025
100
AcDbArc
 50
270.0
 51
342.0
  0
ARC
  5
2CB
100
AcDbEntity
  8
0
100
AcDbCircle
 62
7
  6
CONTINUOUS
 10
7.0303672762
 20
5.7114583408
 40
0.1
100
AcDbArc
 50
342.0
 51
360.0
  0
ARC
  5
2CC
100
AcDbEntity
  8
0
100
AcDbCircle
 62
7
  6
CONTINUOUS
 10
7.1053672762
 20
5.8461198968
 40
0.025
100
AcDbArc
 50
0.0
 51
90.0
  0
ARC
  5
2CD
100
AcDbEntity
  8
0
100
AcDbCircle
 62
7
  6
CONTINUOUS
 10
13.7588998364
 20
5.1681247044
 40
0.0585
100
AcDbArc
 50
193.0
 51
270.0
  0
ARC
  5
2CE
100
AcDbEntity
  8
0
100
AcDbCircle
 62
7
  6
CONTINUOUS
 10
13.8618106774
 20
5.1681247044
 40
0.0585
100
AcDbArc
 50
270.0
 51
347.0
  0
ARC
  5
2CF
100
AcDbEntity
  8
0
100
AcDbCircle
 62
7
  6
CONTINUOUS
 10
14.2588998364
 20
5.1681247044
 40
0.0585
100
AcDbArc
 50
193.0
 51
270.0
  0
ARC
  5
2D0
100
AcDbEntity
  8
0
100
AcDbCircle
 62
7
  6
CONTINUOUS
 10
14.3618106774
 20
5.1681247044
 40
0.0585
100
AcDbArc
 50
270.0
 51
347.0
  0
ARC
  5
2D1
100
AcDbEntity
  8
0
100
AcDbCircle
 62
7
  6
CONTINUOUS
 10
14.7588998364
 20
5.1681247044
 40
0.0585
100
AcDbArc
 50
193.0
 51
270.0
  0
ARC
  5
2D2
100
AcDbEntity
  8
0
100
AcDbCircle
 62
7
  6
CONTINUOUS
 10
14.8618106774
 20
5.1681247044
 40
0.0585
100
AcDbArc
 50
270.0
 51
347.0
  0
ARC
  5
2D3
100
AcDbEntity
  8
0
100
AcDbCircle
 62
7
  6
CONTINUOUS
 10
15.2588998364
 20
5.1681247044
 40
0.0585
100
AcDbArc
 50
193.0
 51
270.0
  0
ARC
  5
2D4
100
AcDbEntity
  8
0
100
AcDbCircle
 62
7
  6
CONTINUOUS
 10
15.3618106774
 20
5.1681247044
 40
0.0585
100
AcDbArc
 50
270.0
 51
347.0
  0
ARC
  5
2D5
100
AcDbEntity
  8
0
100
AcDbCircle
 62
7
  6
CONTINUOUS
 10
13.6118106774
 20
5.2851247044
 40
0.0585
100
AcDbArc
 50
13.0
 51
90.0
  0
ARC
  5
2D6
100
AcDbEntity
  8
0
100
AcDbCircle
 62
7
  6
CONTINUOUS
 10
14.0088998364
 20
5.2851247044
 40
0.0585
100
AcDbArc
 50
90.0
 51
167.0
  0
ARC
  5
2D7
100
AcDbEntity
  8
0
100
AcDbCircle
 62
7
  6
CONTINUOUS
 10
14.1118106774
 20
5.2851247044
 40
0.0585
100
AcDbArc
 50
13.0
 51
90.0
  0
ARC
  5
2D8
100
AcDbEntity
  8
0
100
AcDbCircle
 62
7
  6
CONTINUOUS
 10
14.5088998364
 20
5.2851247044
 40
0.0585
100
AcDbArc
 50
90.0
 51
167.0
  0
ARC
  5
2D9
100
AcDbEntity
  8
0
100
AcDbCircle
 62
7
  6
CONTINUOUS
 10
14.6118106774
 20
5.2851247044
 40
0.0585
100
AcDbArc
 50
13.0
 51
90.0
  0
ARC
  5
2DA
100
AcDbEntity
  8
0
100
AcDbCircle
 62
7
  6
CONTINUOUS
 10
15.0088998364
 20
5.2851247044
 40
0.0585
100
AcDbArc
 50
90.0
 51
167.0
  0
ARC
  5
2DB
100
AcDbEntity
  8
0
100
AcDbCircle
 62
7
  6
CONTINUOUS
 10
15.1118106774
 20
5.2851247044
 40
0.0585
100
AcDbArc
 50
13.0
 51
90.0
  0
ARC
  5
2DC
100
AcDbEntity
  8
0
100
AcDbCircle
 62
7
  6
CONTINUOUS
 10
15.5088998364
 20
5.2851247044
 40
0.0585
100
AcDbArc
 50
90.0
 51
167.0
  0
ARC
  5
2DD
100
AcDbEntity
  8
0
100
AcDbCircle
 62
7
  6
CONTINUOUS
 10
17.3618106774
 20
5.1681247044
 40
0.0585
100
AcDbArc
 50
270.0
 51
347.0
  0
ARC
  5
2DE
100
AcDbEntity
  8
0
100
AcDbCircle
 62
7
  6
CONTINUOUS
 10
17.2588998364
 20
5.1681247044
 40
0.0585
100
AcDbArc
 50
193.0
 51
270.0
  0
ARC
  5
2DF
100
AcDbEntity
  8
0
100
AcDbCircle
 62
7
  6
CONTINUOUS
 10
16.8618106774
 20
5.1681247044
 40
0.0585
100
AcDbArc
 50
270.0
 51
347.0
  0
ARC
  5
2E0
100
AcDbEntity
  8
0
100
AcDbCircle
 62
7
  6
CONTINUOUS
 10
16.7588998364
 20
5.1681247044
 40
0.0585
100
AcDbArc
 50
193.0
 51
270.0
  0
ARC
  5
2E1
100
AcDbEntity
  8
0
100
AcDbCircle
 62
7
  6
CONTINUOUS
 10
16.3618106774
 20
5.1681247044
 40
0.0585
100
AcDbArc
 50
270.0
 51
347.0
  0
ARC
  5
2E2
100
AcDbEntity
  8
0
100
AcDbCircle
 62
7
  6
CONTINUOUS
 10
16.2588998364
 20
5.1681247044
 40
0.0585
100
AcDbArc
 50
193.0
 51
270.0
  0
ARC
  5
2E3
100
AcDbEntity
  8
0
100
AcDbCircle
 62
7
  6
CONTINUOUS
 10
15.8618106774
 20
5.1681247044
 40
0.0585
100
AcDbArc
 50
270.0
 51
347.0
  0
ARC
  5
2E4
100
AcDbEntity
  8
0
100
AcDbCircle
 62
7
  6
CONTINUOUS
 10
15.7588998364
 20
5.1681247044
 40
0.0585
100
AcDbArc
 50
193.0
 51
270.0
  0
ARC
  5
2E5
100
AcDbEntity
  8
0
100
AcDbCircle
 62
7
  6
CONTINUOUS
 10
17.5088998364
 20
5.2851247044
 40
0.0585
100
AcDbArc
 50
90.0
 51
167.0
  0
ARC
  5
2E6
100
AcDbEntity
  8
0
100
AcDbCircle
 62
7
  6
CONTINUOUS
 10
17.1118106774
 20
5.2851247044
 40
0.0585
100
AcDbArc
 50
13.0
 51
90.0
  0
ARC
  5
2E7
100
AcDbEntity
  8
0
100
AcDbCircle
 62
7
  6
CONTINUOUS
 10
17.0088998364
 20
5.2851247044
 40
0.0585
100
AcDbArc
 50
90.0
 51
167.0
  0
ARC
  5
2E8
100
AcDbEntity
  8
0
100
AcDbCircle
 62
7
  6
CONTINUOUS
 10
16.6118106774
 20
5.2851247044
 40
0.0585
100
AcDbArc
 50
13.0
 51
90.0
  0
ARC
  5
2E9
100
AcDbEntity
  8
0
100
AcDbCircle
 62
7
  6
CONTINUOUS
 10
16.5088998364
 20
5.2851247044
 40
0.0585
100
AcDbArc
 50
90.0
 51
167.0
  0
ARC
  5
2EA
100
AcDbEntity
  8
0
100
AcDbCircle
 62
7
  6
CONTINUOUS
 10
16.1118106774
 20
5.2851247044
 40
0.0585
100
AcDbArc
 50
13.0
 51
90.0
  0
ARC
  5
2EB
100
AcDbEntity
  8
0
100
AcDbCircle
 62
7
  6
CONTINUOUS
 10
16.0088998364
 20
5.2851247044
 40
0.0585
100
AcDbArc
 50
90.0
 51
167.0
  0
ARC
  5
2EC
100
AcDbEntity
  8
0
100
AcDbCircle
 62
7
  6
CONTINUOUS
 10
15.6118106774
 20
5.2851247044
 40
0.0585
100
AcDbArc
 50
13.0
 51
90.0
  0
SPLINE
  5
2ED
100
AcDbEntity
  8
0
100
AcDbSpline
 62
7
  6
CONTINUOUS
 70
0
 71
3
 72
15
 73
11
 74
0
 42
0.0000001
 43
0.0000001
 44
0.0000000001
 40
0.0
 40
0.0
 40
0.0
 40
0.0
 40
0.1295690704
 40
0.264576533
 40
0.4012661168
 40
0.5362716148
 40
0.6662155268
 40
0.7881002322
 40
0.899813794
 40
1.0
 40
1.0
 40
1.0
 40
1.0
 10
16.8225197598
 20
14.2289486794
 30
0.0
 10
16.8240680248
 20
14.2289486794
 30
0.0
 10
16.827231986
 20
14.2287334406
 30
0.0
 10
16.8319545047
 20
14.2278495612
 30
0.0
 10
16.8366108038
 20
14.2264221053
 30
0.0
 10
16.8410226552
 20
14.2245067835
 30
0.0
 10
16.8450288375
 20
14.222178112
 30
0.0
 10
16.8484809228
 20
14.2195167899
 30
0.0
 10
16.8512467634
 20
14.2166207305
 30
0.0
 10
16.8526449315
 20
14.2144831579
 30
0.0
 10
16.8531723313
 20
14.2134084302
 30
0.0
  0
SPLINE
  5
2EE
100
AcDbEntity
  8
0
100
AcDbSpline
 62
7
  6
CONTINUOUS
 70
0
 71
3
 72
15
 73
11
 74
0
 42
0.0000001
 43
0.0000001
 44
0.0000000001
 40
0.0
 40
0.0
 40
0.0
 40
0.0
 40
0.0996456154
 40
0.2028716142
 40
0.3125939023
 40
0.4308561662
 40
0.5588134825
 40
0.6968299113
 40
0.8443978956
 40
1.0
 40
1.0
 40
1.0
 40
1.0
 10
15.0101913246
 20
14.2207896245
 30
0.0
 10
15.0103814398
 20
14.2214048628
 30
0.0
 10
15.0109200838
 20
14.2226158012
 30
0.0
 10
15.0121510739
 20
14.2242367409
 30
0.0
 10
15.0137744541
 20
14.2256519093
 30
0.0
 10
15.015758605
 20
14.2268359731
 30
0.0
 10
15.0180661399
 20
14.2277746066
 30
0.0
 10
15.0206577604
 20
14.228453323
 30
0.0
 10
15.0234846468
 20
14.2288609916
 30
0.0
 10
15.0254452699
 20
14.2289486794
 30
0.0
 10
15.0264508215
 20
14.2289486794
 30
0.0
  0
SPLINE
  5
2EF
100
AcDbEntity
  8
0
100
AcDbSpline
 62
7
  6
CONTINUOUS
 70
0
 71
3
 72
11
 73
7
 74
0
 42
0.0000001
 43
0.0000001
 44
0.0000000001
 40
0.0
 40
0.0
 40
0.0
 40
0.0
 40
0.2336930831
 40
0.4747270126
 40
0.7289542969
 40
1.0
 40
1.0
 40
1.0
 40
1.0
 10
14.0419260309
 20
11.087481986
 30
0.0
 10
14.0417511765
 20
11.0869161338
 30
0.0
 10
14.0415208668
 20
11.0857239879
 30
0.0
 10
14.0415631707
 20
11.0838647108
 30
0.0
 10
14.0419809726
 20
11.081957532
 30
0.0
 10
14.042482434
 20
11.0807174577
 30
0.0
 10
14.0427850497
 20
11.0801007917
 30
0.0
  0
SPLINE
  5
2F0
100
AcDbEntity
  8
0
100
AcDbSpline
 62
7
  6
CONTINUOUS
 70
0
 71
3
 72
10
 73
6
 74
0
 42
0.0000001
 43
0.0000001
 44
0.0000000001
 40
0.0
 40
0.0
 40
0.0
 40
0.0
 40
0.5198834755
 40
0.7641608563
 40
1.0
 40
1.0
 40
1.0
 40
1.0
 10
16.8942497437
 20
14.1297014647
 30
0.0
 10
16.8957743675
 20
14.126594608
 30
0.0
 10
16.897617361
 20
14.1218010014
 30
0.0
 10
16.8989141555
 20
14.1152600076
 30
0.0
 10
16.8991534877
 20
14.1120625381
 30
0.0
 10
16.8991680624
 20
14.1104926603
 30
0.0
  0
SPLINE
  5
2F1
100
AcDbEntity
  8
0
100
AcDbSpline
 62
7
  6
CONTINUOUS
 70
0
 71
3
 72
15
 73
11
 74
0
 42
0.0000001
 43
0.0000001
 44
0.0000000001
 40
0.0
 40
0.0
 40
0.0
 40
0.0
 40
0.1555721034
 40
0.3031137027
 40
0.4411077981
 40
0.5690450656
 40
0.6872780867
 40
0.7969642139
 40
0.9002175177
 40
1.0
 40
1.0
 40
1.0
 40
1.0
 10
15.9157741089
 20
10.8047275758
 30
0.0
 10
15.9167794661
 20
10.8047275758
 30
0.0
 10
15.9187397223
 20
10.8048151904
 30
0.0
 10
15.9215661253
 20
10.8052226548
 30
0.0
 10
15.9241573051
 20
10.8059013249
 30
0.0
 10
15.9264643846
 20
10.8068397873
 30
0.0
 10
15.9284484481
 20
10.8080227804
 30
0.0
 10
15.9300726596
 20
10.8094366403
 30
0.0
 10
15.9313041386
 20
10.8110584895
 30
0.0
 10
15.9318420182
 20
10.8122709178
 30
0.0
 10
15.93203227
 20
10.8128870393
 30
0.0
  0
SPLINE
  5
2F2
100
AcDbEntity
  8
0
100
AcDbSpline
 62
7
  6
CONTINUOUS
 70
0
 71
3
 72
15
 73
11
 74
0
 42
0.0000001
 43
0.0000001
 44
0.0000000001
 40
0.0
 40
0.0
 40
0.0
 40
0.0
 40
0.1121026144
 40
0.2317703093
 40
0.3571200722
 40
0.4862728086
 40
0.6172606067
 40
0.748018869
 40
0.8764059878
 40
1.0
 40
1.0
 40
1.0
 40
1.0
 10
14.2550160771
 20
10.8154656239
 30
0.0
 10
14.2557950952
 20
10.8146643079
 30
0.0
 10
14.2575206957
 20
10.8131173673
 30
0.0
 10
14.2604267435
 20
10.8110498822
 30
0.0
 10
14.263677666
 20
10.8092081882
 30
0.0
 10
14.2671893989
 20
10.8076340344
 30
0.0
 10
14.2708800647
 20
10.8063668782
 30
0.0
 10
14.2746615008
 20
10.8054343477
 30
0.0
 10
14.2784395626
 20
10.8048645737
 30
0.0
 10
14.2809529358
 20
10.8047275758
 30
0.0
 10
14.2821850722
 20
10.8047275758
 30
0.0
  0
SPLINE
  5
2F3
100
AcDbEntity
  8
0
100
AcDbSpline
 62
7
  6
CONTINUOUS
 70
0
 71
3
 72
9
 73
5
 74
0
 42
0.0000001
 43
0.0000001
 44
0.0000000001
 40
0.0
 40
0.0
 40
0.0
 40
0.0
 40
0.4779587959
 40
1.0
 40
1.0
 40
1.0
 40
1.0
 10
14.083862462
 20
10.9963938262
 30
0.0
 10
14.0855331575
 20
10.9929893067
 30
0.0
 10
14.0897277093
 20
10.9862007701
 30
0.0
 10
14.0949094534
 20
10.9801549795
 30
0.0
 10
14.0977967675
 20
10.9771850218
 30
0.0
  0
SPLINE
  5
2F4
100
AcDbEntity
  8
0
100
AcDbSpline
 62
7
  6
CONTINUOUS
 70
0
 71
3
 72
15
 73
11
 74
0
 42
0.0000001
 43
0.0000001
 44
0.0000000001
 40
0.0
 40
0.0
 40
0.0
 40
0.0
 40
0.1556021044
 40
0.3031700887
 40
0.4411865175
 40
0.5691438338
 40
0.6874060977
 40
0.7971283858
 40
0.9003543846
 40
1.0
 40
1.0
 40
1.0
 40
1.0
 10
14.0581855278
 20
11.0956410409
 30
0.0
 10
14.0571799763
 20
11.0956410409
 30
0.0
 10
14.0552193532
 20
11.0955533531
 30
0.0
 10
14.0523924668
 20
11.0951456845
 30
0.0
 10
14.0498008463
 20
11.0944669681
 30
0.0
 10
14.0474933114
 20
11.0935283346
 30
0.0
 10
14.0455091604
 20
11.0923442708
 30
0.0
 10
14.0438857802
 20
11.0909291024
 30
0.0
 10
14.0426547901
 20
11.0893081627
 30
0.0
 10
14.0421161462
 20
11.0880972243
 30
0.0
 10
14.0419260309
 20
11.087481986
 30
0.0
  0
SPLINE
  5
2F5
100
AcDbEntity
  8
0
100
AcDbSpline
 62
7
  6
CONTINUOUS
 70
0
 71
3
 72
10
 73
6
 74
0
 42
0.0000001
 43
0.0000001
 44
0.0000000001
 40
0.0
 40
0.0
 40
0.0
 40
0.0
 40
0.2358391437
 40
0.4801165245
 40
1.0
 40
1.0
 40
1.0
 40
1.0
 10
15.9309027688
 20
10.9771850218
 30
0.0
 10
15.9308881941
 20
10.9787548996
 30
0.0
 10
15.9306488618
 20
10.9819523691
 30
0.0
 10
15.9293520674
 20
10.9884933629
 30
0.0
 10
15.9275090739
 20
10.9932869695
 30
0.0
 10
15.9259844501
 20
10.9963938262
 30
0.0
  0
SPLINE
  5
2F6
100
AcDbEntity
  8
0
100
AcDbSpline
 62
7
  6
CONTINUOUS
 70
0
 71
3
 72
15
 73
11
 74
0
 42
0.0000001
 43
0.0000001
 44
0.0000000001
 40
0.0
 40
0.0
 40
0.0
 40
0.0
 40
0.100186206
 40
0.2118997678
 40
0.3337844732
 40
0.4637283852
 40
0.5987338832
 40
0.735423467
 40
0.8704309296
 40
1.0
 40
1.0
 40
1.0
 40
1.0
 10
15.8849070377
 20
11.0801007917
 30
0.0
 10
15.8843796379
 20
11.0811755194
 30
0.0
 10
15.8829814698
 20
11.083313092
 30
0.0
 10
15.8802156292
 20
11.0862091514
 30
0.0
 10
15.8767635439
 20
11.0888704735
 30
0.0
 10
15.8727573616
 20
11.0911991449
 30
0.0
 10
15.8683455101
 20
11.0931144668
 30
0.0
 10
15.8636892111
 20
11.0945419227
 30
0.0
 10
15.8589666924
 20
11.0954258021
 30
0.0
 10
15.8558027312
 20
11.0956410409
 30
0.0
 10
15.8542544661
 20
11.0956410409
 30
0.0
  0
ENDSEC
  0
SECTION
  2
OBJECTS
  0
DICTIONARY
  5
C
100
AcDbDictionary
280
0
281
1
  3
ACAD_GROUP
350
D
  3
ACAD_MLINESTYLE
350
17
  3
ACAD_LAYOUT
350
1A
  3
ACAD_PLOTSETTINGS
350
19
  3
ACAD_PLOTSTYLENAME
350
E
  0
DICTIONARY
  5
D
102
{ACAD_REACTORS
330
C
102
}
100
AcDbDictionary
280
0
281
1
  0
ACDBDICTIONARYWDFLT
  5
E
102
{ACAD_REACTORS
330
C
102
}
100
AcDbDictionary
281
1
  3
Normal
350
F
100
AcDbDictionaryWithDefault
340
F
  0
DICTIONARY
  5
17
102
{ACAD_REACTORS
330
C
102
}
100
AcDbDictionary
280
0
281
1
  3
Standard
350
18
  0
DICTIONARY
  5
19
102
{ACAD_REACTORS
330
C
102
}
100
AcDbDictionary
281
1
  0
DICTIONARY
  5
1A
102
{ACAD_REACTORS
330
C
102
}
100
AcDbDictionary
281
1
  3
Model
350
2F7
  3
Layout1
350
2F8
  0
ACDBPLACEHOLDER
  5
F
102
{ACAD_REACTORS
330
E
102
}
  0
MLINESTYLE
  5
18
102
{ACAD_REACTORS
330
17
102
}
100
AcDbMlineStyle
  2
STANDARD
 70
0
  3

 62
256
 51
90.0
 52
90.0
 71
2
 49
0.5
 62
256
  6
BYLAYER
 49
-0.5
 62
256
  6
BYLAYER
  0
LAYOUT
  5
2F7
102
{ACAD_REACTORS
330
1A
102
}
100
AcDbPlotSettings
  1

  2
none_device
  4
ANSI_C_(22.00_x_17.00_Inches)
  6

 40
0.0
 41
0.0
 42
0.0
 43
0.0
 44
558.8
 45
431.8
 46
0.0
 47
0.0
 48
0.0
 49
0.0
140
0.0
141
0.0
142
1.0
143
1.0
 70
1024
 72
0
 73
0
 74
0
  7

 75
0
147
1.0
148
0.0
149
0.0
100
AcDbLayout
  1
Model
 70
0
 71
0
 10
0.0
 20
0.0
 11
22.0
 21
17.0
 12
0.0
 22
0.0
 32
0.0
 14
0.0
 24
0.0
 34
0.0
 15
0.0
 25
0.0
 35
0.0
146
0.0
 13
0.0
 23
0.0
 33
0.0
 16
1.0
 26
0.0
 36
0.0
 17
0.0
 27
1.0
 37
0.0
 76
0
330
216
345
0
346
0
  0
LAYOUT
  5
2F8
102
{ACAD_REACTORS
330
1A
102
}
100
AcDbPlotSettings
  1

  2
none_device
  4
ANSI_C_(22.00_x_17.00_Inches)
  6

 40
0.0
 41
0.0
 42
0.0
 43
0.0
 44
558.8
 45
431.8
 46
0.0
 47
0.0
 48
0.0
 49
0.0
140
0.0
141
0.0
142
1.0
143
1.0
 70
0
 72
0
 73
0
 74
0
  7

 75
0
147
1.0
148
0.0
149
0.0
100
AcDbLayout
  1
Layout1
 70
0
 71
1
 10
0.0
 20
0.0
 11
22.0
 21
17.0
 12
0.0
 22
0.0
 32
0.0
 14
0.0
 24
0.0
 34
0.0
 15
0.0
 25
0.0
 35
0.0
146
0.0
 13
0.0
 23
0.0
 33
0.0
 16
1.0
 26
0.0
 36
0.0
 17
0.0
 27
1.0
 37
0.0
 76
0
330
217
345
0
346
0
  0
ENDSEC
  0
EOF