999
DXF file: _cgs_temp_output.dxf
999
Pro/ENGINEER 2016360 by Parametric Technology Corporation
  0
SECTION
  2
HEADER
  9
$ACADVER
  1
AC1021
  9
$DWGCODEPAGE
  3
ANSI_1252
  9
$EXTMAX
 10
22.0
 20
17.0
 30
0.0
  9
$EXTMIN
 10
0.0
 20
0.0
 30
0.0
  9
$LIMMIN
 10
0.0
 20
0.0
  9
$LIMMAX
 10
22.0
 20
17.0
  9
$VIEWCTR
 10
11.0
 20
8.5
  9
$VIEWSIZE
 40
17.0
  9
$CLAYER
  8
0
  9
$LTSCALE
 40
1.21
  9
$CELTYPE
  6
BYLAYER
  9
$DIMSCALE
 40
1.0
  9
$DIMASZ
 40
0.1875
  9
$DIMEXO
 40
0.0625
  9
$DIMDLI
 40
0.836
  9
$DIMEXE
 40
0.125
  9
$DIMCEN
 40
0.198
  9
$DIMLFAC
 40
1.0
  9
$DIMBLK
  1
_CLOSED
  9
$DIMALT
 70
0
  9
$DIMALTF
 40
25.4
  9
$DIMTXT
 40
0.15625
  9
$DIMTOL
 70
0
  9
$DIMLIM
 70
0
  9
$DIMTFAC
 40
1.0
  9
$DIMGAP
 40
0.09
  9
$DIMDSEP
 70
46
  9
$AUNITS
 70
0
  9
$PDMODE
 70
3
  9
$PDSIZE
 40
0.3125
  9
$HANDSEED
  5
2FE
  9
$TILEMODE
 70
1
  9
$MEASUREMENT
 70
0
  9
$INSUNITS
 70
1
  0
ENDSEC
  0
SECTION
  2
CLASSES
  0
CLASS
  1
ACDBDICTIONARYWDFLT
  2
AcDbDictionaryWithDefault
  3
AutoCAD 2000
 90
0
 91
1
280
0
281
0
  0
CLASS
  1
ACDBPLACEHOLDER
  2
AcDbPlaceHolder
  3
AutoCAD 2000
 90
0
 91
1
280
0
281
0
  0
CLASS
  1
LAYOUT
  2
AcDbLayout
  3
AutoCAD 2000
 90
0
 91
0
280
0
281
0
  0
ENDSEC
  0
SECTION
  2
TABLES
  0
TABLE
  2
VPORT
  5
8
100
AcDbSymbolTable
 70
2
  0
VPORT
  5
1F4
100
AcDbSymbolTableRecord
100
AcDbViewportTableRecord
  2
*ACTIVE
 70
0
 10
0.0
 20
0.0
 11
1.0
 21
1.0
 12
11.0
 22
8.5
 13
0.0
 23
0.0
 14
1.0
 24
1.0
 15
0.0
 25
0.0
 16
0.0
 26
0.0
 36
1.0
 17
0.0
 27
0.0
 37
0.0
 40
17.0
 41
1.2941176471
 42
50.0
 43
0.0
 44
0.0
 50
0.0
 51
0.0
 71
0
 72
100
 73
1
 74
1
 75
0
 76
0
 77
0
 78
0
  0
ENDTAB
  0
TABLE
  2
LTYPE
  5
5
100
AcDbSymbolTable
 70
6
  0
LTYPE
  5
14
100
AcDbSymbolTableRecord
100
AcDbLinetypeTableRecord
  2
BYBLOCK
 70
0
  3

 72
65
 73
0
 40
0.0
  0
LTYPE
  5
15
100
AcDbSymbolTableRecord
100
AcDbLinetypeTableRecord
  2
BYLAYER
 70
0
  3

 72
65
 73
0
 40
0.0
  0
LTYPE
  5
16
100
AcDbSymbolTableRecord
100
AcDbLinetypeTableRecord
  2
CONTINUOUS
 70
64
  3
Solid line
 72
65
 73
0
 40
0.0
  0
LTYPE
  5
1F5
100
AcDbSymbolTableRecord
100
AcDbLinetypeTableRecord
  2
CENTER
 70
64
  3
____ _ ____ _ ____ _ ____ _ ____ _ ____ _ ____
 72
65
 73
4
 40
0.6
 49
0.375
 74
0
 49
-0.075
 74
0
 49
0.075
 74
0
 49
-0.075
 74
0
  0
LTYPE
  5
1F6
100
AcDbSymbolTableRecord
100
AcDbLinetypeTableRecord
  2
HIDDEN
 70
64
  3
- - - - - - - - - - - - - - - - - - - -
 72
65
 73
2
 40
0.2
 49
0.1
 74
0
 49
-0.1
 74
0
  0
LTYPE
  5
1F7
100
AcDbSymbolTableRecord
100
AcDbLinetypeTableRecord
  2
PHANTOM
 70
64
  3
_____ _ _ _____ _ _ _____ _ _ _____
 72
65
 73
6
 40
0.8
 49
0.45
 74
0
 49
-0.05
 74
0
 49
0.1
 74
0
 49
-0.05
 74
0
 49
0.1
 74
0
 49
-0.05
 74
0
  0
LTYPE
  5
1F8
100
AcDbSymbolTableRecord
100
AcDbLinetypeTableRecord
  2
DOT
 70
64
  3
. . . . . . . . . . . . . . . . . . . .
 72
65
 73
2
 40
0.2
 49
0.1
 74
0
 49
-0.1
 74
0
  0
LTYPE
  5
1F9
100
AcDbSymbolTableRecord
100
AcDbLinetypeTableRecord
  2
DASHED
 70
64
  3
- - - - - - - - - - - - - - - - - - - -
 72
65
 73
2
 40
0.2
 49
0.1
 74
0
 49
-0.1
 74
0
  0
ENDTAB
  0
TABLE
  2
LAYER
  5
2
100
AcDbSymbolTable
 70
36
  0
LAYER
  5
10
100
AcDbSymbolTableRecord
100
AcDbLayerTableRecord
  2
0
 70
0
 62
7
  6
CONTINUOUS
370
-3
390
F
  0
LAYER
  5
1FA
100
AcDbSymbolTableRecord
100
AcDbLayerTableRecord
  2
DEFAULT_1
 70
0
 62
7
  6
CENTER
370
-3
390
F
  0
LAYER
  5
1FB
100
AcDbSymbolTableRecord
100
AcDbLayerTableRecord
  2
DEFAULT_2
 70
0
 62
8
  6
HIDDEN
370
-3
390
F
  0
LAYER
  5
1FC
100
AcDbSymbolTableRecord
100
AcDbLayerTableRecord
  2
DEFAULT_3
 70
0
 62
7
  6
PHANTOM
370
-3
390
F
  0
LAYER
  5
1FD
100
AcDbSymbolTableRecord
100
AcDbLayerTableRecord
  2
01_ALL_DTM_PLN
 70
0
 62
7
  6
CONTINUOUS
370
-3
390
F
  0
LAYER
  5
1FE
100
AcDbSymbolTableRecord
100
AcDbLayerTableRecord
  2
01__ASM_ALL_DTM_PLN
 70
0
 62
7
  6
CONTINUOUS
370
-3
390
F
  0
LAYER
  5
1FF
100
AcDbSymbolTableRecord
100
AcDbLayerTableRecord
  2
01__ASM_DEF_DTM_PLN
 70
0
 62
7
  6
CONTINUOUS
370
-3
390
F
  0
LAYER
  5
200
100
AcDbSymbolTableRecord
100
AcDbLayerTableRecord
  2
01___PRT_ALL_DTM_PLN
 70
0
 62
7
  6
CONTINUOUS
370
-3
390
F
  0
LAYER
  5
201
100
AcDbSymbolTableRecord
100
AcDbLayerTableRecord
  2
01___PRT_DEF_DTM_PLN
 70
0
 62
7
  6
CONTINUOUS
370
-3
390
F
  0
LAYER
  5
202
100
AcDbSymbolTableRecord
100
AcDbLayerTableRecord
  2
02_ALL_AXES
 70
0
 62
7
  6
CONTINUOUS
370
-3
390
F
  0
LAYER
  5
203
100
AcDbSymbolTableRecord
100
AcDbLayerTableRecord
  2
02__ASM_ALL_AXES
 70
0
 62
7
  6
CONTINUOUS
370
-3
390
F
  0
LAYER
  5
204
100
AcDbSymbolTableRecord
100
AcDbLayerTableRecord
  2
02___PRT_ALL_AXES
 70
0
 62
7
  6
CONTINUOUS
370
-3
390
F
  0
LAYER
  5
205
100
AcDbSymbolTableRecord
100
AcDbLayerTableRecord
  2
03_ALL_CURVES
 70
0
 62
7
  6
CONTINUOUS
370
-3
390
F
  0
LAYER
  5
206
100
AcDbSymbolTableRecord
100
AcDbLayerTableRecord
  2
03__ASM_ALL_CURVES
 70
0
 62
7
  6
CONTINUOUS
370
-3
390
F
  0
LAYER
  5
207
100
AcDbSymbolTableRecord
100
AcDbLayerTableRecord
  2
03___PRT_ALL_CURVES
 70
0
 62
7
  6
CONTINUOUS
370
-3
390
F
  0
LAYER
  5
208
100
AcDbSymbolTableRecord
100
AcDbLayerTableRecord
  2
04_ALL_DTM_PNT
 70
0
 62
7
  6
CONTINUOUS
370
-3
390
F
  0
LAYER
  5
209
100
AcDbSymbolTableRecord
100
AcDbLayerTableRecord
  2
04__ASM_ALL_DTM_PNT
 70
0
 62
7
  6
CONTINUOUS
370
-3
390
F
  0
LAYER
  5
20A
100
AcDbSymbolTableRecord
100
AcDbLayerTableRecord
  2
04___PRT_ALL_DTM_PNT
 70
0
 62
7
  6
CONTINUOUS
370
-3
390
F
  0
LAYER
  5
20B
100
AcDbSymbolTableRecord
100
AcDbLayerTableRecord
  2
05_ALL_DTM_CSYS
 70
0
 62
7
  6
CONTINUOUS
370
-3
390
F
  0
LAYER
  5
20C
100
AcDbSymbolTableRecord
100
AcDbLayerTableRecord
  2
05__ASM_ALL_DTM_CSYS
 70
0
 62
7
  6
CONTINUOUS
370
-3
390
F
  0
LAYER
  5
20D
100
AcDbSymbolTableRecord
100
AcDbLayerTableRecord
  2
05__ASM_DEF_DTM_CSYS
 70
0
 62
7
  6
CONTINUOUS
370
-3
390
F
  0
LAYER
  5
20E
100
AcDbSymbolTableRecord
100
AcDbLayerTableRecord
  2
05___PRT_ALL_DTM_CSYS
 70
0
 62
7
  6
CONTINUOUS
370
-3
390
F
  0
LAYER
  5
20F
100
AcDbSymbolTableRecord
100
AcDbLayerTableRecord
  2
05___PRT_DEF_DTM_CSYS
 70
0
 62
7
  6
CONTINUOUS
370
-3
390
F
  0
LAYER
  5
210
100
AcDbSymbolTableRecord
100
AcDbLayerTableRecord
  2
06_ALL_SURFS
 70
0
 62
7
  6
CONTINUOUS
370
-3
390
F
  0
LAYER
  5
211
100
AcDbSymbolTableRecord
100
AcDbLayerTableRecord
  2
06__ASM_ALL_SURFS
 70
0
 62
7
  6
CONTINUOUS
370
-3
390
F
  0
LAYER
  5
212
100
AcDbSymbolTableRecord
100
AcDbLayerTableRecord
  2
06___PRT_ALL_SURFS
 70
0
 62
7
  6
CONTINUOUS
370
-3
390
F
  0
LAYER
  5
213
100
AcDbSymbolTableRecord
100
AcDbLayerTableRecord
  2
07__ASM_ALL_SKELETONS
 70
0
 62
7
  6
CONTINUOUS
370
-3
390
F
  0
ENDTAB
  0
TABLE
  2
STYLE
  5
3
100
AcDbSymbolTable
 70
1
  0
STYLE
  5
11
100
AcDbSymbolTableRecord
100
AcDbTextStyleTableRecord
  2
STANDARD
 70
0
 40
0.0
 41
0.8
 50
0.0
 71
0
 42
0.2
  3
txt
  4

  0
STYLE
  5
214
100
AcDbSymbolTableRecord
100
AcDbTextStyleTableRecord
  2
TEXTSTYLE_1
 70
0
 40
0.0
 41
0.8
 50
0.0
 71
0
 42
0.2
  3
gdt
  4

  0
ENDTAB
  0
TABLE
  2
VIEW
  5
6
100
AcDbSymbolTable
 70
0
  0
ENDTAB
  0
TABLE
  2
UCS
  5
7
100
AcDbSymbolTable
 70
0
  0
ENDTAB
  0
TABLE
  2
APPID
  5
9
100
AcDbSymbolTable
 70
1
  0
APPID
  5
215
100
AcDbSymbolTableRecord
100
AcDbRegAppTableRecord
  2
ACAD
 70
0
  0
ENDTAB
  0
TABLE
  2
BLOCK_RECORD
  5
1
100
AcDbSymbolTable
 70
0
  0
BLOCK_RECORD
  5
216
100
AcDbSymbolTableRecord
100
AcDbBlockTableRecord
  2
*Model_Space
  0
BLOCK_RECORD
  5
217
100
AcDbSymbolTableRecord
100
AcDbBlockTableRecord
  2
*Paper_Space
  0
ENDTAB
  0
TABLE
  2
DIMSTYLE
  5
A
100
AcDbSymbolTable
 70
1
100
AcDbDimStyleTable
 71
0
  0
DIMSTYLE
105
218
100
AcDbSymbolTableRecord
100
AcDbDimStyleTableRecord
  2
STANDARD
 70
0
  3

  4

 40
1.0
 41
0.1875
 42
0.0625
 43
0.38
 44
0.125
 45
0.0
 46
0.0
 47
0.0001
 48
0.0001
140
0.15625
141
0.09
142
0.0
143
25.4
144
1.0
145
0.0
146
1.0
147
0.09
 71
0.0
 72
0.0
 73
1
 74
1
 75
0
 76
0
 77
0
 78
4
 79
1
170
0
171
3
172
0
173
0
174
0
175
0
176
0
177
0
178
0
270
2
179
4
271
4
272
4
273
2
274
2
275
0
280
0
281
0
282
0
283
1
284
4
285
0
286
0
287
3
288
0
340
11
278
46
  0
ENDTAB
  0
ENDSEC
  0
SECTION
  2
BLOCKS
  0
BLOCK
  5
20
100
AcDbEntity
  8
0
100
AcDbBlockBegin
  2
*Model_Space
 70
0
 10
0.0
 20
0.0
 30
0.0
  3
*Model_Space
  1

  0
ENDBLK
  5
21
100
AcDbEntity
  8
0
100
AcDbBlockEnd
  0
BLOCK
  5
1C
100
AcDbEntity
  8
0
100
AcDbBlockBegin
  2
*Paper_Space
 70
0
 10
0.0
 20
0.0
 30
0.0
  3
*Paper_Space
  1

  0
ENDBLK
  5
1D
100
AcDbEntity
  8
0
100
AcDbBlockEnd
  0
ENDSEC
  0
SECTION
  2
ENTITIES
  0
MTEXT
  5
219
100
AcDbEntity
  8
0
100
AcDbMText
 62
7
  6
CONTINUOUS
  7
STANDARD
 71
1
 72
1
 10
15.9560215477
 20
0.9479130325
 30
0.0
 11
1.0
 21
0.0
 31
0.0
 44
0.9
  1
SCALE: 1:1.000
 40
0.3
 41
3.36
  0
LINE
  5
21A
100
AcDbEntity
  8
0
100
AcDbLine
 62
7
  6
CONTINUOUS
 10
0.0
 20
0.0
 11
0.0
 21
17.0
  0
LINE
  5
21B
100
AcDbEntity
  8
0
100
AcDbLine
 62
7
  6
CONTINUOUS
 10
0.0
 20
0.0
 11
22.0
 21
0.0
  0
LINE
  5
21C
100
AcDbEntity
  8
0
100
AcDbLine
 62
7
  6
CONTINUOUS
 10
0.0
 20
17.0
 11
22.0
 21
17.0
  0
LINE
  5
21D
100
AcDbEntity
  8
0
100
AcDbLine
 62
7
  6
CONTINUOUS
 10
22.0
 20
0.0
 11
22.0
 21
17.0
  0
LINE
  5
21E
100
AcDbEntity
  8
0
100
AcDbLine
 62
7
  6
CONTINUOUS
 10
5.1303672762
 20
5.7116198968
 11
5.1303672762
 21
5.6397634576
  0
LINE
  5
21F
100
AcDbEntity
  8
0
100
AcDbLine
 62
7
  6
CONTINUOUS
 10
5.2008683675
 20
5.3229961204
 11
5.1329302697
 21
5.6172683521
  0
LINE
  5
220
100
AcDbEntity
  8
0
100
AcDbLine
 62
7
  6
CONTINUOUS
 10
5.2252276192
 20
5.3036198968
 11
7.0355069332
 21
5.3036198968
  0
LINE
  5
221
100
AcDbEntity
  8
0
100
AcDbLine
 62
7
  6
CONTINUOUS
 10
5.1919056436
 20
5.4479532301
 11
7.0688289088
 21
5.4479532301
  0
LINE
  5
222
100
AcDbEntity
  8
0
100
AcDbLine
 62
7
  6
CONTINUOUS
 10
7.1053672762
 20
5.7366198968
 11
5.1553672762
 21
5.7366198968
  0
LINE
  5
223
100
AcDbEntity
  8
0
100
AcDbLine
 62
7
  6
CONTINUOUS
 10
7.1303672762
 20
5.6397634576
 11
7.1303672762
 21
5.7116198968
  0
LINE
  5
224
100
AcDbEntity
  8
0
100
AcDbLine
 62
7
  6
CONTINUOUS
 10
7.0598661848
 20
5.3229961204
 11
7.1278042826
 21
5.6172683521
  0
LINE
  5
225
100
AcDbEntity
  8
0
100
AcDbLine
 62
7
  6
CONTINUOUS
 10
7.0708720839
 20
10.6000477814
 11
5.0708720839
 21
10.6000477814
  0
LINE
  5
226
100
AcDbEntity
  8
0
100
AcDbLine
 62
7
  6
CONTINUOUS
 10
5.0708720839
 20
10.6000477814
 11
5.0708720839
 21
14.6000477814
  0
LINE
  5
227
100
AcDbEntity
  8
0
100
AcDbLine
 62
7
  6
CONTINUOUS
 10
7.0708720839
 20
10.6000477814
 11
7.0708720839
 21
14.6000477814
  0
LINE
  5
228
100
AcDbEntity
  8
0
100
AcDbLine
 62
7
  6
CONTINUOUS
 10
5.0708720839
 20
14.6000477814
 11
7.0708720839
 21
14.6000477814
  0
LINE
  5
229
100
AcDbEntity
  8
0
100
AcDbLine
 62
7
  6
CONTINUOUS
 10
13.5603552569
 20
5.3884580378
 11
13.5603552569
 21
5.6771247044
  0
LINE
  5
22A
100
AcDbEntity
  8
0
100
AcDbLine
 62
7
  6
CONTINUOUS
 10
13.6751508097
 20
5.3604916883
 11
13.6955597042
 21
5.2720910539
  0
LINE
  5
22B
100
AcDbEntity
  8
0
100
AcDbLine
 62
7
  6
CONTINUOUS
 10
13.9251508097
 20
5.2720910539
 11
13.9455597042
 21
5.3604916883
  0
LINE
  5
22C
100
AcDbEntity
  8
0
100
AcDbLine
 62
7
  6
CONTINUOUS
 10
14.1751508097
 20
5.3604916883
 11
14.1955597042
 21
5.2720910539
  0
LINE
  5
22D
100
AcDbEntity
  8
0
100
AcDbLine
 62
7
  6
CONTINUOUS
 10
14.4251508097
 20
5.2720910539
 11
14.4455597042
 21
5.3604916883
  0
LINE
  5
22E
100
AcDbEntity
  8
0
100
AcDbLine
 62
7
  6
CONTINUOUS
 10
14.6751508097
 20
5.3604916883
 11
14.6955597042
 21
5.2720910539
  0
LINE
  5
22F
100
AcDbEntity
  8
0
100
AcDbLine
 62
7
  6
CONTINUOUS
 10
14.9251508097
 20
5.2720910539
 11
14.9455597042
 21
5.3604916883
  0
LINE
  5
230
100
AcDbEntity
  8
0
100
AcDbLine
 62
7
  6
CONTINUOUS
 10
15.1751508097
 20
5.3604916883
 11
15.1955597042
 21
5.2720910539
  0
LINE
  5
231
100
AcDbEntity
  8
0
100
AcDbLine
 62
7
  6
CONTINUOUS
 10
13.7307182241
 20
5.2441247044
 11
13.8899922898
 21
5.2441247044
  0
LINE
  5
232
100
AcDbEntity
  8
0
100
AcDbLine
 62
7
  6
CONTINUOUS
 10
14.2307182241
 20
5.2441247044
 11
14.3899922898
 21
5.2441247044
  0
LINE
  5
233
100
AcDbEntity
  8
0
100
AcDbLine
 62
7
  6
CONTINUOUS
 10
14.7307182241
 20
5.2441247044
 11
14.8899922898
 21
5.2441247044
  0
LINE
  5
234
100
AcDbEntity
  8
0
100
AcDbLine
 62
7
  6
CONTINUOUS
 10
15.2307182241
 20
5.2441247044
 11
15.3899922898
 21
5.2441247044
  0
LINE
  5
235
100
AcDbEntity
  8
0
100
AcDbLine
 62
7
  6
CONTINUOUS
 10
15.7307182241
 20
5.2441247044
 11
15.8899922898
 21
5.2441247044
  0
LINE
  5
236
100
AcDbEntity
  8
0
100
AcDbLine
 62
7
  6
CONTINUOUS
 10
16.2307182241
 20
5.2441247044
 11
16.3899922898
 21
5.2441247044
  0
LINE
  5
237
100
AcDbEntity
  8
0
100
AcDbLine
 62
7
  6
CONTINUOUS
 10
16.7307182241
 20
5.2441247044
 11
16.8899922898
 21
5.2441247044
  0
LINE
  5
238
100
AcDbEntity
  8
0
100
AcDbLine
 62
7
  6
CONTINUOUS
 10
17.2307182241
 20
5.2441247044
 11
17.3899922898
 21
5.2441247044
  0
LINE
  5
239
100
AcDbEntity
  8
0
100
AcDbLine
 62
7
  6
CONTINUOUS
 10
15.4251508097
 20
5.2720910539
 11
15.4455597042
 21
5.3604916883
  0
LINE
  5
23A
100
AcDbEntity
  8
0
100
AcDbLine
 62
7
  6
CONTINUOUS
 10
13.5603552569
 20
5.3884580378
 11
13.6399922898
 21
5.3884580378
  0
LINE
  5
23B
100
AcDbEntity
  8
0
100
AcDbLine
 62
7
  6
CONTINUOUS
 10
13.9807182241
 20
5.3884580378
 11
14.1399922898
 21
5.3884580378
  0
LINE
  5
23C
100
AcDbEntity
  8
0
100
AcDbLine
 62
7
  6
CONTINUOUS
 10
14.4807182241
 20
5.3884580378
 11
14.6399922898
 21
5.3884580378
  0
LINE
  5
23D
100
AcDbEntity
  8
0
100
AcDbLine
 62
7
  6
CONTINUOUS
 10
14.9807182241
 20
5.3884580378
 11
15.1399922898
 21
5.3884580378
  0
LINE
  5
23E
100
AcDbEntity
  8
0
100
AcDbLine
 62
7
  6
CONTINUOUS
 10
15.4807182241
 20
5.3884580378
 11
15.6399922898
 21
5.3884580378
  0
LINE
  5
23F
100
AcDbEntity
  8
0
100
AcDbLine
 62
7
  6
CONTINUOUS
 10
15.9807182241
 20
5.3884580378
 11
16.1399922898
 21
5.3884580378
  0
LINE
  5
240
100
AcDbEntity
  8
0
100
AcDbLine
 62
7
  6
CONTINUOUS
 10
16.4807182241
 20
5.3884580378
 11
16.6399922898
 21
5.3884580378
  0
LINE
  5
241
100
AcDbEntity
  8
0
100
AcDbLine
 62
7
  6
CONTINUOUS
 10
16.9807182241
 20
5.3884580378
 11
17.1399922898
 21
5.3884580378
  0
LINE
  5
242
100
AcDbEntity
  8
0
100
AcDbLine
 62
7
  6
CONTINUOUS
 10
17.4807182241
 20
5.3884580378
 11
17.5603552569
 21
5.3884580378
  0
LINE
  5
243
100
AcDbEntity
  8
0
100
AcDbLine
 62
7
  6
CONTINUOUS
 10
15.6751508097
 20
5.3604916883
 11
15.6955597042
 21
5.2720910539
  0
LINE
  5
244
100
AcDbEntity
  8
0
100
AcDbLine
 62
7
  6
CONTINUOUS
 10
13.5603552569
 20
5.6771247044
 11
17.5603552569
 21
5.6771247044
  0
LINE
  5
245
100
AcDbEntity
  8
0
100
AcDbLine
 62
7
  6
CONTINUOUS
 10
15.9251508097
 20
5.2720910539
 11
15.9455597042
 21
5.3604916883
  0
LINE
  5
246
100
AcDbEntity
  8
0
100
AcDbLine
 62
7
  6
CONTINUOUS
 10
16.1751508097
 20
5.3604916883
 11
16.1955597042
 21
5.2720910539
  0
LINE
  5
247
100
AcDbEntity
  8
0
100
AcDbLine
 62
7
  6
CONTINUOUS
 10
16.4251508097
 20
5.2720910539
 11
16.4455597042
 21
5.3604916883
  0
LINE
  5
248
100
AcDbEntity
  8
0
100
AcDbLine
 62
7
  6
CONTINUOUS
 10
16.6751508097
 20
5.3604916883
 11
16.6955597042
 21
5.2720910539
  0
LINE
  5
249
100
AcDbEntity
  8
0
100
AcDbLine
 62
7
  6
CONTINUOUS
 10
16.9251508097
 20
5.2720910539
 11
16.9455597042
 21
5.3604916883
  0
LINE
  5
24A
100
AcDbEntity
  8
0
100
AcDbLine
 62
7
  6
CONTINUOUS
 10
17.1751508097
 20
5.3604916883
 11
17.1955597042
 21
5.2720910539
  0
LINE
  5
24B
100
AcDbEntity
  8
0
100
AcDbLine
 62
7
  6
CONTINUOUS
 10
17.5603552569
 20
5.3884580378
 11
17.5603552569
 21
5.6771247044
  0
LINE
  5
24C
100
AcDbEntity
  8
0
100
AcDbLine
 62
7
  6
CONTINUOUS
 10
17.4251508097
 20
5.2720910539
 11
17.4455597042
 21
5.3604916883
  0
LINE
  5
24D
100
AcDbEntity
  8
0
100
AcDbLine
 62
7
  6
CONTINUOUS
 10
14.0775381675
 20
10.9596801026
 11
14.1551593689
 21
10.8664765887
  0
LINE
  5
24E
100
AcDbEntity
  8
0
100
AcDbLine
 62
7
  6
CONTINUOUS
 10
14.0463963228
 20
11.0183299632
 11
14.0683155452
 21
10.9736632843
  0
LWPOLYLINE
  5
24F
100
AcDbEntity
  8
0
100
AcDbPolyline
 62
7
  6
CONTINUOUS
 90
5
 70
0
 10
15.9567242696
 20
10.8845095054
 10
15.9659501416
 20
10.8862287191
 10
15.9732430057
 20
10.8905174227
 10
15.9782850792
 20
10.896044438
 10
15.981652045
 20
10.9022837131
  0
LINE
  5
250
100
AcDbEntity
  8
0
100
AcDbLine
 62
7
  6
CONTINUOUS
 10
14.1835062849
 20
10.8544321349
 11
15.9122670932
 21
10.8544321349
  0
LINE
  5
251
100
AcDbEntity
  8
0
100
AcDbLine
 62
7
  6
CONTINUOUS
 10
15.9352998096
 20
10.884509419
 11
15.9567276069
 21
10.884509419
  0
LINE
  5
252
100
AcDbEntity
  8
0
100
AcDbLine
 62
7
  6
CONTINUOUS
 10
15.8578657393
 20
11.0338702124
 11
14.061796801
 21
11.0338702124
  0
LWPOLYLINE
  5
253
100
AcDbEntity
  8
0
100
AcDbPolyline
 62
7
  6
CONTINUOUS
 90
5
 70
0
 10
16.0777574313
 20
11.2761729602
 10
16.0869833033
 20
11.277892174
 10
16.0942761674
 20
11.2821808775
 10
16.0993182409
 20
11.2877078928
 10
16.1026852067
 20
11.2939471679
  0
LINE
  5
254
100
AcDbEntity
  8
0
100
AcDbLine
 62
7
  6
CONTINUOUS
 10
16.0563329713
 20
11.2761728739
 11
16.0777607686
 21
11.2761728739
  0
LINE
  5
255
100
AcDbEntity
  8
0
100
AcDbLine
 62
7
  6
CONTINUOUS
 10
14.0455373266
 20
11.0257111475
 11
15.0138026202
 21
14.159018786
  0
LWPOLYLINE
  5
256
100
AcDbEntity
  8
0
100
AcDbPolyline
 62
7
  6
CONTINUOUS
 90
5
 70
0
 10
16.198790593
 20
11.667836415
 10
16.208016465
 20
11.6695556288
 10
16.2153093291
 20
11.6738443323
 10
16.2203514027
 20
11.6793713476
 10
16.2237183684
 20
11.6856106227
  0
LINE
  5
257
100
AcDbEntity
  8
0
100
AcDbLine
 62
7
  6
CONTINUOUS
 10
16.1773661331
 20
11.6678363287
 11
16.1987939303
 21
11.6678363287
  0
LWPOLYLINE
  5
258
100
AcDbEntity
  8
0
100
AcDbPolyline
 62
7
  6
CONTINUOUS
 90
5
 70
0
 10
16.3198237547
 20
12.0594998698
 10
16.3290496267
 20
12.0612190836
 10
16.3363424908
 20
12.0655077871
 10
16.3413845644
 20
12.0710348024
 10
16.3447515301
 20
12.0772740775
  0
LINE
  5
259
100
AcDbEntity
  8
0
100
AcDbLine
 62
7
  6
CONTINUOUS
 10
16.2983992948
 20
12.0594997835
 11
16.319827092
 21
12.0594997835
  0
LINE
  5
25A
100
AcDbEntity
  8
0
100
AcDbLine
 62
7
  6
CONTINUOUS
 10
15.9104375332
 20
10.9736632843
 11
15.8885183109
 21
11.0183299632
  0
LWPOLYLINE
  5
25B
100
AcDbEntity
  8
0
100
AcDbPolyline
 62
7
  6
CONTINUOUS
 90
5
 70
0
 10
16.4408569164
 20
12.4511633246
 10
16.4500827884
 20
12.4528825384
 10
16.4573756525
 20
12.4571712419
 10
16.4624177261
 20
12.4626982572
 10
16.4657846918
 20
12.4689375323
  0
LINE
  5
25C
100
AcDbEntity
  8
0
100
AcDbLine
 62
7
  6
CONTINUOUS
 10
16.4194324565
 20
12.4511632383
 11
16.4408602537
 21
12.4511632383
  0
LWPOLYLINE
  5
25D
100
AcDbEntity
  8
0
100
AcDbPolyline
 62
7
  6
CONTINUOUS
 90
5
 70
0
 10
16.5618900781
 20
12.8428267794
 10
16.5711159501
 20
12.8445459932
 10
16.5784088142
 20
12.8488346968
 10
16.5834508878
 20
12.854361712
 10
16.5868178535
 20
12.8606009871
  0
LINE
  5
25E
100
AcDbEntity
  8
0
100
AcDbLine
 62
7
  6
CONTINUOUS
 10
15.9287928903
 20
10.8664765887
 11
15.9149388088
 21
10.9596801026
  0
LINE
  5
25F
100
AcDbEntity
  8
0
100
AcDbLine
 62
7
  6
CONTINUOUS
 10
16.5404656182
 20
12.8428266931
 11
16.5618934154
 21
12.8428266931
  0
LINE
  5
260
100
AcDbEntity
  8
0
100
AcDbLine
 62
7
  6
CONTINUOUS
 10
16.0245657962
 20
11.0534023259
 11
16.0213380445
 21
11.1243398773
  0
LWPOLYLINE
  5
261
100
AcDbEntity
  8
0
100
AcDbPolyline
 62
7
  6
CONTINUOUS
 90
6
 70
0
 10
16.0213366512
 20
11.124362864
 10
16.0212200269
 20
11.1288119297
 10
16.0216375323
 20
11.1422329917
 10
16.0231807553
 20
11.1577656371
 10
16.025729019
 20
11.1733866803
 10
16.0288800037
 20
11.1870214644
  0
LINE
  5
262
100
AcDbEntity
  8
0
100
AcDbLine
 62
7
  6
CONTINUOUS
 10
16.0246140709
 20
11.0502724735
 11
16.0245633866
 21
11.0534524401
  0
LINE
  5
263
100
AcDbEntity
  8
0
100
AcDbLine
 62
7
  6
CONTINUOUS
 10
15.9285247256
 20
10.8625917668
 11
15.9287928903
 21
10.8664765887
  0
LINE
  5
264
100
AcDbEntity
  8
0
100
AcDbLine
 62
7
  6
CONTINUOUS
 10
16.7991606894
 20
13.6773935071
 11
16.7996967861
 21
13.6783620785
  0
LWPOLYLINE
  5
265
100
AcDbEntity
  8
0
100
AcDbPolyline
 62
7
  6
CONTINUOUS
 90
5
 70
0
 10
16.6829232398
 20
13.2344902342
 10
16.6921491118
 20
13.236209448
 10
16.6994419759
 20
13.2404981516
 10
16.7044840495
 20
13.2460251668
 10
16.7078510152
 20
13.2522644419
  0
LINE
  5
266
100
AcDbEntity
  8
0
100
AcDbLine
 62
7
  6
CONTINUOUS
 10
16.1455989579
 20
11.4450657808
 11
16.1423712062
 21
11.5160033321
  0
LWPOLYLINE
  5
267
100
AcDbEntity
  8
0
100
AcDbPolyline
 62
7
  6
CONTINUOUS
 90
6
 70
0
 10
16.1423698129
 20
11.5160263188
 10
16.1422531886
 20
11.5204753845
 10
16.142670694
 20
11.5338964465
 10
16.144213917
 20
11.5494290919
 10
16.1467621808
 20
11.5650501351
 10
16.1499131654
 20
11.5786849192
  0
LINE
  5
268
100
AcDbEntity
  8
0
100
AcDbLine
 62
7
  6
CONTINUOUS
 10
16.1456472326
 20
11.4419359283
 11
16.1455965483
 21
11.445115895
  0
LINE
  5
269
100
AcDbEntity
  8
0
100
AcDbLine
 62
7
  6
CONTINUOUS
 10
16.0240176405
 20
11.0422037938
 11
16.0246140709
 21
11.0502724735
  0
LINE
  5
26A
100
AcDbEntity
  8
0
100
AcDbLine
 62
7
  6
CONTINUOUS
 10
16.7974639183
 20
13.6735931592
 11
16.7991606894
 21
13.6773935071
  0
LINE
  5
26B
100
AcDbEntity
  8
0
100
AcDbLine
 62
7
  6
CONTINUOUS
 10
16.6781275277
 20
13.2857300522
 11
16.6786636244
 21
13.2866986237
  0
LINE
  5
26C
100
AcDbEntity
  8
0
100
AcDbLine
 62
7
  6
CONTINUOUS
 10
16.6614987799
 20
13.2344901479
 11
16.6829265771
 21
13.2344901479
  0
LINE
  5
26D
100
AcDbEntity
  8
0
100
AcDbLine
 62
7
  6
CONTINUOUS
 10
16.2666321196
 20
11.8367292356
 11
16.2634043679
 21
11.9076667869
  0
LWPOLYLINE
  5
26E
100
AcDbEntity
  8
0
100
AcDbPolyline
 62
7
  6
CONTINUOUS
 90
6
 70
0
 10
16.2634029746
 20
11.9076897736
 10
16.2632863503
 20
11.9121388394
 10
16.2637038557
 20
11.9255599013
 10
16.2652470787
 20
11.9410925467
 10
16.2677953425
 20
11.9567135899
 10
16.2709463271
 20
11.9703483741
  0
LINE
  5
26F
100
AcDbEntity
  8
0
100
AcDbLine
 62
7
  6
CONTINUOUS
 10
16.2666803943
 20
11.8335993831
 11
16.26662971
 21
11.8367793498
  0
LINE
  5
270
100
AcDbEntity
  8
0
100
AcDbLine
 62
7
  6
CONTINUOUS
 10
16.1450508022
 20
11.4338672486
 11
16.1456472326
 21
11.4419359283
  0
LINE
  5
271
100
AcDbEntity
  8
0
100
AcDbLine
 62
7
  6
CONTINUOUS
 10
16.2660839639
 20
11.8255307034
 11
16.2666803943
 21
11.8335993831
  0
LINE
  5
272
100
AcDbEntity
  8
0
100
AcDbLine
 62
7
  6
CONTINUOUS
 10
16.0224965351
 20
11.0341010455
 11
16.0240176405
 21
11.0422037938
  0
LINE
  5
273
100
AcDbEntity
  8
0
100
AcDbLine
 62
7
  6
CONTINUOUS
 10
16.1435296968
 20
11.4257645003
 11
16.1450508022
 21
11.4338672486
  0
LINE
  5
274
100
AcDbEntity
  8
0
100
AcDbLine
 62
7
  6
CONTINUOUS
 10
16.6764307566
 20
13.2819297044
 11
16.6781275277
 21
13.2857300522
  0
LINE
  5
275
100
AcDbEntity
  8
0
100
AcDbLine
 62
7
  6
CONTINUOUS
 10
16.5553975949
 20
12.8902662496
 11
16.557094366
 21
12.8940665974
  0
LINE
  5
276
100
AcDbEntity
  8
0
100
AcDbLine
 62
7
  6
CONTINUOUS
 10
16.4343644332
 20
12.4986027948
 11
16.4360612043
 21
12.5024031426
  0
LINE
  5
277
100
AcDbEntity
  8
0
100
AcDbLine
 62
7
  6
CONTINUOUS
 10
16.557094366
 20
12.8940665974
 11
16.5576304627
 21
12.8950351689
  0
LINE
  5
278
100
AcDbEntity
  8
0
100
AcDbLine
 62
7
  6
CONTINUOUS
 10
16.4360612043
 20
12.5024031426
 11
16.436597301
 21
12.5033717141
  0
LWPOLYLINE
  5
279
100
AcDbEntity
  8
0
100
AcDbPolyline
 62
7
  6
CONTINUOUS
 90
5
 70
0
 10
16.8039564015
 20
13.6261536891
 10
16.8131822735
 20
13.6278729028
 10
16.8204751376
 20
13.6321616064
 10
16.8255172112
 20
13.6376886217
 10
16.8288841769
 20
13.6439278968
  0
LINE
  5
27A
100
AcDbEntity
  8
0
100
AcDbLine
 62
7
  6
CONTINUOUS
 10
16.3876652813
 20
12.2283926904
 11
16.3844375296
 21
12.2993302418
  0
LWPOLYLINE
  5
27B
100
AcDbEntity
  8
0
100
AcDbPolyline
 62
7
  6
CONTINUOUS
 90
6
 70
0
 10
16.3844361363
 20
12.2993532284
 10
16.384319512
 20
12.3038022942
 10
16.3847370174
 20
12.3172233561
 10
16.3862802404
 20
12.3327560015
 10
16.3888285042
 20
12.3483770447
 10
16.3919794888
 20
12.3620118289
  0
LWPOLYLINE
  5
27C
100
AcDbEntity
  8
0
100
AcDbPolyline
 62
7
  6
CONTINUOUS
 90
6
 70
0
 10
16.505469298
 20
12.6910166832
 10
16.5053526737
 20
12.695465749
 10
16.5057701791
 20
12.7088868109
 10
16.5073134021
 20
12.7244194563
 10
16.5098616659
 20
12.7400404995
 10
16.5130126505
 20
12.7536752837
  0
LINE
  5
27D
100
AcDbEntity
  8
0
100
AcDbLine
 62
7
  6
CONTINUOUS
 10
16.387713556
 20
12.2252628379
 11
16.3876628717
 21
12.2284428046
  0
LINE
  5
27E
100
AcDbEntity
  8
0
100
AcDbLine
 62
7
  6
CONTINUOUS
 10
16.5087467177
 20
12.6169262927
 11
16.5086960334
 21
12.6201062594
  0
LINE
  5
27F
100
AcDbEntity
  8
0
100
AcDbLine
 62
7
  6
CONTINUOUS
 10
16.3871171256
 20
12.2171941582
 11
16.387713556
 21
12.2252628379
  0
LINE
  5
280
100
AcDbEntity
  8
0
100
AcDbLine
 62
7
  6
CONTINUOUS
 10
16.5081502873
 20
12.608857613
 11
16.5087467177
 21
12.6169262927
  0
LINE
  5
281
100
AcDbEntity
  8
0
100
AcDbLine
 62
7
  6
CONTINUOUS
 10
16.2645628585
 20
11.8174279551
 11
16.2660839639
 21
11.8255307034
  0
LINE
  5
282
100
AcDbEntity
  8
0
100
AcDbLine
 62
7
  6
CONTINUOUS
 10
16.3855960202
 20
12.20909141
 11
16.3871171256
 21
12.2171941582
  0
LINE
  5
283
100
AcDbEntity
  8
0
100
AcDbLine
 62
7
  6
CONTINUOUS
 10
16.5066291819
 20
12.6007548648
 11
16.5081502873
 21
12.608857613
  0
LINE
  5
284
100
AcDbEntity
  8
0
100
AcDbLine
 62
7
  6
CONTINUOUS
 10
16.0216430436
 20
11.0310418962
 11
16.0224965351
 21
11.0341010455
  0
LINE
  5
285
100
AcDbEntity
  8
0
100
AcDbLine
 62
7
  6
CONTINUOUS
 10
16.1426762053
 20
11.4227053511
 11
16.1435296968
 21
11.4257645003
  0
LINE
  5
286
100
AcDbEntity
  8
0
100
AcDbLine
 62
7
  6
CONTINUOUS
 10
16.263709367
 20
11.8143688059
 11
16.2645628585
 21
11.8174279551
  0
LINE
  5
287
100
AcDbEntity
  8
0
100
AcDbLine
 62
7
  6
CONTINUOUS
 10
16.3847425287
 20
12.2060322607
 11
16.3855960202
 21
12.20909141
  0
LINE
  5
288
100
AcDbEntity
  8
0
100
AcDbLine
 62
7
  6
CONTINUOUS
 10
16.5057756904
 20
12.5976957155
 11
16.5066291819
 21
12.6007548648
  0
LINE
  5
289
100
AcDbEntity
  8
0
100
AcDbLine
 62
7
  6
CONTINUOUS
 10
16.6268088521
 20
12.9893591703
 11
16.6276623436
 21
12.9924183196
  0
LINE
  5
28A
100
AcDbEntity
  8
0
100
AcDbLine
 62
7
  6
CONTINUOUS
 10
16.7478420138
 20
13.3810226251
 11
16.7486955053
 21
13.3840817744
  0
LINE
  5
28B
100
AcDbEntity
  8
0
100
AcDbLine
 62
7
  6
CONTINUOUS
 10
16.8688751755
 20
13.7726860799
 11
16.869728667
 21
13.7757452292
  0
LINE
  5
28C
100
AcDbEntity
  8
0
100
AcDbLine
 62
7
  6
CONTINUOUS
 10
16.0288800037
 20
11.1870214644
 11
16.0302762789
 21
11.191858413
  0
LINE
  5
28D
100
AcDbEntity
  8
0
100
AcDbLine
 62
7
  6
CONTINUOUS
 10
16.1499131654
 20
11.5786849192
 11
16.1513094406
 21
11.5835218678
  0
LINE
  5
28E
100
AcDbEntity
  8
0
100
AcDbLine
 62
7
  6
CONTINUOUS
 10
16.2709463271
 20
11.9703483741
 11
16.2723426023
 21
11.9751853226
  0
LINE
  5
28F
100
AcDbEntity
  8
0
100
AcDbLine
 62
7
  6
CONTINUOUS
 10
16.3919794888
 20
12.3620118289
 11
16.393375764
 21
12.3668487774
  0
LINE
  5
290
100
AcDbEntity
  8
0
100
AcDbLine
 62
7
  6
CONTINUOUS
 10
16.5130126505
 20
12.7536752837
 11
16.5144089257
 21
12.7585122322
  0
LINE
  5
291
100
AcDbEntity
  8
0
100
AcDbLine
 62
7
  6
CONTINUOUS
 10
16.6340458122
 20
13.1453387385
 11
16.6354420874
 21
13.150175687
  0
LINE
  5
292
100
AcDbEntity
  8
0
100
AcDbLine
 62
7
  6
CONTINUOUS
 10
16.7550789739
 20
13.5370021933
 11
16.7564752491
 21
13.5418391418
  0
LINE
  5
293
100
AcDbEntity
  8
0
100
AcDbLine
 62
7
  6
CONTINUOUS
 10
16.8761121356
 20
13.9286656481
 11
16.8775084108
 21
13.9335025967
  0
LINE
  5
294
100
AcDbEntity
  8
0
100
AcDbLine
 62
7
  6
CONTINUOUS
 10
16.8775144175
 20
13.9335170075
 11
16.8967918612
 21
13.9958988383
  0
LINE
  5
295
100
AcDbEntity
  8
0
100
AcDbLine
 62
7
  6
CONTINUOUS
 10
15.9831018422
 20
10.9063220576
 11
16.0216567296
 21
11.0310857191
  0
LINE
  5
296
100
AcDbEntity
  8
0
100
AcDbLine
 62
7
  6
CONTINUOUS
 10
16.1041350039
 20
11.2979855124
 11
16.1426898913
 21
11.4227491739
  0
LINE
  5
297
100
AcDbEntity
  8
0
100
AcDbLine
 62
7
  6
CONTINUOUS
 10
16.2251681656
 20
11.6896489672
 11
16.263723053
 21
11.8144126287
  0
LINE
  5
298
100
AcDbEntity
  8
0
100
AcDbLine
 62
7
  6
CONTINUOUS
 10
16.3462013273
 20
12.0813124221
 11
16.3847562147
 21
12.2060760835
  0
LINE
  5
299
100
AcDbEntity
  8
0
100
AcDbLine
 62
7
  6
CONTINUOUS
 10
16.467234489
 20
12.4729758769
 11
16.5057893764
 21
12.5977395383
  0
LINE
  5
29A
100
AcDbEntity
  8
0
100
AcDbLine
 62
7
  6
CONTINUOUS
 10
16.5882676507
 20
12.8646393317
 11
16.6268225381
 21
12.9894029931
  0
LINE
  5
29B
100
AcDbEntity
  8
0
100
AcDbLine
 62
7
  6
CONTINUOUS
 10
16.7093008124
 20
13.2563027865
 11
16.7478556998
 21
13.3810664479
  0
LINE
  5
29C
100
AcDbEntity
  8
0
100
AcDbLine
 62
7
  6
CONTINUOUS
 10
16.8303339741
 20
13.6479662413
 11
16.8688888615
 21
13.7727299028
  0
LWPOLYLINE
  5
29D
100
AcDbEntity
  8
0
100
AcDbPolyline
 62
7
  6
CONTINUOUS
 90
3
 70
0
 10
16.7564812558
 20
13.5418535526
 10
16.7953338019
 20
13.6675669796
 10
16.7974639183
 20
13.6735931592
  0
LWPOLYLINE
  5
29E
100
AcDbEntity
  8
0
100
AcDbPolyline
 62
7
  6
CONTINUOUS
 90
3
 70
0
 10
16.6354480941
 20
13.1501900978
 10
16.6743006402
 20
13.2759035248
 10
16.6764307566
 20
13.2819297044
  0
LWPOLYLINE
  5
29F
100
AcDbEntity
  8
0
100
AcDbPolyline
 62
7
  6
CONTINUOUS
 90
3
 70
0
 10
16.5144149324
 20
12.758526643
 10
16.5532674785
 20
12.88424007
 10
16.5553975949
 20
12.8902662496
  0
LWPOLYLINE
  5
2A0
100
AcDbEntity
  8
0
100
AcDbPolyline
 62
7
  6
CONTINUOUS
 90
3
 70
0
 10
16.3933817707
 20
12.3668631882
 10
16.4322343168
 20
12.4925766152
 10
16.4343644332
 20
12.4986027948
  0
LWPOLYLINE
  5
2A1
100
AcDbEntity
  8
0
100
AcDbPolyline
 62
7
  6
CONTINUOUS
 90
3
 70
0
 10
16.272348609
 20
11.9751997334
 10
16.3112011551
 20
12.1009131604
 10
16.3133312715
 20
12.10693934
  0
LWPOLYLINE
  5
2A2
100
AcDbEntity
  8
0
100
AcDbPolyline
 62
7
  6
CONTINUOUS
 90
3
 70
0
 10
16.1513154473
 20
11.5835362786
 10
16.1901679934
 20
11.7092497056
 10
16.1922981098
 20
11.7152758852
  0
LWPOLYLINE
  5
2A3
100
AcDbEntity
  8
0
100
AcDbPolyline
 62
7
  6
CONTINUOUS
 90
3
 70
0
 10
16.0302822856
 20
11.1918728238
 10
16.0691348317
 20
11.3175862508
 10
16.0712649481
 20
11.3236124304
  0
LWPOLYLINE
  5
2A4
100
AcDbEntity
  8
0
100
AcDbPolyline
 62
7
  6
CONTINUOUS
 90
3
 70
0
 10
15.9296457951
 20
10.8662130211
 10
15.94810167
 20
10.9259227959
 10
15.9502317864
 20
10.9319489755
  0
LINE
  5
2A5
100
AcDbEntity
  8
0
100
AcDbLine
 62
7
  6
CONTINUOUS
 10
16.8288841769
 20
13.6439278968
 11
16.8303316918
 21
13.6479589015
  0
LINE
  5
2A6
100
AcDbEntity
  8
0
100
AcDbLine
 62
7
  6
CONTINUOUS
 10
16.7078510152
 20
13.2522644419
 11
16.7092985301
 21
13.2562954467
  0
LINE
  5
2A7
100
AcDbEntity
  8
0
100
AcDbLine
 62
7
  6
CONTINUOUS
 10
16.5868178535
 20
12.8606009871
 11
16.5882653684
 21
12.8646319919
  0
LINE
  5
2A8
100
AcDbEntity
  8
0
100
AcDbLine
 62
7
  6
CONTINUOUS
 10
16.4657846918
 20
12.4689375323
 11
16.4672322067
 21
12.4729685371
  0
LINE
  5
2A9
100
AcDbEntity
  8
0
100
AcDbLine
 62
7
  6
CONTINUOUS
 10
16.3447515301
 20
12.0772740775
 11
16.346199045
 21
12.0813050822
  0
LINE
  5
2AA
100
AcDbEntity
  8
0
100
AcDbLine
 62
7
  6
CONTINUOUS
 10
16.2237183684
 20
11.6856106227
 11
16.2251658833
 21
11.6896416274
  0
LINE
  5
2AB
100
AcDbEntity
  8
0
100
AcDbLine
 62
7
  6
CONTINUOUS
 10
16.1026852067
 20
11.2939471679
 11
16.1041327216
 21
11.2979781726
  0
LINE
  5
2AC
100
AcDbEntity
  8
0
100
AcDbLine
 62
7
  6
CONTINUOUS
 10
15.981652045
 20
10.9022837131
 11
15.9830995599
 21
10.9063147178
  0
LINE
  5
2AD
100
AcDbEntity
  8
0
100
AcDbLine
 62
7
  6
CONTINUOUS
 10
16.3133312715
 20
12.10693934
 11
16.3150280426
 21
12.1107396878
  0
LINE
  5
2AE
100
AcDbEntity
  8
0
100
AcDbLine
 62
7
  6
CONTINUOUS
 10
16.1922981098
 20
11.7152758852
 11
16.1939948809
 21
11.719076233
  0
LINE
  5
2AF
100
AcDbEntity
  8
0
100
AcDbLine
 62
7
  6
CONTINUOUS
 10
16.0712649481
 20
11.3236124304
 11
16.0729617192
 21
11.3274127782
  0
LINE
  5
2B0
100
AcDbEntity
  8
0
100
AcDbLine
 62
7
  6
CONTINUOUS
 10
16.3150280426
 20
12.1107396878
 11
16.3155641392
 21
12.1117082593
  0
LINE
  5
2B1
100
AcDbEntity
  8
0
100
AcDbLine
 62
7
  6
CONTINUOUS
 10
16.1939948809
 20
11.719076233
 11
16.1945309775
 21
11.7200448045
  0
LINE
  5
2B2
100
AcDbEntity
  8
0
100
AcDbLine
 62
7
  6
CONTINUOUS
 10
16.508698443
 20
12.6200561452
 11
16.5054706913
 21
12.6909936966
  0
LINE
  5
2B3
100
AcDbEntity
  8
0
100
AcDbLine
 62
7
  6
CONTINUOUS
 10
16.6297316047
 20
13.0117196
 11
16.626503853
 21
13.0826571514
  0
LWPOLYLINE
  5
2B4
100
AcDbEntity
  8
0
100
AcDbPolyline
 62
7
  6
CONTINUOUS
 90
6
 70
0
 10
16.6265024597
 20
13.082680138
 10
16.6263858354
 20
13.0871292038
 10
16.6268033408
 20
13.1005502657
 10
16.6283465638
 20
13.1160829112
 10
16.6308948276
 20
13.1317039544
 10
16.6340458122
 20
13.1453387385
  0
LINE
  5
2B5
100
AcDbEntity
  8
0
100
AcDbLine
 62
7
  6
CONTINUOUS
 10
16.6297798794
 20
13.0085897476
 11
16.6297291951
 21
13.0117697142
  0
LINE
  5
2B6
100
AcDbEntity
  8
0
100
AcDbLine
 62
7
  6
CONTINUOUS
 10
16.629183449
 20
13.0005210678
 11
16.6297798794
 21
13.0085897476
  0
LINE
  5
2B7
100
AcDbEntity
  8
0
100
AcDbLine
 62
7
  6
CONTINUOUS
 10
16.6276623436
 20
12.9924183196
 11
16.629183449
 21
13.0005210678
  0
LINE
  5
2B8
100
AcDbEntity
  8
0
100
AcDbLine
 62
7
  6
CONTINUOUS
 10
16.7486955053
 20
13.3840817744
 11
16.7502166107
 21
13.3921845226
  0
LINE
  5
2B9
100
AcDbEntity
  8
0
100
AcDbLine
 62
7
  6
CONTINUOUS
 10
16.869728667
 20
13.7757452292
 11
16.8712497724
 21
13.7838479774
  0
LINE
  5
2BA
100
AcDbEntity
  8
0
100
AcDbLine
 62
7
  6
CONTINUOUS
 10
15.9502317864
 20
10.9319489755
 11
15.9519285575
 21
10.9357493234
  0
LINE
  5
2BB
100
AcDbEntity
  8
0
100
AcDbLine
 62
7
  6
CONTINUOUS
 10
16.0729617192
 20
11.3274127782
 11
16.0734978158
 21
11.3283813496
  0
LINE
  5
2BC
100
AcDbEntity
  8
0
100
AcDbLine
 62
7
  6
CONTINUOUS
 10
15.9519285575
 20
10.9357493234
 11
15.9524646541
 21
10.9367178948
  0
LINE
  5
2BD
100
AcDbEntity
  8
0
100
AcDbLine
 62
7
  6
CONTINUOUS
 10
16.7825319416
 20
13.6261536027
 11
16.8039597388
 21
13.6261536027
  0
LINE
  5
2BE
100
AcDbEntity
  8
0
100
AcDbLine
 62
7
  6
CONTINUOUS
 10
16.7507647665
 20
13.4033830548
 11
16.7475370147
 21
13.4743206062
  0
LWPOLYLINE
  5
2BF
100
AcDbEntity
  8
0
100
AcDbPolyline
 62
7
  6
CONTINUOUS
 90
6
 70
0
 10
16.7475356214
 20
13.4743435929
 10
16.7474189971
 20
13.4787926586
 10
16.7478365025
 20
13.4922137206
 10
16.7493797255
 20
13.507746366
 10
16.7519279893
 20
13.5233674092
 10
16.7550789739
 20
13.5370021933
  0
LINE
  5
2C0
100
AcDbEntity
  8
0
100
AcDbLine
 62
7
  6
CONTINUOUS
 10
16.7508130411
 20
13.4002532024
 11
16.7507623568
 21
13.403433169
  0
LINE
  5
2C1
100
AcDbEntity
  8
0
100
AcDbLine
 62
7
  6
CONTINUOUS
 10
16.8970581839
 20
13.9997842272
 11
16.8967900192
 21
13.9958994053
  0
LINE
  5
2C2
100
AcDbEntity
  8
0
100
AcDbLine
 62
7
  6
CONTINUOUS
 10
16.7502166107
 20
13.3921845226
 11
16.7508130411
 21
13.4002532024
  0
LINE
  5
2C3
100
AcDbEntity
  8
0
100
AcDbLine
 62
7
  6
CONTINUOUS
 10
16.8712497724
 20
13.7838479774
 11
16.8718462028
 21
13.7919166572
  0
LINE
  5
2C4
100
AcDbEntity
  8
0
100
AcDbLine
 62
7
  6
CONTINUOUS
 10
16.8717979282
 20
13.7950465096
 11
16.8685701764
 21
13.865984061
  0
LWPOLYLINE
  5
2C5
100
AcDbEntity
  8
0
100
AcDbPolyline
 62
7
  6
CONTINUOUS
 90
6
 70
0
 10
16.8685687831
 20
13.8660070477
 10
16.8684521588
 20
13.8704561134
 10
16.8688696642
 20
13.8838771754
 10
16.8704128872
 20
13.8994098208
 10
16.872961151
 20
13.915030864
 10
16.8761121356
 20
13.9286656481
  0
LINE
  5
2C6
100
AcDbEntity
  8
0
100
AcDbLine
 62
7
  6
CONTINUOUS
 10
16.8718462028
 20
13.7919166572
 11
16.8717955185
 21
13.7950966238
  0
LINE
  5
2C7
100
AcDbEntity
  8
0
100
AcDbLine
 62
7
  6
CONTINUOUS
 10
16.826131033
 20
14.1671778509
 11
15.0300620947
 21
14.1671778509
  0
LINE
  5
2C8
100
AcDbEntity
  8
0
100
AcDbLine
 62
7
  6
CONTINUOUS
 10
16.8970581839
 20
13.9997842272
 11
16.8832041024
 21
14.0929877411
  0
LINE
  5
2C9
100
AcDbEntity
  8
0
100
AcDbLine
 62
7
  6
CONTINUOUS
 10
16.8787028268
 20
14.1069709228
 11
16.8567836045
 21
14.1516376017
  0
ARC
  5
2CA
100
AcDbEntity
  8
0
100
AcDbCircle
 62
7
  6
CONTINUOUS
 10
5.1919056436
 20
5.4729532301
 40
0.025
100
AcDbArc
 50
193.0
 51
270.0
  0
ARC
  5
2CB
100
AcDbEntity
  8
0
100
AcDbCircle
 62
7
  6
CONTINUOUS
 10
5.2252276156
 20
5.3286199121
 40
0.025
100
AcDbArc
 50
193.0000361415
 51
270.0000081298
  0
ARC
  5
2CC
100
AcDbEntity
  8
0
100
AcDbCircle
 62
7
  6
CONTINUOUS
 10
5.2303672762
 20
5.6397634576
 40
0.1
100
AcDbArc
 50
180.0
 51
193.0
  0
ARC
  5
2CD
100
AcDbEntity
  8
0
100
AcDbCircle
 62
7
  6
CONTINUOUS
 10
5.1553672762
 20
5.7116198968
 40
0.025
100
AcDbArc
 50
90.0
 51
180.0
  0
ARC
  5
2CE
100
AcDbEntity
  8
0
100
AcDbCircle
 62
7
  6
CONTINUOUS
 10
7.0355069332
 20
5.3286198968
 40
0.025
100
AcDbArc
 50
270.0
 51
347.0
  0
ARC
  5
2CF
100
AcDbEntity
  8
0
100
AcDbCircle
 62
7
  6
CONTINUOUS
 10
7.0688289088
 20
5.4729532301
 40
0.025
100
AcDbArc
 50
270.0
 51
347.0
  0
ARC
  5
2D0
100
AcDbEntity
  8
0
100
AcDbCircle
 62
7
  6
CONTINUOUS
 10
7.0303672762
 20
5.6397634576
 40
0.1
100
AcDbArc
 50
347.0
 51
360.0
  0
ARC
  5
2D1
100
AcDbEntity
  8
0
100
AcDbCircle
 62
7
  6
CONTINUOUS
 10
7.1053672762
 20
5.7116198968
 40
0.025
100
AcDbArc
 50
0.0
 51
90.0
  0
ARC
  5
2D2
100
AcDbEntity
  8
0
100
AcDbCircle
 62
7
  6
CONTINUOUS
 10
13.7307182241
 20
5.2802080378
 40
0.0360833333
100
AcDbArc
 50
193.0
 51
270.0
  0
ARC
  5
2D3
100
AcDbEntity
  8
0
100
AcDbCircle
 62
7
  6
CONTINUOUS
 10
13.8899922898
 20
5.2802080378
 40
0.0360833333
100
AcDbArc
 50
270.0
 51
347.0
  0
ARC
  5
2D4
100
AcDbEntity
  8
0
100
AcDbCircle
 62
7
  6
CONTINUOUS
 10
14.2307182241
 20
5.2802080378
 40
0.0360833333
100
AcDbArc
 50
193.0
 51
270.0
  0
ARC
  5
2D5
100
AcDbEntity
  8
0
100
AcDbCircle
 62
7
  6
CONTINUOUS
 10
14.3899922898
 20
5.2802080378
 40
0.0360833333
100
AcDbArc
 50
270.0
 51
347.0
  0
ARC
  5
2D6
100
AcDbEntity
  8
0
100
AcDbCircle
 62
7
  6
CONTINUOUS
 10
14.7307182241
 20
5.2802080378
 40
0.0360833333
100
AcDbArc
 50
193.0
 51
270.0
  0
ARC
  5
2D7
100
AcDbEntity
  8
0
100
AcDbCircle
 62
7
  6
CONTINUOUS
 10
14.8899922898
 20
5.2802080378
 40
0.0360833333
100
AcDbArc
 50
270.0
 51
347.0
  0
ARC
  5
2D8
100
AcDbEntity
  8
0
100
AcDbCircle
 62
7
  6
CONTINUOUS
 10
15.2307182241
 20
5.2802080378
 40
0.0360833333
100
AcDbArc
 50
193.0
 51
270.0
  0
ARC
  5
2D9
100
AcDbEntity
  8
0
100
AcDbCircle
 62
7
  6
CONTINUOUS
 10
15.3899922898
 20
5.2802080378
 40
0.0360833333
100
AcDbArc
 50
270.0
 51
347.0
  0
ARC
  5
2DA
100
AcDbEntity
  8
0
100
AcDbCircle
 62
7
  6
CONTINUOUS
 10
13.6399922898
 20
5.3523747044
 40
0.0360833333
100
AcDbArc
 50
13.0
 51
90.0
  0
ARC
  5
2DB
100
AcDbEntity
  8
0
100
AcDbCircle
 62
7
  6
CONTINUOUS
 10
13.9807182241
 20
5.3523747044
 40
0.0360833333
100
AcDbArc
 50
90.0
 51
167.0
  0
ARC
  5
2DC
100
AcDbEntity
  8
0
100
AcDbCircle
 62
7
  6
CONTINUOUS
 10
14.1399922898
 20
5.3523747044
 40
0.0360833333
100
AcDbArc
 50
13.0
 51
90.0
  0
ARC
  5
2DD
100
AcDbEntity
  8
0
100
AcDbCircle
 62
7
  6
CONTINUOUS
 10
14.4807182241
 20
5.3523747044
 40
0.0360833333
100
AcDbArc
 50
90.0
 51
167.0
  0
ARC
  5
2DE
100
AcDbEntity
  8
0
100
AcDbCircle
 62
7
  6
CONTINUOUS
 10
14.6399922898
 20
5.3523747044
 40
0.0360833333
100
AcDbArc
 50
13.0
 51
90.0
  0
ARC
  5
2DF
100
AcDbEntity
  8
0
100
AcDbCircle
 62
7
  6
CONTINUOUS
 10
14.9807182241
 20
5.3523747044
 40
0.0360833333
100
AcDbArc
 50
90.0
 51
167.0
  0
ARC
  5
2E0
100
AcDbEntity
  8
0
100
AcDbCircle
 62
7
  6
CONTINUOUS
 10
15.1399922898
 20
5.3523747044
 40
0.0360833333
100
AcDbArc
 50
13.0
 51
90.0
  0
ARC
  5
2E1
100
AcDbEntity
  8
0
100
AcDbCircle
 62
7
  6
CONTINUOUS
 10
15.4807182241
 20
5.3523747044
 40
0.0360833333
100
AcDbArc
 50
90.0
 51
167.0
  0
ARC
  5
2E2
100
AcDbEntity
  8
0
100
AcDbCircle
 62
7
  6
CONTINUOUS
 10
17.3899922898
 20
5.2802080378
 40
0.0360833333
100
AcDbArc
 50
270.0
 51
347.0
  0
ARC
  5
2E3
100
AcDbEntity
  8
0
100
AcDbCircle
 62
7
  6
CONTINUOUS
 10
17.2307182241
 20
5.2802080378
 40
0.0360833333
100
AcDbArc
 50
193.0
 51
270.0
  0
ARC
  5
2E4
100
AcDbEntity
  8
0
100
AcDbCircle
 62
7
  6
CONTINUOUS
 10
16.8899922898
 20
5.2802080378
 40
0.0360833333
100
AcDbArc
 50
270.0
 51
347.0
  0
ARC
  5
2E5
100
AcDbEntity
  8
0
100
AcDbCircle
 62
7
  6
CONTINUOUS
 10
16.7307182241
 20
5.2802080378
 40
0.0360833333
100
AcDbArc
 50
193.0
 51
270.0
  0
ARC
  5
2E6
100
AcDbEntity
  8
0
100
AcDbCircle
 62
7
  6
CONTINUOUS
 10
16.3899922898
 20
5.2802080378
 40
0.0360833333
100
AcDbArc
 50
270.0
 51
347.0
  0
ARC
  5
2E7
100
AcDbEntity
  8
0
100
AcDbCircle
 62
7
  6
CONTINUOUS
 10
16.2307182241
 20
5.2802080378
 40
0.0360833333
100
AcDbArc
 50
193.0
 51
270.0
  0
ARC
  5
2E8
100
AcDbEntity
  8
0
100
AcDbCircle
 62
7
  6
CONTINUOUS
 10
15.8899922898
 20
5.2802080378
 40
0.0360833333
100
AcDbArc
 50
270.0
 51
347.0
  0
ARC
  5
2E9
100
AcDbEntity
  8
0
100
AcDbCircle
 62
7
  6
CONTINUOUS
 10
15.7307182241
 20
5.2802080378
 40
0.0360833333
100
AcDbArc
 50
193.0
 51
270.0
  0
ARC
  5
2EA
100
AcDbEntity
  8
0
100
AcDbCircle
 62
7
  6
CONTINUOUS
 10
17.4807182241
 20
5.3523747044
 40
0.0360833333
100
AcDbArc
 50
90.0
 51
167.0
  0
ARC
  5
2EB
100
AcDbEntity
  8
0
100
AcDbCircle
 62
7
  6
CONTINUOUS
 10
17.1399922898
 20
5.3523747044
 40
0.0360833333
100
AcDbArc
 50
13.0
 51
90.0
  0
ARC
  5
2EC
100
AcDbEntity
  8
0
100
AcDbCircle
 62
7
  6
CONTINUOUS
 10
16.9807182241
 20
5.3523747044
 40
0.0360833333
100
AcDbArc
 50
90.0
 51
167.0
  0
ARC
  5
2ED
100
AcDbEntity
  8
0
100
AcDbCircle
 62
7
  6
CONTINUOUS
 10
16.6399922898
 20
5.3523747044
 40
0.0360833333
100
AcDbArc
 50
13.0
 51
90.0
  0
ARC
  5
2EE
100
AcDbEntity
  8
0
100
AcDbCircle
 62
7
  6
CONTINUOUS
 10
16.4807182241
 20
5.3523747044
 40
0.0360833333
100
AcDbArc
 50
90.0
 51
167.0
  0
ARC
  5
2EF
100
AcDbEntity
  8
0
100
AcDbCircle
 62
7
  6
CONTINUOUS
 10
16.1399922898
 20
5.3523747044
 40
0.0360833333
100
AcDbArc
 50
13.0
 51
90.0
  0
ARC
  5
2F0
100
AcDbEntity
  8
0
100
AcDbCircle
 62
7
  6
CONTINUOUS
 10
15.9807182241
 20
5.3523747044
 40
0.0360833333
100
AcDbArc
 50
90.0
 51
167.0
  0
ARC
  5
2F1
100
AcDbEntity
  8
0
100
AcDbCircle
 62
7
  6
CONTINUOUS
 10
15.6399922898
 20
5.3523747044
 40
0.0360833333
100
AcDbArc
 50
13.0
 51
90.0
  0
SPLINE
  5
2F2
100
AcDbEntity
  8
0
100
AcDbSpline
 62
7
  6
CONTINUOUS
 70
0
 71
3
 72
15
 73
11
 74
0
 42
0.0000001
 43
0.0000001
 44
0.0000000001
 40
0.0
 40
0.0
 40
0.0
 40
0.0
 40
0.1295689976
 40
0.2645764186
 40
0.4012661025
 40
0.5362716264
 40
0.6662155575
 40
0.7881003498
 40
0.8998138714
 40
1.0
 40
1.0
 40
1.0
 40
1.0
 10
16.826131033
 20
14.1671778509
 30
0.0
 10
16.8276792972
 20
14.1671778509
 30
0.0
 10
16.8308432571
 20
14.1669626135
 30
0.0
 10
16.8355657754
 20
14.1660787325
 30
0.0
 10
16.8402220756
 20
14.1646512771
 30
0.0
 10
16.8446339291
 20
14.1627359555
 30
0.0
 10
16.8486401123
 20
14.1604072823
 30
0.0
 10
16.8520921972
 20
14.1577459587
 30
0.0
 10
16.8548580394
 20
14.1548499011
 30
0.0
 10
16.8562562051
 20
14.1527123286
 30
0.0
 10
16.8567836045
 20
14.1516376017
 30
0.0
  0
SPLINE
  5
2F3
100
AcDbEntity
  8
0
100
AcDbSpline
 62
7
  6
CONTINUOUS
 70
0
 71
3
 72
15
 73
11
 74
0
 42
0.0000001
 43
0.0000001
 44
0.0000000001
 40
0.0
 40
0.0
 40
0.0
 40
0.0
 40
0.0996456737
 40
0.2028716686
 40
0.3125939598
 40
0.4308563162
 40
0.5588137407
 40
0.6968301153
 40
0.8443979671
 40
1.0
 40
1.0
 40
1.0
 40
1.0
 10
15.0138025986
 20
14.1590187958
 30
0.0
 10
15.0139927139
 20
14.1596340344
 30
0.0
 10
15.0145313573
 20
14.1608449734
 30
0.0
 10
15.0157623472
 20
14.1624659139
 30
0.0
 10
15.0173857284
 20
14.1638810821
 30
0.0
 10
15.0193698813
 20
14.1650651453
 30
0.0
 10
15.0216774172
 20
14.1660037784
 30
0.0
 10
15.0242690369
 20
14.1666824961
 30
0.0
 10
15.0270959218
 20
14.1670901637
 30
0.0
 10
15.0290565436
 20
14.1671778509
 30
0.0
 10
15.0300620947
 20
14.1671778509
 30
0.0
  0
SPLINE
  5
2F4
100
AcDbEntity
  8
0
100
AcDbSpline
 62
7
  6
CONTINUOUS
 70
0
 71
3
 72
11
 73
7
 74
0
 42
0.0000001
 43
0.0000001
 44
0.0000000001
 40
0.0
 40
0.0
 40
0.0
 40
0.0
 40
0.2336932705
 40
0.4747271483
 40
0.7289543141
 40
1.0
 40
1.0
 40
1.0
 40
1.0
 10
14.045537305
 20
11.0257111573
 30
0.0
 10
14.0453624506
 20
11.0251453046
 30
0.0
 10
14.0451321406
 20
11.0239531584
 30
0.0
 10
14.0451744428
 20
11.0220938812
 30
0.0
 10
14.0455922454
 20
11.0201867029
 30
0.0
 10
14.0460937072
 20
11.0189466291
 30
0.0
 10
14.0463963228
 20
11.0183299632
 30
0.0
  0
SPLINE
  5
2F5
100
AcDbEntity
  8
0
100
AcDbSpline
 62
7
  6
CONTINUOUS
 70
0
 71
3
 72
9
 73
5
 74
0
 42
0.0000001
 43
0.0000001
 44
0.0000000001
 40
0.0
 40
0.0
 40
0.0
 40
0.0
 40
0.5155721221
 40
1.0
 40
1.0
 40
1.0
 40
1.0
 10
16.8787028268
 20
14.1069709228
 30
0.0
 10
16.8798183157
 20
14.1046977955
 30
0.0
 10
16.8816973417
 20
14.1001403204
 30
0.0
 10
16.8828543048
 20
14.0953410087
 30
0.0
 10
16.8832041024
 20
14.0929877411
 30
0.0
  0
SPLINE
  5
2F6
100
AcDbEntity
  8
0
100
AcDbSpline
 62
7
  6
CONTINUOUS
 70
0
 71
3
 72
14
 73
10
 74
0
 42
0.0000001
 43
0.0000001
 44
0.0000000001
 40
0.0
 40
0.0
 40
0.0
 40
0.0
 40
0.1556089942
 40
0.3032513717
 40
0.5688452724
 40
0.6871586126
 40
0.7968876616
 40
0.9001720046
 40
1.0
 40
1.0
 40
1.0
 40
1.0
 10
15.9122670932
 20
10.8544321349
 30
0.0
 10
15.9132721109
 20
10.8544321349
 30
0.0
 10
15.9152330054
 20
10.8545200367
 30
0.0
 10
15.9188709796
 20
10.8550447553
 30
0.0
 10
15.9221918949
 20
10.8560888742
 30
0.0
 10
15.9249423191
 20
10.8577275954
 30
0.0
 10
15.9265660483
 20
10.8591420207
 30
0.0
 10
15.9277970334
 20
10.8607634385
 30
0.0
 10
15.9283359618
 20
10.8619752664
 30
0.0
 10
15.9285256374
 20
10.8625914854
 30
0.0
  0
SPLINE
  5
2F7
100
AcDbEntity
  8
0
100
AcDbSpline
 62
7
  6
CONTINUOUS
 70
0
 71
3
 72
15
 73
11
 74
0
 42
0.0000001
 43
0.0000001
 44
0.0000000001
 40
0.0
 40
0.0
 40
0.0
 40
0.0
 40
0.1089088031
 40
0.2266183242
 40
0.3512083663
 40
0.4806318132
 40
0.6126729628
 40
0.7449575769
 40
0.8750046087
 40
1.0
 40
1.0
 40
1.0
 40
1.0
 10
14.1551593689
 20
10.8664765887
 30
0.0
 10
14.1558949798
 20
10.8655933053
 30
0.0
 10
14.157575632
 20
10.8638780077
 30
0.0
 10
14.1604929413
 20
10.861577897
 30
0.0
 10
14.1638385128
 20
10.8595133742
 30
0.0
 10
14.1675131834
 20
10.8577374551
 30
0.0
 10
14.1714196294
 20
10.856300912
 30
0.0
 10
14.1754512112
 20
10.8552393916
 30
0.0
 10
14.1794936047
 20
10.8545894592
 30
0.0
 10
14.1821870144
 20
10.8544321349
 30
0.0
 10
14.1835062849
 20
10.8544321349
 30
0.0
  0
SPLINE
  5
2F8
100
AcDbEntity
  8
0
100
AcDbSpline
 62
7
  6
CONTINUOUS
 70
0
 71
3
 72
9
 73
5
 74
0
 42
0.0000001
 43
0.0000001
 44
0.0000000001
 40
0.0
 40
0.0
 40
0.0
 40
0.0
 40
0.238006648
 40
1.0
 40
1.0
 40
1.0
 40
1.0
 10
14.0683155452
 20
10.9736632843
 30
0.0
 10
14.0689017942
 20
10.9724686345
 30
0.0
 10
14.0715378019
 20
10.9675343963
 30
0.0
 10
14.0748116928
 20
10.962953912
 30
0.0
 10
14.0775381675
 20
10.9596801026
 30
0.0
  0
SPLINE
  5
2F9
100
AcDbEntity
  8
0
100
AcDbSpline
 62
7
  6
CONTINUOUS
 70
0
 71
3
 72
9
 73
5
 74
0
 42
0.0000001
 43
0.0000001
 44
0.0000000001
 40
0.0
 40
0.0
 40
0.0
 40
0.0
 40
0.4844278779
 40
1.0
 40
1.0
 40
1.0
 40
1.0
 10
15.9149388088
 20
10.9596801026
 30
0.0
 10
15.9145890112
 20
10.9620333702
 30
0.0
 10
15.9134320481
 20
10.9668326819
 30
0.0
 10
15.911553022
 20
10.971390157
 30
0.0
 10
15.9104375332
 20
10.9736632843
 30
0.0
  0
SPLINE
  5
2FA
100
AcDbEntity
  8
0
100
AcDbSpline
 62
7
  6
CONTINUOUS
 70
0
 71
3
 72
15
 73
11
 74
0
 42
0.0000001
 43
0.0000001
 44
0.0000000001
 40
0.0
 40
0.0
 40
0.0
 40
0.0
 40
0.1001861286
 40
0.2118996502
 40
0.3337844425
 40
0.4637283736
 40
0.5987338975
 40
0.7354235814
 40
0.8704310024
 40
1.0
 40
1.0
 40
1.0
 40
1.0
 10
15.8885183109
 20
11.0183299632
 30
0.0
 10
15.8879909115
 20
11.0194046901
 30
0.0
 10
15.8865927457
 20
11.0215422626
 30
0.0
 10
15.8838269036
 20
11.0244383202
 30
0.0
 10
15.8803748187
 20
11.0270996438
 30
0.0
 10
15.8763686355
 20
11.029428317
 30
0.0
 10
15.8719567819
 20
11.0313436386
 30
0.0
 10
15.8673004818
 20
11.032771094
 30
0.0
 10
15.8625779635
 20
11.0336549749
 30
0.0
 10
15.8594140035
 20
11.0338702124
 30
0.0
 10
15.8578657393
 20
11.0338702124
 30
0.0
  0
SPLINE
  5
2FB
100
AcDbEntity
  8
0
100
AcDbSpline
 62
7
  6
CONTINUOUS
 70
0
 71
3
 72
15
 73
11
 74
0
 42
0.0000001
 43
0.0000001
 44
0.0000000001
 40
0.0
 40
0.0
 40
0.0
 40
0.0
 40
0.1556020329
 40
0.3031698847
 40
0.4411862593
 40
0.5691436838
 40
0.6874060402
 40
0.7971283314
 40
0.9003543263
 40
1.0
 40
1.0
 40
1.0
 40
1.0
 10
14.061796801
 20
11.0338702124
 30
0.0
 10
14.06079125
 20
11.0338702124
 30
0.0
 10
14.0588306282
 20
11.0337825252
 30
0.0
 10
14.0560037433
 20
11.0333748575
 30
0.0
 10
14.0534121236
 20
11.0326961399
 30
0.0
 10
14.0511045877
 20
11.0317575067
 30
0.0
 10
14.0491204348
 20
11.0305734436
 30
0.0
 10
14.0474970536
 20
11.0291582754
 30
0.0
 10
14.0462660636
 20
11.0275373349
 30
0.0
 10
14.0457274202
 20
11.0263263959
 30
0.0
 10
14.045537305
 20
11.0257111573
 30
0.0
  0
ENDSEC
  0
SECTION
  2
OBJECTS
  0
DICTIONARY
  5
C
100
AcDbDictionary
280
0
281
1
  3
ACAD_GROUP
350
D
  3
ACAD_MLINESTYLE
350
17
  3
ACAD_LAYOUT
350
1A
  3
ACAD_PLOTSETTINGS
350
19
  3
ACAD_PLOTSTYLENAME
350
E
  0
DICTIONARY
  5
D
102
{ACAD_REACTORS
330
C
102
}
100
AcDbDictionary
280
0
281
1
  0
ACDBDICTIONARYWDFLT
  5
E
102
{ACAD_REACTORS
330
C
102
}
100
AcDbDictionary
281
1
  3
Normal
350
F
100
AcDbDictionaryWithDefault
340
F
  0
DICTIONARY
  5
17
102
{ACAD_REACTORS
330
C
102
}
100
AcDbDictionary
280
0
281
1
  3
Standard
350
18
  0
DICTIONARY
  5
19
102
{ACAD_REACTORS
330
C
102
}
100
AcDbDictionary
281
1
  0
DICTIONARY
  5
1A
102
{ACAD_REACTORS
330
C
102
}
100
AcDbDictionary
281
1
  3
Model
350
2FC
  3
Layout1
350
2FD
  0
ACDBPLACEHOLDER
  5
F
102
{ACAD_REACTORS
330
E
102
}
  0
MLINESTYLE
  5
18
102
{ACAD_REACTORS
330
17
102
}
100
AcDbMlineStyle
  2
STANDARD
 70
0
  3

 62
256
 51
90.0
 52
90.0
 71
2
 49
0.5
 62
256
  6
BYLAYER
 49
-0.5
 62
256
  6
BYLAYER
  0
LAYOUT
  5
2FC
102
{ACAD_REACTORS
330
1A
102
}
100
AcDbPlotSettings
  1

  2
none_device
  4
ANSI_C_(22.00_x_17.00_Inches)
  6

 40
0.0
 41
0.0
 42
0.0
 43
0.0
 44
558.8
 45
431.8
 46
0.0
 47
0.0
 48
0.0
 49
0.0
140
0.0
141
0.0
142
1.0
143
1.0
 70
1024
 72
0
 73
0
 74
0
  7

 75
0
147
1.0
148
0.0
149
0.0
100
AcDbLayout
  1
Model
 70
0
 71
0
 10
0.0
 20
0.0
 11
22.0
 21
17.0
 12
0.0
 22
0.0
 32
0.0
 14
0.0
 24
0.0
 34
0.0
 15
0.0
 25
0.0
 35
0.0
146
0.0
 13
0.0
 23
0.0
 33
0.0
 16
1.0
 26
0.0
 36
0.0
 17
0.0
 27
1.0
 37
0.0
 76
0
330
216
345
0
346
0
  0
LAYOUT
  5
2FD
102
{ACAD_REACTORS
330
1A
102
}
100
AcDbPlotSettings
  1

  2
none_device
  4
ANSI_C_(22.00_x_17.00_Inches)
  6

 40
0.0
 41
0.0
 42
0.0
 43
0.0
 44
558.8
 45
431.8
 46
0.0
 47
0.0
 48
0.0
 49
0.0
140
0.0
141
0.0
142
1.0
143
1.0
 70
0
 72
0
 73
0
 74
0
  7

 75
0
147
1.0
148
0.0
149
0.0
100
AcDbLayout
  1
Layout1
 70
0
 71
1
 10
0.0
 20
0.0
 11
22.0
 21
17.0
 12
0.0
 22
0.0
 32
0.0
 14
0.0
 24
0.0
 34
0.0
 15
0.0
 25
0.0
 35
0.0
146
0.0
 13
0.0
 23
0.0
 33
0.0
 16
1.0
 26
0.0
 36
0.0
 17
0.0
 27
1.0
 37
0.0
 76
0
330
217
345
0
346
0
  0
ENDSEC
  0
EOF