999
DXF file: _cgs_temp_output.dxf
999
Pro/ENGINEER 2016360 by Parametric Technology Corporation
  0
SECTION
  2
HEADER
  9
$ACADVER
  1
AC1021
  9
$DWGCODEPAGE
  3
ANSI_1252
  9
$EXTMAX
 10
22.0
 20
17.0
 30
0.0
  9
$EXTMIN
 10
0.0
 20
0.0
 30
0.0
  9
$LIMMIN
 10
0.0
 20
0.0
  9
$LIMMAX
 10
22.0
 20
17.0
  9
$VIEWCTR
 10
11.0
 20
8.5
  9
$VIEWSIZE
 40
17.0
  9
$CLAYER
  8
0
  9
$LTSCALE
 40
1.21
  9
$CELTYPE
  6
BYLAYER
  9
$DIMSCALE
 40
1.0
  9
$DIMASZ
 40
0.1875
  9
$DIMEXO
 40
0.0625
  9
$DIMDLI
 40
0.836
  9
$DIMEXE
 40
0.125
  9
$DIMCEN
 40
0.198
  9
$DIMLFAC
 40
1.0
  9
$DIMBLK
  1
_CLOSED
  9
$DIMALT
 70
0
  9
$DIMALTF
 40
25.4
  9
$DIMTXT
 40
0.15625
  9
$DIMTOL
 70
0
  9
$DIMLIM
 70
0
  9
$DIMTFAC
 40
1.0
  9
$DIMGAP
 40
0.09
  9
$DIMDSEP
 70
46
  9
$AUNITS
 70
0
  9
$PDMODE
 70
3
  9
$PDSIZE
 40
0.3125
  9
$HANDSEED
  5
398
  9
$TILEMODE
 70
1
  9
$MEASUREMENT
 70
0
  9
$INSUNITS
 70
1
  0
ENDSEC
  0
SECTION
  2
CLASSES
  0
CLASS
  1
ACDBDICTIONARYWDFLT
  2
AcDbDictionaryWithDefault
  3
AutoCAD 2000
 90
0
 91
1
280
0
281
0
  0
CLASS
  1
ACDBPLACEHOLDER
  2
AcDbPlaceHolder
  3
AutoCAD 2000
 90
0
 91
1
280
0
281
0
  0
CLASS
  1
LAYOUT
  2
AcDbLayout
  3
AutoCAD 2000
 90
0
 91
0
280
0
281
0
  0
ENDSEC
  0
SECTION
  2
TABLES
  0
TABLE
  2
VPORT
  5
8
100
AcDbSymbolTable
 70
2
  0
VPORT
  5
1F4
100
AcDbSymbolTableRecord
100
AcDbViewportTableRecord
  2
*ACTIVE
 70
0
 10
0.0
 20
0.0
 11
1.0
 21
1.0
 12
11.0
 22
8.5
 13
0.0
 23
0.0
 14
1.0
 24
1.0
 15
0.0
 25
0.0
 16
0.0
 26
0.0
 36
1.0
 17
0.0
 27
0.0
 37
0.0
 40
17.0
 41
1.2941176471
 42
50.0
 43
0.0
 44
0.0
 50
0.0
 51
0.0
 71
0
 72
100
 73
1
 74
1
 75
0
 76
0
 77
0
 78
0
  0
ENDTAB
  0
TABLE
  2
LTYPE
  5
5
100
AcDbSymbolTable
 70
6
  0
LTYPE
  5
14
100
AcDbSymbolTableRecord
100
AcDbLinetypeTableRecord
  2
BYBLOCK
 70
0
  3

 72
65
 73
0
 40
0.0
  0
LTYPE
  5
15
100
AcDbSymbolTableRecord
100
AcDbLinetypeTableRecord
  2
BYLAYER
 70
0
  3

 72
65
 73
0
 40
0.0
  0
LTYPE
  5
16
100
AcDbSymbolTableRecord
100
AcDbLinetypeTableRecord
  2
CONTINUOUS
 70
64
  3
Solid line
 72
65
 73
0
 40
0.0
  0
LTYPE
  5
1F5
100
AcDbSymbolTableRecord
100
AcDbLinetypeTableRecord
  2
CENTER
 70
64
  3
____ _ ____ _ ____ _ ____ _ ____ _ ____ _ ____
 72
65
 73
4
 40
0.6
 49
0.375
 74
0
 49
-0.075
 74
0
 49
0.075
 74
0
 49
-0.075
 74
0
  0
LTYPE
  5
1F6
100
AcDbSymbolTableRecord
100
AcDbLinetypeTableRecord
  2
HIDDEN
 70
64
  3
- - - - - - - - - - - - - - - - - - - -
 72
65
 73
2
 40
0.2
 49
0.1
 74
0
 49
-0.1
 74
0
  0
LTYPE
  5
1F7
100
AcDbSymbolTableRecord
100
AcDbLinetypeTableRecord
  2
PHANTOM
 70
64
  3
_____ _ _ _____ _ _ _____ _ _ _____
 72
65
 73
6
 40
0.8
 49
0.45
 74
0
 49
-0.05
 74
0
 49
0.1
 74
0
 49
-0.05
 74
0
 49
0.1
 74
0
 49
-0.05
 74
0
  0
LTYPE
  5
1F8
100
AcDbSymbolTableRecord
100
AcDbLinetypeTableRecord
  2
DOT
 70
64
  3
. . . . . . . . . . . . . . . . . . . .
 72
65
 73
2
 40
0.2
 49
0.1
 74
0
 49
-0.1
 74
0
  0
LTYPE
  5
1F9
100
AcDbSymbolTableRecord
100
AcDbLinetypeTableRecord
  2
DASHED
 70
64
  3
- - - - - - - - - - - - - - - - - - - -
 72
65
 73
2
 40
0.2
 49
0.1
 74
0
 49
-0.1
 74
0
  0
ENDTAB
  0
TABLE
  2
LAYER
  5
2
100
AcDbSymbolTable
 70
36
  0
LAYER
  5
10
100
AcDbSymbolTableRecord
100
AcDbLayerTableRecord
  2
0
 70
0
 62
7
  6
CONTINUOUS
370
-3
390
F
  0
LAYER
  5
1FA
100
AcDbSymbolTableRecord
100
AcDbLayerTableRecord
  2
DEFAULT_1
 70
0
 62
7
  6
CENTER
370
-3
390
F
  0
LAYER
  5
1FB
100
AcDbSymbolTableRecord
100
AcDbLayerTableRecord
  2
DEFAULT_2
 70
0
 62
8
  6
HIDDEN
370
-3
390
F
  0
LAYER
  5
1FC
100
AcDbSymbolTableRecord
100
AcDbLayerTableRecord
  2
DEFAULT_3
 70
0
 62
7
  6
PHANTOM
370
-3
390
F
  0
LAYER
  5
1FD
100
AcDbSymbolTableRecord
100
AcDbLayerTableRecord
  2
01_ALL_DTM_PLN
 70
0
 62
7
  6
CONTINUOUS
370
-3
390
F
  0
LAYER
  5
1FE
100
AcDbSymbolTableRecord
100
AcDbLayerTableRecord
  2
01__ASM_ALL_DTM_PLN
 70
0
 62
7
  6
CONTINUOUS
370
-3
390
F
  0
LAYER
  5
1FF
100
AcDbSymbolTableRecord
100
AcDbLayerTableRecord
  2
01__ASM_DEF_DTM_PLN
 70
0
 62
7
  6
CONTINUOUS
370
-3
390
F
  0
LAYER
  5
200
100
AcDbSymbolTableRecord
100
AcDbLayerTableRecord
  2
01___PRT_ALL_DTM_PLN
 70
0
 62
7
  6
CONTINUOUS
370
-3
390
F
  0
LAYER
  5
201
100
AcDbSymbolTableRecord
100
AcDbLayerTableRecord
  2
01___PRT_DEF_DTM_PLN
 70
0
 62
7
  6
CONTINUOUS
370
-3
390
F
  0
LAYER
  5
202
100
AcDbSymbolTableRecord
100
AcDbLayerTableRecord
  2
02_ALL_AXES
 70
0
 62
7
  6
CONTINUOUS
370
-3
390
F
  0
LAYER
  5
203
100
AcDbSymbolTableRecord
100
AcDbLayerTableRecord
  2
02__ASM_ALL_AXES
 70
0
 62
7
  6
CONTINUOUS
370
-3
390
F
  0
LAYER
  5
204
100
AcDbSymbolTableRecord
100
AcDbLayerTableRecord
  2
02___PRT_ALL_AXES
 70
0
 62
7
  6
CONTINUOUS
370
-3
390
F
  0
LAYER
  5
205
100
AcDbSymbolTableRecord
100
AcDbLayerTableRecord
  2
03_ALL_CURVES
 70
0
 62
7
  6
CONTINUOUS
370
-3
390
F
  0
LAYER
  5
206
100
AcDbSymbolTableRecord
100
AcDbLayerTableRecord
  2
03__ASM_ALL_CURVES
 70
0
 62
7
  6
CONTINUOUS
370
-3
390
F
  0
LAYER
  5
207
100
AcDbSymbolTableRecord
100
AcDbLayerTableRecord
  2
03___PRT_ALL_CURVES
 70
0
 62
7
  6
CONTINUOUS
370
-3
390
F
  0
LAYER
  5
208
100
AcDbSymbolTableRecord
100
AcDbLayerTableRecord
  2
04_ALL_DTM_PNT
 70
0
 62
7
  6
CONTINUOUS
370
-3
390
F
  0
LAYER
  5
209
100
AcDbSymbolTableRecord
100
AcDbLayerTableRecord
  2
04__ASM_ALL_DTM_PNT
 70
0
 62
7
  6
CONTINUOUS
370
-3
390
F
  0
LAYER
  5
20A
100
AcDbSymbolTableRecord
100
AcDbLayerTableRecord
  2
04___PRT_ALL_DTM_PNT
 70
0
 62
7
  6
CONTINUOUS
370
-3
390
F
  0
LAYER
  5
20B
100
AcDbSymbolTableRecord
100
AcDbLayerTableRecord
  2
05_ALL_DTM_CSYS
 70
0
 62
7
  6
CONTINUOUS
370
-3
390
F
  0
LAYER
  5
20C
100
AcDbSymbolTableRecord
100
AcDbLayerTableRecord
  2
05__ASM_ALL_DTM_CSYS
 70
0
 62
7
  6
CONTINUOUS
370
-3
390
F
  0
LAYER
  5
20D
100
AcDbSymbolTableRecord
100
AcDbLayerTableRecord
  2
05__ASM_DEF_DTM_CSYS
 70
0
 62
7
  6
CONTINUOUS
370
-3
390
F
  0
LAYER
  5
20E
100
AcDbSymbolTableRecord
100
AcDbLayerTableRecord
  2
05___PRT_ALL_DTM_CSYS
 70
0
 62
7
  6
CONTINUOUS
370
-3
390
F
  0
LAYER
  5
20F
100
AcDbSymbolTableRecord
100
AcDbLayerTableRecord
  2
05___PRT_DEF_DTM_CSYS
 70
0
 62
7
  6
CONTINUOUS
370
-3
390
F
  0
LAYER
  5
210
100
AcDbSymbolTableRecord
100
AcDbLayerTableRecord
  2
06_ALL_SURFS
 70
0
 62
7
  6
CONTINUOUS
370
-3
390
F
  0
LAYER
  5
211
100
AcDbSymbolTableRecord
100
AcDbLayerTableRecord
  2
06__ASM_ALL_SURFS
 70
0
 62
7
  6
CONTINUOUS
370
-3
390
F
  0
LAYER
  5
212
100
AcDbSymbolTableRecord
100
AcDbLayerTableRecord
  2
06___PRT_ALL_SURFS
 70
0
 62
7
  6
CONTINUOUS
370
-3
390
F
  0
LAYER
  5
213
100
AcDbSymbolTableRecord
100
AcDbLayerTableRecord
  2
07__ASM_ALL_SKELETONS
 70
0
 62
7
  6
CONTINUOUS
370
-3
390
F
  0
LAYER
  5
214
100
AcDbSymbolTableRecord
100
AcDbLayerTableRecord
  2
LAYER_AXIS
 70
0
 62
7
  6
CONTINUOUS
370
-3
390
F
  0
LAYER
  5
215
100
AcDbSymbolTableRecord
100
AcDbLayerTableRecord
  2
LAYER_CHAMFER_FEAT
 70
0
 62
7
  6
CONTINUOUS
370
-3
390
F
  0
LAYER
  5
216
100
AcDbSymbolTableRecord
100
AcDbLayerTableRecord
  2
LAYER_CUT_FEAT
 70
0
 62
7
  6
CONTINUOUS
370
-3
390
F
  0
LAYER
  5
217
100
AcDbSymbolTableRecord
100
AcDbLayerTableRecord
  2
LAYER_DATUM
 70
0
 62
7
  6
CONTINUOUS
370
-3
390
F
  0
LAYER
  5
218
100
AcDbSymbolTableRecord
100
AcDbLayerTableRecord
  2
LAYER_DIM
 70
0
 62
7
  6
CONTINUOUS
370
-3
390
F
  0
LAYER
  5
219
100
AcDbSymbolTableRecord
100
AcDbLayerTableRecord
  2
LAYER_FEATURE
 70
0
 62
7
  6
CONTINUOUS
370
-3
390
F
  0
LAYER
  5
21A
100
AcDbSymbolTableRecord
100
AcDbLayerTableRecord
  2
LAYER_GEOM_FEAT
 70
0
 62
7
  6
CONTINUOUS
370
-3
390
F
  0
LAYER
  5
21B
100
AcDbSymbolTableRecord
100
AcDbLayerTableRecord
  2
LAYER_NOGEOM_FEAT
 70
0
 62
7
  6
CONTINUOUS
370
-3
390
F
  0
LAYER
  5
21C
100
AcDbSymbolTableRecord
100
AcDbLayerTableRecord
  2
LAYER_PARAMETER_DIM
 70
0
 62
7
  6
CONTINUOUS
370
-3
390
F
  0
LAYER
  5
21D
100
AcDbSymbolTableRecord
100
AcDbLayerTableRecord
  2
LAYER_PROTRUSION_FEAT
 70
0
 62
7
  6
CONTINUOUS
370
-3
390
F
  0
LAYER
  5
21E
100
AcDbSymbolTableRecord
100
AcDbLayerTableRecord
  2
LAYER_QUILT
 70
0
 62
7
  6
CONTINUOUS
370
-3
390
F
  0
LAYER
  5
21F
100
AcDbSymbolTableRecord
100
AcDbLayerTableRecord
  2
LAYER_ROUND_FEAT
 70
0
 62
7
  6
CONTINUOUS
370
-3
390
F
  0
ENDTAB
  0
TABLE
  2
STYLE
  5
3
100
AcDbSymbolTable
 70
1
  0
STYLE
  5
11
100
AcDbSymbolTableRecord
100
AcDbTextStyleTableRecord
  2
STANDARD
 70
0
 40
0.0
 41
0.8
 50
0.0
 71
0
 42
0.2
  3
txt
  4

  0
STYLE
  5
220
100
AcDbSymbolTableRecord
100
AcDbTextStyleTableRecord
  2
TEXTSTYLE_1
 70
0
 40
0.0
 41
0.8
 50
0.0
 71
0
 42
0.2
  3
gdt
  4

  0
ENDTAB
  0
TABLE
  2
VIEW
  5
6
100
AcDbSymbolTable
 70
0
  0
ENDTAB
  0
TABLE
  2
UCS
  5
7
100
AcDbSymbolTable
 70
0
  0
ENDTAB
  0
TABLE
  2
APPID
  5
9
100
AcDbSymbolTable
 70
1
  0
APPID
  5
221
100
AcDbSymbolTableRecord
100
AcDbRegAppTableRecord
  2
ACAD
 70
0
  0
ENDTAB
  0
TABLE
  2
BLOCK_RECORD
  5
1
100
AcDbSymbolTable
 70
0
  0
BLOCK_RECORD
  5
222
100
AcDbSymbolTableRecord
100
AcDbBlockTableRecord
  2
*Model_Space
  0
BLOCK_RECORD
  5
223
100
AcDbSymbolTableRecord
100
AcDbBlockTableRecord
  2
*Paper_Space
  0
ENDTAB
  0
TABLE
  2
DIMSTYLE
  5
A
100
AcDbSymbolTable
 70
1
100
AcDbDimStyleTable
 71
0
  0
DIMSTYLE
105
224
100
AcDbSymbolTableRecord
100
AcDbDimStyleTableRecord
  2
STANDARD
 70
0
  3

  4

 40
1.0
 41
0.1875
 42
0.0625
 43
0.38
 44
0.125
 45
0.0
 46
0.0
 47
0.0001
 48
0.0001
140
0.15625
141
0.09
142
0.0
143
25.4
144
1.0
145
0.0
146
1.0
147
0.09
 71
0.0
 72
0.0
 73
1
 74
1
 75
0
 76
0
 77
0
 78
4
 79
1
170
0
171
3
172
0
173
0
174
0
175
0
176
0
177
0
178
0
270
2
179
4
271
4
272
4
273
2
274
2
275
0
280
0
281
0
282
0
283
1
284
4
285
0
286
0
287
3
288
0
340
11
278
46
  0
ENDTAB
  0
ENDSEC
  0
SECTION
  2
BLOCKS
  0
BLOCK
  5
20
100
AcDbEntity
  8
0
100
AcDbBlockBegin
  2
*Model_Space
 70
0
 10
0.0
 20
0.0
 30
0.0
  3
*Model_Space
  1

  0
ENDBLK
  5
21
100
AcDbEntity
  8
0
100
AcDbBlockEnd
  0
BLOCK
  5
1C
100
AcDbEntity
  8
0
100
AcDbBlockBegin
  2
*Paper_Space
 70
0
 10
0.0
 20
0.0
 30
0.0
  3
*Paper_Space
  1

  0
ENDBLK
  5
1D
100
AcDbEntity
  8
0
100
AcDbBlockEnd
  0
ENDSEC
  0
SECTION
  2
ENTITIES
  0
MTEXT
  5
225
100
AcDbEntity
  8
0
100
AcDbMText
 62
7
  6
CONTINUOUS
  7
STANDARD
 71
1
 72
1
 10
15.9560215477
 20
0.9479130325
 30
0.0
 11
1.0
 21
0.0
 31
0.0
 44
0.9
  1
SCALE: 1:2.000
 40
0.3
 41
3.36
  0
LINE
  5
226
100
AcDbEntity
  8
0
100
AcDbLine
 62
7
  6
CONTINUOUS
 10
0.0
 20
0.0
 11
0.0
 21
17.0
  0
LINE
  5
227
100
AcDbEntity
  8
0
100
AcDbLine
 62
7
  6
CONTINUOUS
 10
0.0
 20
0.0
 11
22.0
 21
0.0
  0
LINE
  5
228
100
AcDbEntity
  8
0
100
AcDbLine
 62
7
  6
CONTINUOUS
 10
0.0
 20
17.0
 11
22.0
 21
17.0
  0
LINE
  5
229
100
AcDbEntity
  8
0
100
AcDbLine
 62
7
  6
CONTINUOUS
 10
22.0
 20
0.0
 11
22.0
 21
17.0
  0
LINE
  5
22A
100
AcDbEntity
  8
LAYER_FEATURE
100
AcDbLine
 62
7
  6
CONTINUOUS
 10
5.9991672762
 20
6.1181198968
 11
5.9799014629
 21
6.0988540835
  0
LINE
  5
22B
100
AcDbEntity
  8
LAYER_FEATURE
100
AcDbLine
 62
7
  6
CONTINUOUS
 10
6.7283672762
 20
5.3889198968
 11
6.7091014629
 21
5.3696540835
  0
LINE
  5
22C
100
AcDbEntity
  8
LAYER_FEATURE
100
AcDbLine
 62
7
  6
CONTINUOUS
 10
6.2615672762
 20
6.1181198968
 11
6.2808330894
 21
6.0988540835
  0
LINE
  5
22D
100
AcDbEntity
  8
LAYER_FEATURE
100
AcDbLine
 62
7
  6
CONTINUOUS
 10
6.7283672762
 20
5.6513198968
 11
6.7091014629
 21
5.67058571
  0
LINE
  5
22E
100
AcDbEntity
  8
LAYER_FEATURE
100
AcDbLine
 62
7
  6
CONTINUOUS
 10
6.7283672762
 20
5.6513198968
 11
6.7283672762
 21
5.3889198968
  0
LINE
  5
22F
100
AcDbEntity
  8
LAYER_FEATURE
100
AcDbLine
 62
7
  6
CONTINUOUS
 10
5.9991672762
 20
6.1181198968
 11
6.2615672762
 21
6.1181198968
  0
LINE
  5
230
100
AcDbEntity
  8
LAYER_FEATURE
100
AcDbLine
 62
7
  6
CONTINUOUS
 10
5.0708720839
 20
12.3829227814
 11
5.0708720839
 21
12.4469227814
  0
LINE
  5
231
100
AcDbEntity
  8
LAYER_FEATURE
100
AcDbLine
 62
7
  6
CONTINUOUS
 10
5.0708720839
 20
13.3469227814
 11
5.0708720839
 21
13.4109227814
  0
LINE
  5
232
100
AcDbEntity
  8
LAYER_FEATURE
100
AcDbLine
 62
7
  6
CONTINUOUS
 10
5.2911833076
 20
12.4869227814
 11
5.2911833076
 21
13.3069227814
  0
LINE
  5
233
100
AcDbEntity
  8
LAYER_FEATURE
100
AcDbLine
 62
7
  6
CONTINUOUS
 10
5.2944440977
 20
12.4869227814
 11
5.2944440977
 21
13.3069227814
  0
LINE
  5
234
100
AcDbEntity
  8
02___PRT_ALL_AXES
100
AcDbLine
 62
7
  6
CONTINUOUS
 10
5.4728720839
 20
11.7891727814
 11
6.6688720839
 21
11.7891727814
  0
LINE
  5
235
100
AcDbEntity
  8
LAYER_FEATURE
100
AcDbLine
 62
7
  6
CONTINUOUS
 10
5.3178855199
 20
12.4869227814
 11
5.3178855199
 21
13.3069227814
  0
LINE
  5
236
100
AcDbEntity
  8
LAYER_FEATURE
100
AcDbLine
 62
7
  6
CONTINUOUS
 10
5.3275425798
 20
12.4869227814
 11
5.3275425798
 21
13.3069227814
  0
LINE
  5
237
100
AcDbEntity
  8
LAYER_FEATURE
100
AcDbLine
 62
7
  6
CONTINUOUS
 10
5.3735245836
 20
12.4869227814
 11
5.3735245836
 21
13.3069227814
  0
LINE
  5
238
100
AcDbEntity
  8
LAYER_FEATURE
100
AcDbLine
 62
7
  6
CONTINUOUS
 10
5.389206798
 20
12.4869227814
 11
5.389206798
 21
13.3069227814
  0
LINE
  5
239
100
AcDbEntity
  8
0
100
AcDbLine
 62
7
  6
CONTINUOUS
 10
5.4558025178
 20
13.3069227814
 11
5.4558025178
 21
12.4869227814
  0
LINE
  5
23A
100
AcDbEntity
  8
LAYER_FEATURE
100
AcDbLine
 62
7
  6
CONTINUOUS
 10
5.4559623206
 20
12.4869227814
 11
5.4559623206
 21
13.3069227814
  0
LINE
  5
23B
100
AcDbEntity
  8
02___PRT_ALL_AXES
100
AcDbLine
 62
7
  6
CONTINUOUS
 10
5.4728720839
 20
11.7891727814
 11
5.4728720839
 21
12.3829227814
  0
LINE
  5
23C
100
AcDbEntity
  8
LAYER_FEATURE
100
AcDbLine
 62
7
  6
CONTINUOUS
 10
5.4770670308
 20
12.4869227814
 11
5.4770670308
 21
13.3069227814
  0
LINE
  5
23D
100
AcDbEntity
  8
0
100
AcDbLine
 62
7
  6
CONTINUOUS
 10
5.5610612095
 20
13.3069227814
 11
5.5610612095
 21
12.4869227814
  0
LINE
  5
23E
100
AcDbEntity
  8
LAYER_FEATURE
100
AcDbLine
 62
7
  6
CONTINUOUS
 10
5.5620306951
 20
12.4869227814
 11
5.5620306951
 21
13.3069227814
  0
LINE
  5
23F
100
AcDbEntity
  8
LAYER_CUT_FEAT
100
AcDbLine
 62
7
  6
CONTINUOUS
 10
6.0235293618
 20
12.0196727814
 11
6.1182148059
 21
12.0196727814
  0
LINE
  5
240
100
AcDbEntity
  8
LAYER_FEATURE
100
AcDbLine
 62
7
  6
CONTINUOUS
 10
5.5877468588
 20
12.4869227814
 11
5.5877468588
 21
13.3069227814
  0
LINE
  5
241
100
AcDbEntity
  8
0
100
AcDbLine
 62
7
  6
CONTINUOUS
 10
5.6852199171
 20
13.3069227814
 11
5.6852199171
 21
12.4869227814
  0
LINE
  5
242
100
AcDbEntity
  8
LAYER_FEATURE
100
AcDbLine
 62
7
  6
CONTINUOUS
 10
5.6876535587
 20
12.4869227814
 11
5.6876535587
 21
13.3069227814
  0
LINE
  5
243
100
AcDbEntity
  8
LAYER_FEATURE
100
AcDbLine
 62
7
  6
CONTINUOUS
 10
5.7169929182
 20
12.4869227814
 11
5.7169929182
 21
13.3069227814
  0
LINE
  5
244
100
AcDbEntity
  8
LAYER_FEATURE
100
AcDbLine
 62
7
  6
CONTINUOUS
 10
6.9876113297
 20
13.3166461435
 11
7.0708720839
 21
13.3469227814
  0
LINE
  5
245
100
AcDbEntity
  8
LAYER_CUT_FEAT
100
AcDbLine
 62
7
  6
CONTINUOUS
 10
6.1182148059
 20
12.1836727814
 11
6.0235293618
 21
12.1836727814
  0
LINE
  5
246
100
AcDbEntity
  8
0
100
AcDbLine
 62
7
  6
CONTINUOUS
 10
5.8233045453
 20
13.3069227814
 11
5.8233045453
 21
12.4869227814
  0
LINE
  5
247
100
AcDbEntity
  8
LAYER_CUT_FEAT
100
AcDbLine
 62
7
  6
CONTINUOUS
 10
5.9761866397
 20
12.1016727814
 11
6.0235293618
 21
12.0196727814
  0
LINE
  5
248
100
AcDbEntity
  8
LAYER_FEATURE
100
AcDbLine
 62
7
  6
CONTINUOUS
 10
5.8280032953
 20
12.4869227814
 11
5.8280032953
 21
13.3069227814
  0
LINE
  5
249
100
AcDbEntity
  8
LAYER_FEATURE
100
AcDbLine
 62
7
  6
CONTINUOUS
 10
5.8598383556
 20
12.4869227814
 11
5.8598383556
 21
13.3069227814
  0
LINE
  5
24A
100
AcDbEntity
  8
LAYER_FEATURE
100
AcDbLine
 62
7
  6
CONTINUOUS
 10
5.0708720839
 20
12.4469227814
 11
5.1541328381
 21
12.4771994193
  0
LINE
  5
24B
100
AcDbEntity
  8
LAYER_FEATURE
100
AcDbLine
 62
7
  6
CONTINUOUS
 10
5.0708720839
 20
12.3829227814
 11
7.0708720839
 21
12.3829227814
  0
LINE
  5
24C
100
AcDbEntity
  8
LAYER_CUT_FEAT
100
AcDbLine
 62
7
  6
CONTINUOUS
 10
6.165557528
 20
12.1016727814
 11
6.1182148059
 21
12.1836727814
  0
LINE
  5
24D
100
AcDbEntity
  8
LAYER_FEATURE
100
AcDbLine
 62
7
  6
CONTINUOUS
 10
5.9776863433
 20
12.4869227814
 11
5.9776863433
 21
13.3069227814
  0
LINE
  5
24E
100
AcDbEntity
  8
LAYER_FEATURE
100
AcDbLine
 62
7
  6
CONTINUOUS
 10
5.0708720839
 20
12.4469227814
 11
7.0708720839
 21
12.4469227814
  0
LINE
  5
24F
100
AcDbEntity
  8
LAYER_FEATURE
100
AcDbLine
 62
7
  6
CONTINUOUS
 10
6.9324197629
 20
12.4869227814
 11
5.2093244048
 21
12.4869227814
  0
LINE
  5
250
100
AcDbEntity
  8
LAYER_FEATURE
100
AcDbLine
 62
7
  6
CONTINUOUS
 10
6.0107937007
 20
12.4869227814
 11
6.0107937007
 21
13.3069227814
  0
LINE
  5
251
100
AcDbEntity
  8
LAYER_FEATURE
100
AcDbLine
 62
7
  6
CONTINUOUS
 10
6.130950467
 20
12.4869227814
 11
6.130950467
 21
13.3069227814
  0
LINE
  5
252
100
AcDbEntity
  8
LAYER_FEATURE
100
AcDbLine
 62
7
  6
CONTINUOUS
 10
6.1640578244
 20
12.4869227814
 11
6.1640578244
 21
13.3069227814
  0
LINE
  5
253
100
AcDbEntity
  8
LAYER_CUT_FEAT
100
AcDbLine
 62
7
  6
CONTINUOUS
 10
6.0235293618
 20
12.1836727814
 11
5.9761866397
 21
12.1016727814
  0
LINE
  5
254
100
AcDbEntity
  8
LAYER_FEATURE
100
AcDbLine
 62
7
  6
CONTINUOUS
 10
6.6622357637
 20
12.2395091015
 11
6.6688720839
 21
12.2328727814
  0
LINE
  5
255
100
AcDbEntity
  8
LAYER_FEATURE
100
AcDbLine
 62
7
  6
CONTINUOUS
 10
6.2819058122
 20
12.4869227814
 11
6.2819058122
 21
13.3069227814
  0
LINE
  5
256
100
AcDbEntity
  8
LAYER_FEATURE
100
AcDbLine
 62
7
  6
CONTINUOUS
 10
6.3137408724
 20
12.4869227814
 11
6.3137408724
 21
13.3069227814
  0
LINE
  5
257
100
AcDbEntity
  8
LAYER_CUT_FEAT
100
AcDbLine
 62
7
  6
CONTINUOUS
 10
6.3184396224
 20
13.3069227814
 11
6.3184396224
 21
12.4869227814
  0
LINE
  5
258
100
AcDbEntity
  8
LAYER_FEATURE
100
AcDbLine
 62
7
  6
CONTINUOUS
 10
7.0708720839
 20
12.4469227814
 11
6.9876113297
 21
12.4771994193
  0
LINE
  5
259
100
AcDbEntity
  8
LAYER_FEATURE
100
AcDbLine
 62
7
  6
CONTINUOUS
 10
6.4247512495
 20
12.4869227814
 11
6.4247512495
 21
13.3069227814
  0
LINE
  5
25A
100
AcDbEntity
  8
LAYER_CUT_FEAT
100
AcDbLine
 62
7
  6
CONTINUOUS
 10
6.1182148059
 20
12.0196727814
 11
6.165557528
 21
12.1016727814
  0
LINE
  5
25B
100
AcDbEntity
  8
LAYER_FEATURE
100
AcDbLine
 62
7
  6
CONTINUOUS
 10
6.454090609
 20
12.4869227814
 11
6.454090609
 21
13.3069227814
  0
LINE
  5
25C
100
AcDbEntity
  8
LAYER_CUT_FEAT
100
AcDbLine
 62
7
  6
CONTINUOUS
 10
6.4565242506
 20
13.3069227814
 11
6.4565242506
 21
12.4869227814
  0
LINE
  5
25D
100
AcDbEntity
  8
LAYER_FEATURE
100
AcDbLine
 62
7
  6
CONTINUOUS
 10
5.1541328381
 20
13.3166461435
 11
5.0708720839
 21
13.3469227814
  0
LINE
  5
25E
100
AcDbEntity
  8
LAYER_FEATURE
100
AcDbLine
 62
7
  6
CONTINUOUS
 10
6.5539973089
 20
12.4869227814
 11
6.5539973089
 21
13.3069227814
  0
LINE
  5
25F
100
AcDbEntity
  8
LAYER_FEATURE
100
AcDbLine
 62
7
  6
CONTINUOUS
 10
6.5797134727
 20
12.4869227814
 11
6.5797134727
 21
13.3069227814
  0
LINE
  5
260
100
AcDbEntity
  8
LAYER_CUT_FEAT
100
AcDbLine
 62
7
  6
CONTINUOUS
 10
6.5806829583
 20
13.3069227814
 11
6.5806829583
 21
12.4869227814
  0
LINE
  5
261
100
AcDbEntity
  8
LAYER_FEATURE
100
AcDbLine
 62
7
  6
CONTINUOUS
 10
6.6646771369
 20
12.4869227814
 11
6.6646771369
 21
13.3069227814
  0
LINE
  5
262
100
AcDbEntity
  8
02___PRT_ALL_AXES
100
AcDbLine
 62
7
  6
CONTINUOUS
 10
6.6688720839
 20
11.7891727814
 11
6.6688720839
 21
11.9376727814
  0
LINE
  5
263
100
AcDbEntity
  8
LAYER_FEATURE
100
AcDbLine
 62
7
  6
CONTINUOUS
 10
6.6688720839
 20
11.9704728544
 11
6.6688720839
 21
12.2328727084
  0
LINE
  5
264
100
AcDbEntity
  8
02___PRT_ALL_AXES
100
AcDbLine
 62
7
  6
CONTINUOUS
 10
6.6688720839
 20
12.2656727814
 11
6.6688720839
 21
12.3829227814
  0
LINE
  5
265
100
AcDbEntity
  8
LAYER_FEATURE
100
AcDbLine
 62
7
  6
CONTINUOUS
 10
6.6857818471
 20
12.4869227814
 11
6.6857818471
 21
13.3069227814
  0
LINE
  5
266
100
AcDbEntity
  8
LAYER_CUT_FEAT
100
AcDbLine
 62
7
  6
CONTINUOUS
 10
6.6859416499
 20
13.3069227814
 11
6.6859416499
 21
12.4869227814
  0
LINE
  5
267
100
AcDbEntity
  8
LAYER_FEATURE
100
AcDbLine
 62
7
  6
CONTINUOUS
 10
6.7525373697
 20
12.4869227814
 11
6.7525373697
 21
13.3069227814
  0
LINE
  5
268
100
AcDbEntity
  8
LAYER_FEATURE
100
AcDbLine
 62
7
  6
CONTINUOUS
 10
6.7682195841
 20
12.4869227814
 11
6.7682195841
 21
13.3069227814
  0
LINE
  5
269
100
AcDbEntity
  8
LAYER_FEATURE
100
AcDbLine
 62
7
  6
CONTINUOUS
 10
6.8142015879
 20
12.4869227814
 11
6.8142015879
 21
13.3069227814
  0
LINE
  5
26A
100
AcDbEntity
  8
LAYER_FEATURE
100
AcDbLine
 62
7
  6
CONTINUOUS
 10
6.8238586478
 20
12.4869227814
 11
6.8238586478
 21
13.3069227814
  0
LINE
  5
26B
100
AcDbEntity
  8
LAYER_FEATURE
100
AcDbLine
 62
7
  6
CONTINUOUS
 10
6.8473000701
 20
12.4869227814
 11
6.8473000701
 21
13.3069227814
  0
LINE
  5
26C
100
AcDbEntity
  8
LAYER_FEATURE
100
AcDbLine
 62
7
  6
CONTINUOUS
 10
6.8505608602
 20
12.4869227814
 11
6.8505608602
 21
13.3069227814
  0
LINE
  5
26D
100
AcDbEntity
  8
LAYER_FEATURE
100
AcDbLine
 62
7
  6
CONTINUOUS
 10
6.9324197629
 20
13.3069227814
 11
5.2093244048
 21
13.3069227814
  0
LINE
  5
26E
100
AcDbEntity
  8
LAYER_FEATURE
100
AcDbLine
 62
7
  6
CONTINUOUS
 10
5.0708720839
 20
13.3469227814
 11
7.0708720839
 21
13.3469227814
  0
LINE
  5
26F
100
AcDbEntity
  8
LAYER_FEATURE
100
AcDbLine
 62
7
  6
CONTINUOUS
 10
6.662235763
 20
11.9638364605
 11
6.6688720839
 21
11.9704727814
  0
LINE
  5
270
100
AcDbEntity
  8
LAYER_FEATURE
100
AcDbLine
 62
7
  6
CONTINUOUS
 10
5.0708720839
 20
13.4109227814
 11
7.0708720839
 21
13.4109227814
  0
LINE
  5
271
100
AcDbEntity
  8
LAYER_FEATURE
100
AcDbLine
 62
7
  6
CONTINUOUS
 10
7.0708720839
 20
12.3829227814
 11
7.0708720839
 21
12.4469227814
  0
LINE
  5
272
100
AcDbEntity
  8
LAYER_FEATURE
100
AcDbLine
 62
7
  6
CONTINUOUS
 10
7.0708720839
 20
13.3469227814
 11
7.0708720839
 21
13.4109227814
  0
LINE
  5
273
100
AcDbEntity
  8
LAYER_FEATURE
100
AcDbLine
 62
7
  6
CONTINUOUS
 10
16.3712302569
 20
4.4606247044
 11
16.3072302569
 21
4.4606247044
  0
LINE
  5
274
100
AcDbEntity
  8
LAYER_FEATURE
100
AcDbLine
 62
7
  6
CONTINUOUS
 10
15.4072302569
 20
4.4606247044
 11
15.3432302569
 21
4.4606247044
  0
LINE
  5
275
100
AcDbEntity
  8
LAYER_FEATURE
100
AcDbLine
 62
7
  6
CONTINUOUS
 10
14.9241458286
 20
6.0519902761
 11
14.9307802569
 21
6.0586247044
  0
LINE
  5
276
100
AcDbEntity
  8
02___PRT_ALL_AXES
100
AcDbLine
 62
7
  6
CONTINUOUS
 10
14.7494802569
 20
6.0586247044
 11
14.7494802569
 21
4.8626247044
  0
LINE
  5
277
100
AcDbEntity
  8
LAYER_FEATURE
100
AcDbLine
 62
7
  6
CONTINUOUS
 10
15.4472302569
 20
4.6809359282
 11
16.2672302569
 21
4.6809359282
  0
LINE
  5
278
100
AcDbEntity
  8
LAYER_FEATURE
100
AcDbLine
 62
7
  6
CONTINUOUS
 10
15.4472302569
 20
4.6841967182
 11
16.2672302569
 21
4.6841967182
  0
LINE
  5
279
100
AcDbEntity
  8
LAYER_FEATURE
100
AcDbLine
 62
7
  6
CONTINUOUS
 10
15.4472302569
 20
4.7076381405
 11
16.2672302569
 21
4.7076381405
  0
LINE
  5
27A
100
AcDbEntity
  8
LAYER_FEATURE
100
AcDbLine
 62
7
  6
CONTINUOUS
 10
15.4472302569
 20
4.7172952004
 11
16.2672302569
 21
4.7172952004
  0
LINE
  5
27B
100
AcDbEntity
  8
LAYER_FEATURE
100
AcDbLine
 62
7
  6
CONTINUOUS
 10
15.4472302569
 20
4.7632772042
 11
16.2672302569
 21
4.7632772042
  0
LINE
  5
27C
100
AcDbEntity
  8
LAYER_FEATURE
100
AcDbLine
 62
7
  6
CONTINUOUS
 10
15.4472302569
 20
4.7789594186
 11
16.2672302569
 21
4.7789594186
  0
LINE
  5
27D
100
AcDbEntity
  8
LAYER_CUT_FEAT
100
AcDbLine
 62
7
  6
CONTINUOUS
 10
16.2672302569
 20
4.8455551384
 11
15.4472302569
 21
4.8455551384
  0
LINE
  5
27E
100
AcDbEntity
  8
LAYER_FEATURE
100
AcDbLine
 62
7
  6
CONTINUOUS
 10
15.4472302569
 20
4.8457149412
 11
16.2672302569
 21
4.8457149412
  0
LINE
  5
27F
100
AcDbEntity
  8
02___PRT_ALL_AXES
100
AcDbLine
 62
7
  6
CONTINUOUS
 10
15.3432302569
 20
4.8626247044
 11
14.7494802569
 21
4.8626247044
  0
LINE
  5
280
100
AcDbEntity
  8
LAYER_FEATURE
100
AcDbLine
 62
7
  6
CONTINUOUS
 10
15.4472302569
 20
4.8668196514
 11
16.2672302569
 21
4.8668196514
  0
LINE
  5
281
100
AcDbEntity
  8
LAYER_CUT_FEAT
100
AcDbLine
 62
7
  6
CONTINUOUS
 10
14.9799802569
 20
5.5079674265
 11
14.9799802569
 21
5.4132819824
  0
LINE
  5
282
100
AcDbEntity
  8
LAYER_CUT_FEAT
100
AcDbLine
 62
7
  6
CONTINUOUS
 10
16.2672302569
 20
4.95081383
 11
15.4472302569
 21
4.95081383
  0
LINE
  5
283
100
AcDbEntity
  8
LAYER_FEATURE
100
AcDbLine
 62
7
  6
CONTINUOUS
 10
15.4472302569
 20
4.9517833156
 11
16.2672302569
 21
4.9517833156
  0
LINE
  5
284
100
AcDbEntity
  8
LAYER_FEATURE
100
AcDbLine
 62
7
  6
CONTINUOUS
 10
15.4472302569
 20
4.9774994794
 11
16.2672302569
 21
4.9774994794
  0
LINE
  5
285
100
AcDbEntity
  8
LAYER_CUT_FEAT
100
AcDbLine
 62
7
  6
CONTINUOUS
 10
15.1439802569
 20
5.4132819824
 11
15.1439802569
 21
5.5079674265
  0
LINE
  5
286
100
AcDbEntity
  8
LAYER_CUT_FEAT
100
AcDbLine
 62
7
  6
CONTINUOUS
 10
16.2672302569
 20
5.0749725377
 11
15.4472302569
 21
5.0749725377
  0
LINE
  5
287
100
AcDbEntity
  8
LAYER_FEATURE
100
AcDbLine
 62
7
  6
CONTINUOUS
 10
15.4472302569
 20
5.0774061793
 11
16.2672302569
 21
5.0774061793
  0
LINE
  5
288
100
AcDbEntity
  8
LAYER_FEATURE
100
AcDbLine
 62
7
  6
CONTINUOUS
 10
15.4472302569
 20
5.1067455388
 11
16.2672302569
 21
5.1067455388
  0
LINE
  5
289
100
AcDbEntity
  8
LAYER_CUT_FEAT
100
AcDbLine
 62
7
  6
CONTINUOUS
 10
15.0619802569
 20
5.5553101486
 11
14.9799802569
 21
5.5079674265
  0
LINE
  5
28A
100
AcDbEntity
  8
LAYER_CUT_FEAT
100
AcDbLine
 62
7
  6
CONTINUOUS
 10
16.2672302569
 20
5.2130571659
 11
15.4472302569
 21
5.2130571659
  0
LINE
  5
28B
100
AcDbEntity
  8
LAYER_CUT_FEAT
100
AcDbLine
 62
7
  6
CONTINUOUS
 10
14.9799802569
 20
5.4132819824
 11
15.0619802569
 21
5.3659392603
  0
LINE
  5
28C
100
AcDbEntity
  8
LAYER_FEATURE
100
AcDbLine
 62
7
  6
CONTINUOUS
 10
15.3432302569
 20
6.4606247044
 11
15.3432302569
 21
4.4606247044
  0
LINE
  5
28D
100
AcDbEntity
  8
LAYER_CUT_FEAT
100
AcDbLine
 62
7
  6
CONTINUOUS
 10
15.0619802569
 20
5.3659392603
 11
15.1439802569
 21
5.4132819824
  0
LINE
  5
28E
100
AcDbEntity
  8
LAYER_FEATURE
100
AcDbLine
 62
7
  6
CONTINUOUS
 10
15.4472302569
 20
5.2177559159
 11
16.2672302569
 21
5.2177559159
  0
LINE
  5
28F
100
AcDbEntity
  8
LAYER_FEATURE
100
AcDbLine
 62
7
  6
CONTINUOUS
 10
15.4472302569
 20
5.2495909761
 11
16.2672302569
 21
5.2495909761
  0
LINE
  5
290
100
AcDbEntity
  8
LAYER_CUT_FEAT
100
AcDbLine
 62
7
  6
CONTINUOUS
 10
15.1439802569
 20
5.5079674265
 11
15.0619802569
 21
5.5553101486
  0
LINE
  5
291
100
AcDbEntity
  8
LAYER_FEATURE
100
AcDbLine
 62
7
  6
CONTINUOUS
 10
15.4072302569
 20
6.4606247044
 11
15.4072302569
 21
4.4606247044
  0
LINE
  5
292
100
AcDbEntity
  8
LAYER_FEATURE
100
AcDbLine
 62
7
  6
CONTINUOUS
 10
15.4472302569
 20
4.5990769633
 11
15.4472302569
 21
6.3221724455
  0
LINE
  5
293
100
AcDbEntity
  8
LAYER_FEATURE
100
AcDbLine
 62
7
  6
CONTINUOUS
 10
15.4472302569
 20
5.3674389639
 11
16.2672302569
 21
5.3674389639
  0
LINE
  5
294
100
AcDbEntity
  8
LAYER_FEATURE
100
AcDbLine
 62
7
  6
CONTINUOUS
 10
15.4472302569
 20
5.4005463213
 11
16.2672302569
 21
5.4005463213
  0
LINE
  5
295
100
AcDbEntity
  8
LAYER_FEATURE
100
AcDbLine
 62
7
  6
CONTINUOUS
 10
15.4472302569
 20
5.5207030876
 11
16.2672302569
 21
5.5207030876
  0
LINE
  5
296
100
AcDbEntity
  8
LAYER_FEATURE
100
AcDbLine
 62
7
  6
CONTINUOUS
 10
15.4472302569
 20
5.553810445
 11
16.2672302569
 21
5.553810445
  0
LINE
  5
297
100
AcDbEntity
  8
LAYER_FEATURE
100
AcDbLine
 62
7
  6
CONTINUOUS
 10
15.1998146852
 20
6.0519902762
 11
15.1931802569
 21
6.0586247044
  0
LINE
  5
298
100
AcDbEntity
  8
LAYER_FEATURE
100
AcDbLine
 62
7
  6
CONTINUOUS
 10
15.4375068948
 20
4.5438854587
 11
15.4072302569
 21
4.4606247044
  0
LINE
  5
299
100
AcDbEntity
  8
LAYER_FEATURE
100
AcDbLine
 62
7
  6
CONTINUOUS
 10
15.4472302569
 20
5.6716584327
 11
16.2672302569
 21
5.6716584327
  0
LINE
  5
29A
100
AcDbEntity
  8
LAYER_FEATURE
100
AcDbLine
 62
7
  6
CONTINUOUS
 10
15.4472302569
 20
5.703493493
 11
16.2672302569
 21
5.703493493
  0
LINE
  5
29B
100
AcDbEntity
  8
LAYER_CUT_FEAT
100
AcDbLine
 62
7
  6
CONTINUOUS
 10
16.2672302569
 20
5.708192243
 11
15.4472302569
 21
5.708192243
  0
LINE
  5
29C
100
AcDbEntity
  8
LAYER_FEATURE
100
AcDbLine
 62
7
  6
CONTINUOUS
 10
15.4375068948
 20
6.3773639502
 11
15.4072302569
 21
6.4606247044
  0
LINE
  5
29D
100
AcDbEntity
  8
LAYER_FEATURE
100
AcDbLine
 62
7
  6
CONTINUOUS
 10
15.4472302569
 20
5.8145038701
 11
16.2672302569
 21
5.8145038701
  0
LINE
  5
29E
100
AcDbEntity
  8
LAYER_FEATURE
100
AcDbLine
 62
7
  6
CONTINUOUS
 10
16.3072302569
 20
6.4606247044
 11
16.276953619
 21
6.3773639502
  0
LINE
  5
29F
100
AcDbEntity
  8
LAYER_FEATURE
100
AcDbLine
 62
7
  6
CONTINUOUS
 10
15.4472302569
 20
5.8438432296
 11
16.2672302569
 21
5.8438432296
  0
LINE
  5
2A0
100
AcDbEntity
  8
LAYER_CUT_FEAT
100
AcDbLine
 62
7
  6
CONTINUOUS
 10
16.2672302569
 20
5.8462768712
 11
15.4472302569
 21
5.8462768712
  0
LINE
  5
2A1
100
AcDbEntity
  8
LAYER_FEATURE
100
AcDbLine
 62
7
  6
CONTINUOUS
 10
16.3072302569
 20
4.4606247044
 11
16.276953619
 21
4.5438854587
  0
LINE
  5
2A2
100
AcDbEntity
  8
LAYER_FEATURE
100
AcDbLine
 62
7
  6
CONTINUOUS
 10
15.4472302569
 20
5.9437499295
 11
16.2672302569
 21
5.9437499295
  0
LINE
  5
2A3
100
AcDbEntity
  8
LAYER_FEATURE
100
AcDbLine
 62
7
  6
CONTINUOUS
 10
15.4472302569
 20
5.9694660933
 11
16.2672302569
 21
5.9694660933
  0
LINE
  5
2A4
100
AcDbEntity
  8
LAYER_CUT_FEAT
100
AcDbLine
 62
7
  6
CONTINUOUS
 10
16.2672302569
 20
5.9704355789
 11
15.4472302569
 21
5.9704355789
  0
LINE
  5
2A5
100
AcDbEntity
  8
LAYER_FEATURE
100
AcDbLine
 62
7
  6
CONTINUOUS
 10
15.4472302569
 20
6.0544297575
 11
16.2672302569
 21
6.0544297575
  0
LINE
  5
2A6
100
AcDbEntity
  8
02___PRT_ALL_AXES
100
AcDbLine
 62
7
  6
CONTINUOUS
 10
15.3432302569
 20
6.0586247044
 11
15.2259802569
 21
6.0586247044
  0
LINE
  5
2A7
100
AcDbEntity
  8
02___PRT_ALL_AXES
100
AcDbLine
 62
7
  6
CONTINUOUS
 10
14.8979802569
 20
6.0586247044
 11
14.7494802569
 21
6.0586247044
  0
LINE
  5
2A8
100
AcDbEntity
  8
LAYER_FEATURE
100
AcDbLine
 62
7
  6
CONTINUOUS
 10
14.9307803183
 20
6.0586247044
 11
15.1931801956
 21
6.0586247044
  0
LINE
  5
2A9
100
AcDbEntity
  8
LAYER_FEATURE
100
AcDbLine
 62
7
  6
CONTINUOUS
 10
15.4472302569
 20
6.0755344677
 11
16.2672302569
 21
6.0755344677
  0
LINE
  5
2AA
100
AcDbEntity
  8
LAYER_CUT_FEAT
100
AcDbLine
 62
7
  6
CONTINUOUS
 10
16.2672302569
 20
6.0756942705
 11
15.4472302569
 21
6.0756942705
  0
LINE
  5
2AB
100
AcDbEntity
  8
LAYER_FEATURE
100
AcDbLine
 62
7
  6
CONTINUOUS
 10
15.4472302569
 20
6.1422899903
 11
16.2672302569
 21
6.1422899903
  0
LINE
  5
2AC
100
AcDbEntity
  8
LAYER_FEATURE
100
AcDbLine
 62
7
  6
CONTINUOUS
 10
15.4472302569
 20
6.1579722047
 11
16.2672302569
 21
6.1579722047
  0
LINE
  5
2AD
100
AcDbEntity
  8
LAYER_FEATURE
100
AcDbLine
 62
7
  6
CONTINUOUS
 10
16.2672302569
 20
4.5990769633
 11
16.2672302569
 21
6.3221724455
  0
LINE
  5
2AE
100
AcDbEntity
  8
LAYER_FEATURE
100
AcDbLine
 62
7
  6
CONTINUOUS
 10
16.3072302569
 20
6.4606247044
 11
16.3072302569
 21
4.4606247044
  0
LINE
  5
2AF
100
AcDbEntity
  8
LAYER_FEATURE
100
AcDbLine
 62
7
  6
CONTINUOUS
 10
15.4472302569
 20
6.2039542085
 11
16.2672302569
 21
6.2039542085
  0
LINE
  5
2B0
100
AcDbEntity
  8
LAYER_FEATURE
100
AcDbLine
 62
7
  6
CONTINUOUS
 10
15.4472302569
 20
6.2136112684
 11
16.2672302569
 21
6.2136112684
  0
LINE
  5
2B1
100
AcDbEntity
  8
LAYER_FEATURE
100
AcDbLine
 62
7
  6
CONTINUOUS
 10
15.4472302569
 20
6.2370526906
 11
16.2672302569
 21
6.2370526906
  0
LINE
  5
2B2
100
AcDbEntity
  8
LAYER_FEATURE
100
AcDbLine
 62
7
  6
CONTINUOUS
 10
15.4472302569
 20
6.2403134807
 11
16.2672302569
 21
6.2403134807
  0
LINE
  5
2B3
100
AcDbEntity
  8
LAYER_FEATURE
100
AcDbLine
 62
7
  6
CONTINUOUS
 10
16.3712302569
 20
6.4606247044
 11
16.3712302569
 21
4.4606247044
  0
LINE
  5
2B4
100
AcDbEntity
  8
LAYER_FEATURE
100
AcDbLine
 62
7
  6
CONTINUOUS
 10
16.3712302569
 20
6.4606247044
 11
16.3072302569
 21
6.4606247044
  0
LINE
  5
2B5
100
AcDbEntity
  8
LAYER_FEATURE
100
AcDbLine
 62
7
  6
CONTINUOUS
 10
15.4072302569
 20
6.4606247044
 11
15.3432302569
 21
6.4606247044
  0
LINE
  5
2B6
100
AcDbEntity
  8
LAYER_FEATURE
100
AcDbLine
 62
7
  6
CONTINUOUS
 10
14.391269534
 20
12.5110289055
 11
14.4067617787
 21
12.5611618277
  0
LINE
  5
2B7
100
AcDbEntity
  8
LAYER_FEATURE
100
AcDbLine
 62
7
  6
CONTINUOUS
 10
14.6246214698
 20
13.2661560464
 11
14.6401137145
 21
13.3162889686
  0
LINE
  5
2B8
100
AcDbEntity
  8
02___PRT_ALL_AXES
100
AcDbLine
 62
7
  6
CONTINUOUS
 10
14.7203781171
 20
12.8376607729
 11
14.8232205609
 21
13.170459043
  0
LINE
  5
2B9
100
AcDbEntity
  8
LAYER_FEATURE
100
AcDbLine
 62
7
  6
CONTINUOUS
 10
14.7205141339
 20
12.8377085113
 11
14.825606661
 21
13.1777880538
  0
LINE
  5
2BA
100
AcDbEntity
  8
LAYER_FEATURE
100
AcDbLine
 62
7
  6
CONTINUOUS
 10
14.7336321611
 20
12.8419124782
 11
14.8566168429
 21
13.2398910544
  0
LINE
  5
2BB
100
AcDbEntity
  8
LAYER_FEATURE
100
AcDbLine
 62
7
  6
CONTINUOUS
 10
14.7409873784
 20
12.8441804882
 11
14.8682110616
 21
13.2558764781
  0
LINE
  5
2BC
100
AcDbEntity
  8
LAYER_FEATURE
100
AcDbLine
 62
7
  6
CONTINUOUS
 10
14.7804368339
 20
12.8552833835
 11
14.9205503039
 21
13.3086907387
  0
LINE
  5
2BD
100
AcDbEntity
  8
LAYER_FEATURE
100
AcDbLine
 62
7
  6
CONTINUOUS
 10
14.7946940933
 20
12.8587231573
 11
14.9377986391
 21
13.3218096369
  0
LINE
  5
2BE
100
AcDbEntity
  8
LAYER_FEATURE
100
AcDbLine
 62
7
  6
CONTINUOUS
 10
14.8232205603
 20
13.1704590432
 11
14.825606661
 21
13.1777880538
  0
LINE
  5
2BF
100
AcDbEntity
  8
LAYER_CUT_FEAT
100
AcDbLine
 62
7
  6
CONTINUOUS
 10
14.6998704667
 20
12.4156640045
 11
14.7095531196
 21
12.4469970809
  0
LINE
  5
2C0
100
AcDbEntity
  8
LAYER_FEATURE
100
AcDbLine
 62
7
  6
CONTINUOUS
 10
14.8574543315
 20
12.8714293337
 11
15.0094555741
 21
13.3633055352
  0
LINE
  5
2C1
100
AcDbEntity
  8
LAYER_FEATURE
100
AcDbLine
 62
7
  6
CONTINUOUS
 10
14.8776943217
 20
12.8747067901
 11
15.0316951818
 21
13.373053756
  0
LINE
  5
2C2
100
AcDbEntity
  8
02___PRT_ALL_AXES
100
AcDbLine
 62
7
  6
CONTINUOUS
 10
14.6316218339
 20
11.9272391096
 11
14.7753487134
 21
12.3923394622
  0
LINE
  5
2C3
100
AcDbEntity
  8
0
100
AcDbLine
 62
7
  6
CONTINUOUS
 10
15.1187869122
 20
13.399553084
 11
14.9594017315
 21
12.8837824501
  0
LINE
  5
2C4
100
AcDbEntity
  8
LAYER_FEATURE
100
AcDbLine
 62
7
  6
CONTINUOUS
 10
14.9598976992
 20
12.8838169779
 11
15.1199160738
 21
13.4016366279
  0
LINE
  5
2C5
100
AcDbEntity
  8
LAYER_FEATURE
100
AcDbLine
 62
7
  6
CONTINUOUS
 10
14.9849577294
 20
12.8855606956
 11
15.1462922985
 21
13.4076395527
  0
LINE
  5
2C6
100
AcDbEntity
  8
LAYER_CUT_FEAT
100
AcDbLine
 62
7
  6
CONTINUOUS
 10
15.8582867238
 20
11.9366134248
 11
15.8069164021
 21
11.9366134248
  0
LINE
  5
2C7
100
AcDbEntity
  8
0
100
AcDbLine
 62
7
  6
CONTINUOUS
 10
15.2449140345
 20
13.41863195
 11
15.0806923581
 21
12.8872104104
  0
LINE
  5
2C8
100
AcDbEntity
  8
LAYER_FEATURE
100
AcDbLine
 62
7
  6
CONTINUOUS
 10
15.0823523499
 20
12.8871882777
 11
15.247686868
 21
13.4222109744
  0
LINE
  5
2C9
100
AcDbEntity
  8
LAYER_FEATURE
100
AcDbLine
 62
7
  6
CONTINUOUS
 10
15.1109699417
 20
12.8863622738
 11
15.2771860861
 21
13.424237914
  0
LINE
  5
2CA
100
AcDbEntity
  8
LAYER_CUT_FEAT
100
AcDbLine
 62
7
  6
CONTINUOUS
 10
15.86369465
 20
12.0302749393
 11
15.7991318591
 21
12.0302749393
  0
LINE
  5
2CB
100
AcDbEntity
  8
LAYER_CUT_FEAT
100
AcDbLine
 62
7
  6
CONTINUOUS
 10
15.0089831192
 20
12.3671936017
 11
15.0405040025
 21
12.3029607951
  0
LINE
  5
2CC
100
AcDbEntity
  8
LAYER_CUT_FEAT
100
AcDbLine
 62
7
  6
CONTINUOUS
 10
15.0089831192
 20
12.3671936017
 11
15.0327392154
 21
12.3029607951
  0
LINE
  5
2CD
100
AcDbEntity
  8
0
100
AcDbLine
 62
7
  6
CONTINUOUS
 10
15.3828457591
 20
13.4193747098
 11
15.215750969
 21
12.8786557709
  0
LINE
  5
2CE
100
AcDbEntity
  8
LAYER_FEATURE
100
AcDbLine
 62
7
  6
CONTINUOUS
 10
15.2191395544
 20
12.8782654818
 11
15.3878577967
 21
13.424237914
  0
LINE
  5
2CF
100
AcDbEntity
  8
LAYER_FEATURE
100
AcDbLine
 62
7
  6
CONTINUOUS
 10
15.2501139016
 20
12.8745745069
 11
15.4193463697
 21
13.4222109744
  0
LINE
  5
2D0
100
AcDbEntity
  8
LAYER_FEATURE
100
AcDbLine
 62
7
  6
CONTINUOUS
 10
15.382908767
 20
13.4195742534
 11
15.3828457854
 21
13.4193747017
  0
LINE
  5
2D1
100
AcDbEntity
  8
LAYER_CUT_FEAT
100
AcDbLine
 62
7
  6
CONTINUOUS
 10
15.0724380924
 20
12.4314264083
 11
15.1224649585
 21
12.3294823735
  0
LINE
  5
2D2
100
AcDbEntity
  8
LAYER_CUT_FEAT
100
AcDbLine
 62
7
  6
CONTINUOUS
 10
15.1834052578
 20
12.3671936017
 11
15.1596491617
 21
12.4314264083
  0
LINE
  5
2D3
100
AcDbEntity
  8
LAYER_CUT_FEAT
100
AcDbLine
 62
7
  6
CONTINUOUS
 10
15.5255730977
 20
13.3985895887
 11
15.3581430685
 21
12.8567858157
  0
LINE
  5
2D4
100
AcDbEntity
  8
LAYER_FEATURE
100
AcDbLine
 62
7
  6
CONTINUOUS
 10
15.3644212444
 20
12.8555100364
 11
15.5350421696
 21
13.4076395527
  0
LINE
  5
2D5
100
AcDbEntity
  8
LAYER_CUT_FEAT
100
AcDbLine
 62
7
  6
CONTINUOUS
 10
15.0724380924
 20
12.4314264083
 11
15.0089831192
 21
12.3671936017
  0
LINE
  5
2D6
100
AcDbEntity
  8
LAYER_CUT_FEAT
100
AcDbLine
 62
7
  6
CONTINUOUS
 10
15.0327392154
 20
12.3029607951
 11
15.1199502847
 21
12.3029607951
  0
LINE
  5
2D7
100
AcDbEntity
  8
LAYER_FEATURE
100
AcDbLine
 62
7
  6
CONTINUOUS
 10
15.3964415213
 20
12.8487059975
 11
15.5673100094
 21
13.4016366279
  0
LINE
  5
2D8
100
AcDbEntity
  8
LAYER_CUT_FEAT
100
AcDbLine
 62
7
  6
CONTINUOUS
 10
15.1224649585
 20
12.3294823735
 11
15.0962645458
 21
12.3029607951
  0
LINE
  5
2D9
100
AcDbEntity
  8
LAYER_CUT_FEAT
100
AcDbLine
 62
7
  6
CONTINUOUS
 10
15.1199502847
 20
12.3029607951
 11
15.1834052578
 21
12.3671936017
  0
LINE
  5
2DA
100
AcDbEntity
  8
LAYER_CUT_FEAT
100
AcDbLine
 62
7
  6
CONTINUOUS
 10
15.1461506974
 20
12.3294823735
 11
15.1224649585
 21
12.3294823735
  0
LINE
  5
2DB
100
AcDbEntity
  8
LAYER_FEATURE
100
AcDbLine
 62
7
  6
CONTINUOUS
 10
15.5122603218
 20
12.8186508618
 11
15.6835837739
 21
13.373053756
  0
LINE
  5
2DC
100
AcDbEntity
  8
LAYER_FEATURE
100
AcDbLine
 62
7
  6
CONTINUOUS
 10
15.5440464341
 20
12.8088348164
 11
15.7153908456
 21
13.3633055352
  0
LINE
  5
2DD
100
AcDbEntity
  8
LAYER_CUT_FEAT
100
AcDbLine
 62
7
  6
CONTINUOUS
 10
15.1596491617
 20
12.4314264083
 11
15.0724380924
 21
12.4314264083
  0
LINE
  5
2DE
100
AcDbEntity
  8
LAYER_FEATURE
100
AcDbLine
 62
7
  6
CONTINUOUS
 10
15.6568515226
 20
12.7687035234
 11
15.8277742391
 21
13.3218096369
  0
LINE
  5
2DF
100
AcDbEntity
  8
LAYER_FEATURE
100
AcDbLine
 62
7
  6
CONTINUOUS
 10
15.8261944218
 20
12.1440919347
 11
15.8510049178
 21
12.1143677159
  0
LINE
  5
2E0
100
AcDbEntity
  8
LAYER_CUT_FEAT
100
AcDbLine
 62
7
  6
CONTINUOUS
 10
15.7951127484
 20
11.9606667421
 11
15.823995773
 21
11.9018093261
  0
LINE
  5
2E1
100
AcDbEntity
  8
LAYER_FEATURE
100
AcDbLine
 62
7
  6
CONTINUOUS
 10
15.6872058704
 20
12.7563301104
 11
15.8578982146
 21
13.3086907387
  0
LINE
  5
2E2
100
AcDbEntity
  8
LAYER_CUT_FEAT
100
AcDbLine
 62
7
  6
CONTINUOUS
 10
15.8607046317
 20
13.2956258351
 11
15.6932733077
 21
12.7538178722
  0
LINE
  5
2E3
100
AcDbEntity
  8
LAYER_CUT_FEAT
100
AcDbLine
 62
7
  6
CONTINUOUS
 10
15.86369465
 20
12.0302749393
 11
15.8348116254
 21
12.0891323553
  0
LINE
  5
2E4
100
AcDbEntity
  8
LAYER_FEATURE
100
AcDbLine
 62
7
  6
CONTINUOUS
 10
15.9907679686
 20
13.2328061602
 11
15.9908954365
 21
13.2332386999
  0
LINE
  5
2E5
100
AcDbEntity
  8
LAYER_FEATURE
100
AcDbLine
 62
7
  6
CONTINUOUS
 10
15.7927290826
 20
12.7078812812
 11
15.9620724064
 21
13.2558764781
  0
LINE
  5
2E6
100
AcDbEntity
  8
LAYER_FEATURE
100
AcDbLine
 62
7
  6
CONTINUOUS
 10
15.8205278322
 20
12.6935640736
 11
15.9893556383
 21
13.2398910544
  0
LINE
  5
2E7
100
AcDbEntity
  8
LAYER_CUT_FEAT
100
AcDbLine
 62
7
  6
CONTINUOUS
 10
15.9907680097
 20
13.2328061475
 11
15.8236226761
 21
12.6919236496
  0
LINE
  5
2E8
100
AcDbEntity
  8
LAYER_CUT_FEAT
100
AcDbLine
 62
7
  6
CONTINUOUS
 10
15.8005206746
 20
12.0543282566
 11
15.7951127484
 21
11.9606667421
  0
LINE
  5
2E9
100
AcDbEntity
  8
LAYER_CUT_FEAT
100
AcDbLine
 62
7
  6
CONTINUOUS
 10
15.8582867238
 20
11.9366134248
 11
15.86369465
 21
12.0302749393
  0
LINE
  5
2EA
100
AcDbEntity
  8
LAYER_FEATURE
100
AcDbLine
 62
7
  6
CONTINUOUS
 10
15.9149498557
 20
12.6394228956
 11
16.0813172726
 21
13.1777880538
  0
LINE
  5
2EB
100
AcDbEntity
  8
LAYER_FEATURE
100
AcDbLine
 62
7
  6
CONTINUOUS
 10
15.9392266258
 20
12.6240418729
 11
16.1047112816
 21
13.1595504154
  0
LINE
  5
2EC
100
AcDbEntity
  8
LAYER_CUT_FEAT
100
AcDbLine
 62
7
  6
CONTINUOUS
 10
16.1050169622
 20
13.154940398
 11
15.9406608217
 21
12.6230837324
  0
LINE
  5
2ED
100
AcDbEntity
  8
LAYER_FEATURE
100
AcDbLine
 62
7
  6
CONTINUOUS
 10
16.0193186422
 20
12.5675826074
 11
16.1809263243
 21
13.0905452585
  0
LINE
  5
2EE
100
AcDbEntity
  8
LAYER_FEATURE
100
AcDbLine
 62
7
  6
CONTINUOUS
 10
16.0392400143
 20
12.552050915
 11
16.1995320917
 21
13.0707562677
  0
LINE
  5
2EF
100
AcDbEntity
  8
LAYER_CUT_FEAT
100
AcDbLine
 62
7
  6
CONTINUOUS
 10
16.1992969101
 20
13.0683112459
 11
16.0396577055
 21
12.5517185905
  0
LINE
  5
2F0
100
AcDbEntity
  8
02___PRT_ALL_AXES
100
AcDbLine
 62
7
  6
CONTINUOUS
 10
15.7743051636
 20
11.5741232533
 11
15.9180320431
 21
12.0392236059
  0
LINE
  5
2F1
100
AcDbEntity
  8
LAYER_FEATURE
100
AcDbLine
 62
7
  6
CONTINUOUS
 10
16.1027029255
 20
12.4979634356
 11
16.2570716416
 21
12.9975007838
  0
LINE
  5
2F2
100
AcDbEntity
  8
LAYER_FEATURE
100
AcDbLine
 62
7
  6
CONTINUOUS
 10
16.1177660062
 20
12.4837279596
 11
16.2701741582
 21
12.9769209204
  0
LINE
  5
2F3
100
AcDbEntity
  8
LAYER_CUT_FEAT
100
AcDbLine
 62
7
  6
CONTINUOUS
 10
15.8348116254
 20
12.0891323553
 11
15.8005206746
 21
12.0543282566
  0
LINE
  5
2F4
100
AcDbEntity
  8
LAYER_CUT_FEAT
100
AcDbLine
 62
7
  6
CONTINUOUS
 10
15.9935102898
 20
12.0158990635
 11
16.0031929427
 21
12.0472321399
  0
LINE
  5
2F5
100
AcDbEntity
  8
LAYER_FEATURE
100
AcDbLine
 62
7
  6
CONTINUOUS
 10
16.1631774547
 20
12.4373801697
 11
16.3068270025
 21
12.9022302767
  0
LINE
  5
2F6
100
AcDbEntity
  8
LAYER_FEATURE
100
AcDbLine
 62
7
  6
CONTINUOUS
 10
16.1732335931
 20
12.4263801474
 11
16.3139227461
 21
12.8816504133
  0
LINE
  5
2F7
100
AcDbEntity
  8
LAYER_FEATURE
100
AcDbLine
 62
7
  6
CONTINUOUS
 10
16.2002929947
 20
12.3942277393
 11
16.3282803366
 21
12.8083949294
  0
LINE
  5
2F8
100
AcDbEntity
  8
LAYER_FEATURE
100
AcDbLine
 62
7
  6
CONTINUOUS
 10
16.2052742764
 20
12.3879166829
 11
16.3290966215
 21
12.7886059386
  0
LINE
  5
2F9
100
AcDbEntity
  8
LAYER_FEATURE
100
AcDbLine
 62
7
  6
CONTINUOUS
 10
15.8261944218
 20
11.8468497467
 11
15.8510049178
 21
11.8765739655
  0
LINE
  5
2FA
100
AcDbEntity
  8
LAYER_CUT_FEAT
100
AcDbLine
 62
7
  6
CONTINUOUS
 10
15.823995773
 20
11.9018093261
 11
15.8582867238
 21
11.9366134248
  0
LINE
  5
2FB
100
AcDbEntity
  8
LAYER_FEATURE
100
AcDbLine
 62
7
  6
CONTINUOUS
 10
16.2144918988
 20
12.3762115277
 11
16.3206072041
 21
12.7196007816
  0
LINE
  5
2FC
100
AcDbEntity
  8
02___PRT_ALL_AXES
100
AcDbLine
 62
7
  6
CONTINUOUS
 10
16.2146762637
 20
12.3759584299
 11
16.3174987613
 21
12.708692154
  0
LINE
  5
2FD
100
AcDbEntity
  8
LAYER_FEATURE
100
AcDbLine
 62
7
  6
CONTINUOUS
 10
16.3021112225
 20
11.9205341626
 11
16.3176034672
 21
11.9706670848
  0
LINE
  5
2FE
100
AcDbEntity
  8
LAYER_FEATURE
100
AcDbLine
 62
7
  6
CONTINUOUS
 10
16.5354631583
 20
12.6756613034
 11
16.550955403
 21
12.7257942257
  0
CIRCLE
  5
2FF
100
AcDbEntity
  8
LAYER_FEATURE
100
AcDbCircle
 62
7
  6
CONTINUOUS
 10
6.1303672762
 20
5.5201198968
 40
1.0
  0
CIRCLE
  5
300
100
AcDbEntity
  8
LAYER_FEATURE
100
AcDbCircle
 62
7
  6
CONTINUOUS
 10
6.1303672762
 20
5.5201198968
 40
0.89
  0
CIRCLE
  5
301
100
AcDbEntity
  8
LAYER_CUT_FEAT
100
AcDbCircle
 62
7
  6
CONTINUOUS
 10
6.1303672762
 20
5.5201198968
 40
0.677
  0
CIRCLE
  5
302
100
AcDbEntity
  8
02___PRT_ALL_AXES
100
AcDbCircle
 62
7
  6
CONTINUOUS
 10
6.1303672762
 20
5.5201198968
 40
0.598
  0
CIRCLE
  5
303
100
AcDbEntity
  8
LAYER_CHAMFER_FEAT
100
AcDbCircle
 62
7
  6
CONTINUOUS
 10
6.1303672762
 20
5.5201198968
 40
0.2875
  0
CIRCLE
  5
304
100
AcDbEntity
  8
LAYER_CHAMFER_FEAT
100
AcDbCircle
 62
7
  6
CONTINUOUS
 10
6.1303672762
 20
5.5201198968
 40
0.25
  0
CIRCLE
  5
305
100
AcDbEntity
  8
02___PRT_ALL_AXES
100
AcDbCircle
 62
7
  6
CONTINUOUS
 10
6.0708720839
 20
12.1016727814
 40
0.164
  0
ARC
  5
306
100
AcDbEntity
  8
LAYER_FEATURE
100
AcDbCircle
 62
7
  6
CONTINUOUS
 10
6.932419825
 20
12.3254227814
 40
0.1615
100
AcDbArc
 50
70.0168934781
 51
90.0
  0
ARC
  5
307
100
AcDbEntity
  8
LAYER_FEATURE
100
AcDbCircle
 62
7
  6
CONTINUOUS
 10
5.2093243428
 20
12.3254227814
 40
0.1615
100
AcDbArc
 50
90.0
 51
109.9831065219
  0
ARC
  5
308
100
AcDbEntity
  8
LAYER_FEATURE
100
AcDbCircle
 62
7
  6
CONTINUOUS
 10
6.932419825
 20
13.4684227814
 40
0.1615
100
AcDbArc
 50
270.0
 51
289.9831065219
  0
ARC
  5
309
100
AcDbEntity
  8
LAYER_FEATURE
100
AcDbCircle
 62
7
  6
CONTINUOUS
 10
5.2093243428
 20
13.4684227814
 40
0.1615
100
AcDbArc
 50
250.0168934781
 51
270.0
  0
CIRCLE
  5
30A
100
AcDbEntity
  8
LAYER_FEATURE
100
AcDbCircle
 62
7
  6
CONTINUOUS
 10
6.0708720839
 20
12.1016727814
 40
0.1312
  0
CIRCLE
  5
30B
100
AcDbEntity
  8
02___PRT_ALL_AXES
100
AcDbCircle
 62
7
  6
CONTINUOUS
 10
15.0619802569
 20
5.4606247044
 40
0.164
  0
ARC
  5
30C
100
AcDbEntity
  8
LAYER_FEATURE
100
AcDbCircle
 62
7
  6
CONTINUOUS
 10
15.2857302569
 20
4.5990769633
 40
0.1615
100
AcDbArc
 50
340.0168934781
 51
360.0
  0
ARC
  5
30D
100
AcDbEntity
  8
LAYER_FEATURE
100
AcDbCircle
 62
7
  6
CONTINUOUS
 10
15.2857302569
 20
6.3221724455
 40
0.1615
100
AcDbArc
 50
0.0
 51
19.9831065219
  0
ARC
  5
30E
100
AcDbEntity
  8
LAYER_FEATURE
100
AcDbCircle
 62
7
  6
CONTINUOUS
 10
16.4287302569
 20
4.5990769633
 40
0.1615
100
AcDbArc
 50
180.0
 51
199.9831065219
  0
ARC
  5
30F
100
AcDbEntity
  8
LAYER_FEATURE
100
AcDbCircle
 62
7
  6
CONTINUOUS
 10
16.4287302569
 20
6.3221724455
 40
0.1615
100
AcDbArc
 50
160.0168934781
 51
180.0
  0
CIRCLE
  5
310
100
AcDbEntity
  8
LAYER_FEATURE
100
AcDbCircle
 62
7
  6
CONTINUOUS
 10
15.0619802569
 20
5.4606247044
 40
0.1312
  0
ARC
  5
311
100
AcDbEntity
  8
LAYER_FEATURE
100
AcDbCircle
 62
7
  6
CONTINUOUS
 10
15.2993435263
 20
12.062566832
 40
1.3656560863
100
AcDbArc
 50
72.2628832012
 51
73.6586422036
  0
ARC
  5
312
100
AcDbEntity
  8
LAYER_FEATURE
100
AcDbCircle
 62
7
  6
CONTINUOUS
 10
15.3168117259
 20
12.1073782362
 40
1.3175455654
100
AcDbArc
 50
65.7525905037
 51
67.1814565383
  0
ARC
  5
313
100
AcDbEntity
  8
LAYER_FEATURE
100
AcDbCircle
 62
7
  6
CONTINUOUS
 10
15.3116674845
 20
12.1171947768
 40
1.309635052
100
AcDbArc
 50
78.7435140996
 51
80.1794718959
  0
ARC
  5
314
100
AcDbEntity
  8
LAYER_FEATURE
100
AcDbCircle
 62
7
  6
CONTINUOUS
 10
15.3812174011
 20
12.2332225682
 40
1.1761009976
100
AcDbArc
 50
58.8634170933
 51
60.4039508861
  0
ARC
  5
315
100
AcDbEntity
  8
LAYER_FEATURE
100
AcDbCircle
 62
7
  6
CONTINUOUS
 10
15.3289621019
 20
12.2636899072
 40
1.1620414704
100
AcDbArc
 50
85.5389948509
 51
87.0948359388
  0
ARC
  5
316
100
AcDbEntity
  8
LAYER_FEATURE
100
AcDbCircle
 62
7
  6
CONTINUOUS
 10
15.4953655189
 20
12.4020458295
 40
0.9721704872
100
AcDbArc
 50
51.186384269
 51
52.934666376
  0
ARC
  5
317
100
AcDbEntity
  8
LAYER_FEATURE
100
AcDbCircle
 62
7
  6
CONTINUOUS
 10
15.3278903084
 20
12.4706371952
 40
0.954947773
100
AcDbArc
 50
93.0436268853
 51
94.8177905042
  0
ARC
  5
318
100
AcDbEntity
  8
LAYER_FEATURE
100
AcDbCircle
 62
7
  6
CONTINUOUS
 10
15.645833229
 20
12.5688053089
 40
0.747353461
100
AcDbArc
 50
42.1936100586
 51
44.2761030846
  0
ARC
  5
319
100
AcDbEntity
  8
LAYER_FEATURE
100
AcDbCircle
 62
7
  6
CONTINUOUS
 10
15.2951382746
 20
12.6926772196
 40
0.7302919021
100
AcDbArc
 50
101.7602618485
 51
103.8826727847
  0
ARC
  5
31A
100
AcDbEntity
  8
LAYER_FEATURE
100
AcDbCircle
 62
7
  6
CONTINUOUS
 10
15.8065314386
 20
12.6961958741
 40
0.542006571
100
AcDbArc
 50
31.1939449052
 51
33.7731665457
  0
ARC
  5
31B
100
AcDbEntity
  8
LAYER_FEATURE
100
AcDbCircle
 62
7
  6
CONTINUOUS
 10
15.2324285087
 20
12.8848575482
 40
0.5278535837
100
AcDbArc
 50
112.3511644295
 51
114.9871103364
  0
ARC
  5
31C
100
AcDbEntity
  8
LAYER_FEATURE
100
AcDbCircle
 62
7
  6
CONTINUOUS
 10
15.9465519556
 20
12.7664976209
 40
0.3849954068
100
AcDbArc
 50
17.4036589674
 51
20.6437656282
  0
ARC
  5
31D
100
AcDbEntity
  8
LAYER_FEATURE
100
AcDbCircle
 62
7
  6
CONTINUOUS
 10
15.1562973175
 20
13.0166358602
 40
0.37533013
100
AcDbArc
 50
125.6019503769
 51
128.9105062253
  0
ARC
  5
31E
100
AcDbEntity
  8
LAYER_FEATURE
100
AcDbCircle
 62
7
  6
CONTINUOUS
 10
16.0408405364
 20
12.7866268649
 40
0.2882628789
100
AcDbArc
 50
0.393368228
 51
4.3307922467
  0
ARC
  5
31F
100
AcDbEntity
  8
LAYER_FEATURE
100
AcDbCircle
 62
7
  6
CONTINUOUS
 10
15.0935654039
 20
13.0802297499
 40
0.28572076
100
AcDbArc
 50
142.0662706325
 51
146.0270182067
  0
ARC
  5
320
100
AcDbEntity
  8
LAYER_FEATURE
100
AcDbCircle
 62
7
  6
CONTINUOUS
 10
16.072395453
 20
12.7844322007
 40
0.2565388592
100
AcDbArc
 50
342.8281842703
 51
345.361723277
  0
ARC
  5
321
100
AcDbEntity
  8
LAYER_FEATURE
100
AcDbCircle
 62
7
  6
CONTINUOUS
 10
16.2836321859
 20
12.7316055147
 40
0.0901988129
100
AcDbArc
 50
66.1402588425
 51
75.7547747363
  0
ARC
  5
322
100
AcDbEntity
  8
LAYER_FEATURE
100
AcDbCircle
 62
7
  6
CONTINUOUS
 10
14.8621583904
 20
13.1673531673
 40
0.0901082141
100
AcDbArc
 50
70.1639096528
 51
79.7848843255
  0
ARC
  5
323
100
AcDbEntity
  8
LAYER_FEATURE
100
AcDbCircle
 62
7
  6
CONTINUOUS
 10
15.1762452015
 20
12.3811347694
 40
0.0859952799
100
AcDbArc
 50
29.6897683272
 51
34.0576369289
  0
ARC
  5
324
100
AcDbEntity
  8
LAYER_FEATURE
100
AcDbCircle
 62
7
  6
CONTINUOUS
 10
14.9210944713
 20
13.3308034195
 40
0.0836426703
100
AcDbArc
 50
250.1806364539
 51
256.9507562474
  0
ARC
  5
325
100
AcDbEntity
  8
LAYER_FEATURE
100
AcDbCircle
 62
7
  6
CONTINUOUS
 10
16.3264206267
 20
12.9000666035
 40
0.0836112138
100
AcDbArc
 50
248.3635326389
 51
255.7416779237
  0
ARC
  5
326
100
AcDbEntity
  8
LAYER_FEATURE
100
AcDbCircle
 62
7
  6
CONTINUOUS
 10
16.2733089897
 20
12.6577000796
 40
0.0793650057
100
AcDbArc
 50
59.2378001962
 51
62.1861749263
  0
ARC
  5
327
100
AcDbEntity
  8
LAYER_FEATURE
100
AcDbCircle
 62
7
  6
CONTINUOUS
 10
14.8301106864
 20
13.1003080718
 40
0.0790808472
100
AcDbArc
 50
84.4208141313
 51
86.7080363391
  0
SPLINE
  5
328
100
AcDbEntity
  8
02___PRT_ALL_AXES
100
AcDbSpline
 62
7
  6
CONTINUOUS
 70
0
 71
3
 72
29
 73
25
 74
0
 42
0.0000001
 43
0.0000001
 44
0.0000000001
 40
0.0
 40
0.0
 40
0.0
 40
0.0
 40
0.0391141269
 40
0.0860756357
 40
0.1486356287
 40
0.1849846181
 40
0.2242626459
 40
0.2661125145
 40
0.3101582439
 40
0.3560019331
 40
0.4032222406
 40
0.4513754299
 40
0.5000000003
 40
0.5486245706
 40
0.5967777598
 40
0.6439980674
 40
0.6898417566
 40
0.733887486
 40
0.7757373546
 40
0.8150153824
 40
0.8513643717
 40
0.9139243646
 40
0.9608858732
 40
1.0
 40
1.0
 40
1.0
 40
1.0
 10
6.6688720839
 20
11.9376727814
 30
0.0
 10
6.6677265717
 20
11.941849645
 30
0.0
 10
6.6652886143
 20
11.9510641304
 30
0.0
 10
6.6614050251
 20
11.9670588699
 30
0.0
 10
6.6580180608
 20
11.9828548373
 30
0.0
 10
6.655191151
 20
11.9978934329
 30
0.0
 10
6.6530422398
 20
12.0107237095
 30
0.0
 10
6.6510506772
 20
12.0244413358
 30
0.0
 10
6.6492947882
 20
12.0389239927
 30
0.0
 10
6.6478456187
 20
12.0540382843
 30
0.0
 10
6.6467635441
 20
12.069639429
 30
0.0
 10
6.6460948391
 20
12.0855721004
 30
0.0
 10
6.6458685936
 20
12.1016727815
 30
0.0
 10
6.6460948391
 20
12.1177734625
 30
0.0
 10
6.6467635441
 20
12.133706134
 30
0.0
 10
6.6478456187
 20
12.1493072786
 30
0.0
 10
6.6492947882
 20
12.1644215702
 30
0.0
 10
6.6510506773
 20
12.1789042271
 30
0.0
 10
6.6530422398
 20
12.1926218533
 30
0.0
 10
6.655191151
 20
12.20545213
 30
0.0
 10
6.6580180608
 20
12.2204907256
 30
0.0
 10
6.6614050251
 20
12.2362866929
 30
0.0
 10
6.6652886143
 20
12.2522814324
 30
0.0
 10
6.6677265717
 20
12.2614959178
 30
0.0
 10
6.6688720839
 20
12.2656727814
 30
0.0
  0
SPLINE
  5
329
100
AcDbEntity
  8
02___PRT_ALL_AXES
100
AcDbSpline
 62
7
  6
CONTINUOUS
 70
0
 71
3
 72
29
 73
25
 74
0
 42
0.0000001
 43
0.0000001
 44
0.0000000001
 40
0.0
 40
0.0
 40
0.0
 40
0.0
 40
0.039114123
 40
0.0860756175
 40
0.1486356159
 40
0.1849846349
 40
0.2242626533
 40
0.2661125371
 40
0.3101582666
 40
0.3560019494
 40
0.4032222605
 40
0.451375438
 40
0.5000000003
 40
0.5486245625
 40
0.59677774
 40
0.6439980511
 40
0.6898417339
 40
0.7338874633
 40
0.7757373471
 40
0.8150153654
 40
0.8513643844
 40
0.9139243827
 40
0.9608858772
 40
1.0
 40
1.0
 40
1.0
 40
1.0
 10
15.2259802569
 20
6.0586247044
 30
0.0
 10
15.2218033939
 20
6.0574791916
 30
0.0
 10
15.2125889104
 20
6.055041235
 30
0.0
 10
15.1965941717
 20
6.0511576486
 30
0.0
 10
15.1807982028
 20
6.0477706803
 30
0.0
 10
15.1657596038
 20
6.0449437734
 30
0.0
 10
15.152929324
 20
6.0427948568
 30
0.0
 10
15.1392116965
 20
6.0408032979
 30
0.0
 10
15.1247290386
 20
6.03904741
 30
0.0
 10
15.109614748
 20
6.0375982318
 30
0.0
 10
15.0940136041
 20
6.0365161704
 30
0.0
 10
15.078080935
 20
6.0358474546
 30
0.0
 10
15.0619802568
 20
6.0356212167
 30
0.0
 10
15.0458795787
 20
6.0358474546
 30
0.0
 10
15.0299469096
 20
6.0365161704
 30
0.0
 10
15.0143457657
 20
6.0375982319
 30
0.0
 10
14.9992314752
 20
6.0390474101
 30
0.0
 10
14.9847488172
 20
6.0408032979
 30
0.0
 10
14.9710311897
 20
6.0427948569
 30
0.0
 10
14.95820091
 20
6.0449437734
 30
0.0
 10
14.943162311
 20
6.0477706803
 30
0.0
 10
14.9273663421
 20
6.0511576486
 30
0.0
 10
14.9113716035
 20
6.0550412351
 30
0.0
 10
14.9021571199
 20
6.0574791916
 30
0.0
 10
14.8979802569
 20
6.0586247044
 30
0.0
  0
SPLINE
  5
32A
100
AcDbEntity
  8
02___PRT_ALL_AXES
100
AcDbSpline
 62
7
  6
CONTINUOUS
 70
0
 71
3
 72
59
 73
55
 74
0
 42
0.0000001
 43
0.0000001
 44
0.0000000001
 40
0.0
 40
0.0
 40
0.0
 40
0.0
 40
0.0135480954
 40
0.0276064837
 40
0.0421539616
 40
0.0571703612
 40
0.0726335069
 40
0.0885199497
 40
0.1048054749
 40
0.1214651498
 40
0.1384734751
 40
0.1558045147
 40
0.173432115
 40
0.1913299741
 40
0.2278305275
 40
0.265097776
 40
0.3029263529
 40
0.341116219
 40
0.3794737005
 40
0.4178119943
 40
0.4559515319
 40
0.4937203713
 40
0.5309548382
 40
0.5675006376
 40
0.5854713631
 40
0.6032172592
 40
0.6207224906
 40
0.6379721998
 40
0.6549525836
 40
0.671650994
 40
0.7041533381
 40
0.7199425948
 40
0.7354122988
 40
0.7505566275
 40
0.7653713162
 40
0.7798536161
 40
0.794002399
 40
0.8078181201
 40
0.8213027929
 40
0.8472878802
 40
0.859807702
 40
0.8720206632
 40
0.883936805
 40
0.8955678412
 40
0.9069271313
 40
0.918029727
 40
0.9288924424
 40
0.9395338319
 40
0.9499742669
 40
0.9602359273
 40
0.9703427833
 40
0.9803205743
 40
0.9901966754
 40
1.0
 40
1.0
 40
1.0
 40
1.0
 10
15.7897048222
 20
11.8670052275
 30
0.0
 10
15.7890450854
 20
11.8683496297
 30
0.0
 10
15.7877269469
 20
11.8711019866
 30
0.0
 10
15.7857876714
 20
11.8753390158
 30
0.0
 10
15.7838524987
 20
11.8797557116
 30
0.0
 10
15.7819252168
 20
11.8843447301
 30
0.0
 10
15.7800097771
 20
11.8890986463
 30
0.0
 10
15.7781103563
 20
11.8940096961
 30
0.0
 10
15.7762313181
 20
11.8990699035
 30
0.0
 10
15.7743771842
 20
11.9042711297
 30
0.0
 10
15.7725526092
 20
11.9096050882
 30
0.0
 10
15.7707623952
 20
11.9150633877
 30
0.0
 10
15.7690114228
 20
11.9206375625
 30
0.0
 10
15.766720879
 20
11.9282626065
 30
0.0
 10
15.763990072
 20
11.9380212756
 30
0.0
 10
15.7609711371
 20
11.9499829937
 30
0.0
 10
15.7582307799
 20
11.9622032308
 30
0.0
 10
15.7558105909
 20
11.9746138804
 30
0.0
 10
15.7537516851
 20
11.987146914
 30
0.0
 10
15.7520941425
 20
11.9997340192
 30
0.0
 10
15.7508763412
 20
12.0123062433
 30
0.0
 10
15.7501341546
 20
12.0247937476
 30
0.0
 10
15.7498999814
 20
12.0371252429
 30
0.0
 10
15.7501527287
 20
12.0472678437
 30
0.0
 10
15.7506395047
 20
12.0552412986
 30
0.0
 10
15.7511445269
 20
12.0611031813
 30
0.0
 10
15.7517931342
 20
12.0668707517
 30
0.0
 10
15.7525863852
 20
12.072534812
 30
0.0
 10
15.7535249434
 20
12.0780863397
 30
0.0
 10
15.7549570141
 20
12.0852609485
 30
0.0
 10
15.756685075
 20
12.0922398649
 30
0.0
 10
15.7587228817
 20
12.0989879299
 30
0.0
 10
15.7603759621
 20
12.1038446776
 30
0.0
 10
15.7621654259
 20
12.1085377365
 30
0.0
 10
15.7640876993
 20
12.1130597005
 30
0.0
 10
15.7661387693
 20
12.1174034158
 30
0.0
 10
15.7683139452
 20
12.1215621299
 30
0.0
 10
15.7706082631
 20
12.1255297305
 30
0.0
 10
15.7737790821
 20
12.1304949026
 30
0.0
 10
15.7771991079
 20
12.1351261241
 30
0.0
 10
15.7808590777
 20
12.1393752865
 30
0.0
 10
15.7836580511
 20
12.1423065338
 30
0.0
 10
15.7865375472
 20
12.1450172909
 30
0.0
 10
15.7894902541
 20
12.1475042044
 30
0.0
 10
15.7925086407
 20
12.1497640832
 30
0.0
 10
15.7955850527
 20
12.1517940911
 30
0.0
 10
15.7987116881
 20
12.1535917262
 30
0.0
 10
15.8018806995
 20
12.155154699
 30
0.0
 10
15.8050841259
 20
12.1564810506
 30
0.0
 10
15.8083139782
 20
12.1575690414
 30
0.0
 10
15.8115622027
 20
12.158417167
 30
0.0
 10
15.8148207874
 20
12.1590242226
 30
0.0
 10
15.8180814147
 20
12.1593891793
 30
0.0
 10
15.8202575496
 20
12.1594708398
 30
0.0
 10
15.8213411716
 20
12.159470837
 30
0.0
  0
SPLINE
  5
32B
100
AcDbEntity
  8
02___PRT_ALL_AXES
100
AcDbSpline
 62
7
  6
CONTINUOUS
 70
0
 71
3
 72
28
 73
24
 74
0
 42
0.0000001
 43
0.0000001
 44
0.0000000001
 40
0.0
 40
0.0
 40
0.0
 40
0.0
 40
0.0769353797
 40
0.1520156749
 40
0.2250951028
 40
0.2960587068
 40
0.3648280196
 40
0.4313650179
 40
0.4956761025
 40
0.5578154625
 40
0.6178877835
 40
0.6760499708
 40
0.7325116666
 40
0.7601907784
 40
0.787546719
 40
0.8146193763
 40
0.8414512868
 40
0.8680871312
 40
0.8945735482
 40
0.9209586313
 40
0.9472915454
 40
0.9736220638
 40
1.0
 40
1.0
 40
1.0
 40
1.0
 10
15.0564953115
 20
12.2387279885
 30
0.0
 10
15.0534490691
 20
12.2387279885
 30
0.0
 10
15.0474292111
 20
12.2388490022
 30
0.0
 10
15.0385314118
 20
12.2394076374
 30
0.0
 10
15.0299023931
 20
12.240340342
 30
0.0
 10
15.0215743737
 20
12.2416455507
 30
0.0
 10
15.0135769953
 20
12.2433211418
 30
0.0
 10
15.0059374876
 20
12.2453645497
 30
0.0
 10
14.9986805705
 20
12.2477728554
 30
0.0
 10
14.9918285785
 20
12.2505428425
 30
0.0
 10
14.9854014835
 20
12.2536711564
 30
0.0
 10
14.9794175662
 20
12.2571539041
 30
0.0
 10
14.9747826345
 20
12.2603700312
 30
0.0
 10
14.9713228024
 20
12.2631139959
 30
0.0
 10
14.9688650236
 20
12.2652437077
 30
0.0
 10
14.9665290526
 20
12.2674578625
 30
0.0
 10
14.9643162213
 20
12.2697557323
 30
0.0
 10
14.9622278905
 20
12.272136555
 30
0.0
 10
14.9602652649
 20
12.2745994745
 30
0.0
 10
14.9584295362
 20
12.277143615
 30
0.0
 10
14.9567217337
 20
12.2797680134
 30
0.0
 10
14.9551429333
 20
12.2824715729
 30
0.0
 10
14.9541783493
 20
12.2843233461
 30
0.0
 10
14.9537182347
 20
12.2852609642
 30
0.0
  0
SPLINE
  5
32C
100
AcDbEntity
  8
LAYER_CUT_FEAT
100
AcDbSpline
 62
7
  6
CONTINUOUS
 70
0
 71
3
 72
22
 73
18
 74
0
 42
0.0000001
 43
0.0000001
 44
0.0000000001
 40
0.0
 40
0.0
 40
0.0
 40
0.0
 40
0.1378277793
 40
0.2049637965
 40
0.2709658762
 40
0.3358856909
 40
0.3997822999
 40
0.4627215419
 40
0.5247758128
 40
0.5860240661
 40
0.6465514641
 40
0.7064489429
 40
0.765812709
 40
0.8247436056
 40
0.8833463249
 40
0.9417285461
 40
1.0
 40
1.0
 40
1.0
 40
1.0
 10
14.7216503566
 20
12.2188344235
 30
0.0
 10
14.7176189621
 20
12.2272335582
 30
0.0
 10
14.7120704406
 20
12.2399480486
 30
0.0
 10
14.7057561735
 20
12.2571451211
 30
0.0
 10
14.7016565902
 20
12.2698940905
 30
0.0
 10
14.6981564334
 20
12.2825933661
 30
0.0
 10
14.6952588996
 20
12.2952315107
 30
0.0
 10
14.692966838
 20
12.3077966959
 30
0.0
 10
14.6912825239
 20
12.3202772642
 30
0.0
 10
14.6902076602
 20
12.33266157
 30
0.0
 10
14.6897433669
 20
12.3449380433
 30
0.0
 10
14.6898902134
 20
12.3570951821
 30
0.0
 10
14.6906481977
 20
12.3691215764
 30
0.0
 10
14.6920166799
 20
12.3810058757
 30
0.0
 10
14.6939944894
 20
12.3927369869
 30
0.0
 10
14.6965797139
 20
12.4043034041
 30
0.0
 10
14.6987075279
 20
12.4119007128
 30
0.0
 10
14.6998704725
 20
12.4156640027
 30
0.0
  0
SPLINE
  5
32D
100
AcDbEntity
  8
LAYER_CHAMFER_FEAT
100
AcDbSpline
 62
7
  6
CONTINUOUS
 70
0
 71
3
 72
23
 73
19
 74
0
 42
0.0000001
 43
0.0000001
 44
0.0000000001
 40
0.0
 40
0.0
 40
0.0
 40
0.0
 40
0.0739612981
 40
0.1461250465
 40
0.2164953925
 40
0.2850911133
 40
0.3519465706
 40
0.4171127203
 40
0.4806581208
 40
0.5426695974
 40
0.6032527133
 40
0.662531985
 40
0.7206506833
 40
0.777769938
 40
0.8340672775
 40
0.8897345256
 40
0.9449749919
 40
1.0
 40
1.0
 40
1.0
 40
1.0
 10
15.0567204949
 20
11.9246531169
 30
0.0
 10
15.0540332308
 20
11.9238319272
 30
0.0
 10
15.0487563294
 20
11.9221010517
 30
0.0
 10
15.0410568518
 20
11.919200588
 30
0.0
 10
15.0336843157
 20
11.9160330644
 30
0.0
 10
15.0266529939
 20
11.9126044741
 30
0.0
 10
15.0199763137
 20
11.9089212167
 30
0.0
 10
15.0136671174
 20
11.9049901633
 30
0.0
 10
15.0077375492
 20
11.9008186682
 30
0.0
 10
15.0021990776
 20
11.8964145327
 30
0.0
 10
14.9970624873
 20
11.8917859979
 30
0.0
 10
14.992337862
 20
11.8869417503
 30
0.0
 10
14.988034531
 20
11.8818909612
 30
0.0
 10
14.9841610713
 20
11.8766432393
 30
0.0
 10
14.9807252988
 20
11.8712086917
 30
0.0
 10
14.9777341462
 20
11.865597729
 30
0.0
 10
14.975193825
 20
11.8598218062
 30
0.0
 10
14.9738029886
 20
11.8558651003
 30
0.0
 10
14.9731857768
 20
11.8538677828
 30
0.0
  0
SPLINE
  5
32E
100
AcDbEntity
  8
LAYER_CHAMFER_FEAT
100
AcDbSpline
 62
7
  6
CONTINUOUS
 70
0
 71
3
 72
24
 73
20
 74
0
 42
0.0000001
 43
0.0000001
 44
0.0000000001
 40
0.0
 40
0.0
 40
0.0
 40
0.0
 40
0.0738824271
 40
0.1459756535
 40
0.2162850019
 40
0.284830196
 40
0.351646377
 40
0.4167851834
 40
0.4803155431
 40
0.5423243412
 40
0.6029169481
 40
0.6622174502
 40
0.7203682751
 40
0.7775293618
 40
0.8338767703
 40
0.8618090479
 40
0.8896101859
 40
0.9449116857
 40
1.0
 40
1.0
 40
1.0
 40
1.0
 10
15.4223614983
 20
11.8111872793
 30
0.0
 10
15.4240942242
 20
11.8090041802
 30
0.0
 10
15.4274303906
 20
11.8046205429
 30
0.0
 10
15.4320878241
 20
11.7979181198
 30
0.0
 10
15.4363288908
 20
11.7911811318
 30
0.0
 10
15.4401453868
 20
11.7844223526
 30
0.0
 10
15.4435300119
 20
11.7776544121
 30
0.0
 10
15.4464762413
 20
11.7708900171
 30
0.0
 10
15.4489783482
 20
11.76414186
 30
0.0
 10
15.451031387
 20
11.7574226233
 30
0.0
 10
15.4526312105
 20
11.7507449627
 30
0.0
 10
15.4537745333
 20
11.744121537
 30
0.0
 10
15.4544588833
 20
11.737564883
 30
0.0
 10
15.4546826838
 20
11.7310877828
 30
0.0
 10
15.4544840935
 20
11.7257505954
 30
0.0
 10
15.4540934378
 20
11.7215396694
 30
0.0
 10
15.4535518373
 20
11.7173852563
 30
0.0
 10
15.4525881627
 20
11.712256752
 30
0.0
 10
15.4515097626
 20
11.7082296231
 30
0.0
 10
15.4508961949
 20
11.7062440983
 30
0.0
  0
SPLINE
  5
32F
100
AcDbEntity
  8
LAYER_FEATURE
100
AcDbSpline
 62
7
  6
CONTINUOUS
 70
0
 71
3
 72
42
 73
38
 74
0
 42
0.0000001
 43
0.0000001
 44
0.0000000001
 40
0.0
 40
0.0
 40
0.0
 40
0.0
 40
0.0099900408
 40
0.0202818331
 40
0.0308785611
 40
0.0417820724
 40
0.0529932134
 40
0.0645118227
 40
0.0884642597
 40
0.1136226847
 40
0.1399566027
 40
0.167425426
 40
0.1959797868
 40
0.2255626889
 40
0.256110462
 40
0.2875535765
 40
0.3198173557
 40
0.3528226037
 40
0.3864862206
 40
0.4207217603
 40
0.4554399436
 40
0.4905491459
 40
0.5259558654
 40
0.5615652001
 40
0.5972813089
 40
0.6330078561
 40
0.6686484524
 40
0.7041071035
 40
0.7392886711
 40
0.7740993194
 40
0.808446984
 40
0.8422418159
 40
0.8753966828
 40
0.9078278826
 40
0.9394547602
 40
0.9702031246
 40
1.0
 40
1.0
 40
1.0
 40
1.0
 10
15.8510049175
 20
12.1143677141
 30
0.0
 10
15.8514467977
 20
12.1138383159
 30
0.0
 10
15.8523242336
 20
12.1127469698
 30
0.0
 10
15.8536026512
 20
12.1110410187
 30
0.0
 10
15.8548617783
 20
12.1092432356
 30
0.0
 10
15.8561006337
 20
12.1073550945
 30
0.0
 10
15.8573182484
 20
12.1053780631
 30
0.0
 10
15.858933137
 20
12.1025892275
 30
0.0
 10
15.8608883158
 20
12.0988868645
 30
0.0
 10
15.8631049492
 20
12.0941726701
 30
0.0
 10
15.8652147668
 20
12.089145526
 30
0.0
 10
15.8672110863
 20
12.0838213487
 30
0.0
 10
15.8690876127
 20
12.0782168922
 30
0.0
 10
15.8708383944
 20
12.0723498668
 30
0.0
 10
15.87245787
 20
12.0662388252
 30
0.0
 10
15.8739408855
 20
12.0599031156
 30
0.0
 10
15.8752827139
 20
12.0533628147
 30
0.0
 10
15.8764790818
 20
12.0466386647
 30
0.0
 10
15.8775261768
 20
12.0397520021
 30
0.0
 10
15.8784206598
 20
12.0327246861
 30
0.0
 10
15.8791596765
 20
12.025579028
 30
0.0
 10
15.8797408652
 20
12.0183377207
 30
0.0
 10
15.8801623725
 20
12.0110237656
 30
0.0
 10
15.8804228566
 20
12.0036603983
 30
0.0
 10
15.8805214868
 20
11.9962710119
 30
0.0
 10
15.8804579477
 20
11.988879083
 30
0.0
 10
15.8802324389
 20
11.981508097
 30
0.0
 10
15.8798456792
 20
11.9741814722
 30
0.0
 10
15.8792989065
 20
11.9669224839
 30
0.0
 10
15.8785938664
 20
11.959754189
 30
0.0
 10
15.8777328078
 20
11.9526993536
 30
0.0
 10
15.8767184749
 20
11.9457803822
 30
0.0
 10
15.8755541028
 20
11.9390192277
 30
0.0
 10
15.874243402
 20
11.9324373836
 30
0.0
 10
15.8727905595
 20
11.9260556184
 30
0.0
 10
15.8712001994
 20
11.9198943492
 30
0.0
 10
15.8700324514
 20
11.9158807046
 30
0.0
 10
15.8694251921
 20
11.9139156129
 30
0.0
  0
SPLINE
  5
330
100
AcDbEntity
  8
LAYER_FEATURE
100
AcDbSpline
 62
7
  6
CONTINUOUS
 70
0
 71
3
 72
19
 73
15
 74
0
 42
0.0000001
 43
0.0000001
 44
0.0000000001
 40
0.0
 40
0.0
 40
0.0
 40
0.0
 40
0.0507390002
 40
0.1030521433
 40
0.1569558458
 40
0.2124597058
 40
0.2695679913
 40
0.32827863
 40
0.3885852422
 40
0.4504765242
 40
0.5789393712
 40
0.7135035062
 40
0.8539509321
 40
1.0
 40
1.0
 40
1.0
 40
1.0
 10
15.8510049166
 20
11.8765739718
 30
0.0
 10
15.8514589335
 20
11.8771179094
 30
0.0
 10
15.8523602868
 20
11.8782401437
 30
0.0
 10
15.8536724645
 20
11.8799961622
 30
0.0
 10
15.8549642477
 20
11.8818489518
 30
0.0
 10
15.8562345667
 20
11.8837969227
 30
0.0
 10
15.8574823385
 20
11.8858384795
 30
0.0
 10
15.8587065642
 20
11.8879718915
 30
0.0
 10
15.8599062052
 20
11.8901954025
 30
0.0
 10
15.8614912829
 20
11.8933164943
 30
0.0
 10
15.8634003721
 20
11.8974343325
 30
0.0
 10
15.8655500592
 20
11.9026438607
 30
0.0
 10
15.8675789079
 20
11.9081638528
 30
0.0
 10
15.8688230562
 20
11.9119671003
 30
0.0
 10
15.8694251921
 20
11.9139156129
 30
0.0
  0
SPLINE
  5
331
100
AcDbEntity
  8
02___PRT_ALL_AXES
100
AcDbSpline
 62
7
  6
CONTINUOUS
 70
0
 71
3
 72
34
 73
30
 74
0
 42
0.0000001
 43
0.0000001
 44
0.0000000001
 40
0.0
 40
0.0
 40
0.0
 40
0.0
 40
0.018365137
 40
0.0369404413
 40
0.0558380983
 40
0.0751641004
 40
0.0950172089
 40
0.1154882668
 40
0.1366589886
 40
0.1586024479
 40
0.1813836727
 40
0.2050591064
 40
0.2296778099
 40
0.2552825384
 40
0.2819091992
 40
0.3095881512
 40
0.3383453013
 40
0.3682012958
 40
0.3991727496
 40
0.4312732232
 40
0.4645121374
 40
0.4988959537
 40
0.5344290227
 40
0.5711123729
 40
0.6479211382
 40
0.7292910346
 40
0.8151575495
 40
0.9054356001
 40
1.0
 40
1.0
 40
1.0
 40
1.0
 10
15.8213411714
 20
11.8314708444
 30
0.0
 10
15.8210384912
 20
11.831470846
 30
0.0
 10
15.8204294061
 20
11.8314949845
 30
0.0
 10
15.8195146036
 20
11.8316028335
 30
0.0
 10
15.8185949884
 20
11.8317824162
 30
0.0
 10
15.8176705381
 20
11.8320336124
 30
0.0
 10
15.816741116
 20
11.8323562884
 30
0.0
 10
15.8158066115
 20
11.8327503131
 30
0.0
 10
15.8148668905
 20
11.8332155059
 30
0.0
 10
15.8139218257
 20
11.8337516861
 30
0.0
 10
15.8129713122
 20
11.8343586776
 30
0.0
 10
15.8120152473
 20
11.8350362626
 30
0.0
 10
15.8110535514
 20
11.8357842131
 30
0.0
 10
15.810086179
 20
11.8366022912
 30
0.0
 10
15.8091130958
 20
11.8374902156
 30
0.0
 10
15.8081342963
 20
11.8384476825
 30
0.0
 10
15.8071498097
 20
11.8394743649
 30
0.0
 10
15.8061596813
 20
11.8405698916
 30
0.0
 10
15.8051639856
 20
11.8417338613
 30
0.0
 10
15.8041628297
 20
11.8429658406
 30
0.0
 10
15.8031563393
 20
11.8442653523
 30
0.0
 10
15.8021446722
 20
11.8456318846
 30
0.0
 10
15.8011280049
 20
11.8470648887
 30
0.0
 10
15.799744811
 20
11.8490946415
 30
0.0
 10
15.7980076658
 20
11.8517966221
 30
0.0
 10
15.7959377997
 20
11.8552459417
 30
0.0
 10
15.7938544661
 20
11.8589441477
 30
0.0
 10
15.7917607748
 20
11.8628844477
 30
0.0
 10
15.7903914249
 20
11.8656060782
 30
0.0
 10
15.7897048222
 20
11.8670052275
 30
0.0
  0
SPLINE
  5
332
100
AcDbEntity
  8
LAYER_FEATURE
100
AcDbSpline
 62
7
  6
CONTINUOUS
 70
0
 71
3
 72
39
 73
35
 74
0
 42
0.0000001
 43
0.0000001
 44
0.0000000001
 40
0.0
 40
0.0
 40
0.0
 40
0.0
 40
0.0257882524
 40
0.0516210472
 40
0.0775425471
 40
0.1035961676
 40
0.1298242271
 40
0.1562676207
 40
0.1829655386
 40
0.2099552203
 40
0.2372717429
 40
0.2649478529
 40
0.2930138541
 40
0.3214975231
 40
0.3504240488
 40
0.3798160189
 40
0.4096934395
 40
0.4400737633
 40
0.4709719241
 40
0.5024004166
 40
0.5343693768
 40
0.5668866559
 40
0.5999578996
 40
0.633586658
 40
0.6677744797
 40
0.7025209894
 40
0.7378239834
 40
0.773679534
 40
0.8100820749
 40
0.8470244699
 40
0.884498109
 40
0.9224929957
 40
0.9609978158
 40
1.0
 40
1.0
 40
1.0
 40
1.0
 10
14.3912695343
 20
12.5110289054
 30
0.0
 10
14.3896322736
 20
12.50573072
 30
0.0
 10
14.3866236621
 20
12.4950399995
 30
0.0
 10
14.3829242105
 20
12.4787742191
 30
0.0
 10
14.3800394148
 20
12.4622860753
 30
0.0
 10
14.37797185
 20
12.4455902322
 30
0.0
 10
14.3767231587
 20
12.4287008336
 30
0.0
 10
14.3762942845
 20
12.4116323527
 30
0.0
 10
14.3766854532
 20
12.3943993341
 30
0.0
 10
14.3778962018
 20
12.3770164453
 30
0.0
 10
14.3799253548
 20
12.3594984474
 30
0.0
 10
14.382771021
 20
12.3418601836
 30
0.0
 10
14.3864306397
 20
12.3241165697
 30
0.0
 10
14.3909009858
 20
12.3062825888
 30
0.0
 10
14.3961781367
 20
12.2883732748
 30
0.0
 10
14.4022574984
 20
12.2704037051
 30
0.0
 10
14.4091338302
 20
12.2523889964
 30
0.0
 10
14.4168012435
 20
12.2343442982
 30
0.0
 10
14.4252531688
 20
12.2162847681
 30
0.0
 10
14.4344823984
 20
12.1982255743
 30
0.0
 10
14.4444810953
 20
12.1801818878
 30
0.0
 10
14.455240784
 20
12.1621688675
 30
0.0
 10
14.4667523366
 20
12.1442016371
 30
0.0
 10
14.4790060141
 20
12.1262952901
 30
0.0
 10
14.4919914704
 20
12.1084648789
 30
0.0
 10
14.5056977366
 20
12.0907253889
 30
0.0
 10
14.5201132331
 20
12.0730917276
 30
0.0
 10
14.5352257989
 20
12.0555787236
 30
0.0
 10
14.5510226961
 20
12.0382011164
 30
0.0
 10
14.567490597
 20
12.020973519
 30
0.0
 10
14.5846156024
 20
12.0039104324
 30
0.0
 10
14.6023833091
 20
11.9870261957
 30
0.0
 10
14.6207786271
 20
11.9703351327
 30
0.0
 10
14.6333712131
 20
11.9594144355
 30
0.0
 10
14.6397666974
 20
11.9539888294
 30
0.0
  0
SPLINE
  5
333
100
AcDbEntity
  8
LAYER_FEATURE
100
AcDbSpline
 62
7
  6
CONTINUOUS
 70
0
 71
3
 72
33
 73
29
 74
0
 42
0.0000001
 43
0.0000001
 44
0.0000000001
 40
0.0
 40
0.0
 40
0.0
 40
0.0
 40
0.0277176967
 40
0.0554604994
 40
0.0832534048
 40
0.1111211815
 40
0.1390882734
 40
0.1671786842
 40
0.1954158925
 40
0.2238227516
 40
0.2524214117
 40
0.2812332482
 40
0.3102787858
 40
0.3395776627
 40
0.369148552
 40
0.3990091661
 40
0.4291761738
 40
0.4596652408
 40
0.4904909453
 40
0.5216668459
 40
0.5851118248
 40
0.6500940645
 40
0.7166842534
 40
0.7849371269
 40
0.8548921888
 40
0.890518624
 40
0.9265788474
 40
1.0
 40
1.0
 40
1.0
 40
1.0
 10
14.62462147
 20
13.2661560463
 30
0.0
 10
14.6234364789
 20
13.2623214081
 30
0.0
 10
14.6212061776
 20
13.2546043455
 30
0.0
 10
14.6182857523
 20
13.2429055868
 30
0.0
 10
14.6157909625
 20
13.2310863603
 30
0.0
 10
14.6137229237
 20
13.2191521501
 30
0.0
 10
14.6120825663
 20
13.2071082137
 30
0.0
 10
14.6108705783
 20
13.1949599362
 30
0.0
 10
14.6100874938
 20
13.1827127207
 30
0.0
 10
14.6097336335
 20
13.170372019
 30
0.0
 10
14.6098091196
 20
13.1579433175
 30
0.0
 10
14.6103139118
 20
13.1454321394
 30
0.0
 10
14.6112477239
 20
13.1328440358
 30
0.0
 10
14.6126101546
 20
13.1201845953
 30
0.0
 10
14.6144005176
 20
13.1074594205
 30
0.0
 10
14.6166180471
 20
13.0946741593
 30
0.0
 10
14.6192616704
 20
13.0818344484
 30
0.0
 10
14.6223302434
 20
13.0689460126
 30
0.0
 10
14.6258223552
 20
13.0560144167
 30
0.0
 10
14.6310713969
 20
13.0386222555
 30
0.0
 10
14.6387043693
 20
13.0167942619
 30
0.0
 10
14.6494749695
 20
12.9906761247
 30
0.0
 10
14.6618903863
 20
12.9645261476
 30
0.0
 10
14.6759278799
 20
12.938391061
 30
0.0
 10
14.6888771241
 20
12.9167947424
 30
0.0
 10
14.7000087414
 20
12.8995667995
 30
0.0
 10
14.7117973581
 20
12.882172038
 30
0.0
 10
14.7211143001
 20
12.8693381844
 30
0.0
 10
14.7275324769
 20
12.8608626106
 30
0.0
  0
SPLINE
  5
334
100
AcDbEntity
  8
LAYER_FEATURE
100
AcDbSpline
 62
7
  6
CONTINUOUS
 70
0
 71
3
 72
40
 73
36
 74
0
 42
0.0000001
 43
0.0000001
 44
0.0000000001
 40
0.0
 40
0.0
 40
0.0
 40
0.0
 40
0.0257881076
 40
0.0516207587
 40
0.0775421174
 40
0.1035956011
 40
0.1298235279
 40
0.1562667939
 40
0.1829645915
 40
0.2099541619
 40
0.2372705794
 40
0.2649465926
 40
0.293012508
 40
0.3214961014
 40
0.3504225587
 40
0.3798144704
 40
0.3946920031
 40
0.4096931783
 40
0.4400734647
 40
0.4709715955
 40
0.5024000683
 40
0.5343690205
 40
0.5668862968
 40
0.5999575443
 40
0.6335863158
 40
0.6677741588
 40
0.7025206921
 40
0.7378237143
 40
0.7736793005
 40
0.8100818797
 40
0.8470243131
 40
0.8844979923
 40
0.9224929228
 40
0.9609977882
 40
1.0
 40
1.0
 40
1.0
 40
1.0
 10
16.3021112222
 20
11.9205341626
 30
0.0
 10
16.300473934
 20
11.9152358883
 30
0.0
 10
16.2969265496
 20
11.9047114657
 30
0.0
 10
16.2908042335
 20
11.8891941147
 30
0.0
 10
16.2838838077
 20
11.8739527834
 30
0.0
 10
16.2761714175
 20
11.8590010358
 30
0.0
 10
16.267673699
 20
11.8443514706
 30
0.0
 10
16.2583980363
 20
11.8300165715
 30
0.0
 10
16.2483524439
 20
11.8160084782
 30
0.0
 10
16.237545576
 20
11.8023390438
 30
0.0
 10
16.2259867447
 20
11.7890197841
 30
0.0
 10
16.2136858777
 20
11.7760618906
 30
0.0
 10
16.2006535092
 20
11.763476245
 30
0.0
 10
16.1869007244
 20
11.751273373
 30
0.0
 10
16.1724393799
 20
11.7394635641
 30
0.0
 10
16.1598592834
 20
11.7299963933
 30
0.0
 10
16.1494591046
 20
11.7226273714
 30
0.0
 10
16.1387458459
 20
11.7153365151
 30
0.0
 10
16.1249287332
 20
11.7064887238
 30
0.0
 10
16.1077612997
 20
11.6963460685
 30
0.0
 10
16.0899521285
 20
11.6866421635
 30
0.0
 10
16.0715164026
 20
11.6773852184
 30
0.0
 10
16.0524696376
 20
11.6685829285
 30
0.0
 10
16.0328279123
 20
11.6602426436
 30
0.0
 10
16.0126077785
 20
11.652371333
 30
0.0
 10
15.9918262726
 20
11.6449755902
 30
0.0
 10
15.9705009107
 20
11.6380615896
 30
0.0
 10
15.9486496622
 20
11.6316351127
 30
0.0
 10
15.9262909333
 20
11.6257015474
 30
0.0
 10
15.9034435598
 20
11.6202658718
 30
0.0
 10
15.8801267925
 20
11.6153326282
 30
0.0
 10
15.8563602877
 20
11.610905953
 30
0.0
 10
15.8321640269
 20
11.6069895643
 30
0.0
 10
15.8075585563
 20
11.6035867682
 30
0.0
 10
15.7909998381
 20
11.6016745234
 30
0.0
 10
15.7826581826
 20
11.6008030541
 30
0.0
  0
SPLINE
  5
335
100
AcDbEntity
  8
LAYER_FEATURE
100
AcDbSpline
 62
7
  6
CONTINUOUS
 70
0
 71
3
 72
33
 73
29
 74
0
 42
0.0000001
 43
0.0000001
 44
0.0000000001
 40
0.0
 40
0.0
 40
0.0
 40
0.0
 40
0.0277184126
 40
0.0554619253
 40
0.0832555284
 40
0.1111239836
 40
0.1390917309
 40
0.1671827654
 40
0.1954205644
 40
0.2238279706
 40
0.2524271362
 40
0.2812394247
 40
0.310285365
 40
0.339584583
 40
0.3691557577
 40
0.39901659
 40
0.4291837546
 40
0.4596729084
 40
0.4904986335
 40
0.5216744845
 40
0.5851191563
 40
0.65010081
 40
0.7166901394
 40
0.7849418913
 40
0.8548955846
 40
0.890521245
 40
0.9265806472
 40
1.0
 40
1.0
 40
1.0
 40
1.0
 10
16.535463158
 20
12.6756613035
 30
0.0
 10
16.5342783295
 20
12.6718271913
 30
0.0
 10
16.5317664112
 20
12.6641983093
 30
0.0
 10
16.5275782505
 20
12.6528930383
 30
0.0
 10
16.5229707993
 20
12.6417283978
 30
0.0
 10
16.5179462538
 20
12.6307095327
 30
0.0
 10
16.5125067826
 20
12.6198413203
 30
0.0
 10
16.5066548873
 20
12.6091285759
 30
0.0
 10
16.5003931382
 20
12.5985760807
 30
0.0
 10
16.4937243828
 20
12.5881884914
 30
0.0
 10
16.4866515751
 20
12.5779704311
 30
0.0
 10
16.4791779015
 20
12.5679264077
 30
0.0
 10
16.4713066915
 20
12.5580608703
 30
0.0
 10
16.4630414621
 20
12.548378176
 30
0.0
 10
16.454385908
 20
12.5388825897
 30
0.0
 10
16.4453438726
 20
12.5295783154
 30
0.0
 10
16.4359193979
 20
12.5204694229
 30
0.0
 10
16.4261166729
 20
12.5115599737
 30
0.0
 10
16.4159399886
 20
12.502853778
 30
0.0
 10
16.4017970617
 20
12.4914560605
 30
0.0
 10
16.383184266
 20
12.477740861
 30
0.0
 10
16.3595615979
 20
12.4622535161
 30
0.0
 10
16.3345632219
 20
12.4476675534
 30
0.0
 10
16.3082342561
 20
12.4340087172
 30
0.0
 10
16.2853636503
 20
12.4234830945
 30
0.0
 10
16.2664574075
 20
12.4155386529
 30
0.0
 10
16.2469147403
 20
12.4078270528
 30
0.0
 10
16.2319849123
 20
12.4024866971
 30
0.0
 10
16.2219062149
 20
12.3991094467
 30
0.0
  0
SPLINE
  5
336
100
AcDbEntity
  8
LAYER_CUT_FEAT
100
AcDbSpline
 62
7
  6
CONTINUOUS
 70
0
 71
3
 72
22
 73
18
 74
0
 42
0.0000001
 43
0.0000001
 44
0.0000000001
 40
0.0
 40
0.0
 40
0.0
 40
0.0
 40
0.0582714837
 40
0.1166537355
 40
0.175256487
 40
0.2341874184
 40
0.2935512224
 40
0.3534487432
 40
0.4139761871
 40
0.4752244928
 40
0.5372788213
 40
0.6002181189
 40
0.6641148182
 40
0.7290346947
 40
0.7950367682
 40
0.8621732481
 40
1.0
 40
1.0
 40
1.0
 40
1.0
 10
15.993510284
 20
12.0158990653
 30
0.0
 10
15.9923473354
 20
12.0121357621
 30
0.0
 10
15.989817991
 20
12.0046625062
 30
0.0
 10
15.9854270467
 20
11.9936540548
 30
0.0
 10
15.9804416652
 20
11.9828523101
 30
0.0
 10
15.9748667595
 20
11.9722678508
 30
0.0
 10
15.9687076214
 20
11.9619104965
 30
0.0
 10
15.9619701263
 20
11.9517899801
 30
0.0
 10
15.9546607097
 20
11.9419157235
 30
0.0
 10
15.9467863309
 20
11.9322969022
 30
0.0
 10
15.9383544425
 20
11.9229424379
 30
0.0
 10
15.9293730205
 20
11.9138609829
 30
0.0
 10
15.9198505191
 20
11.9050608831
 30
0.0
 10
15.9097959707
 20
11.8965502976
 30
0.0
 10
15.899218448
 20
11.8883368422
 30
0.0
 10
15.8843028869
 20
11.8777003047
 30
0.0
 10
15.8725485554
 20
11.8703327986
 30
0.0
 10
15.8644814788
 20
11.8656724219
 30
0.0
  0
SPLINE
  5
337
100
AcDbEntity
  8
02___PRT_ALL_AXES
100
AcDbSpline
 62
7
  6
CONTINUOUS
 70
0
 71
3
 72
52
 73
48
 74
0
 42
0.0000001
 43
0.0000001
 44
0.0000000001
 40
0.0
 40
0.0
 40
0.0
 40
0.0
 40
0.0278771871
 40
0.0556512766
 40
0.0695139257
 40
0.083364831
 40
0.0972093822
 40
0.1110533144
 40
0.124902724
 40
0.1387640418
 40
0.152644024
 40
0.1665497143
 40
0.1804883872
 40
0.1944675395
 40
0.208494784
 40
0.2225778311
 40
0.2367243635
 40
0.250942015
 40
0.265238259
 40
0.2796203301
 40
0.2940951728
 40
0.3086693109
 40
0.3233488628
 40
0.338139387
 40
0.3530458925
 40
0.3680727483
 40
0.3832236649
 40
0.3985016669
 40
0.4294429107
 40
0.4609105966
 40
0.4768433254
 40
0.4929055816
 40
0.5254056733
 40
0.5583877054
 40
0.5918132514
 40
0.6256326543
 40
0.6597854095
 40
0.6942006362
 40
0.7287975736
 40
0.7634863342
 40
0.7981687907
 40
0.8327398752
 40
0.8670891813
 40
0.9011030017
 40
0.934666938
 40
0.9676681896
 40
1.0
 40
1.0
 40
1.0
 40
1.0
 10
15.2481742165
 20
12.4297589725
 30
0.0
 10
15.2494907838
 20
12.4270760835
 30
0.0
 10
15.2518981551
 20
12.4216086338
 30
0.0
 10
15.2543201282
 20
12.414551259
 30
0.0
 10
15.2558882883
 20
12.4088116383
 30
0.0
 10
15.2568778479
 20
12.4044663171
 30
0.0
 10
15.2576792779
 20
12.4000844906
 30
0.0
 10
15.2582906406
 20
12.3956722627
 30
0.0
 10
15.2587103423
 20
12.3912358868
 30
0.0
 10
15.2589369341
 20
12.386781588
 30
0.0
 10
15.2589693702
 20
12.3823156094
 30
0.0
 10
15.2588068381
 20
12.3778441699
 30
0.0
 10
15.2584488627
 20
12.3733734562
 30
0.0
 10
15.257895358
 20
12.3689095916
 30
0.0
 10
15.257146471
 20
12.3644586337
 30
0.0
 10
15.2562028668
 20
12.3600265163
 30
0.0
 10
15.2550653959
 20
12.3556190808
 30
0.0
 10
15.2537354297
 20
12.3512419899
 30
0.0
 10
15.2522145948
 20
12.3469007626
 30
0.0
 10
15.2505049073
 20
12.3426007253
 30
0.0
 10
15.2486087724
 20
12.3383469798
 30
0.0
 10
15.2465288194
 20
12.3341444542
 30
0.0
 10
15.2442681467
 20
12.3299977725
 30
0.0
 10
15.2418299906
 20
12.3259113969
 30
0.0
 10
15.2392180084
 20
12.3218894588
 30
0.0
 10
15.2364360281
 20
12.3179359079
 30
0.0
 10
15.2334881103
 20
12.3140543567
 30
0.0
 10
15.2293249621
 20
12.3089585195
 30
0.0
 10
15.223722592
 20
12.3027870166
 30
0.0
 10
15.2176779625
 20
12.2969478007
 30
0.0
 10
15.2125704809
 20
12.292452041
 30
0.0
 10
15.2072444851
 20
12.2880417349
 30
0.0
 10
15.2002678596
 20
12.2827656809
 30
0.0
 10
15.1914654797
 20
12.2768452546
 30
0.0
 10
15.1822438796
 20
12.2713216318
 30
0.0
 10
15.1726487177
 20
12.2662044806
 30
0.0
 10
15.1627264584
 20
12.2615020684
 30
0.0
 10
15.1525247653
 20
12.2572218326
 30
0.0
 10
15.1420925001
 20
12.2533705429
 30
0.0
 10
15.1314798177
 20
12.2499544696
 30
0.0
 10
15.120738163
 20
12.2469794419
 30
0.0
 10
15.1099201957
 20
12.2444508432
 30
0.0
 10
15.0990795805
 20
12.2423735486
 30
0.0
 10
15.0882706866
 20
12.2407518069
 30
0.0
 10
15.0775480437
 20
12.2395891447
 30
0.0
 10
15.0669661662
 20
12.2388881783
 30
0.0
 10
15.059961379
 20
12.2387279885
 30
0.0
 10
15.0564953115
 20
12.2387279885
 30
0.0
  0
SPLINE
  5
338
100
AcDbEntity
  8
02___PRT_ALL_AXES
100
AcDbSpline
 62
7
  6
CONTINUOUS
 70
0
 71
3
 72
71
 73
67
 74
0
 42
0.0000001
 43
0.0000001
 44
0.0000000001
 40
0.0
 40
0.0
 40
0.0
 40
0.0
 40
0.0106253634
 40
0.0212733702
 40
0.0319664263
 40
0.04272647
 40
0.0535747571
 40
0.0645316676
 40
0.0756165375
 40
0.0868475185
 40
0.0982414683
 40
0.1098138687
 40
0.1215787717
 40
0.1335487693
 40
0.1457349863
 40
0.1581470894
 40
0.1707933122
 40
0.1836804916
 40
0.1968141125
 40
0.2101983589
 40
0.2238361691
 40
0.2377292935
 40
0.2518783527
 40
0.266282897
 40
0.2809414632
 40
0.2958516318
 40
0.3110100815
 40
0.3264126422
 40
0.3420543454
 40
0.3579294733
 40
0.374031605
 40
0.3903536613
 40
0.4068879471
 40
0.4236261924
 40
0.4405595912
 40
0.4576788392
 40
0.4749741698
 40
0.4924353892
 40
0.5100519097
 40
0.5278127825
 40
0.5457067294
 40
0.5637221736
 40
0.5818472696
 40
0.6000699329
 40
0.6183778687
 40
0.6367586002
 40
0.6551994968
 40
0.6736878017
 40
0.6922106591
 40
0.7107551414
 40
0.7293082762
 40
0.7478570733
 40
0.7663885514
 40
0.7848897651
 40
0.8033478317
 40
0.8217499584
 40
0.8400834697
 40
0.8583358346
 40
0.8764946948
 40
0.8945478927
 40
0.9124835
 40
0.9302898481
 40
0.9479555539
 40
0.9654695619
 40
0.9828211459
 40
1.0
 40
1.0
 40
1.0
 40
1.0
 10
14.6316218347
 20
11.9272391093
 30
0.0
 10
14.630534002
 20
11.9237188762
 30
0.0
 10
14.6285544366
 20
11.9166078278
 30
0.0
 10
14.6261862328
 20
11.9057733114
 30
0.0
 10
14.6244200717
 20
11.8947769349
 30
0.0
 10
14.6232578845
 20
11.8836308081
 30
0.0
 10
14.6227007583
 20
11.8723466172
 30
0.0
 10
14.6227491645
 20
11.8609363168
 30
0.0
 10
14.6234029075
 20
11.8494119195
 30
0.0
 10
14.6246611493
 20
11.8377855335
 30
0.0
 10
14.6265224154
 20
11.8260693353
 30
0.0
 10
14.6289846045
 20
11.8142755635
 30
0.0
 10
14.6320449971
 20
11.8024165085
 30
0.0
 10
14.6357002628
 20
11.7905045043
 30
0.0
 10
14.6399464665
 20
11.7785519209
 30
0.0
 10
14.6447790743
 20
11.7665711559
 30
0.0
 10
14.6501929585
 20
11.7545746259
 30
0.0
 10
14.6561824027
 20
11.7425747577
 30
0.0
 10
14.6627411063
 20
11.7305839787
 30
0.0
 10
14.66986219
 20
11.7186147059
 30
0.0
 10
14.6775382011
 20
11.7066793357
 30
0.0
 10
14.6857611198
 20
11.6947902317
 30
0.0
 10
14.6945223653
 20
11.6829597134
 30
0.0
 10
14.7038128041
 20
11.6712000434
 30
0.0
 10
14.7136227574
 20
11.6595234153
 30
0.0
 10
14.7239420102
 20
11.6479419409
 30
0.0
 10
14.7347598208
 20
11.6364676377
 30
0.0
 10
14.7460649314
 20
11.625112416
 30
0.0
 10
14.7578455788
 20
11.6138880663
 30
0.0
 10
14.7700895058
 20
11.6028062467
 30
0.0
 10
14.782783974
 20
11.5918784705
 30
0.0
 10
14.7959157763
 20
11.5811160939
 30
0.0
 10
14.8094712505
 20
11.5705303035
 30
0.0
 10
14.8234362932
 20
11.560132105
 30
0.0
 10
14.8377963743
 20
11.5499323109
 30
0.0
 10
14.852536552
 20
11.5399415291
 30
0.0
 10
14.8676414884
 20
11.5301701517
 30
0.0
 10
14.8830954651
 20
11.520628344
 30
0.0
 10
14.8988823999
 20
11.5113260334
 30
0.0
 10
14.9149858633
 20
11.5022728993
 30
0.0
 10
14.9313890957
 20
11.4934783625
 30
0.0
 10
14.9480750246
 20
11.4849515754
 30
0.0
 10
14.965026283
 20
11.4767014124
 30
0.0
 10
14.9822252268
 20
11.4687364604
 30
0.0
 10
14.9996539539
 20
11.46106501
 30
0.0
 10
15.0172943223
 20
11.4536950462
 30
0.0
 10
15.0351279695
 20
11.4466342409
 30
0.0
 10
15.0531363311
 20
11.439889944
 30
0.0
 10
15.0713006611
 20
11.4334691762
 30
0.0
 10
15.0896020505
 20
11.4273786215
 30
0.0
 10
15.1080214477
 20
11.4216246201
 30
0.0
 10
15.1265396781
 20
11.4162131619
 30
0.0
 10
15.1451374644
 20
11.4111498803
 30
0.0
 10
15.1637954465
 20
11.4064400459
 30
0.0
 10
15.1824942016
 20
11.4020885618
 30
0.0
 10
15.2012142651
 20
11.3980999575
 30
0.0
 10
15.2199361502
 20
11.3944783851
 30
0.0
 10
15.238640369
 20
11.3912276144
 30
0.0
 10
15.2573074522
 20
11.3883510293
 30
0.0
 10
15.27591797
 20
11.3858516243
 30
0.0
 10
15.2944525517
 20
11.3837320011
 30
0.0
 10
15.3128919085
 20
11.3819943667
 30
0.0
 10
15.3312168434
 20
11.3806405298
 30
0.0
 10
15.349408313
 20
11.3796719019
 30
0.0
 10
15.3674472782
 20
11.3790894908
 30
0.0
 10
15.3794215423
 20
11.3789584204
 30
0.0
 10
15.385378535
 20
11.3789584204
 30
0.0
  0
SPLINE
  5
339
100
AcDbEntity
  8
02___PRT_ALL_AXES
100
AcDbSpline
 62
7
  6
CONTINUOUS
 70
0
 71
3
 72
39
 73
35
 74
0
 42
0.0000001
 43
0.0000001
 44
0.0000000001
 40
0.0
 40
0.0
 40
0.0
 40
0.0
 40
0.0248034971
 40
0.049664333
 40
0.0746391942
 40
0.099783485
 40
0.1251507433
 40
0.1507921179
 40
0.1767559206
 40
0.2030872606
 40
0.2298277631
 40
0.2570153692
 40
0.2846842116
 40
0.3128645578
 40
0.3415828101
 40
0.3708615538
 40
0.4007196419
 40
0.4311723096
 40
0.4622313078
 40
0.493905052
 40
0.5261987785
 40
0.5591147047
 40
0.5926521912
 40
0.6268079003
 40
0.6615759526
 40
0.6969480777
 40
0.7329137596
 40
0.7694603769
 40
0.8065733347
 40
0.8442361972
 40
0.8824307937
 40
0.9211373847
 40
0.9603346321
 40
1.0
 40
1.0
 40
1.0
 40
1.0
 10
15.7743051628
 20
11.5741232535
 30
0.0
 10
15.7731720204
 20
11.570456398
 30
0.0
 10
15.7706866731
 20
11.5631791026
 30
0.0
 10
15.7663174854
 20
11.5524814613
 30
0.0
 10
15.7613102149
 20
11.5420083786
 30
0.0
 10
15.7556708749
 20
11.5317723701
 30
0.0
 10
15.7494060218
 20
11.5217850001
 30
0.0
 10
15.7425229854
 20
11.512057671
 30
0.0
 10
15.7350297789
 20
11.5026013946
 30
0.0
 10
15.7269350975
 20
11.4934268429
 30
0.0
 10
15.7182482944
 20
11.4845443275
 30
0.0
 10
15.7089793658
 20
11.4759638001
 30
0.0
 10
15.6991389362
 20
11.4676948494
 30
0.0
 10
15.6887382458
 20
11.4597466981
 30
0.0
 10
15.6777891384
 20
11.4521281999
 30
0.0
 10
15.6663040511
 20
11.4448478349
 30
0.0
 10
15.6542960031
 20
11.4379137052
 30
0.0
 10
15.6417785842
 20
11.4313335283
 30
0.0
 10
15.6287659437
 20
11.4251146309
 30
0.0
 10
15.6152727775
 20
11.4192639416
 30
0.0
 10
15.6013143141
 20
11.4137879835
 30
0.0
 10
15.586906301
 20
11.4086928669
 30
0.0
 10
15.5720649881
 20
11.4039842818
 30
0.0
 10
15.556807112
 20
11.3996674908
 30
0.0
 10
15.5411498777
 20
11.3957473226
 30
0.0
 10
15.525110941
 20
11.3922281652
 30
0.0
 10
15.5087083891
 20
11.3891139606
 30
0.0
 10
15.4919607208
 20
11.3864081991
 30
0.0
 10
15.4748868264
 20
11.3841139146
 30
0.0
 10
15.4575059649
 20
11.3822336814
 30
0.0
 10
15.4398377501
 20
11.3807696071
 30
0.0
 10
15.4219020935
 20
11.3797233379
 30
0.0
 10
15.4037193458
 20
11.3790960417
 30
0.0
 10
15.3915161211
 20
11.3789584204
 30
0.0
 10
15.385378535
 20
11.3789584204
 30
0.0
  0
SPLINE
  5
33A
100
AcDbEntity
  8
LAYER_CHAMFER_FEAT
100
AcDbSpline
 62
7
  6
CONTINUOUS
 70
0
 71
3
 72
15
 73
11
 74
0
 42
0.0000001
 43
0.0000001
 44
0.0000000001
 40
0.0
 40
0.0
 40
0.0
 40
0.0
 40
0.1317638601
 40
0.2617725488
 40
0.3899186996
 40
0.5161210406
 40
0.6402989362
 40
0.7623789528
 40
0.8822975205
 40
1.0
 40
1.0
 40
1.0
 40
1.0
 10
15.1152639621
 20
11.9293940473
 30
0.0
 10
15.1119444549
 20
11.9293940473
 30
0.0
 10
15.1053493226
 20
11.9293103631
 30
0.0
 10
15.0955324835
 20
11.9289284202
 30
0.0
 10
15.0858691899
 20
11.9282913242
 30
0.0
 10
15.0763735097
 20
11.9274000197
 30
0.0
 10
15.0670588718
 20
11.9262557827
 30
0.0
 10
15.0579385809
 20
11.9248602156
 30
0.0
 10
15.0490258133
 20
11.9232153114
 30
0.0
 10
15.0431751806
 20
11.9219419566
 30
0.0
 10
15.0402886709
 20
11.9212631093
 30
0.0
  0
SPLINE
  5
33B
100
AcDbEntity
  8
LAYER_CHAMFER_FEAT
100
AcDbSpline
 62
7
  6
CONTINUOUS
 70
0
 71
3
 72
39
 73
35
 74
0
 42
0.0000001
 43
0.0000001
 44
0.0000000001
 40
0.0
 40
0.0
 40
0.0
 40
0.0
 40
0.0305398276
 40
0.0614592177
 40
0.09272646
 40
0.1243126296
 40
0.1561858779
 40
0.1883135656
 40
0.220662363
 40
0.2531980732
 40
0.2858858946
 40
0.318690537
 40
0.351576321
 40
0.3845072986
 40
0.4174473805
 40
0.4503604477
 40
0.4832104638
 40
0.5159616034
 40
0.5485783636
 40
0.5810256747
 40
0.6132690389
 40
0.6452746463
 40
0.6770094844
 40
0.7084414828
 40
0.7395396546
 40
0.7702742047
 40
0.8006166747
 40
0.8305401226
 40
0.8600192444
 40
0.8890305203
 40
0.9175524224
 40
0.9455655835
 40
0.9730529495
 40
1.0
 40
1.0
 40
1.0
 40
1.0
 10
15.1152639621
 20
11.9293940473
 30
0.0
 10
15.1188527929
 20
11.9293940473
 30
0.0
 10
15.1260754127
 20
11.9292949737
 30
0.0
 10
15.1369643386
 20
11.9288562557
 30
0.0
 10
15.1479609539
 20
11.9281271009
 30
0.0
 10
15.1590470755
 20
11.9271087604
 30
0.0
 10
15.1702047976
 20
11.9258028638
 30
0.0
 10
15.1814158981
 20
11.9242115541
 30
0.0
 10
15.192662109
 20
11.9223374247
 30
0.0
 10
15.2039251069
 20
11.9201835135
 30
0.0
 10
15.2151865373
 20
11.9177533487
 30
0.0
 10
15.2264280477
 20
11.9150508916
 30
0.0
 10
15.2376313131
 20
11.9120805304
 30
0.0
 10
15.248778076
 20
11.9088471152
 30
0.0
 10
15.2598501714
 20
11.9053559248
 30
0.0
 10
15.2708295505
 20
11.9016126387
 30
0.0
 10
15.2816983162
 20
11.8976233524
 30
0.0
 10
15.29243876
 20
11.8933945825
 30
0.0
 10
15.3030333767
 20
11.8889332186
 30
0.0
 10
15.3134648937
 20
11.8842465166
 30
0.0
 10
15.3237163166
 20
11.8793421265
 30
0.0
 10
15.3337709434
 20
11.8742280448
 30
0.0
 10
15.3436123839
 20
11.8689125915
 30
0.0
 10
15.3532246026
 20
11.8634044261
 30
0.0
 10
15.362591947
 20
11.8577125325
 30
0.0
 10
15.3716991543
 20
11.8518461752
 30
0.0
 10
15.3805313809
 20
11.8458148938
 30
0.0
 10
15.3890742516
 20
11.8396285199
 30
0.0
 10
15.397313855
 20
11.8332971228
 30
0.0
 10
15.405236764
 20
11.826830986
 30
0.0
 10
15.4128300728
 20
11.8202406386
 30
0.0
 10
15.4200814557
 20
11.8135367671
 30
0.0
 10
15.4269789904
 20
11.8067303768
 30
0.0
 10
15.4313785136
 20
11.8020847237
 30
0.0
 10
15.4335146417
 20
11.7997470931
 30
0.0
  0
SPLINE
  5
33C
100
AcDbEntity
  8
LAYER_FEATURE
100
AcDbSpline
 62
7
  6
CONTINUOUS
 70
0
 71
3
 72
77
 73
73
 74
0
 42
0.0000001
 43
0.0000001
 44
0.0000000001
 40
0.0
 40
0.0
 40
0.0
 40
0.0
 40
0.0171786634
 40
0.0345302872
 40
0.0520441255
 40
0.0697097495
 40
0.0875159883
 40
0.1054514913
 40
0.1235045846
 40
0.1416633385
 40
0.1599155966
 40
0.1782490006
 40
0.1966510199
 40
0.2151089789
 40
0.2336100845
 40
0.2521414543
 40
0.270690143
 40
0.2892431696
 40
0.3077875436
 40
0.3263102927
 40
0.3447984895
 40
0.3632392786
 40
0.381619903
 40
0.3999277318
 40
0.4181502883
 40
0.4362752783
 40
0.4542906174
 40
0.4721844603
 40
0.4899452295
 40
0.5075616466
 40
0.5250227635
 40
0.5423179931
 40
0.5594371417
 40
0.5763704419
 40
0.5931085889
 40
0.6096427775
 40
0.6259647383
 40
0.6420667766
 40
0.6579418124
 40
0.673583424
 40
0.6889858938
 40
0.7041442547
 40
0.7190543367
 40
0.7337128182
 40
0.7481172784
 40
0.7622662543
 40
0.776159297
 40
0.7897970278
 40
0.8031811969
 40
0.8163147416
 40
0.8292018451
 40
0.8418479934
 40
0.854260024
 40
0.8603811077
 40
0.8664468693
 40
0.8784167977
 40
0.8901816316
 40
0.9017539638
 40
0.9131478469
 40
0.9243787626
 40
0.9354635682
 40
0.9464204148
 40
0.9518573449
 40
0.9572696286
 40
0.9626598443
 40
0.9680306244
 40
0.9733846525
 40
0.9787246524
 40
0.9840533863
 40
0.9893736446
 40
0.9946882398
 40
1.0
 40
1.0
 40
1.0
 40
1.0
 10
15.2904926921
 20
13.6426515654
 30
0.0
 10
15.3004541658
 20
13.6426515654
 30
0.0
 10
15.320478048
 20
13.6424323751
 30
0.0
 10
15.3506435325
 20
13.6414584597
 30
0.0
 10
15.3810641045
 20
13.6398386619
 30
0.0
 10
15.4117077793
 20
13.6375747334
 30
0.0
 10
15.4425428337
 20
13.6346689887
 30
0.0
 10
15.4735371151
 20
13.6311244687
 30
0.0
 10
15.5046583825
 20
13.626944859
 30
0.0
 10
15.5358742407
 20
13.622134515
 30
0.0
 10
15.5671521983
 20
13.6166984451
 30
0.0
 10
15.5984596988
 20
13.6106423067
 30
0.0
 10
15.6297641529
 20
13.6039724006
 30
0.0
 10
15.6610329737
 20
13.5966956686
 30
0.0
 10
15.6922336122
 20
13.58881969
 30
0.0
 10
15.7233335893
 20
13.5803526644
 30
0.0
 10
15.7543005304
 20
13.5713034056
 30
0.0
 10
15.7851021985
 20
13.5616813314
 30
0.0
 10
15.8157065279
 20
13.5514964553
 30
0.0
 10
15.8460816608
 20
13.5407593834
 30
0.0
 10
15.8761959778
 20
13.5294812948
 30
0.0
 10
15.9060181309
 20
13.5176739298
 30
0.0
 10
15.9355170759
 20
13.5053495779
 30
0.0
 10
15.9646621039
 20
13.4925210643
 30
0.0
 10
15.9934228782
 20
13.4792017444
 30
0.0
 10
16.0217694634
 20
13.4654054845
 30
0.0
 10
16.0496723553
 20
13.4511466442
 30
0.0
 10
16.0771025112
 20
13.4364400631
 30
0.0
 10
16.1040313798
 20
13.421301043
 30
0.0
 10
16.1304309344
 20
13.4057453374
 30
0.0
 10
16.1562737034
 20
13.389789136
 30
0.0
 10
16.1815327947
 20
13.3734490406
 30
0.0
 10
16.2061819231
 20
13.3567420494
 30
0.0
 10
16.2301954377
 20
13.3396855387
 30
0.0
 10
16.2535483499
 20
13.322297245
 30
0.0
 10
16.2762163648
 20
13.3045952531
 30
0.0
 10
16.2981759003
 20
13.2865979677
 30
0.0
 10
16.3194041098
 20
13.2683240958
 30
0.0
 10
16.3398789065
 20
13.2497926267
 30
0.0
 10
16.3595789842
 20
13.2310228101
 30
0.0
 10
16.3784838488
 20
13.2120341437
 30
0.0
 10
16.3965738323
 20
13.1928463455
 30
0.0
 10
16.4138301096
 20
13.1734793323
 30
0.0
 10
16.4302347169
 20
13.1539532
 30
0.0
 10
16.4457705679
 20
13.1342881999
 30
0.0
 10
16.4604214771
 20
13.1145047231
 30
0.0
 10
16.4741721755
 20
13.0946232778
 30
0.0
 10
16.4870083154
 20
13.0746644659
 30
0.0
 10
16.4989164869
 20
13.0546489576
 30
0.0
 10
16.5098842164
 20
13.0345974996
 30
0.0
 10
16.5199000214
 20
13.0145307878
 30
0.0
 10
16.528953281
 20
12.9944698514
 30
0.0
 10
16.5357187353
 20
12.9776972288
 30
0.0
 10
16.5406332361
 20
12.9643052756
 30
0.0
 10
16.545176654
 20
12.951053708
 30
0.0
 10
16.5502478117
 20
12.9345275658
 30
0.0
 10
16.5553654767
 20
12.9146965057
 30
0.0
 10
16.5594828576
 20
12.8949744392
 30
0.0
 10
16.5625953397
 20
12.8753821614
 30
0.0
 10
16.5646994215
 20
12.8559399779
 30
0.0
 10
16.5657926592
 20
12.8366686454
 30
0.0
 10
16.5658602329
 20
12.8207264707
 30
0.0
 10
16.5654046307
 20
12.8080886264
 30
0.0
 10
16.5648110984
 20
12.7986893041
 30
0.0
 10
16.5639650042
 20
12.7893479083
 30
0.0
 10
16.5628665357
 20
12.7800668034
 30
0.0
 10
16.5615160265
 20
12.7708484332
 30
0.0
 10
16.55991377
 20
12.7616952093
 30
0.0
 10
16.5580602227
 20
12.7526095297
 30
0.0
 10
16.5559558497
 20
12.7435937473
 30
0.0
 10
16.5536012054
 20
12.7346503208
 30
0.0
 10
16.5518648094
 20
12.7287370712
 30
0.0
 10
16.5509554027
 20
12.7257942257
 30
0.0
  0
SPLINE
  5
33D
100
AcDbEntity
  8
LAYER_FEATURE
100
AcDbSpline
 62
7
  6
CONTINUOUS
 70
0
 71
3
 72
46
 73
42
 74
0
 42
0.0000001
 43
0.0000001
 44
0.0000000001
 40
0.0
 40
0.0
 40
0.0
 40
0.0
 40
0.0396645078
 40
0.0788613625
 40
0.1175671524
 40
0.1557611441
 40
0.1934233488
 40
0.2305356756
 40
0.2670816668
 40
0.3030467311
 40
0.3384182489
 40
0.373185705
 40
0.4073408296
 40
0.4408777429
 40
0.4737931061
 40
0.5060862783
 40
0.5377594784
 40
0.5688179438
 40
0.5992700904
 40
0.6291276687
 40
0.6584059125
 40
0.6728343747
 40
0.6871253929
 40
0.7153052552
 40
0.7429736226
 40
0.7701607626
 40
0.7969008076
 40
0.8232316975
 40
0.8491950558
 40
0.8620540739
 40
0.8748384068
 40
0.8875541856
 40
0.9002077255
 40
0.9128055046
 40
0.9253541479
 40
0.9378604202
 40
0.9503311966
 40
0.9627734571
 40
0.9751942581
 40
0.9876007192
 40
1.0
 40
1.0
 40
1.0
 40
1.0
 10
15.0571407563
 20
12.8875244245
 30
0.0
 10
15.0468772811
 20
12.8875244245
 30
0.0
 10
15.0264705258
 20
12.8872942803
 30
0.0
 10
14.9960646029
 20
12.8862453064
 30
0.0
 10
14.9660718181
 20
12.8844956729
 30
0.0
 10
14.9365263337
 20
12.8820474006
 30
0.0
 10
14.9074613374
 20
12.8789031944
 30
0.0
 10
14.8789096762
 20
12.8750666027
 30
0.0
 10
14.8509035412
 20
12.8705419174
 30
0.0
 10
14.823474526
 20
12.8653342153
 30
0.0
 10
14.7966535631
 20
12.8594493348
 30
0.0
 10
14.7704708977
 20
12.8528938689
 30
0.0
 10
14.744956054
 20
12.8456751558
 30
0.0
 10
14.7201378039
 20
12.8378012695
 30
0.0
 10
14.6960441355
 20
12.8292810087
 30
0.0
 10
14.6727022258
 20
12.8201238869
 30
0.0
 10
14.6501384013
 20
12.8103401216
 30
0.0
 10
14.6283781453
 20
12.7999406341
 30
0.0
 10
14.6074459649
 20
12.7889369681
 30
0.0
 10
14.5873657636
 20
12.7773415319
 30
0.0
 10
14.5712832874
 20
12.7671468918
 30
0.0
 10
14.5588737734
 20
12.7587055947
 30
0.0
 10
14.5468834579
 20
12.7501597454
 30
0.0
 10
14.5324577136
 20
12.7391356735
 30
0.0
 10
14.5160022697
 20
12.7253080844
 30
0.0
 10
14.5005023681
 20
12.7109593678
 30
0.0
 10
14.4859759088
 20
12.6961056122
 30
0.0
 10
14.4724397931
 20
12.6807637647
 30
0.0
 10
14.4619639836
 20
12.6675434167
 30
0.0
 10
14.4541040166
 20
12.6567463475
 30
0.0
 10
14.4484840887
 20
12.6485633137
 30
0.0
 10
14.443122472
 20
12.6402720552
 30
0.0
 10
14.4380206257
 20
12.6318748616
 30
0.0
 10
14.4331800053
 20
12.6233741351
 30
0.0
 10
14.4286020231
 20
12.6147722589
 30
0.0
 10
14.424287934
 20
12.6060717007
 30
0.0
 10
14.4202390223
 20
12.5972748971
 30
0.0
 10
14.4164563983
 20
12.5883843742
 30
0.0
 10
14.4129411562
 20
12.579402615
 30
0.0
 10
14.4096943316
 20
12.5703322746
 30
0.0
 10
14.4077090501
 20
12.5642272028
 30
0.0
 10
14.4067617789
 20
12.5611618276
 30
0.0
  0
SPLINE
  5
33E
100
AcDbEntity
  8
LAYER_FEATURE
100
AcDbSpline
 62
7
  6
CONTINUOUS
 70
0
 71
3
 72
46
 73
42
 74
0
 42
0.0000001
 43
0.0000001
 44
0.0000000001
 40
0.0
 40
0.0
 40
0.0
 40
0.0
 40
0.0396645078
 40
0.0788613625
 40
0.1175671524
 40
0.1557611441
 40
0.1934233488
 40
0.2305356756
 40
0.2670816668
 40
0.3030467311
 40
0.3384182489
 40
0.373185705
 40
0.4073408296
 40
0.4408777429
 40
0.4737931061
 40
0.5060862783
 40
0.5377594784
 40
0.5688179438
 40
0.5992700904
 40
0.6291276687
 40
0.6584059125
 40
0.6728343747
 40
0.6871253929
 40
0.7153052552
 40
0.7429736226
 40
0.7701607626
 40
0.7969008076
 40
0.8232316975
 40
0.8491950558
 40
0.8620540739
 40
0.8748384068
 40
0.8875541856
 40
0.9002077255
 40
0.9128055046
 40
0.9253541479
 40
0.9378604202
 40
0.9503311966
 40
0.9627734571
 40
0.9751942581
 40
0.9876007192
 40
1.0
 40
1.0
 40
1.0
 40
1.0
 10
15.2904926921
 20
13.6426515654
 30
0.0
 10
15.2802292169
 20
13.6426515654
 30
0.0
 10
15.2598224616
 20
13.6424214211
 30
0.0
 10
15.2294165387
 20
13.6413724472
 30
0.0
 10
15.1994237538
 20
13.6396228138
 30
0.0
 10
15.1698782695
 20
13.6371745415
 30
0.0
 10
15.1408132732
 20
13.6340303353
 30
0.0
 10
15.1122616119
 20
13.6301937436
 30
0.0
 10
15.084255477
 20
13.6256690583
 30
0.0
 10
15.0568264618
 20
13.6204613561
 30
0.0
 10
15.0300054989
 20
13.6145764757
 30
0.0
 10
15.0038228334
 20
13.6080210098
 30
0.0
 10
14.9783079898
 20
13.6008022967
 30
0.0
 10
14.9534897397
 20
13.5929284104
 30
0.0
 10
14.9293960713
 20
13.5844081496
 30
0.0
 10
14.9060541615
 20
13.5752510278
 30
0.0
 10
14.8834903371
 20
13.5654672624
 30
0.0
 10
14.8617300811
 20
13.555067775
 30
0.0
 10
14.8407979007
 20
13.5440641089
 30
0.0
 10
14.8207176994
 20
13.5324686728
 30
0.0
 10
14.8046352232
 20
13.5222740327
 30
0.0
 10
14.7922257092
 20
13.5138327356
 30
0.0
 10
14.7802353936
 20
13.5052868863
 30
0.0
 10
14.7658096493
 20
13.4942628144
 30
0.0
 10
14.7493542054
 20
13.4804352252
 30
0.0
 10
14.7338543039
 20
13.4660865087
 30
0.0
 10
14.7193278446
 20
13.4512327531
 30
0.0
 10
14.7057917289
 20
13.4358909056
 30
0.0
 10
14.6953159194
 20
13.4226705576
 30
0.0
 10
14.6874559523
 20
13.4118734883
 30
0.0
 10
14.6818360244
 20
13.4036904546
 30
0.0
 10
14.6764744078
 20
13.3953991961
 30
0.0
 10
14.6713725614
 20
13.3870020025
 30
0.0
 10
14.666531941
 20
13.378501276
 30
0.0
 10
14.6619539589
 20
13.3698993998
 30
0.0
 10
14.6576398698
 20
13.3611988415
 30
0.0
 10
14.653590958
 20
13.352402038
 30
0.0
 10
14.649808334
 20
13.3435115151
 30
0.0
 10
14.6462930919
 20
13.3345297559
 30
0.0
 10
14.6430462674
 20
13.3254594155
 30
0.0
 10
14.6410609859
 20
13.3193543437
 30
0.0
 10
14.6401137147
 20
13.3162889685
 30
0.0
  0
SPLINE
  5
33F
100
AcDbEntity
  8
LAYER_FEATURE
100
AcDbSpline
 62
7
  6
CONTINUOUS
 70
0
 71
3
 72
77
 73
73
 74
0
 42
0.0000001
 43
0.0000001
 44
0.0000000001
 40
0.0
 40
0.0
 40
0.0
 40
0.0
 40
0.0171786634
 40
0.0345302872
 40
0.0520441255
 40
0.0697097495
 40
0.0875159883
 40
0.1054514913
 40
0.1235045846
 40
0.1416633385
 40
0.1599155966
 40
0.1782490006
 40
0.1966510199
 40
0.2151089789
 40
0.2336100845
 40
0.2521414543
 40
0.270690143
 40
0.2892431696
 40
0.3077875436
 40
0.3263102927
 40
0.3447984895
 40
0.3632392786
 40
0.381619903
 40
0.3999277318
 40
0.4181502883
 40
0.4362752783
 40
0.4542906174
 40
0.4721844603
 40
0.4899452295
 40
0.5075616466
 40
0.5250227635
 40
0.5423179931
 40
0.5594371417
 40
0.5763704419
 40
0.5931085889
 40
0.6096427775
 40
0.6259647383
 40
0.6420667766
 40
0.6579418124
 40
0.673583424
 40
0.6889858938
 40
0.7041442547
 40
0.7190543367
 40
0.7337128182
 40
0.7481172784
 40
0.7622662543
 40
0.776159297
 40
0.7897970278
 40
0.8031811969
 40
0.8163147416
 40
0.8292018451
 40
0.8418479934
 40
0.854260024
 40
0.8603811077
 40
0.8664468693
 40
0.8784167977
 40
0.8901816316
 40
0.9017539638
 40
0.9131478469
 40
0.9243787626
 40
0.9354635682
 40
0.9464204148
 40
0.9518573449
 40
0.9572696286
 40
0.9626598443
 40
0.9680306244
 40
0.9733846525
 40
0.9787246524
 40
0.9840533863
 40
0.9893736446
 40
0.9946882398
 40
1.0
 40
1.0
 40
1.0
 40
1.0
 10
15.0571407563
 20
12.8875244245
 30
0.0
 10
15.06710223
 20
12.8875244245
 30
0.0
 10
15.0871261122
 20
12.8873052342
 30
0.0
 10
15.1172915967
 20
12.8863313188
 30
0.0
 10
15.1477121688
 20
12.884711521
 30
0.0
 10
15.1783558435
 20
12.8824475925
 30
0.0
 10
15.2091908979
 20
12.8795418478
 30
0.0
 10
15.2401851793
 20
12.8759973278
 30
0.0
 10
15.2713064467
 20
12.8718177181
 30
0.0
 10
15.3025223049
 20
12.8670073741
 30
0.0
 10
15.3338002625
 20
12.8615713042
 30
0.0
 10
15.365107763
 20
12.8555151658
 30
0.0
 10
15.3964122171
 20
12.8488452597
 30
0.0
 10
15.4276810379
 20
12.8415685278
 30
0.0
 10
15.4588816764
 20
12.8336925491
 30
0.0
 10
15.4899816535
 20
12.8252255235
 30
0.0
 10
15.5209485946
 20
12.8161762647
 30
0.0
 10
15.5517502628
 20
12.8065541906
 30
0.0
 10
15.5823545922
 20
12.7963693144
 30
0.0
 10
15.612729725
 20
12.7856322425
 30
0.0
 10
15.642844042
 20
12.774354154
 30
0.0
 10
15.6726661952
 20
12.7625467889
 30
0.0
 10
15.7021651401
 20
12.7502224371
 30
0.0
 10
15.7313101682
 20
12.7373939234
 30
0.0
 10
15.7600709424
 20
12.7240746035
 30
0.0
 10
15.7884175276
 20
12.7102783436
 30
0.0
 10
15.8163204195
 20
12.6960195034
 30
0.0
 10
15.8437505755
 20
12.6813129222
 30
0.0
 10
15.8706794441
 20
12.6661739021
 30
0.0
 10
15.8970789987
 20
12.6506181965
 30
0.0
 10
15.9229217677
 20
12.6346619951
 30
0.0
 10
15.9481808589
 20
12.6183218997
 30
0.0
 10
15.9728299873
 20
12.6016149085
 30
0.0
 10
15.996843502
 20
12.5845583978
 30
0.0
 10
16.0201964141
 20
12.5671701041
 30
0.0
 10
16.0428644291
 20
12.5494681122
 30
0.0
 10
16.0648239645
 20
12.5314708269
 30
0.0
 10
16.0860521741
 20
12.5131969549
 30
0.0
 10
16.1065269707
 20
12.4946654858
 30
0.0
 10
16.1262270485
 20
12.4758956692
 30
0.0
 10
16.1451319131
 20
12.4569070028
 30
0.0
 10
16.1632218965
 20
12.4377192046
 30
0.0
 10
16.1804781738
 20
12.4183521915
 30
0.0
 10
16.1968827812
 20
12.3988260591
 30
0.0
 10
16.2124186322
 20
12.379161059
 30
0.0
 10
16.2270695413
 20
12.3593775823
 30
0.0
 10
16.2408202397
 20
12.3394961369
 30
0.0
 10
16.2536563796
 20
12.3195373251
 30
0.0
 10
16.2655645511
 20
12.2995218167
 30
0.0
 10
16.2765322807
 20
12.2794703587
 30
0.0
 10
16.2865480857
 20
12.2594036469
 30
0.0
 10
16.2956013452
 20
12.2393427105
 30
0.0
 10
16.3023667995
 20
12.2225700879
 30
0.0
 10
16.3072813003
 20
12.2091781347
 30
0.0
 10
16.3118247182
 20
12.1959265672
 30
0.0
 10
16.3168958759
 20
12.179400425
 30
0.0
 10
16.322013541
 20
12.1595693648
 30
0.0
 10
16.3261309218
 20
12.1398472983
 30
0.0
 10
16.329243404
 20
12.1202550205
 30
0.0
 10
16.3313474858
 20
12.100812837
 30
0.0
 10
16.3324407235
 20
12.0815415045
 30
0.0
 10
16.3325082971
 20
12.0655993298
 30
0.0
 10
16.332052695
 20
12.0529614856
 30
0.0
 10
16.3314591627
 20
12.0435621632
 30
0.0
 10
16.3306130684
 20
12.0342207674
 30
0.0
 10
16.3295146
 20
12.0249396625
 30
0.0
 10
16.3281640907
 20
12.0157212924
 30
0.0
 10
16.3265618343
 20
12.0065680685
 30
0.0
 10
16.324708287
 20
11.9974823888
 30
0.0
 10
16.3226039139
 20
11.9884666064
 30
0.0
 10
16.3202492697
 20
11.9795231799
 30
0.0
 10
16.3185128736
 20
11.9736099303
 30
0.0
 10
16.3176034669
 20
11.9706670849
 30
0.0
  0
SPLINE
  5
340
100
AcDbEntity
  8
LAYER_CUT_FEAT
100
AcDbSpline
 62
7
  6
CONTINUOUS
 70
0
 71
3
 72
80
 73
76
 74
0
 42
0.0000001
 43
0.0000001
 44
0.0000000001
 40
0.0
 40
0.0
 40
0.0
 40
0.0
 40
0.005354095
 40
0.0107128795
 40
0.0160810219
 40
0.0214631517
 40
0.0268638369
 40
0.0322875691
 40
0.0377387414
 40
0.0432216371
 40
0.0487404092
 40
0.0542990721
 40
0.0599014848
 40
0.0655513445
 40
0.0712521749
 40
0.0770073205
 40
0.0828199412
 40
0.0886930055
 40
0.1006301234
 40
0.1128399028
 40
0.1190529653
 40
0.125340225
 40
0.1381426323
 40
0.1512590067
 40
0.1646973076
 40
0.1784628134
 40
0.1925582762
 40
0.2069840812
 40
0.2217384052
 40
0.2368173709
 40
0.2522151962
 40
0.2679243367
 40
0.2839356206
 40
0.3002383764
 40
0.316820554
 40
0.3336688384
 40
0.3507687578
 40
0.3681047864
 40
0.3856604415
 40
0.4034183769
 40
0.4213604723
 40
0.439467919
 40
0.457721303
 40
0.4761006861
 40
0.4945856842
 40
0.5131555441
 40
0.5317892194
 40
0.550465445
 40
0.5691628106
 40
0.5878598341
 40
0.6065350345
 40
0.625167005
 40
0.6437344863
 40
0.6622164401
 40
0.680592124
 40
0.6988411667
 40
0.7169436455
 40
0.7348801645
 40
0.7526319357
 40
0.7701808618
 40
0.7875096229
 40
0.8046017653
 40
0.8214417951
 40
0.8380152759
 40
0.8543089312
 40
0.870310753
 40
0.8860101157
 40
0.9013978972
 40
0.916466607
 40
0.9312105221
 40
0.945625826
 40
0.9597107701
 40
0.9734657945
 40
0.9868937697
 40
1.0
 40
1.0
 40
1.0
 40
1.0
 10
14.6998704725
 20
12.4156640027
 30
0.0
 10
14.7006593106
 20
12.4182166839
 30
0.0
 10
14.7023300929
 20
12.4232962499
 30
0.0
 10
14.7051115272
 20
12.4308252711
 30
0.0
 10
14.7081674718
 20
12.4382623474
 30
0.0
 10
14.7114966258
 20
12.4456041201
 30
0.0
 10
14.7150975002
 20
12.452847493
 30
0.0
 10
14.718968585
 20
12.4599893165
 30
0.0
 10
14.7231081566
 20
12.4670265524
 30
0.0
 10
14.7275144629
 20
12.4739561565
 30
0.0
 10
14.7321855618
 20
12.4807751815
 30
0.0
 10
14.7371194605
 20
12.4874806885
 30
0.0
 10
14.7423140053
 20
12.4940698259
 30
0.0
 10
14.7477669664
 20
12.5005397656
 30
0.0
 10
14.7534759873
 20
12.5068877562
 30
0.0
 10
14.7594385935
 20
12.5131110752
 30
0.0
 10
14.7656522813
 20
12.5192071163
 30
0.0
 10
14.7743146047
 20
12.5272047077
 30
0.0
 10
14.7857721222
 20
12.5368697846
 30
0.0
 10
14.7978949864
 20
12.5459697759
 30
0.0
 10
14.8080488537
 20
12.5529681751
 30
0.0
 10
14.8186324538
 20
12.5598564884
 30
0.0
 10
14.8324404612
 20
12.5680947699
 30
0.0
 10
14.8497883075
 20
12.577317868
 30
0.0
 10
14.8679841166
 20
12.5859220439
 30
0.0
 10
14.8869965068
 20
12.5938927091
 30
0.0
 10
14.9067931328
 20
12.6012165619
 30
0.0
 10
14.9273402238
 20
12.6078812971
 30
0.0
 10
14.948602772
 20
12.6138757173
 30
0.0
 10
14.9705445458
 20
12.6191897315
 30
0.0
 10
14.9931281575
 20
12.6238143832
 30
0.0
 10
15.0163151201
 20
12.6277418684
 30
0.0
 10
15.0400659113
 20
12.630965553
 30
0.0
 10
15.0643400391
 20
12.633479988
 30
0.0
 10
15.0890961107
 20
12.6352809216
 30
0.0
 10
15.1142919019
 20
12.6363653095
 30
0.0
 10
15.1398844301
 20
12.6367313227
 30
0.0
 10
15.1658300276
 20
12.6363783517
 30
0.0
 10
15.1920844165
 20
12.6353070103
 30
0.0
 10
15.2186027854
 20
12.6335191349
 30
0.0
 10
15.2453398658
 20
12.631017783
 30
0.0
 10
15.2722500108
 20
12.6278072288
 30
0.0
 10
15.2992872733
 20
12.6238929564
 30
0.0
 10
15.326405485
 20
12.6192816509
 30
0.0
 10
15.3535583363
 20
12.6139811879
 30
0.0
 10
15.3806994558
 20
12.6080006197
 30
0.0
 10
15.4077824899
 20
12.6013501603
 30
0.0
 10
15.4347611827
 20
12.5940411681
 30
0.0
 10
15.4615894555
 20
12.5860861266
 30
0.0
 10
15.4882214863
 20
12.5774986227
 30
0.0
 10
15.5146117881
 20
12.5682933237
 30
0.0
 10
15.5407152871
 20
12.5584859521
 30
0.0
 10
15.5664874007
 20
12.5480932581
 30
0.0
 10
15.5918841135
 20
12.5371329912
 30
0.0
 10
15.6168620529
 20
12.5256238689
 30
0.0
 10
15.641378564
 20
12.5135855448
 30
0.0
 10
15.6653917822
 20
12.5010385741
 30
0.0
 10
15.6888607056
 20
12.4880043776
 30
0.0
 10
15.7117452647
 20
12.4745052051
 30
0.0
 10
15.7340063914
 20
12.4605640956
 30
0.0
 10
15.7556060855
 20
12.4462048374
 30
0.0
 10
15.7765074796
 20
12.431451926
 30
0.0
 10
15.7966749017
 20
12.4163305209
 30
0.0
 10
15.8160739358
 20
12.4008664011
 30
0.0
 10
15.8346714796
 20
12.3850859192
 30
0.0
 10
15.8524357994
 20
12.3690159543
 30
0.0
 10
15.8693365834
 20
12.3526838645
 30
0.0
 10
15.8853449894
 20
12.3361174375
 30
0.0
 10
15.9004336934
 20
12.3193448406
 30
0.0
 10
15.9145769254
 20
12.3023945753
 30
0.0
 10
15.9277505262
 20
12.2852954076
 30
0.0
 10
15.9399319263
 20
12.2680763944
 30
0.0
 10
15.9511003472
 20
12.2507665562
 30
0.0
 10
15.9612362887
 20
12.2333958216
 30
0.0
 10
15.9673674168
 20
12.2216529132
 30
0.0
 10
15.9702486712
 20
12.215781534
 30
0.0
  0
SPLINE
  5
341
100
AcDbEntity
  8
LAYER_FEATURE
100
AcDbSpline
 62
7
  6
CONTINUOUS
 70
0
 71
3
 72
21
 73
17
 74
0
 42
0.0000001
 43
0.0000001
 44
0.0000000001
 40
0.0
 40
0.0
 40
0.0
 40
0.0
 40
0.0594504513
 40
0.1190657808
 40
0.17890603
 40
0.2390295086
 40
0.2994924442
 40
0.3603485859
 40
0.4216488485
 40
0.4834411109
 40
0.5457697373
 40
0.60867572
 40
0.6721964221
 40
0.7363650185
 40
0.8667343933
 40
1.0
 40
1.0
 40
1.0
 40
1.0
 10
14.9562706356
 20
12.2806500295
 30
0.0
 10
14.9557770287
 20
12.2818922998
 30
0.0
 10
14.9548465132
 20
12.284403806
 30
0.0
 10
14.9536254941
 20
12.2882381618
 30
0.0
 10
14.9525790423
 20
12.2921395378
 30
0.0
 10
14.9517083733
 20
12.2961033359
 30
0.0
 10
14.951014459
 20
12.3001250309
 30
0.0
 10
14.950498105
 20
12.3041999985
 30
0.0
 10
14.9501598453
 20
12.3083235612
 30
0.0
 10
14.950000102
 20
12.3124909903
 30
0.0
 10
14.9500189802
 20
12.316697512
 30
0.0
 10
14.9502164884
 20
12.3209382962
 30
0.0
 10
14.9505923573
 20
12.3252085517
 30
0.0
 10
14.9513345609
 20
12.3309647021
 30
0.0
 10
14.9527132339
 20
12.3382132333
 30
0.0
 10
14.9542608567
 20
12.3439418977
 30
0.0
 10
14.9551455587
 20
12.3468047948
 30
0.0
  0
SPLINE
  5
342
100
AcDbEntity
  8
02___PRT_ALL_AXES
100
AcDbSpline
 62
7
  6
CONTINUOUS
 70
0
 71
3
 72
47
 73
43
 74
0
 42
0.0000001
 43
0.0000001
 44
0.0000000001
 40
0.0
 40
0.0
 40
0.0
 40
0.0
 40
0.0110553081
 40
0.0221806397
 40
0.0334002469
 40
0.0447372617
 40
0.0562134803
 40
0.0678491789
 40
0.0796628308
 40
0.0916711446
 40
0.1163226339
 40
0.1419027898
 40
0.1550634391
 40
0.1684760702
 40
0.1821433115
 40
0.196065822
 40
0.210242669
 40
0.2246711751
 40
0.2393472536
 40
0.25426541
 40
0.2847969788
 40
0.3162028639
 40
0.3484035758
 40
0.3813105223
 40
0.414829745
 40
0.4488651413
 40
0.4833211047
 40
0.5181045229
 40
0.5531262839
 40
0.5883022263
 40
0.6235537897
 40
0.6588083485
 40
0.6939994134
 40
0.7290666664
 40
0.7639560613
 40
0.798619823
 40
0.8330165638
 40
0.8671113376
 40
0.9008757037
 40
0.9342878936
 40
0.9673321825
 40
1.0
 40
1.0
 40
1.0
 40
1.0
 10
14.9537182347
 20
12.2852609642
 30
0.0
 10
14.9532044592
 20
12.2863079321
 30
0.0
 10
14.9522298131
 20
12.2884365812
 30
0.0
 10
14.9509343241
 20
12.2917148685
 30
0.0
 10
14.9498025055
 20
12.2950846314
 30
0.0
 10
14.948835178
 20
12.2985436151
 30
0.0
 10
14.9480329595
 20
12.3020895492
 30
0.0
 10
14.9473963769
 20
12.3057199103
 30
0.0
 10
14.9469257577
 20
12.3094320674
 30
0.0
 10
14.946516339
 20
12.3145306972
 30
0.0
 10
14.9464313154
 20
12.3211046667
 30
0.0
 10
14.9468965387
 20
12.327783071
 30
0.0
 10
14.9475891583
 20
12.3332420354
 30
0.0
 10
14.9482777494
 20
12.3374318165
 30
0.0
 10
14.9491295587
 20
12.3416733624
 30
0.0
 10
14.950143437
 20
12.3459619677
 30
0.0
 10
14.9513180942
 20
12.3502925662
 30
0.0
 10
14.9526520067
 20
12.3546599303
 30
0.0
 10
14.9541435145
 20
12.3590586671
 30
0.0
 10
14.9563568202
 20
12.365003517
 30
0.0
 10
14.9595126853
 20
12.3724766708
 30
0.0
 10
14.963865802
 20
12.3814074047
 30
0.0
 10
14.9687939626
 20
12.3903215116
 30
0.0
 10
14.9742752063
 20
12.3991696943
 30
0.0
 10
14.9802862794
 20
12.4079027162
 30
0.0
 10
14.986802771
 20
12.4164715192
 30
0.0
 10
14.9937993942
 20
12.424827691
 30
0.0
 10
15.001250116
 20
12.4329236953
 30
0.0
 10
15.0091281916
 20
12.4407130469
 30
0.0
 10
15.0174060959
 20
12.4481504208
 30
0.0
 10
15.0260553555
 20
12.4551917398
 30
0.0
 10
15.0350463143
 20
12.4617942766
 30
0.0
 10
15.0443478423
 20
12.4679167968
 30
0.0
 10
15.0539270304
 20
12.4735197774
 30
0.0
 10
15.0637488916
 20
12.4785657076
 30
0.0
 10
15.0737761175
 20
12.4830194929
 30
0.0
 10
15.0839688996
 20
12.4868489445
 30
0.0
 10
15.0942848971
 20
12.4900253329
 30
0.0
 10
15.1046792365
 20
12.4925240048
 30
0.0
 10
15.1151050024
 20
12.4943249288
 30
0.0
 10
15.1255125684
 20
12.4954133422
 30
0.0
 10
15.1324469027
 20
12.4956592149
 30
0.0
 10
15.1358930656
 20
12.4956592149
 30
0.0
  0
SPLINE
  5
343
100
AcDbEntity
  8
LAYER_FEATURE
100
AcDbSpline
 62
7
  6
CONTINUOUS
 70
0
 71
3
 72
15
 73
11
 74
0
 42
0.0000001
 43
0.0000001
 44
0.0000000001
 40
0.0
 40
0.0
 40
0.0
 40
0.0
 40
0.1216419399
 40
0.2454093846
 40
0.3707390879
 40
0.4970449844
 40
0.6237268941
 40
0.7501796637
 40
0.8758004801
 40
1.0
 40
1.0
 40
1.0
 40
1.0
 10
16.2527980036
 20
12.9206762266
 30
0.0
 10
16.2539155049
 20
12.9200202665
 30
0.0
 10
16.2562061659
 20
12.9187575143
 30
0.0
 10
16.2597594563
 20
12.9170301507
 30
0.0
 10
16.2634401102
 20
12.9154623634
 30
0.0
 10
16.2672219455
 20
12.9140653219
 30
0.0
 10
16.271078215
 20
12.912848896
 30
0.0
 10
16.2749816372
 20
12.9118217042
 30
0.0
 10
16.2789044441
 20
12.91099103
 30
0.0
 10
16.2815333541
 20
12.910569094
 30
0.0
 10
16.2828446274
 20
12.9103930131
 30
0.0
  0
SPLINE
  5
344
100
AcDbEntity
  8
LAYER_FEATURE
100
AcDbSpline
 62
7
  6
CONTINUOUS
 70
0
 71
3
 72
11
 73
7
 74
0
 42
0.0000001
 43
0.0000001
 44
0.0000000001
 40
0.0
 40
0.0
 40
0.0
 40
0.0
 40
0.2457467555
 40
0.4932334802
 40
0.7441627543
 40
1.0
 40
1.0
 40
1.0
 40
1.0
 10
16.1992969051
 20
13.0683112475
 30
0.0
 10
16.1993566854
 20
13.0685046873
 30
0.0
 10
16.1994567013
 20
13.0688994251
 30
0.0
 10
16.1995458576
 20
13.069507035
 30
0.0
 10
16.1995740883
 20
13.0701287912
 30
0.0
 10
16.199552564
 20
13.0705464845
 30
0.0
 10
16.1995320917
 20
13.0707562677
 30
0.0
  0
SPLINE
  5
345
100
AcDbEntity
  8
LAYER_FEATURE
100
AcDbSpline
 62
7
  6
CONTINUOUS
 70
0
 71
3
 72
23
 73
19
 74
0
 42
0.0000001
 43
0.0000001
 44
0.0000000001
 40
0.0
 40
0.0
 40
0.0
 40
0.0
 40
0.0572756302
 40
0.116111262
 40
0.1763568611
 40
0.2378457189
 40
0.3003971596
 40
0.3638190695
 40
0.4279102677
 40
0.4924627733
 40
0.5572639927
 40
0.6220988686
 40
0.686752032
 40
0.751009774
 40
0.8146628878
 40
0.8775064707
 40
0.939348552
 40
1.0
 40
1.0
 40
1.0
 40
1.0
 10
16.1844132721
 20
13.0202237611
 30
0.0
 10
16.1851697282
 20
13.0195791631
 30
0.0
 10
16.1867386865
 20
13.0183134866
 30
0.0
 10
16.1892146636
 20
13.0165131992
 30
0.0
 10
16.1918347028
 20
13.0147927633
 30
0.0
 10
16.1945858233
 20
13.0131607093
 30
0.0
 10
16.1974545043
 20
13.0116250418
 30
0.0
 10
16.2004266104
 20
13.0101933262
 30
0.0
 10
16.2034875003
 20
13.008872613
 30
0.0
 10
16.2066220893
 20
13.0076694113
 30
0.0
 10
16.2098149273
 20
13.0065896527
 30
0.0
 10
16.2130502753
 20
13.0056386613
 30
0.0
 10
16.2163121817
 20
13.0048211268
 30
0.0
 10
16.2195845736
 20
13.0041410703
 30
0.0
 10
16.2228513009
 20
13.0036018604
 30
0.0
 10
16.2260963303
 20
13.0032061213
 30
0.0
 10
16.2293035408
 20
13.0029558526
 30
0.0
 10
16.2314287955
 20
13.0028860366
 30
0.0
 10
16.2324811765
 20
13.0028764757
 30
0.0
  0
SPLINE
  5
346
100
AcDbEntity
  8
LAYER_FEATURE
100
AcDbSpline
 62
7
  6
CONTINUOUS
 70
0
 71
3
 72
14
 73
10
 74
0
 42
0.0000001
 43
0.0000001
 44
0.0000000001
 40
0.0
 40
0.0
 40
0.0
 40
0.0
 40
0.1182252102
 40
0.2371562692
 40
0.3574719054
 40
0.4798112742
 40
0.6047611141
 40
0.7328557498
 40
1.0
 40
1.0
 40
1.0
 40
1.0
 10
16.1050169624
 20
13.154940398
 30
0.0
 10
16.1050717566
 20
13.15511771
 30
0.0
 10
16.1051648994
 20
13.1554788225
 30
0.0
 10
16.1052535853
 20
13.1560336985
 30
0.0
 10
16.1052911615
 20
13.1566008576
 30
0.0
 10
16.1052775853
 20
13.1571784834
 30
0.0
 10
16.1052129162
 20
13.1577649291
 30
0.0
 10
16.1050568525
 20
13.1585671399
 30
0.0
 10
16.1048661031
 20
13.1591606885
 30
0.0
 10
16.1047112816
 20
13.1595504154
 30
0.0
  0
SPLINE
  5
347
100
AcDbEntity
  8
LAYER_FEATURE
100
AcDbSpline
 62
7
  6
CONTINUOUS
 70
0
 71
3
 72
27
 73
23
 74
0
 42
0.0000001
 43
0.0000001
 44
0.0000000001
 40
0.0
 40
0.0
 40
0.0
 40
0.0
 40
0.026076856
 40
0.052852846
 40
0.0803156219
 40
0.1084471113
 40
0.1372243536
 40
0.1666198332
 40
0.2271259001
 40
0.289679701
 40
0.3539377456
 40
0.4195194976
 40
0.4860170802
 40
0.5530043917
 40
0.6200457909
 40
0.6867045851
 40
0.752551509
 40
0.8171733205
 40
0.8801821512
 40
0.941223304
 40
0.9709152378
 40
1.0
 40
1.0
 40
1.0
 40
1.0
 10
16.0932860989
 20
13.1170249828
 30
0.0
 10
16.0936554397
 20
13.116535902
 30
0.0
 10
16.0944282294
 20
13.115562694
 30
0.0
 10
16.0956683281
 20
13.1141388064
 30
0.0
 10
16.0970019255
 20
13.1127346981
 30
0.0
 10
16.0984257303
 20
13.1113537828
 30
0.0
 10
16.0999363272
 20
13.1099993617
 30
0.0
 10
16.1020818208
 20
13.1082161575
 30
0.0
 10
16.1049603916
 20
13.1060772034
 30
0.0
 10
16.1086637783
 20
13.1036913044
 30
0.0
 10
16.1126137629
 20
13.1014845797
 30
0.0
 10
16.1167721844
 20
13.0994783401
 30
0.0
 10
16.1210990229
 20
13.097691873
 30
0.0
 10
16.1255525558
 20
13.0961424054
 30
0.0
 10
16.1300898366
 20
13.0948448784
 30
0.0
 10
16.1346671109
 20
13.0938118076
 30
0.0
 10
16.1392402336
 20
13.0930531592
 30
0.0
 10
16.1437651997
 20
13.0925762341
 30
0.0
 10
16.1481982619
 20
13.0923856668
 30
0.0
 10
16.1518137641
 20
13.0924677343
 30
0.0
 10
16.1546221377
 20
13.0926817563
 30
0.0
 10
16.155995161
 20
13.0928372531
 30
0.0
 10
16.1566727671
 20
13.092927321
 30
0.0
  0
SPLINE
  5
348
100
AcDbEntity
  8
LAYER_FEATURE
100
AcDbSpline
 62
7
  6
CONTINUOUS
 70
0
 71
3
 72
39
 73
35
 74
0
 42
0.0000001
 43
0.0000001
 44
0.0000000001
 40
0.0
 40
0.0
 40
0.0
 40
0.0
 40
0.0234023201
 40
0.0476900351
 40
0.0729052448
 40
0.099071277
 40
0.1261943454
 40
0.1542652303
 40
0.183260858
 40
0.2131458821
 40
0.2438741539
 40
0.2753900211
 40
0.3076294906
 40
0.3405213184
 40
0.3739880938
 40
0.4079471907
 40
0.4423116513
 40
0.4769910263
 40
0.5118922437
 40
0.546920419
 40
0.5819796273
 40
0.6169736779
 40
0.6518069197
 40
0.6863850263
 40
0.7206157735
 40
0.7544098428
 40
0.787681701
 40
0.8203504903
 40
0.8523408612
 40
0.8835840413
 40
0.9140189789
 40
0.9435924783
 40
0.9722643854
 40
1.0
 40
1.0
 40
1.0
 40
1.0
 10
15.9829641988
 20
13.2076361169
 30
0.0
 10
15.9831892854
 20
13.2069919003
 30
0.0
 10
15.9837050682
 20
13.2056984483
 30
0.0
 10
15.984646959
 20
13.2037904398
 30
0.0
 10
15.9857669655
 20
13.2018871696
 30
0.0
 10
15.9870603617
 20
13.1999964326
 30
0.0
 10
15.9885218469
 20
13.1981257292
 30
0.0
 10
15.9901454505
 20
13.1962825771
 30
0.0
 10
15.9919245599
 20
13.1944743785
 30
0.0
 10
15.9938519376
 20
13.1927084181
 30
0.0
 10
15.9959197538
 20
13.1909918281
 30
0.0
 10
15.9981196113
 20
13.1893315579
 30
0.0
 10
16.0004425734
 20
13.1877343403
 30
0.0
 10
16.0028791926
 20
13.1862066523
 30
0.0
 10
16.0054195602
 20
13.1847546992
 30
0.0
 10
16.0080533437
 20
13.1833843846
 30
0.0
 10
16.0107698291
 20
13.1821012883
 30
0.0
 10
16.0135579579
 20
13.1809106289
 30
0.0
 10
16.0164063782
 20
13.17981725
 30
0.0
 10
16.0193034933
 20
13.1788256031
 30
0.0
 10
16.0222375081
 20
13.1779397302
 30
0.0
 10
16.0251964761
 20
13.1771632408
 30
0.0
 10
16.0281683474
 20
13.1764992906
 30
0.0
 10
16.031141023
 20
13.175950582
 30
0.0
 10
16.0341024028
 20
13.1755193502
 30
0.0
 10
16.0370404354
 20
13.1752073577
 30
0.0
 10
16.0399431675
 20
13.1750158702
 30
0.0
 10
16.0427987956
 20
13.174945668
 30
0.0
 10
16.0455957128
 20
13.1749970412
 30
0.0
 10
16.0483225645
 20
13.1751697963
 30
0.0
 10
16.0509682525
 20
13.1754632563
 30
0.0
 10
16.0535221346
 20
13.1758762326
 30
0.0
 10
16.0559736734
 20
13.176407098
 30
0.0
 10
16.0575601318
 20
13.1768456149
 30
0.0
 10
16.0583326738
 20
13.1770849457
 30
0.0
  0
SPLINE
  5
349
100
AcDbEntity
  8
LAYER_FEATURE
100
AcDbSpline
 62
7
  6
CONTINUOUS
 70
0
 71
3
 72
11
 73
7
 74
0
 42
0.0000001
 43
0.0000001
 44
0.0000000001
 40
0.0
 40
0.0
 40
0.0
 40
0.0
 40
0.2465479299
 40
0.4944940924
 40
0.7452270119
 40
1.0
 40
1.0
 40
1.0
 40
1.0
 10
15.8607046323
 20
13.2956258349
 30
0.0
 10
15.860859648
 20
13.2961274655
 30
0.0
 10
15.8611241276
 20
13.2971485857
 30
0.0
 10
15.8613794723
 20
13.2987170603
 30
0.0
 10
15.8614933181
 20
13.3003196077
 30
0.0
 10
15.8614748958
 20
13.301397521
 30
0.0
 10
15.8614428708
 20
13.301939127
 30
0.0
  0
SPLINE
  5
34A
100
AcDbEntity
  8
LAYER_FEATURE
100
AcDbSpline
 62
7
  6
CONTINUOUS
 70
0
 71
3
 72
41
 73
37
 74
0
 42
0.0000001
 43
0.0000001
 44
0.0000000001
 40
0.0
 40
0.0
 40
0.0
 40
0.0
 40
0.0107406776
 40
0.0216046719
 40
0.0326211985
 40
0.0438174483
 40
0.0668359713
 40
0.0908381117
 40
0.1159483385
 40
0.1422495735
 40
0.1697862379
 40
0.1985681926
 40
0.2285748977
 40
0.2597594093
 40
0.292052056
 40
0.3253637541
 40
0.3595889868
 40
0.3946084954
 40
0.4302917381
 40
0.466499167
 40
0.5030843697
 40
0.5398961126
 40
0.576780319
 40
0.6135820101
 40
0.6501472348
 40
0.6863250118
 40
0.7219693118
 40
0.7569411053
 40
0.791110513
 40
0.8243590899
 40
0.8565823073
 40
0.8876922312
 40
0.9176206115
 40
0.9463219692
 40
0.9737779169
 40
1.0
 40
1.0
 40
1.0
 40
1.0
 10
15.8584201564
 20
13.2883508708
 30
0.0
 10
15.8583799941
 20
13.287984606
 30
0.0
 10
15.8583241533
 20
13.2872449045
 30
0.0
 10
15.8583138641
 20
13.2861251289
 30
0.0
 10
15.8583766043
 20
13.2849913623
 30
0.0
 10
15.8585590688
 20
13.2834496105
 30
0.0
 10
15.8589750533
 20
13.2814911644
 30
0.0
 10
15.8597573114
 20
13.2791388184
 30
0.0
 10
15.8608215081
 20
13.2767762153
 30
0.0
 10
15.8621604255
 20
13.2744179201
 30
0.0
 10
15.8637653953
 20
13.2720780842
 30
0.0
 10
15.8656262653
 20
13.2697708951
 30
0.0
 10
15.8677314029
 20
13.2675103848
 30
0.0
 10
15.8700677157
 20
13.265310382
 30
0.0
 10
15.8726207004
 20
13.263184406
 30
0.0
 10
15.8753745124
 20
13.2611455716
 30
0.0
 10
15.8783120531
 20
13.2592064929
 30
0.0
 10
15.8814150706
 20
13.2573791939
 30
0.0
 10
15.8846642716
 20
13.2556750239
 30
0.0
 10
15.8880394419
 20
13.2541045799
 30
0.0
 10
15.8915195734
 20
13.2526776351
 30
0.0
 10
15.8950829972
 20
13.2514030738
 30
0.0
 10
15.8987075212
 20
13.2502888339
 30
0.0
 10
15.9023705716
 20
13.2493418549
 30
0.0
 10
15.9060493359
 20
13.2485680342
 30
0.0
 10
15.9097209092
 20
13.2479721902
 30
0.0
 10
15.9133624402
 20
13.247558033
 30
0.0
 10
15.9169512777
 20
13.2473281438
 30
0.0
 10
15.9204651159
 20
13.2472839624
 30
0.0
 10
15.9238821381
 20
13.2474257837
 30
0.0
 10
15.9271811525
 20
13.2477527661
 30
0.0
 10
15.93034174
 20
13.2482629499
 30
0.0
 10
15.9333443306
 20
13.2489532762
 30
0.0
 10
15.9361704774
 20
13.2498196897
 30
0.0
 10
15.9388024152
 20
13.2508569387
 30
0.0
 10
15.940454416
 20
13.2516770751
 30
0.0
 10
15.9412400513
 20
13.2521152193
 30
0.0
  0
SPLINE
  5
34B
100
AcDbEntity
  8
02___PRT_ALL_AXES
100
AcDbSpline
 62
7
  6
CONTINUOUS
 70
0
 71
3
 72
39
 73
35
 74
0
 42
0.0000001
 43
0.0000001
 44
0.0000000001
 40
0.0
 40
0.0
 40
0.0
 40
0.0
 40
0.0396653679
 40
0.0788626153
 40
0.1175692063
 40
0.1557638028
 40
0.1934266653
 40
0.2305396231
 40
0.2670862404
 40
0.3030519223
 40
0.3384240474
 40
0.3731920997
 40
0.4073478088
 40
0.4408852953
 40
0.4738012215
 40
0.506094948
 40
0.5377686922
 40
0.5688276904
 40
0.5992803581
 40
0.6291384462
 40
0.6584171899
 40
0.6871354422
 40
0.7153157884
 40
0.7429846308
 40
0.7701722369
 40
0.7969127394
 40
0.8232440794
 40
0.8492078821
 40
0.8748492567
 40
0.900216515
 40
0.9253608058
 40
0.950335667
 40
0.9751965029
 40
1.0
 40
1.0
 40
1.0
 40
1.0
 10
15.0205484625
 20
12.1224039425
 30
0.0
 10
15.0144108763
 20
12.1224039425
 30
0.0
 10
15.0022076517
 20
12.1222663211
 30
0.0
 10
14.9840249039
 20
12.121639025
 30
0.0
 10
14.9660892474
 20
12.1205927557
 30
0.0
 10
14.9484210325
 20
12.1191286815
 30
0.0
 10
14.931040171
 20
12.1172484482
 30
0.0
 10
14.9139662766
 20
12.1149541637
 30
0.0
 10
14.8972186083
 20
12.1122484023
 30
0.0
 10
14.8808160565
 20
12.1091341977
 30
0.0
 10
14.8647771198
 20
12.1056150403
 30
0.0
 10
14.8491198855
 20
12.1016948721
 30
0.0
 10
14.8338620093
 20
12.0973780811
 30
0.0
 10
14.8190206965
 20
12.092669496
 30
0.0
 10
14.8046126833
 20
12.0875743794
 30
0.0
 10
14.79065422
 20
12.0820984213
 30
0.0
 10
14.7771610537
 20
12.076247732
 30
0.0
 10
14.7641484133
 20
12.0700288346
 30
0.0
 10
14.7516309944
 20
12.0634486577
 30
0.0
 10
14.7396229463
 20
12.056514528
 30
0.0
 10
14.728137859
 20
12.049234163
 30
0.0
 10
14.7171887517
 20
12.0416156647
 30
0.0
 10
14.7067880612
 20
12.0336675134
 30
0.0
 10
14.6969476317
 20
12.0253985628
 30
0.0
 10
14.6876787031
 20
12.0168180354
 30
0.0
 10
14.6789918999
 20
12.00793552
 30
0.0
 10
14.6708972185
 20
11.9987609683
 30
0.0
 10
14.663404012
 20
11.9893046919
 30
0.0
 10
14.6565209756
 20
11.9795773628
 30
0.0
 10
14.6502561225
 20
11.9695899927
 30
0.0
 10
14.6446167825
 20
11.9593539843
 30
0.0
 10
14.639609512
 20
11.9488809016
 30
0.0
 10
14.6352403244
 20
11.9381832602
 30
0.0
 10
14.632754977
 20
11.9309059649
 30
0.0
 10
14.6316218347
 20
11.9272391093
 30
0.0
  0
SPLINE
  5
34C
100
AcDbEntity
  8
02___PRT_ALL_AXES
100
AcDbSpline
 62
7
  6
CONTINUOUS
 70
0
 71
3
 72
40
 73
36
 74
0
 42
0.0000001
 43
0.0000001
 44
0.0000000001
 40
0.0
 40
0.0
 40
0.0
 40
0.0
 40
0.0248034544
 40
0.0496642477
 40
0.0746390664
 40
0.0997833144
 40
0.1251505291
 40
0.1507918588
 40
0.1767556157
 40
0.20308691
 40
0.2298273675
 40
0.257014928
 40
0.2846837232
 40
0.31286402
 40
0.3271552555
 40
0.3415839415
 40
0.3708626345
 40
0.400720673
 40
0.4311732903
 40
0.4622322357
 40
0.4939059244
 40
0.5261995933
 40
0.5591154619
 40
0.5926528919
 40
0.6268085437
 40
0.6615765365
 40
0.6969485998
 40
0.7329142179
 40
0.7694607717
 40
0.8065736697
 40
0.8442364551
 40
0.8824310389
 40
0.9211374127
 40
0.9603348996
 40
1.0
 40
1.0
 40
1.0
 40
1.0
 10
14.775348716
 20
12.3923394614
 30
0.0
 10
14.776481863
 20
12.3960063155
 30
0.0
 10
14.7789672015
 20
12.4032836136
 30
0.0
 10
14.7833363916
 20
12.4139812543
 30
0.0
 10
14.7883436636
 20
12.4244543363
 30
0.0
 10
14.7939830056
 20
12.4346903439
 30
0.0
 10
14.8002478588
 20
12.4446777137
 30
0.0
 10
14.8071308938
 20
12.4544050434
 30
0.0
 10
14.8146240977
 20
12.4638613209
 30
0.0
 10
14.8227187794
 20
12.4730358743
 30
0.0
 10
14.8314055789
 20
12.481918385
 30
0.0
 10
14.8406745285
 20
12.4904989256
 30
0.0
 10
14.8505148832
 20
12.4987678209
 30
0.0
 10
14.8591414809
 20
12.5053602132
 30
0.0
 10
14.8663116849
 20
12.5104706373
 30
0.0
 10
14.873732577
 20
12.5155185279
 30
0.0
 10
14.8833498945
 20
12.5216149276
 30
0.0
 10
14.8953578556
 20
12.5285489971
 30
0.0
 10
14.9078753003
 20
12.5351291887
 30
0.0
 10
14.9208879345
 20
12.5413480811
 30
0.0
 10
14.9343811019
 20
12.5471987723
 30
0.0
 10
14.9483395634
 20
12.5526747315
 30
0.0
 10
14.962747576
 20
12.5577698493
 30
0.0
 10
14.9775888894
 20
12.5624784333
 30
0.0
 10
14.9928467663
 20
12.5667952231
 30
0.0
 10
15.0085040007
 20
12.570715391
 30
0.0
 10
15.0245429368
 20
12.5742345491
 30
0.0
 10
15.0409454877
 20
12.5773487552
 30
0.0
 10
15.057693156
 20
12.5800545179
 30
0.0
 10
15.0747670493
 20
12.5823487999
 30
0.0
 10
15.0921479176
 20
12.584229035
 30
0.0
 10
15.1098161159
 20
12.585693101
 30
0.0
 10
15.1277518041
 20
12.5867393827
 30
0.0
 10
15.1459345456
 20
12.5873666682
 30
0.0
 10
15.1581377867
 20
12.5875042951
 30
0.0
 10
15.164275342
 20
12.5875042951
 30
0.0
  0
SPLINE
  5
34D
100
AcDbEntity
  8
LAYER_CHAMFER_FEAT
100
AcDbSpline
 62
7
  6
CONTINUOUS
 70
0
 71
3
 72
52
 73
48
 74
0
 42
0.0000001
 43
0.0000001
 44
0.0000000001
 40
0.0
 40
0.0
 40
0.0
 40
0.0
 40
0.0106257597
 40
0.0212741625
 40
0.0319676172
 40
0.0427280619
 40
0.0535767517
 40
0.0645340728
 40
0.0756193518
 40
0.0868507558
 40
0.0982451248
 40
0.1098179616
 40
0.1215832982
 40
0.1335537455
 40
0.1457404142
 40
0.1581529801
 40
0.1836824686
 40
0.1968165838
 40
0.210201322
 40
0.2238396477
 40
0.2377332819
 40
0.2518828757
 40
0.2662879503
 40
0.2809470674
 40
0.2958577885
 40
0.3110168039
 40
0.3264199392
 40
0.342062222
 40
0.3579379455
 40
0.3903609674
 40
0.4236325403
 40
0.4576844048
 40
0.4924403207
 40
0.527817203
 40
0.5637261836
 40
0.6000736119
 40
0.636762008
 40
0.673690979
 40
0.7107581107
 40
0.74785984
 40
0.7848923178
 40
0.8217522668
 40
0.8583378584
 40
0.894549544
 40
0.9302911148
 40
0.9654701446
 40
1.0
 40
1.0
 40
1.0
 40
1.0
 10
14.9731857768
 20
11.8538677828
 30
0.0
 10
14.9727310006
 20
11.8523961123
 30
0.0
 10
14.9719034237
 20
11.849423266
 30
0.0
 10
14.97091337
 20
11.8448937865
 30
0.0
 10
14.9701750061
 20
11.8402966393
 30
0.0
 10
14.9696891494
 20
11.835636887
 30
0.0
 10
14.9694562241
 20
11.8309194162
 30
0.0
 10
14.9694764778
 20
11.8261492244
 30
0.0
 10
14.9697497616
 20
11.8213313309
 30
0.0
 10
14.9702758036
 20
11.8164708047
 30
0.0
 10
14.9710539044
 20
11.8115727244
 30
0.0
 10
14.9720832655
 20
11.8066422234
 30
0.0
 10
14.9733626814
 20
11.8016844157
 30
0.0
 10
14.9748908053
 20
11.7967045023
 30
0.0
 10
14.9766659972
 20
11.791707532
 30
0.0
 10
14.9793849706
 20
11.784966782
 30
0.0
 10
14.9825741633
 20
11.7782746897
 30
0.0
 10
14.9861954699
 20
11.771654188
 30
0.0
 10
14.9891725541
 20
11.7666501954
 30
0.0
 10
14.9923815876
 20
11.761660532
 30
0.0
 10
14.9958192531
 20
11.7566901521
 30
0.0
 10
14.9994819923
 20
11.7517442957
 30
0.0
 10
15.0033659456
 20
11.7468280365
 30
0.0
 10
15.0074671037
 20
11.7419465097
 30
0.0
 10
15.0117811684
 20
11.7371047529
 30
0.0
 10
15.0163036665
 20
11.7323078028
 30
0.0
 10
15.0210298805
 20
11.7275606446
 30
0.0
 10
15.025954914
 20
11.722868164
 30
0.0
 10
15.0328277767
 20
11.7166476674
 30
0.0
 10
15.0418902835
 20
11.7090441561
 30
0.0
 10
15.0533962084
 20
11.700278737
 30
0.0
 10
15.0655610331
 20
11.6918448989
 30
0.0
 10
15.0783341013
 20
11.6837777209
 30
0.0
 10
15.0916624834
 20
11.6761105891
 30
0.0
 10
15.1054908512
 20
11.6688753158
 30
0.0
 10
15.1197618038
 20
11.6621019242
 30
0.0
 10
15.1344160813
 20
11.6558185375
 30
0.0
 10
15.1493928207
 20
11.6500512504
 30
0.0
 10
15.1646298105
 20
11.6448240191
 30
0.0
 10
15.180063753
 20
11.6401585583
 30
0.0
 10
15.1956305317
 20
11.6360742499
 30
0.0
 10
15.2112654789
 20
11.6325880589
 30
0.0
 10
15.2269036575
 20
11.6297144696
 30
0.0
 10
15.242480104
 20
11.6274654086
 30
0.0
 10
15.2579302273
 20
11.6258502373
 30
0.0
 10
15.2731895468
 20
11.624875643
 30
0.0
 10
15.2832959201
 20
11.6246534485
 30
0.0
 10
15.2883014525
 20
11.6246534485
 30
0.0
  0
SPLINE
  5
34E
100
AcDbEntity
  8
02___PRT_ALL_AXES
100
AcDbSpline
 62
7
  6
CONTINUOUS
 70
0
 71
3
 72
71
 73
67
 74
0
 42
0.0000001
 43
0.0000001
 44
0.0000000001
 40
0.0
 40
0.0
 40
0.0
 40
0.0
 40
0.017178755
 40
0.0345304931
 40
0.0520444286
 40
0.0697101563
 40
0.0875164998
 40
0.1054521072
 40
0.1235053061
 40
0.1416641658
 40
0.1599165305
 40
0.1782500416
 40
0.1966521686
 40
0.2151102353
 40
0.2336114489
 40
0.2521429268
 40
0.270691724
 40
0.2892448589
 40
0.3077893411
 40
0.3263121984
 40
0.3448005034
 40
0.3632414003
 40
0.3816221318
 40
0.3999300672
 40
0.4181527303
 40
0.4362778266
 40
0.4542932712
 40
0.472187218
 40
0.4899480903
 40
0.5075646105
 40
0.5250258302
 40
0.5423211614
 40
0.5594404091
 40
0.5763738072
 40
0.5931120521
 40
0.6096463384
 40
0.6259683955
 40
0.6420705269
 40
0.6579456539
 40
0.6735873568
 40
0.688989918
 40
0.7041483687
 40
0.7190585371
 40
0.7337171023
 40
0.7481216463
 40
0.7622707062
 40
0.7761638315
 40
0.7898016416
 40
0.8031858871
 40
0.8163195076
 40
0.8292066876
 40
0.8418529114
 40
0.8542650143
 40
0.8664512305
 40
0.8784212278
 40
0.8901861312
 40
0.9017585323
 40
0.9131524821
 40
0.9243834625
 40
0.9354683321
 40
0.9464252429
 40
0.9572735304
 40
0.968033574
 40
0.9787266299
 40
0.9893746366
 40
1.0
 40
1.0
 40
1.0
 40
1.0
 10
15.164275342
 20
12.5875042951
 30
0.0
 10
15.1702323003
 20
12.5875042951
 30
0.0
 10
15.1822065833
 20
12.5873732187
 30
0.0
 10
15.2002455427
 20
12.5867908182
 30
0.0
 10
15.2184370477
 20
12.5858221784
 30
0.0
 10
15.2367619639
 20
12.5844683499
 30
0.0
 10
15.2552013267
 20
12.5827307145
 30
0.0
 10
15.273735907
 20
12.5806110905
 30
0.0
 10
15.2923464248
 20
12.5781116841
 30
0.0
 10
15.3110135081
 20
12.5752350989
 30
0.0
 10
15.3297177268
 20
12.5719843298
 30
0.0
 10
15.3484396121
 20
12.568362759
 30
0.0
 10
15.3671596754
 20
12.5643741535
 30
0.0
 10
15.3858584303
 20
12.5600226679
 30
0.0
 10
15.4045164122
 20
12.5553128335
 30
0.0
 10
15.4231141988
 20
12.5502495532
 30
0.0
 10
15.4416324297
 20
12.5448380966
 30
0.0
 10
15.4600518265
 20
12.5390840941
 30
0.0
 10
15.4783532154
 20
12.5329935379
 30
0.0
 10
15.4965175452
 20
12.52657277
 30
0.0
 10
15.5145259074
 20
12.5198284743
 30
0.0
 10
15.5323595552
 20
12.5127676704
 30
0.0
 10
15.5499999231
 20
12.5053977057
 30
0.0
 10
15.5674286493
 20
12.4977262538
 30
0.0
 10
15.584627593
 20
12.4897613016
 30
0.0
 10
15.601578852
 20
12.4815111396
 30
0.0
 10
15.6182647818
 20
12.472984354
 30
0.0
 10
15.6346680135
 20
12.4641898162
 30
0.0
 10
15.6507714757
 20
12.4551366807
 30
0.0
 10
15.6665584102
 20
12.4458343699
 30
0.0
 10
15.6820123877
 20
12.4362925631
 30
0.0
 10
15.6971173252
 20
12.4265211871
 30
0.0
 10
15.7118575022
 20
12.4165304045
 30
0.0
 10
15.7262175818
 20
12.4063306091
 30
0.0
 10
15.740182624
 20
12.3959324104
 30
0.0
 10
15.7537380992
 20
12.3853466209
 30
0.0
 10
15.766869903
 20
12.3745842455
 30
0.0
 10
15.7795643705
 20
12.3636564687
 30
0.0
 10
15.7918082957
 20
12.352574648
 30
0.0
 10
15.8035889425
 20
12.3413502981
 30
0.0
 10
15.8148940543
 20
12.3299950771
 30
0.0
 10
15.8257118669
 20
12.3185207752
 30
0.0
 10
15.8360311191
 20
12.3069393004
 30
0.0
 10
15.8458410704
 20
12.2952626713
 30
0.0
 10
15.8551315086
 20
12.2835030012
 30
0.0
 10
15.8638927555
 20
12.2716724834
 30
0.0
 10
15.8721156765
 20
12.2597833804
 30
0.0
 10
15.8797916871
 20
12.2478480099
 30
0.0
 10
15.8869127686
 20
12.2358787364
 30
0.0
 10
15.8934714715
 20
12.2238879572
 30
0.0
 10
15.8994609171
 20
12.2118880894
 30
0.0
 10
15.904874804
 20
12.1998915601
 30
0.0
 10
15.9097074112
 20
12.1879107948
 30
0.0
 10
15.9139536123
 20
12.1759582109
 30
0.0
 10
15.9176088771
 20
12.1640462068
 30
0.0
 10
15.9206692712
 20
12.152187152
 30
0.0
 10
15.9231314633
 20
12.1403933804
 30
0.0
 10
15.9249927287
 20
12.128677182
 30
0.0
 10
15.9262509676
 20
12.117050796
 30
0.0
 10
15.9269047094
 20
12.105526399
 30
0.0
 10
15.9269531171
 20
12.0941160985
 30
0.0
 10
15.926395994
 20
12.0828319073
 30
0.0
 10
15.925233806
 20
12.0716857805
 30
0.0
 10
15.9234676426
 20
12.0606894043
 30
0.0
 10
15.9210994346
 20
12.0498548894
 30
0.0
 10
15.9191198776
 20
12.0427438385
 30
0.0
 10
15.9180320405
 20
12.0392236067
 30
0.0
  0
SPLINE
  5
34F
100
AcDbEntity
  8
LAYER_CUT_FEAT
100
AcDbSpline
 62
7
  6
CONTINUOUS
 70
0
 71
3
 72
22
 73
18
 74
0
 42
0.0000001
 43
0.0000001
 44
0.0000000001
 40
0.0
 40
0.0
 40
0.0
 40
0.0
 40
0.1381197978
 40
0.2053664405
 40
0.2714549011
 40
0.3364371411
 40
0.4003725799
 40
0.4633278459
 40
0.5253764074
 40
0.5865986107
 40
0.6470813122
 40
0.7069174445
 40
0.7662054998
 40
0.8250488571
 40
0.883554961
 40
0.9418344168
 40
1.0
 40
1.0
 40
1.0
 40
1.0
 10
15.9702486712
 20
12.215781534
 30
0.0
 10
15.9744305034
 20
12.2072598559
 30
0.0
 10
15.9801927383
 20
12.1943554559
 30
0.0
 10
15.9867647494
 20
12.1768912942
 30
0.0
 10
15.9910381893
 20
12.1639445049
 30
0.0
 10
15.9946949227
 20
12.1510467039
 30
0.0
 10
15.9977314944
 20
12.1382098515
 30
0.0
 10
16.0001448272
 20
12.1254463218
 30
0.0
 10
16.0019324558
 20
12.1127683072
 30
0.0
 10
16.0030925323
 20
12.1001879907
 30
0.0
 10
16.0036238067
 20
12.0877174755
 30
0.0
 10
16.003525617
 20
12.0753687961
 30
0.0
 10
16.0027979208
 20
12.0631538911
 30
0.0
 10
16.0014413391
 20
12.0510846367
 30
0.0
 10
15.999457058
 20
12.0391726413
 30
0.0
 10
15.9968470543
 20
12.0274299431
 30
0.0
 10
15.9946905361
 20
12.0197183625
 30
0.0
 10
15.993510284
 20
12.0158990653
 30
0.0
  0
SPLINE
  5
350
100
AcDbEntity
  8
LAYER_CHAMFER_FEAT
100
AcDbSpline
 62
7
  6
CONTINUOUS
 70
0
 71
3
 72
39
 73
35
 74
0
 42
0.0000001
 43
0.0000001
 44
0.0000000001
 40
0.0
 40
0.0
 40
0.0
 40
0.0
 40
0.0248034972
 40
0.0496643314
 40
0.0746391968
 40
0.0997834827
 40
0.125150746
 40
0.1507921182
 40
0.1767559196
 40
0.203087265
 40
0.2298277574
 40
0.2570153763
 40
0.284684206
 40
0.3128645638
 40
0.3415828103
 40
0.3708615548
 40
0.4007196492
 40
0.4311723049
 40
0.4622313194
 40
0.4939050469
 40
0.5261987885
 40
0.5591147055
 40
0.5926521959
 40
0.6268079059
 40
0.6615759486
 40
0.6969480967
 40
0.7329137532
 40
0.7694603547
 40
0.8065733747
 40
0.8442363191
 40
0.8824305252
 40
0.9211370866
 40
0.9603361466
 40
1.0
 40
1.0
 40
1.0
 40
1.0
 10
15.4508961949
 20
11.7062440983
 30
0.0
 10
15.4504224767
 20
11.7047111309
 30
0.0
 10
15.4493834354
 20
11.7016687893
 30
0.0
 10
15.4475568734
 20
11.6971965224
 30
0.0
 10
15.445463513
 20
11.692818153
 30
0.0
 10
15.4431059453
 20
11.6885388766
 30
0.0
 10
15.4404868492
 20
11.684363561
 30
0.0
 10
15.4376093293
 20
11.6802969499
 30
0.0
 10
15.4344767212
 20
11.6763436539
 30
0.0
 10
15.4310926489
 20
11.6725081472
 30
0.0
 10
15.4274610544
 20
11.6687947084
 30
0.0
 10
15.4235860716
 20
11.6652075462
 30
0.0
 10
15.4194721909
 20
11.6617506129
 30
0.0
 10
15.415124068
 20
11.6584278184
 30
0.0
 10
15.4105466859
 20
11.6552428218
 30
0.0
 10
15.405745228
 20
11.6521991906
 30
0.0
 10
15.4007251378
 20
11.6493003138
 30
0.0
 10
15.3954921087
 20
11.6465493916
 30
0.0
 10
15.3900520354
 20
11.6439495334
 30
0.0
 10
15.3844110855
 20
11.6415035775
 30
0.0
 10
15.3785756031
 20
11.6392143106
 30
0.0
 10
15.3725521889
 20
11.6370842368
 30
0.0
 10
15.3663476261
 20
11.6351157673
 30
0.0
 10
15.3599689149
 20
11.6333110924
 30
0.0
 10
15.35342325
 20
11.6316722163
 30
0.0
 10
15.3467180069
 20
11.6302010104
 30
0.0
 10
15.3398607569
 20
11.6288990708
 30
0.0
 10
15.3328592202
 20
11.627767911
 30
0.0
 10
15.3257212974
 20
11.6268087538
 30
0.0
 10
15.318455066
 20
11.6260227135
 30
0.0
 10
15.3110687114
 20
11.6254106353
 30
0.0
 10
15.3035704377
 20
11.624973218
 30
0.0
 10
15.2959689363
 20
11.6247110026
 30
0.0
 10
15.290867235
 20
11.6246534485
 30
0.0
 10
15.2883014525
 20
11.6246534485
 30
0.0
  0
SPLINE
  5
351
100
AcDbEntity
  8
LAYER_FEATURE
100
AcDbSpline
 62
7
  6
CONTINUOUS
 70
0
 71
3
 72
14
 73
10
 74
0
 42
0.0000001
 43
0.0000001
 44
0.0000000001
 40
0.0
 40
0.0
 40
0.0
 40
0.0
 40
0.1389507986
 40
0.2736300338
 40
0.4041486832
 40
0.5306426616
 40
0.653275383
 40
0.7722398886
 40
1.0
 40
1.0
 40
1.0
 40
1.0
 10
15.8261944209
 20
11.846849752
 30
0.0
 10
15.8256469063
 20
11.8461938042
 30
0.0
 10
15.8245450716
 20
11.8449215414
 30
0.0
 10
15.8228450402
 20
11.8431079468
 30
0.0
 10
15.8211251469
 20
11.8414206995
 30
0.0
 10
15.8193868492
 20
11.8398612795
 30
0.0
 10
15.8176313469
 20
11.8384308846
 30
0.0
 10
15.8153042208
 20
11.836722613
 30
0.0
 10
15.8134858668
 20
11.8355979365
 30
0.0
 10
15.8122516938
 20
11.8349359105
 30
0.0
  0
SPLINE
  5
352
100
AcDbEntity
  8
02___PRT_ALL_AXES
100
AcDbSpline
 62
7
  6
CONTINUOUS
 70
0
 71
3
 72
23
 73
19
 74
0
 42
0.0000001
 43
0.0000001
 44
0.0000000001
 40
0.0
 40
0.0
 40
0.0
 40
0.0
 40
0.0670063996
 40
0.1333070846
 40
0.1989126647
 40
0.2638393033
 40
0.3281083502
 40
0.3917448563
 40
0.4547765681
 40
0.5172330113
 40
0.5791447954
 40
0.6405431214
 40
0.7014597013
 40
0.7619268092
 40
0.8219778179
 40
0.8816478381
 40
0.9409746815
 40
1.0
 40
1.0
 40
1.0
 40
1.0
 10
15.1358930656
 20
12.4956592149
 30
0.0
 10
15.1389573171
 20
12.4956592149
 30
0.0
 10
15.1450554314
 20
12.4954669734
 30
0.0
 10
15.1541159552
 20
12.4945929982
 30
0.0
 10
15.1630060971
 20
12.4931407048
 30
0.0
 10
15.1716890694
 20
12.4911195991
 30
0.0
 10
15.1801296391
 20
12.4885427378
 30
0.0
 10
15.1882936396
 20
12.4854263994
 30
0.0
 10
15.1961483425
 20
12.4817897607
 30
0.0
 10
15.203662514
 20
12.4776545265
 30
0.0
 10
15.2108064691
 20
12.4730445787
 30
0.0
 10
15.2175520532
 20
12.4679856402
 30
0.0
 10
15.2238725833
 20
12.4625049937
 30
0.0
 10
15.2297427802
 20
12.4566312204
 30
0.0
 10
15.2351386559
 20
12.4503940812
 30
0.0
 10
15.2400375659
 20
12.4438241461
 30
0.0
 10
15.2444177503
 20
12.4369535758
 30
0.0
 10
15.2469850748
 20
12.4321821945
 30
0.0
 10
15.2481742165
 20
12.4297589725
 30
0.0
  0
SPLINE
  5
353
100
AcDbEntity
  8
LAYER_FEATURE
100
AcDbSpline
 62
7
  6
CONTINUOUS
 70
0
 71
3
 72
59
 73
55
 74
0
 42
0.0000001
 43
0.0000001
 44
0.0000000001
 40
0.0
 40
0.0
 40
0.0
 40
0.0
 40
0.0146673631
 40
0.0291016347
 40
0.043310644
 40
0.0573073437
 40
0.0711061535
 40
0.0847243347
 40
0.098181653
 40
0.1115001014
 40
0.1247037496
 40
0.1378184185
 40
0.1508713164
 40
0.1638906358
 40
0.1769051125
 40
0.1899435612
 40
0.2030344095
 40
0.2162052461
 40
0.2294823944
 40
0.2428905433
 40
0.2564524306
 40
0.2701885765
 40
0.2841170772
 40
0.2982534834
 40
0.3126107215
 40
0.3271990474
 40
0.3420260572
 40
0.3570967525
 40
0.3879676578
 40
0.4037746336
 40
0.4198210588
 40
0.4525967021
 40
0.4693147649
 40
0.4862352074
 40
0.5206219165
 40
0.5380640574
 40
0.5556475743
 40
0.5911602314
 40
0.6270135735
 40
0.6630464778
 40
0.6990933487
 40
0.7349882413
 40
0.7705689943
 40
0.8056813778
 40
0.8230201258
 40
0.8401897814
 40
0.8739557068
 40
0.8905326488
 40
0.9068883596
 40
0.9388936283
 40
0.9545389358
 40
0.969938323
 40
0.9850919771
 40
1.0
 40
1.0
 40
1.0
 40
1.0
 10
14.9753509861
 20
12.3671936017
 30
0.0
 10
14.9748355975
 20
12.3655258035
 30
0.0
 10
14.9738992817
 20
12.3621892498
 30
0.0
 10
14.9727779993
 20
12.3571555553
 30
0.0
 10
14.9719540783
 20
12.3521453252
 30
0.0
 10
14.9714295911
 20
12.3471709138
 30
0.0
 10
14.971205929
 20
12.3422441821
 30
0.0
 10
14.9712837181
 20
12.3373770724
 30
0.0
 10
14.9716628625
 20
12.3325813591
 30
0.0
 10
14.9723425617
 20
12.3278686764
 30
0.0
 10
14.973321253
 20
12.3232504849
 30
0.0
 10
14.974596615
 20
12.3187380295
 30
0.0
 10
14.9761656005
 20
12.3143423152
 30
0.0
 10
14.9780244385
 20
12.3100740795
 30
0.0
 10
14.9801686002
 20
12.3059437392
 30
0.0
 10
14.982592837
 20
12.3019613613
 30
0.0
 10
14.9852912152
 20
12.2981366421
 30
0.0
 10
14.9882571311
 20
12.2944788817
 30
0.0
 10
14.9914832978
 20
12.290996927
 30
0.0
 10
14.9949618095
 20
12.2876991749
 30
0.0
 10
14.9986841696
 20
12.2845935612
 30
0.0
 10
15.0026413055
 20
12.2816875394
 30
0.0
 10
15.0068235772
 20
12.278988038
 30
0.0
 10
15.0112208291
 20
12.2765014878
 30
0.0
 10
15.01582243
 20
12.2742338082
 30
0.0
 10
15.0206172084
 20
12.272190395
 30
0.0
 10
15.0255937645
 20
12.2703760316
 30
0.0
 10
15.0325095457
 20
12.2682513573
 30
0.0
 10
15.0396903953
 20
12.2666254371
 30
0.0
 10
15.0470700804
 20
12.2654871158
 30
0.0
 10
15.0547195406
 20
12.2646603617
 30
0.0
 10
15.0625244508
 20
12.2643391906
 30
0.0
 10
15.0704285643
 20
12.2645052006
 30
0.0
 10
15.0785109798
 20
12.2650044705
 30
0.0
 10
15.0866424089
 20
12.2659983174
 30
0.0
 10
15.0947735089
 20
12.2674660044
 30
0.0
 10
15.1029749674
 20
12.2692665902
 30
0.0
 10
15.113182648
 20
12.272110529
 30
0.0
 10
15.1252264224
 20
12.2764229591
 30
0.0
 10
15.1369918904
 20
12.2816055411
 30
0.0
 10
15.1483661283
 20
12.2876085265
 30
0.0
 10
15.1592405831
 20
12.2943746774
 30
0.0
 10
15.1695108594
 20
12.3018390722
 30
0.0
 10
15.1775187691
 20
12.3086113305
 30
0.0
 10
15.1835310008
 20
12.3143156022
 30
0.0
 10
15.1892060792
 20
12.3201331114
 30
0.0
 10
15.1944756871
 20
12.3262124244
 30
0.0
 10
15.199292172
 20
12.3325248163
 30
0.0
 10
15.2037162935
 20
12.338863887
 30
0.0
 10
15.2076676114
 20
12.3453909628
 30
0.0
 10
15.2110963751
 20
12.3520680799
 30
0.0
 10
15.2133724169
 20
12.3570756257
 30
0.0
 10
15.2153662214
 20
12.3621076264
 30
0.0
 10
15.2165135459
 20
12.3654984385
 30
0.0
 10
15.217037391
 20
12.3671936017
 30
0.0
  0
SPLINE
  5
354
100
AcDbEntity
  8
02___PRT_ALL_AXES
100
AcDbSpline
 62
7
  6
CONTINUOUS
 70
0
 71
3
 72
23
 73
19
 74
0
 42
0.0000001
 43
0.0000001
 44
0.0000000001
 40
0.0
 40
0.0
 40
0.0
 40
0.0
 40
0.0501586043
 40
0.1022791532
 40
0.156355206
 40
0.2123582206
 40
0.2702361932
 40
0.3299178563
 40
0.3913141612
 40
0.4543206636
 40
0.5188193948
 40
0.5846805244
 40
0.6517638693
 40
0.7199200081
 40
0.7889910564
 40
0.858811353
 40
0.9292077757
 40
1.0
 40
1.0
 40
1.0
 40
1.0
 10
15.8691025762
 20
12.1239364539
 30
0.0
 10
15.8700600723
 20
12.1219852821
 30
0.0
 10
15.871882875
 20
12.1179418972
 30
0.0
 10
15.8742983222
 20
12.111608345
 30
0.0
 10
15.876441754
 20
12.1049113655
 30
0.0
 10
15.8783093588
 20
12.0978743366
 30
0.0
 10
15.8798996933
 20
12.090521128
 30
0.0
 10
15.8812133994
 20
12.0828765786
 30
0.0
 10
15.8822531329
 20
12.07496605
 30
0.0
 10
15.8830234257
 20
12.066815311
 30
0.0
 10
15.8835305228
 20
12.0584503541
 30
0.0
 10
15.8837822101
 20
12.0498972732
 30
0.0
 10
15.883787637
 20
12.041182174
 30
0.0
 10
15.8835571388
 20
12.0323311257
 30
0.0
 10
15.8831020603
 20
12.0233701557
 30
0.0
 10
15.8824345899
 20
12.0143252577
 30
0.0
 10
15.8815676144
 20
12.0052225047
 30
0.0
 10
15.8808669143
 20
11.99914441
 30
0.0
 10
15.8804874945
 20
11.9961004335
 30
0.0
  0
SPLINE
  5
355
100
AcDbEntity
  8
02___PRT_ALL_AXES
100
AcDbSpline
 62
7
  6
CONTINUOUS
 70
0
 71
3
 72
36
 73
32
 74
0
 42
0.0000001
 43
0.0000001
 44
0.0000000001
 40
0.0
 40
0.0
 40
0.0
 40
0.0
 40
0.0980035943
 40
0.1914073309
 40
0.2800260465
 40
0.3224923782
 40
0.3637079485
 40
0.4036586807
 40
0.4423336696
 40
0.4797243287
 40
0.5158245474
 40
0.5506319236
 40
0.5841464703
 40
0.6163723161
 40
0.6473173419
 40
0.6769933897
 40
0.7054177892
 40
0.7326127005
 40
0.7586068135
 40
0.7834359063
 40
0.8071434122
 40
0.8297823834
 40
0.851415841
 40
0.8721184605
 40
0.8919777358
 40
0.9110944777
 40
0.9295836385
 40
0.9475736508
 40
0.9652051377
 40
0.9826284205
 40
1.0
 40
1.0
 40
1.0
 40
1.0
 10
15.8541427923
 20
11.8807110565
 30
0.0
 10
15.8534868822
 20
11.8788010373
 30
0.0
 10
15.8521760338
 20
11.8750807723
 30
0.0
 10
15.8501593824
 20
11.8696739573
 30
0.0
 10
15.8484536484
 20
11.8653735559
 30
0.0
 10
15.8470853545
 20
11.8620972201
 30
0.0
 10
15.8460736012
 20
11.8597590286
 30
0.0
 10
15.8450617849
 20
11.8575062373
 30
0.0
 10
15.8440499085
 20
11.8553401527
 30
0.0
 10
15.8430379431
 20
11.8532620032
 30
0.0
 10
15.8420258158
 20
11.8512729416
 30
0.0
 10
15.8410134112
 20
11.8493740605
 30
0.0
 10
15.8400005733
 20
11.8475663736
 30
0.0
 10
15.8389871119
 20
11.845850835
 30
0.0
 10
15.8379728018
 20
11.8442283321
 30
0.0
 10
15.8369573765
 20
11.842699692
 30
0.0
 10
15.8359405538
 20
11.8412656793
 30
0.0
 10
15.8349220011
 20
11.839927007
 30
0.0
 10
15.8339013694
 20
11.8386843321
 30
0.0
 10
15.8328782841
 20
11.8375382592
 30
0.0
 10
15.8318523211
 20
11.8364893663
 30
0.0
 10
15.8308230646
 20
11.8355381708
 30
0.0
 10
15.8297900473
 20
11.8346851859
 30
0.0
 10
15.8287527987
 20
11.8339309026
 30
0.0
 10
15.8277108578
 20
11.8332757846
 30
0.0
 10
15.8266637493
 20
11.832720343
 30
0.0
 10
15.8256110698
 20
11.8322650362
 30
0.0
 10
15.8245524718
 20
11.8319103469
 30
0.0
 10
15.82348766
 20
11.8316567259
 30
0.0
 10
15.8224166
 20
11.8315044979
 30
0.0
 10
15.8216991374
 20
11.8314708426
 30
0.0
 10
15.8213411714
 20
11.8314708444
 30
0.0
  0
SPLINE
  5
356
100
AcDbEntity
  8
LAYER_FEATURE
100
AcDbSpline
 62
7
  6
CONTINUOUS
 70
0
 71
3
 72
15
 73
11
 74
0
 42
0.0000001
 43
0.0000001
 44
0.0000000001
 40
0.0
 40
0.0
 40
0.0
 40
0.0
 40
0.1101290098
 40
0.2236721042
 40
0.3411285998
 40
0.4629300354
 40
0.5894429355
 40
0.7209704323
 40
0.857758721
 40
1.0
 40
1.0
 40
1.0
 40
1.0
 10
15.8086291352
 20
12.1576708008
 30
0.0
 10
15.8093981277
 20
12.1573757936
 30
0.0
 10
15.8109355032
 20
12.1567110155
 30
0.0
 10
15.813193245
 20
12.1555180753
 30
0.0
 10
15.8154318951
 20
12.1541173271
 30
0.0
 10
15.8176484824
 20
12.152510907
 30
0.0
 10
15.8198403081
 20
12.1507009825
 30
0.0
 10
15.8220047145
 20
12.1486900197
 30
0.0
 10
15.8241389524
 20
12.1464807018
 30
0.0
 10
15.8255127413
 20
12.1449086218
 30
0.0
 10
15.8261944213
 20
12.1440919315
 30
0.0
  0
SPLINE
  5
357
100
AcDbEntity
  8
02___PRT_ALL_AXES
100
AcDbSpline
 62
7
  6
CONTINUOUS
 70
0
 71
3
 72
24
 73
20
 74
0
 42
0.0000001
 43
0.0000001
 44
0.0000000001
 40
0.0
 40
0.0
 40
0.0
 40
0.0
 40
0.0558686677
 40
0.1116840249
 40
0.1676622757
 40
0.224021945
 40
0.2809807542
 40
0.33875247
 40
0.3975437282
 40
0.4575511162
 40
0.5189585414
 40
0.5819350481
 40
0.6466330805
 40
0.7131874456
 40
0.7472013618
 40
0.7817207795
 40
0.8523145255
 40
0.9250578743
 40
1.0
 40
1.0
 40
1.0
 40
1.0
 10
15.8213411716
 20
12.159470837
 30
0.0
 10
15.8225113624
 20
12.1594708339
 30
0.0
 10
15.824851769
 20
12.159375988
 30
0.0
 10
15.8283409763
 20
12.1589468425
 30
0.0
 10
15.8317936353
 20
12.1582313483
 30
0.0
 10
15.8351994026
 20
12.1572302016
 30
0.0
 10
15.8385484928
 20
12.1559445761
 30
0.0
 10
15.8418312782
 20
12.1543762188
 30
0.0
 10
15.8450384323
 20
12.152527357
 30
0.0
 10
15.848160942
 20
12.1504007491
 30
0.0
 10
15.8511902093
 20
12.1479997722
 30
0.0
 10
15.8541180421
 20
12.1453283007
 30
0.0
 10
15.8569366247
 20
12.1423908521
 30
0.0
 10
15.8591721127
 20
12.1397448391
 30
0.0
 10
15.860899845
 20
12.1375036981
 30
0.0
 10
15.8626110015
 20
12.1351444843
 30
0.0
 10
15.864667645
 20
12.132035846
 30
0.0
 10
15.8669824219
 20
12.128090957
 30
0.0
 10
15.86841106
 20
12.1253456158
 30
0.0
 10
15.8691025762
 20
12.1239364539
 30
0.0
  0
SPLINE
  5
358
100
AcDbEntity
  8
LAYER_FEATURE
100
AcDbSpline
 62
7
  6
CONTINUOUS
 70
0
 71
3
 72
33
 73
29
 74
0
 42
0.0000001
 43
0.0000001
 44
0.0000000001
 40
0.0
 40
0.0
 40
0.0
 40
0.0
 40
0.0272331972
 40
0.0549143629
 40
0.0830449872
 40
0.1116247167
 40
0.1700895944
 40
0.1999670264
 40
0.2302485818
 40
0.2609145475
 40
0.2919423041
 40
0.3233065918
 40
0.3549797593
 40
0.3869320196
 40
0.4191317082
 40
0.4841280464
 40
0.5168649392
 40
0.5497087141
 40
0.6155565227
 40
0.6484950384
 40
0.681389179
 40
0.7468834648
 40
0.7794204595
 40
0.811766231
 40
0.8757372686
 40
0.9073100825
 40
0.9385641472
 40
1.0
 40
1.0
 40
1.0
 40
1.0
 10
14.9551455587
 20
12.3468047948
 30
0.0
 10
14.9558003723
 20
12.3489237723
 30
0.0
 10
14.9572345144
 20
12.3531622811
 30
0.0
 10
14.9597267854
 20
12.3594522765
 30
0.0
 10
14.9625718264
 20
12.3657116911
 30
0.0
 10
14.9668577823
 20
12.3740580876
 30
0.0
 10
14.9717969543
 20
12.3822169896
 30
0.0
 10
14.9773270277
 20
12.3901406994
 30
0.0
 10
14.9818153341
 20
12.3960229822
 30
0.0
 10
14.986602749
 20
12.4017863977
 30
0.0
 10
14.9916779175
 20
12.407417379
 30
0.0
 10
14.9970285906
 20
12.4129023402
 30
0.0
 10
15.0026418715
 20
12.4182281006
 30
0.0
 10
15.0085043847
 20
12.423381977
 30
0.0
 10
15.0166587651
 20
12.4300278487
 30
0.0
 10
15.0252274522
 20
12.4362555777
 30
0.0
 10
15.034154993
 20
12.442036631
 30
0.0
 10
15.0433429087
 20
12.4475307486
 30
0.0
 10
15.052832821
 20
12.4525392481
 30
0.0
 10
15.0625706876
 20
12.4570354651
 30
0.0
 10
15.072435233
 20
12.4611725434
 30
0.0
 10
15.0824837829
 20
12.4647705396
 30
0.0
 10
15.0926613261
 20
12.4678031135
 30
0.0
 10
15.1028225414
 20
12.4704311894
 30
0.0
 10
15.1130458871
 20
12.4724809985
 30
0.0
 10
15.1232728316
 20
12.4739262626
 30
0.0
 10
15.133342357
 20
12.4749515248
 30
0.0
 10
15.1408951578
 20
12.4752704079
 30
0.0
 10
15.1458984388
 20
12.4752704079
 30
0.0
  0
SPLINE
  5
359
100
AcDbEntity
  8
LAYER_FEATURE
100
AcDbSpline
 62
7
  6
CONTINUOUS
 70
0
 71
3
 72
24
 73
20
 74
0
 42
0.0000001
 43
0.0000001
 44
0.0000000001
 40
0.0
 40
0.0
 40
0.0
 40
0.0
 40
0.1399856981
 40
0.2083457816
 40
0.2755587638
 40
0.341604927
 40
0.4064785449
 40
0.4701876485
 40
0.5327550598
 40
0.5942188177
 40
0.6546325485
 40
0.7140655451
 40
0.7726025459
 40
0.8303431398
 40
0.8874007526
 40
0.9157170581
 40
0.9439107187
 40
0.9719990881
 40
1.0
 40
1.0
 40
1.0
 40
1.0
 10
15.1458984388
 20
12.4752704079
 30
0.0
 10
15.1513127343
 20
12.4752704079
 30
0.0
 10
15.1593789967
 20
12.4749019307
 30
0.0
 10
15.1699632593
 20
12.4736237195
 30
0.0
 10
15.1776510981
 20
12.4722947447
 30
0.0
 10
15.1851265
 20
12.4705918681
 30
0.0
 10
15.1923675937
 20
12.4685200241
 30
0.0
 10
15.1993527258
 20
12.4660852384
 30
0.0
 10
15.2060610979
 20
12.4632946058
 30
0.0
 10
15.2124726698
 20
12.4601562701
 30
0.0
 10
15.2185682585
 20
12.456679405
 30
0.0
 10
15.224329561
 20
12.4528742183
 30
0.0
 10
15.2297392789
 20
12.4487518502
 30
0.0
 10
15.2347809268
 20
12.4443246671
 30
0.0
 10
15.2386732506
 20
12.4403816141
 30
0.0
 10
15.2415839085
 20
12.4370908181
 30
0.0
 10
15.2436607199
 20
12.43456133
 30
0.0
 10
15.2456350288
 20
12.4319664624
 30
0.0
 10
15.246883669
 20
12.4301917035
 30
0.0
 10
15.2474901092
 20
12.4292944131
 30
0.0
  0
SPLINE
  5
35A
100
AcDbEntity
  8
LAYER_FEATURE
100
AcDbSpline
 62
7
  6
CONTINUOUS
 70
0
 71
3
 72
59
 73
55
 74
0
 42
0.0000001
 43
0.0000001
 44
0.0000000001
 40
0.0
 40
0.0
 40
0.0
 40
0.0
 40
0.0149080229
 40
0.030061677
 40
0.0454610642
 40
0.0611063717
 40
0.0931116404
 40
0.1094673512
 40
0.1260442932
 40
0.1598102186
 40
0.1769798742
 40
0.1943186222
 40
0.2294310057
 40
0.2650117587
 40
0.3009066513
 40
0.3369535222
 40
0.3729864265
 40
0.4088397686
 40
0.4443524257
 40
0.4619359426
 40
0.4793780835
 40
0.5137647926
 40
0.5306852351
 40
0.5474032979
 40
0.5801789412
 40
0.5962253664
 40
0.6120323422
 40
0.6429032475
 40
0.6579739428
 40
0.6728009526
 40
0.6873892785
 40
0.7017465166
 40
0.7158829228
 40
0.7298114235
 40
0.7435475694
 40
0.7571094567
 40
0.7705176056
 40
0.7837947539
 40
0.7969655905
 40
0.8100564388
 40
0.8230948875
 40
0.8361093642
 40
0.8491286836
 40
0.8621815815
 40
0.8752962504
 40
0.8884998986
 40
0.901818347
 40
0.9152756653
 40
0.9288938465
 40
0.9426926563
 40
0.956689356
 40
0.9708983653
 40
0.9853326369
 40
1.0
 40
1.0
 40
1.0
 40
1.0
 10
14.9753509861
 20
12.3671936017
 30
0.0
 10
14.9758748312
 20
12.368888765
 30
0.0
 10
14.9770221557
 20
12.372279577
 30
0.0
 10
14.9790159602
 20
12.3773115778
 30
0.0
 10
14.981292002
 20
12.3823191236
 30
0.0
 10
14.9847207657
 20
12.3889962407
 30
0.0
 10
14.9886720836
 20
12.3955233164
 30
0.0
 10
14.9930962051
 20
12.4018623871
 30
0.0
 10
14.99791269
 20
12.4081747791
 30
0.0
 10
15.0031822979
 20
12.4142540921
 30
0.0
 10
15.0088573763
 20
12.4200716013
 30
0.0
 10
15.014869608
 20
12.425775873
 30
0.0
 10
15.0228775177
 20
12.4325481312
 30
0.0
 10
15.033147794
 20
12.440012526
 30
0.0
 10
15.0440222487
 20
12.446778677
 30
0.0
 10
15.0553964867
 20
12.4527816624
 30
0.0
 10
15.0671619547
 20
12.4579642443
 30
0.0
 10
15.0792057291
 20
12.4622766744
 30
0.0
 10
15.0894134096
 20
12.4651206133
 30
0.0
 10
15.0976148682
 20
12.4669211991
 30
0.0
 10
15.1057459681
 20
12.4683888861
 30
0.0
 10
15.1138773972
 20
12.469382733
 30
0.0
 10
15.1219598128
 20
12.4698820029
 30
0.0
 10
15.1298639263
 20
12.4700480129
 30
0.0
 10
15.1376688364
 20
12.4697268418
 30
0.0
 10
15.1453182966
 20
12.4689000877
 30
0.0
 10
15.1526979818
 20
12.4677617663
 30
0.0
 10
15.1598788314
 20
12.4661358461
 30
0.0
 10
15.1667946126
 20
12.4640111718
 30
0.0
 10
15.1717711687
 20
12.4621968085
 30
0.0
 10
15.1765659471
 20
12.4601533952
 30
0.0
 10
15.181167548
 20
12.4578857157
 30
0.0
 10
15.1855647999
 20
12.4553991654
 30
0.0
 10
15.1897470716
 20
12.4526996641
 30
0.0
 10
15.1937042075
 20
12.4497936422
 30
0.0
 10
15.1974265676
 20
12.4466880286
 30
0.0
 10
15.2009050793
 20
12.4433902765
 30
0.0
 10
15.204131246
 20
12.4399083218
 30
0.0
 10
15.2070971619
 20
12.4362505614
 30
0.0
 10
15.2097955401
 20
12.4324258422
 30
0.0
 10
15.2122197769
 20
12.4284434642
 30
0.0
 10
15.2143639386
 20
12.4243131239
 30
0.0
 10
15.2162227766
 20
12.4200448882
 30
0.0
 10
15.2177917621
 20
12.415649174
 30
0.0
 10
15.2190671241
 20
12.4111367185
 30
0.0
 10
15.2200458153
 20
12.4065185271
 30
0.0
 10
15.2207255146
 20
12.4018058444
 30
0.0
 10
15.2211046589
 20
12.397010131
 30
0.0
 10
15.2211824481
 20
12.3921430213
 30
0.0
 10
15.220958786
 20
12.3872162896
 30
0.0
 10
15.2204342988
 20
12.3822418782
 30
0.0
 10
15.2196103778
 20
12.3772316482
 30
0.0
 10
15.2184890954
 20
12.3721979536
 30
0.0
 10
15.2175527796
 20
12.3688614
 30
0.0
 10
15.217037391
 20
12.3671936017
 30
0.0
  0
SPLINE
  5
35B
100
AcDbEntity
  8
LAYER_FEATURE
100
AcDbSpline
 62
7
  6
CONTINUOUS
 70
0
 71
3
 72
39
 73
35
 74
0
 42
0.0000001
 43
0.0000001
 44
0.0000000001
 40
0.0
 40
0.0
 40
0.0
 40
0.0
 40
0.0475541037
 40
0.093823212
 40
0.1387503374
 40
0.182294825
 40
0.2244199762
 40
0.2650935667
 40
0.3042918272
 40
0.3419989001
 40
0.3782079062
 40
0.4129223347
 40
0.4461570225
 40
0.4779402622
 40
0.5083149268
 40
0.5373408024
 40
0.5650965168
 40
0.5916812141
 40
0.6172166643
 40
0.6418477184
 40
0.6657424174
 40
0.6890900571
 40
0.7120972824
 40
0.7349824428
 40
0.7579681852
 40
0.7812735818
 40
0.8051067121
 40
0.8296587938
 40
0.8550999193
 40
0.8815773811
 40
0.9092150023
 40
0.9381141223
 40
0.9683553441
 40
1.0
 40
1.0
 40
1.0
 40
1.0
 10
15.7893822063
 20
12.0770260685
 30
0.0
 10
15.789818571
 20
12.0784381454
 30
0.0
 10
15.7907127965
 20
12.0812140062
 30
0.0
 10
15.7921393274
 20
12.0852840278
 30
0.0
 10
15.7936307679
 20
12.0891977098
 30
0.0
 10
15.7951844497
 20
12.0929481103
 30
0.0
 10
15.7967976794
 20
12.0965288342
 30
0.0
 10
15.7984677156
 20
12.0999336628
 30
0.0
 10
15.8001916308
 20
12.1031567045
 30
0.0
 10
15.8019664829
 20
12.1061923904
 30
0.0
 10
15.8037892387
 20
12.1090354842
 30
0.0
 10
15.8056567786
 20
12.1116810972
 30
0.0
 10
15.8075659903
 20
12.1141246465
 30
0.0
 10
15.8095136458
 20
12.1163619387
 30
0.0
 10
15.8114965521
 20
12.1183890714
 30
0.0
 10
15.8135114617
 20
12.120202484
 30
0.0
 10
15.8155550889
 20
12.1217989447
 30
0.0
 10
15.8176241633
 20
12.1231754426
 30
0.0
 10
15.8197152771
 20
12.1243293242
 30
0.0
 10
15.8218249646
 20
12.1252581162
 30
0.0
 10
15.8239495442
 20
12.1259596768
 30
0.0
 10
15.8260850997
 20
12.1264322497
 30
0.0
 10
15.8282274745
 20
12.1266744623
 30
0.0
 10
15.8303722884
 20
12.1266856682
 30
0.0
 10
15.8325150914
 20
12.1264657812
 30
0.0
 10
15.8346514935
 20
12.1260154716
 30
0.0
 10
15.8367773153
 20
12.1253360203
 30
0.0
 10
15.8388885994
 20
12.1244291219
 30
0.0
 10
15.8409816787
 20
12.1232969534
 30
0.0
 10
15.8430530257
 20
12.1219418792
 30
0.0
 10
15.8450992638
 20
12.1203666007
 30
0.0
 10
15.8471171133
 20
12.1185740491
 30
0.0
 10
15.8491032037
 20
12.1165674979
 30
0.0
 10
15.850374692
 20
12.1151227607
 30
0.0
 10
15.8510049175
 20
12.1143677141
 30
0.0
  0
SPLINE
  5
35C
100
AcDbEntity
  8
02___PRT_ALL_AXES
100
AcDbSpline
 62
7
  6
CONTINUOUS
 70
0
 71
3
 72
71
 73
67
 74
0
 42
0.0000001
 43
0.0000001
 44
0.0000000001
 40
0.0
 40
0.0
 40
0.0
 40
0.0
 40
0.0171788541
 40
0.0345304381
 40
0.0520444461
 40
0.0697101519
 40
0.0875165
 40
0.1054521073
 40
0.1235053052
 40
0.1416641654
 40
0.1599165303
 40
0.1782500416
 40
0.1966521683
 40
0.2151102349
 40
0.2336114486
 40
0.2521429267
 40
0.2706917238
 40
0.2892448586
 40
0.3077893409
 40
0.3263121983
 40
0.3448005032
 40
0.3632413998
 40
0.3816221313
 40
0.3999300671
 40
0.4181527304
 40
0.4362778264
 40
0.4542932706
 40
0.4721872175
 40
0.4899480903
 40
0.5075646108
 40
0.5250258302
 40
0.5423211608
 40
0.5594404088
 40
0.5763738076
 40
0.5931120529
 40
0.6096463387
 40
0.625968395
 40
0.6420705267
 40
0.6579456546
 40
0.6735873578
 40
0.6889899185
 40
0.7041483682
 40
0.7190585368
 40
0.733717103
 40
0.7481216473
 40
0.7622707065
 40
0.7761638309
 40
0.7898016411
 40
0.8031858875
 40
0.8163195084
 40
0.8292066878
 40
0.8418529106
 40
0.8542650137
 40
0.8664512307
 40
0.8784212283
 40
0.8901861313
 40
0.9017585317
 40
0.9131524815
 40
0.9243834625
 40
0.9354683324
 40
0.9464252429
 40
0.95727353
 40
0.9680335737
 40
0.9787266298
 40
0.9893746366
 40
1.0
 40
1.0
 40
1.0
 40
1.0
 10
15.0205484625
 20
12.1224039425
 30
0.0
 10
15.0265054551
 20
12.1224039425
 30
0.0
 10
15.0384797192
 20
12.1222728721
 30
0.0
 10
15.0565186844
 20
12.121690461
 30
0.0
 10
15.0747101541
 20
12.1207218331
 30
0.0
 10
15.0930350889
 20
12.1193679962
 30
0.0
 10
15.1114744457
 20
12.1176303618
 30
0.0
 10
15.1300090274
 20
12.1155107386
 30
0.0
 10
15.1486195452
 20
12.1130113336
 30
0.0
 10
15.1672866284
 20
12.1101347485
 30
0.0
 10
15.1859908472
 20
12.1068839778
 30
0.0
 10
15.2047127324
 20
12.1032624054
 30
0.0
 10
15.2234327958
 20
12.0992738011
 30
0.0
 10
15.242131551
 20
12.094922317
 30
0.0
 10
15.260789533
 20
12.0902124826
 30
0.0
 10
15.2793873193
 20
12.085149201
 30
0.0
 10
15.2979055498
 20
12.0797377428
 30
0.0
 10
15.3163249469
 20
12.0739837414
 30
0.0
 10
15.3346263363
 20
12.0678931867
 30
0.0
 10
15.3527906663
 20
12.0614724189
 30
0.0
 10
15.370799028
 20
12.054728122
 30
0.0
 10
15.3886326751
 20
12.0476673167
 30
0.0
 10
15.4062730435
 20
12.0402973529
 30
0.0
 10
15.4237017706
 20
12.0326259024
 30
0.0
 10
15.4409007145
 20
12.0246609505
 30
0.0
 10
15.4578519729
 20
12.0164107875
 30
0.0
 10
15.4745379018
 20
12.0078840004
 30
0.0
 10
15.4909411341
 20
11.9990894636
 30
0.0
 10
15.5070445975
 20
11.9900363295
 30
0.0
 10
15.5228315323
 20
11.9807340189
 30
0.0
 10
15.5382855091
 20
11.9711922112
 30
0.0
 10
15.5533904454
 20
11.9614208338
 30
0.0
 10
15.5681306231
 20
11.951430052
 30
0.0
 10
15.5824907042
 20
11.9412302579
 30
0.0
 10
15.5964557469
 20
11.9308320594
 30
0.0
 10
15.6100112212
 20
11.920246269
 30
0.0
 10
15.6231430235
 20
11.9094838923
 30
0.0
 10
15.6358374917
 20
11.8985561161
 30
0.0
 10
15.6480814187
 20
11.8874742966
 30
0.0
 10
15.659862066
 20
11.8762499468
 30
0.0
 10
15.6711671766
 20
11.8648947252
 30
0.0
 10
15.6819849873
 20
11.853420422
 30
0.0
 10
15.69230424
 20
11.8418389476
 30
0.0
 10
15.7021141933
 20
11.8301623195
 30
0.0
 10
15.7114046321
 20
11.8184026495
 30
0.0
 10
15.7201658777
 20
11.8065721312
 30
0.0
 10
15.7283887963
 20
11.7946830272
 30
0.0
 10
15.7360648074
 20
11.782747657
 30
0.0
 10
15.7431858912
 20
11.7707783842
 30
0.0
 10
15.7497445948
 20
11.7587876052
 30
0.0
 10
15.7557340389
 20
11.746787737
 30
0.0
 10
15.7611479231
 20
11.734791207
 30
0.0
 10
15.7659805309
 20
11.7228104419
 30
0.0
 10
15.7702267346
 20
11.7108578586
 30
0.0
 10
15.7738820003
 20
11.6989458544
 30
0.0
 10
15.776942393
 20
11.6870867994
 30
0.0
 10
15.7794045821
 20
11.6752930276
 30
0.0
 10
15.7812658481
 20
11.6635768294
 30
0.0
 10
15.7825240899
 20
11.6519504433
 30
0.0
 10
15.7831778329
 20
11.6404260461
 30
0.0
 10
15.7832262392
 20
11.6290157457
 30
0.0
 10
15.7826691129
 20
11.6177315548
 30
0.0
 10
15.7815069257
 20
11.606585428
 30
0.0
 10
15.7797407647
 20
11.5955890514
 30
0.0
 10
15.7773725609
 20
11.5847545351
 30
0.0
 10
15.7753929955
 20
11.5776434867
 30
0.0
 10
15.7743051628
 20
11.5741232535
 30
0.0
  0
SPLINE
  5
35D
100
AcDbEntity
  8
LAYER_FEATURE
100
AcDbSpline
 62
7
  6
CONTINUOUS
 70
0
 71
3
 72
22
 73
18
 74
0
 42
0.0000001
 43
0.0000001
 44
0.0000000001
 40
0.0
 40
0.0
 40
0.0
 40
0.0
 40
0.1381197978
 40
0.2053664405
 40
0.2714549011
 40
0.3364371411
 40
0.4003725798
 40
0.4633278459
 40
0.5253764074
 40
0.5865986107
 40
0.6470813122
 40
0.7069174445
 40
0.7662054997
 40
0.8250488571
 40
0.883554961
 40
0.9418344168
 40
1.0
 40
1.0
 40
1.0
 40
1.0
 10
15.9799313241
 20
12.2471146104
 30
0.0
 10
15.9841131564
 20
12.2385929322
 30
0.0
 10
15.9898753913
 20
12.2256885323
 30
0.0
 10
15.9964474024
 20
12.2082243706
 30
0.0
 10
16.0007208423
 20
12.1952775813
 30
0.0
 10
16.0043775757
 20
12.1823797803
 30
0.0
 10
16.0074141474
 20
12.1695429279
 30
0.0
 10
16.0098274802
 20
12.1567793982
 30
0.0
 10
16.0116151088
 20
12.1441013836
 30
0.0
 10
16.0127751853
 20
12.1315210671
 30
0.0
 10
16.0133064596
 20
12.1190505519
 30
0.0
 10
16.0132082699
 20
12.1067018725
 30
0.0
 10
16.0124805738
 20
12.0944869674
 30
0.0
 10
16.011123992
 20
12.0824177131
 30
0.0
 10
16.009139711
 20
12.0705057177
 30
0.0
 10
16.0065297073
 20
12.0587630195
 30
0.0
 10
16.0043731891
 20
12.0510514389
 30
0.0
 10
16.003192937
 20
12.0472321417
 30
0.0
  0
SPLINE
  5
35E
100
AcDbEntity
  8
LAYER_CHAMFER_FEAT
100
AcDbSpline
 62
7
  6
CONTINUOUS
 70
0
 71
3
 72
85
 73
81
 74
0
 42
0.0000001
 43
0.0000001
 44
0.0000000001
 40
0.0
 40
0.0
 40
0.0
 40
0.0
 40
0.0157578112
 40
0.0311471368
 40
0.0461642943
 40
0.0608083644
 40
0.0750814002
 40
0.0889886476
 40
0.1025387703
 40
0.1091842536
 40
0.1157453794
 40
0.1286219447
 40
0.1411898224
 40
0.1534730768
 40
0.1654998013
 40
0.171427731
 40
0.1773038425
 40
0.1831327152
 40
0.1889191198
 40
0.1946680228
 40
0.2003845665
 40
0.206074036
 40
0.2117418551
 40
0.2173935469
 40
0.2230347153
 40
0.2286710172
 40
0.2343081323
 40
0.2399517375
 40
0.2456074755
 40
0.2512809332
 40
0.2569776042
 40
0.2627028763
 40
0.2684619988
 40
0.2742600585
 40
0.2801019768
 40
0.2859924647
 40
0.2919360341
 40
0.2979369743
 40
0.3039993294
 40
0.3163216959
 40
0.3289323739
 40
0.3353540393
 40
0.3418562556
 40
0.3551100092
 40
0.3687105849
 40
0.3826697398
 40
0.3969956348
 40
0.4116930496
 40
0.4267636021
 40
0.442205961
 40
0.4580160598
 40
0.4741873195
 40
0.4907108486
 40
0.507575629
 40
0.5247686838
 40
0.5422752557
 40
0.5600789689
 40
0.5781619762
 40
0.5965050928
 40
0.6150879304
 40
0.6338890333
 40
0.6528859988
 40
0.6720555918
 40
0.6913738542
 40
0.7108162222
 40
0.7303576341
 40
0.7499726338
 40
0.7696354724
 40
0.7893202137
 40
0.8090008377
 40
0.82865134
 40
0.8482458321
 40
0.8677586457
 40
0.8871644428
 40
0.906438298
 40
0.9255558341
 40
0.944493355
 40
0.9632276247
 40
0.9817372587
 40
1.0
 40
1.0
 40
1.0
 40
1.0
 10
15.0402886709
 20
11.9212631093
 30
0.0
 10
15.036976779
 20
11.920484221
 30
0.0
 10
15.0304590826
 20
11.9188192177
 30
0.0
 10
15.0209072506
 20
11.9159620033
 30
0.0
 10
15.0117124677
 20
11.9127796559
 30
0.0
 10
15.0028929505
 20
11.9092783621
 30
0.0
 10
14.994465899
 20
11.905464817
 30
0.0
 10
14.9864480319
 20
11.9013464406
 30
0.0
 10
14.9800795494
 20
11.8976431034
 30
0.0
 10
14.9752097633
 20
11.8945339406
 30
0.0
 10
14.9705500091
 20
11.891370322
 30
0.0
 10
14.9650020519
 20
11.8872432934
 30
0.0
 10
14.9587700211
 20
11.8819897339
 30
0.0
 10
14.9530178054
 20
11.8764763693
 30
0.0
 10
14.9486124022
 20
11.8716506255
 30
0.0
 10
14.9453462394
 20
11.8676738015
 30
0.0
 10
14.9430348977
 20
11.8646475683
 30
0.0
 10
14.9408514442
 20
11.8615652022
 30
0.0
 10
14.9387969533
 20
11.8584281654
 30
0.0
 10
14.9368724686
 20
11.8552380108
 30
0.0
 10
14.9350789086
 20
11.8519963331
 30
0.0
 10
14.9334172239
 20
11.8487047045
 30
0.0
 10
14.931888201
 20
11.8453647775
 30
0.0
 10
14.930492613
 20
11.8419781992
 30
0.0
 10
14.9292311853
 20
11.8385466385
 30
0.0
 10
14.9281044913
 20
11.8350718171
 30
0.0
 10
14.9271131465
 20
11.8315554407
 30
0.0
 10
14.9262576114
 20
11.8279992658
 30
0.0
 10
14.9255382972
 20
11.8244050579
 30
0.0
 10
14.9249556044
 20
11.8207745933
 30
0.0
 10
14.9245097543
 20
11.8171096829
 30
0.0
 10
14.9242010073
 20
11.8134121373
 30
0.0
 10
14.9240294972
 20
11.8096837918
 30
0.0
 10
14.9239952689
 20
11.8059264912
 30
0.0
 10
14.9240983876
 20
11.8021420958
 30
0.0
 10
14.924338734
 20
11.7983324713
 30
0.0
 10
14.9247162052
 20
11.7944995102
 30
0.0
 10
14.9252306243
 20
11.7906450639
 30
0.0
 10
14.9261033441
 20
11.7854519636
 30
0.0
 10
14.927541799
 20
11.7789110137
 30
0.0
 10
14.9294129429
 20
11.7724002902
 30
0.0
 10
14.9311729032
 20
11.7671748956
 30
0.0
 10
14.9331342577
 20
11.7618733768
 30
0.0
 10
14.9359252517
 20
11.7552297104
 30
0.0
 10
14.9397781519
 20
11.7473001914
 30
0.0
 10
14.9441482691
 20
11.7393782914
 30
0.0
 10
14.9490268239
 20
11.7314796094
 30
0.0
 10
14.9544041706
 20
11.7236194617
 30
0.0
 10
14.9602696958
 20
11.715813172
 30
0.0
 10
14.9666118522
 20
11.7080759529
 30
0.0
 10
14.9734181598
 20
11.7004228931
 30
0.0
 10
14.9806752472
 20
11.692868935
 30
0.0
 10
14.9883688704
 20
11.6854288419
 30
0.0
 10
14.9964839365
 20
11.6781171724
 30
0.0
 10
15.0050045148
 20
11.6709482326
 30
0.0
 10
15.0139138807
 20
11.6639360606
 30
0.0
 10
15.0231945503
 20
11.6570943975
 30
0.0
 10
15.0328283139
 20
11.650436662
 30
0.0
 10
15.0427962619
 20
11.6439759148
 30
0.0
 10
15.05307882
 20
11.6377248255
 30
0.0
 10
15.0636557988
 20
11.6316956622
 30
0.0
 10
15.074506431
 20
11.6259002627
 30
0.0
 10
15.0856094119
 20
11.6203500135
 30
0.0
 10
15.0969429311
 20
11.6150558087
 30
0.0
 10
15.1084847256
 20
11.6100280429
 30
0.0
 10
15.1202121243
 20
11.6052765924
 30
0.0
 10
15.1321020925
 20
11.6008107971
 30
0.0
 10
15.1441312726
 20
11.5966394314
 30
0.0
 10
15.1562760297
 20
11.5927706831
 30
0.0
 10
15.1685125048
 20
11.5892121517
 30
0.0
 10
15.1808166595
 20
11.5859708306
 30
0.0
 10
15.1931643233
 20
11.5830530955
 30
0.0
 10
15.2055312381
 20
11.5804646707
 30
0.0
 10
15.2178931094
 20
11.5782106388
 30
0.0
 10
15.230225655
 20
11.5762954264
 30
0.0
 10
15.2425046649
 20
11.5747228001
 30
0.0
 10
15.2547059717
 20
11.5734958694
 30
0.0
 10
15.2668057643
 20
11.5726169876
 30
0.0
 10
15.2787800091
 20
11.5720879639
 30
0.0
 10
15.2867199507
 20
11.5719683156
 30
0.0
 10
15.2906630354
 20
11.5719683156
 30
0.0
  0
SPLINE
  5
35F
100
AcDbEntity
  8
LAYER_FEATURE
100
AcDbSpline
 62
7
  6
CONTINUOUS
 70
0
 71
3
 72
71
 73
67
 74
0
 42
0.0000001
 43
0.0000001
 44
0.0000000001
 40
0.0
 40
0.0
 40
0.0
 40
0.0
 40
0.0176368375
 40
0.0357022354
 40
0.054170857
 40
0.0730199998
 40
0.092225037
 40
0.1117597156
 40
0.1315970728
 40
0.1517093884
 40
0.1720680716
 40
0.1926438722
 40
0.2343256365
 40
0.2765122722
 40
0.3189545619
 40
0.361400671
 40
0.4035987242
 40
0.4452993829
 40
0.4862584702
 40
0.5063865273
 40
0.5262413462
 40
0.5457951088
 40
0.5650207958
 40
0.5838923581
 40
0.6023848314
 40
0.6204743486
 40
0.6381384276
 40
0.6553559291
 40
0.672107313
 40
0.6883747957
 40
0.7041424127
 40
0.7193964261
 40
0.734125342
 40
0.748320322
 40
0.7619754764
 40
0.7750881042
 40
0.7876593314
 40
0.7996943651
 40
0.8112032098
 40
0.8222012705
 40
0.8327099405
 40
0.8427575278
 40
0.8476201748
 40
0.852381655
 40
0.8616224119
 40
0.8705340513
 40
0.8791772823
 40
0.8834207759
 40
0.8876234312
 40
0.891794791
 40
0.89594467
 40
0.9000830632
 40
0.9042200759
 40
0.9083658235
 40
0.9125303406
 40
0.916723505
 40
0.9209549313
 40
0.9252339075
 40
0.9295693557
 40
0.9384406267
 40
0.9476332342
 40
0.9572006618
 40
0.967187966
 40
0.9776319318
 40
0.9885618374
 40
1.0
 40
1.0
 40
1.0
 40
1.0
 10
15.7893822063
 20
12.0770260685
 30
0.0
 10
15.7889336355
 20
12.0755744928
 30
0.0
 10
15.7880616064
 20
12.0726248261
 30
0.0
 10
15.7868419365
 20
12.0681201661
 30
0.0
 10
15.7856966386
 20
12.0634883696
 30
0.0
 10
15.7846277388
 20
12.0587376994
 30
0.0
 10
15.7836370595
 20
12.0538763621
 30
0.0
 10
15.7827263787
 20
12.0489128482
 30
0.0
 10
15.7818972643
 20
12.0438558563
 30
0.0
 10
15.781151187
 20
12.0387142275
 30
0.0
 10
15.7804894457
 20
12.0334969332
 30
0.0
 10
15.7797178501
 20
12.0264217008
 30
0.0
 10
15.7789739849
 20
12.0174533879
 30
0.0
 10
15.7784359712
 20
12.0065838931
 30
0.0
 10
15.7782526152
 20
11.9956367434
 30
0.0
 10
15.7784252011
 20
11.9846884613
 30
0.0
 10
15.7789525156
 20
11.9738154239
 30
0.0
 10
15.7798308487
 20
11.9630936328
 30
0.0
 10
15.7808559927
 20
11.9542966329
 30
0.0
 10
15.7818497082
 20
11.9473948269
 30
0.0
 10
15.7826738448
 20
11.9423324477
 30
0.0
 10
15.7835796306
 20
11.9373630337
 30
0.0
 10
15.784565506
 20
11.9324952576
 30
0.0
 10
15.7856297385
 20
11.9277376319
 30
0.0
 10
15.7867704481
 20
11.9230984668
 30
0.0
 10
15.7879856655
 20
11.9185858714
 30
0.0
 10
15.7892732322
 20
11.91420772
 30
0.0
 10
15.7906309158
 20
11.9099716581
 30
0.0
 10
15.7920563397
 20
11.9058850749
 30
0.0
 10
15.7935469969
 20
11.9019550897
 30
0.0
 10
15.7951003188
 20
11.8981885571
 30
0.0
 10
15.7967135661
 20
11.8945920211
 30
0.0
 10
15.7983839592
 20
11.8911717405
 30
0.0
 10
15.8001086013
 20
11.8879336528
 30
0.0
 10
15.8018844973
 20
11.8848833631
 30
0.0
 10
15.8037086336
 20
11.8820261707
 30
0.0
 10
15.8055778588
 20
11.8793669988
 30
0.0
 10
15.8074890373
 20
11.8769104598
 30
0.0
 10
15.8094389511
 20
11.8746608165
 30
0.0
 10
15.8114243718
 20
11.8726219505
 30
0.0
 10
15.8134419833
 20
11.8707975607
 30
0.0
 10
15.8151659741
 20
11.8694440735
 30
0.0
 10
15.8165573044
 20
11.8684759708
 30
0.0
 10
15.8179273212
 20
11.8676012662
 30
0.0
 10
15.819655452
 20
11.8666419847
 30
0.0
 10
15.8217685388
 20
11.8657052005
 30
0.0
 10
15.8235533539
 20
11.865110894
 30
0.0
 10
15.8249820148
 20
11.8647534821
 30
0.0
 10
15.8260491435
 20
11.8645443341
 30
0.0
 10
15.8271177846
 20
11.8643926379
 30
0.0
 10
15.8281874768
 20
11.8642984322
 30
0.0
 10
15.8292577264
 20
11.8642617852
 30
0.0
 10
15.8303280431
 20
11.8642827336
 30
0.0
 10
15.8313979353
 20
11.8643612356
 30
0.0
 10
15.8324669153
 20
11.864497253
 30
0.0
 10
15.8335344924
 20
11.8646907471
 30
0.0
 10
15.8346001793
 20
11.8649415915
 30
0.0
 10
15.8356635239
 20
11.8652496634
 30
0.0
 10
15.8370882386
 20
11.8657402166
 30
0.0
 10
15.8388649144
 20
11.8665009097
 30
0.0
 10
15.8409620795
 20
11.8676329028
 30
0.0
 10
15.8430376038
 20
11.8689886683
 30
0.0
 10
15.8450878899
 20
11.8705655114
 30
0.0
 10
15.8471097109
 20
11.87236046
 30
0.0
 10
15.8490996675
 20
11.8743702228
 30
0.0
 10
15.8503735219
 20
11.8758175257
 30
0.0
 10
15.8510049166
 20
11.8765739718
 30
0.0
  0
SPLINE
  5
360
100
AcDbEntity
  8
LAYER_FEATURE
100
AcDbSpline
 62
7
  6
CONTINUOUS
 70
0
 71
3
 72
77
 73
73
 74
0
 42
0.0000001
 43
0.0000001
 44
0.0000000001
 40
0.0
 40
0.0
 40
0.0
 40
0.0
 40
0.0171786634
 40
0.0345302872
 40
0.0520441255
 40
0.0697097495
 40
0.0875159883
 40
0.1054514913
 40
0.1235045846
 40
0.1416633385
 40
0.1599155966
 40
0.1782490006
 40
0.1966510199
 40
0.2151089789
 40
0.2336100845
 40
0.2521414543
 40
0.270690143
 40
0.2892431696
 40
0.3077875436
 40
0.3263102927
 40
0.3447984895
 40
0.3632392786
 40
0.381619903
 40
0.3999277318
 40
0.4181502883
 40
0.4362752783
 40
0.4542906174
 40
0.4721844603
 40
0.4899452295
 40
0.5075616466
 40
0.5250227635
 40
0.5423179931
 40
0.5594371417
 40
0.5763704419
 40
0.5931085889
 40
0.6096427775
 40
0.6259647383
 40
0.6420667766
 40
0.6579418124
 40
0.673583424
 40
0.6889858938
 40
0.7041442547
 40
0.7190543367
 40
0.7337128182
 40
0.7481172784
 40
0.7622662543
 40
0.776159297
 40
0.7897970278
 40
0.8031811969
 40
0.8163147416
 40
0.8292018451
 40
0.8418479934
 40
0.854260024
 40
0.8603811077
 40
0.8664468693
 40
0.8784167977
 40
0.8901816316
 40
0.9017539638
 40
0.9131478469
 40
0.9243787626
 40
0.9354635682
 40
0.9464204148
 40
0.9518573449
 40
0.9572696286
 40
0.9626598443
 40
0.9680306244
 40
0.9733846525
 40
0.9787246524
 40
0.9840533863
 40
0.9893736446
 40
0.9946882398
 40
1.0
 40
1.0
 40
1.0
 40
1.0
 10
15.2750004474
 20
13.5925186432
 30
0.0
 10
15.2849619211
 20
13.5925186432
 30
0.0
 10
15.3049858033
 20
13.5922994529
 30
0.0
 10
15.3351512878
 20
13.5913255375
 30
0.0
 10
15.3655718598
 20
13.5897057397
 30
0.0
 10
15.3962155346
 20
13.5874418112
 30
0.0
 10
15.427050589
 20
13.5845360665
 30
0.0
 10
15.4580448704
 20
13.5809915465
 30
0.0
 10
15.4891661378
 20
13.5768119368
 30
0.0
 10
15.520381996
 20
13.5720015928
 30
0.0
 10
15.5516599536
 20
13.5665655229
 30
0.0
 10
15.5829674541
 20
13.5605093845
 30
0.0
 10
15.6142719082
 20
13.5538394783
 30
0.0
 10
15.645540729
 20
13.5465627464
 30
0.0
 10
15.6767413675
 20
13.5386867678
 30
0.0
 10
15.7078413446
 20
13.5302197422
 30
0.0
 10
15.7388082857
 20
13.5211704834
 30
0.0
 10
15.7696099538
 20
13.5115484092
 30
0.0
 10
15.8002142832
 20
13.501363533
 30
0.0
 10
15.8305894161
 20
13.4906264612
 30
0.0
 10
15.8607037331
 20
13.4793483726
 30
0.0
 10
15.8905258862
 20
13.4675410075
 30
0.0
 10
15.9200248312
 20
13.4552166557
 30
0.0
 10
15.9491698592
 20
13.4423881421
 30
0.0
 10
15.9779306335
 20
13.4290688222
 30
0.0
 10
16.0062772187
 20
13.4152725623
 30
0.0
 10
16.0341801106
 20
13.401013722
 30
0.0
 10
16.0616102665
 20
13.3863071409
 30
0.0
 10
16.0885391351
 20
13.3711681207
 30
0.0
 10
16.1149386897
 20
13.3556124152
 30
0.0
 10
16.1407814588
 20
13.3396562138
 30
0.0
 10
16.16604055
 20
13.3233161183
 30
0.0
 10
16.1906896784
 20
13.3066091272
 30
0.0
 10
16.214703193
 20
13.2895526165
 30
0.0
 10
16.2380561052
 20
13.2721643228
 30
0.0
 10
16.2607241201
 20
13.2544623309
 30
0.0
 10
16.2826836556
 20
13.2364650455
 30
0.0
 10
16.3039118652
 20
13.2181911736
 30
0.0
 10
16.3243866618
 20
13.1996597045
 30
0.0
 10
16.3440867395
 20
13.1808898879
 30
0.0
 10
16.3629916041
 20
13.1619012214
 30
0.0
 10
16.3810815876
 20
13.1427134233
 30
0.0
 10
16.3983378649
 20
13.1233464101
 30
0.0
 10
16.4147424723
 20
13.1038202778
 30
0.0
 10
16.4302783232
 20
13.0841552777
 30
0.0
 10
16.4449292324
 20
13.0643718009
 30
0.0
 10
16.4586799308
 20
13.0444903555
 30
0.0
 10
16.4715160707
 20
13.0245315437
 30
0.0
 10
16.4834242422
 20
13.0045160353
 30
0.0
 10
16.4943919717
 20
12.9844645774
 30
0.0
 10
16.5044077767
 20
12.9643978655
 30
0.0
 10
16.5134610363
 20
12.9443369292
 30
0.0
 10
16.5202264906
 20
12.9275643066
 30
0.0
 10
16.5251409914
 20
12.9141723534
 30
0.0
 10
16.5296844093
 20
12.9009207858
 30
0.0
 10
16.534755567
 20
12.8843946436
 30
0.0
 10
16.539873232
 20
12.8645635835
 30
0.0
 10
16.5439906129
 20
12.844841517
 30
0.0
 10
16.547103095
 20
12.8252492392
 30
0.0
 10
16.5492071768
 20
12.8058070557
 30
0.0
 10
16.5503004145
 20
12.7865357232
 30
0.0
 10
16.5503679882
 20
12.7705935485
 30
0.0
 10
16.549912386
 20
12.7579557042
 30
0.0
 10
16.5493188537
 20
12.7485563818
 30
0.0
 10
16.5484727595
 20
12.739214986
 30
0.0
 10
16.547374291
 20
12.7299338812
 30
0.0
 10
16.5460237818
 20
12.720715511
 30
0.0
 10
16.5444215253
 20
12.7115622871
 30
0.0
 10
16.542567978
 20
12.7024766075
 30
0.0
 10
16.540463605
 20
12.6934608251
 30
0.0
 10
16.5381089607
 20
12.6845173986
 30
0.0
 10
16.5363725647
 20
12.6786041489
 30
0.0
 10
16.535463158
 20
12.6756613035
 30
0.0
  0
SPLINE
  5
361
100
AcDbEntity
  8
LAYER_CHAMFER_FEAT
100
AcDbSpline
 62
7
  6
CONTINUOUS
 70
0
 71
3
 72
51
 73
47
 74
0
 42
0.0000001
 43
0.0000001
 44
0.0000000001
 40
0.0
 40
0.0
 40
0.0
 40
0.0
 40
0.0357329107
 40
0.070369635
 40
0.1039007318
 40
0.1363312974
 40
0.1676824114
 40
0.19799256
 40
0.2273189309
 40
0.2416393761
 40
0.2557444273
 40
0.2696468665
 40
0.2833607279
 40
0.2969012767
 40
0.3102849592
 40
0.3235293375
 40
0.336653007
 40
0.3496754843
 40
0.36261709
 40
0.3754987937
 40
0.3883420652
 40
0.4011686907
 40
0.4140006009
 40
0.4268596791
 40
0.4397675813
 40
0.4527455582
 40
0.465814284
 40
0.478993712
 40
0.4923029252
 40
0.5057600393
 40
0.5193820807
 40
0.5331849432
 40
0.5471832926
 40
0.5758130749
 40
0.6053700937
 40
0.6359264328
 40
0.6675346699
 40
0.7002289737
 40
0.7340264424
 40
0.7689285399
 40
0.804922536
 40
0.8419829004
 40
0.8800725978
 40
0.9191443478
 40
0.9591416425
 40
1.0
 40
1.0
 40
1.0
 40
1.0
 10
15.4335146417
 20
11.7997470931
 30
0.0
 10
15.4364935457
 20
11.7964871868
 30
0.0
 10
15.4422018588
 20
11.7899203101
 30
0.0
 10
15.4500988148
 20
11.7797875067
 30
0.0
 10
15.4571734354
 20
11.7695556286
 30
0.0
 10
15.4634016862
 20
11.7592585971
 30
0.0
 10
15.4687626047
 20
11.7489299176
 30
0.0
 10
15.4732376545
 20
11.7386039548
 30
0.0
 10
15.4762394066
 20
11.7299604912
 30
0.0
 10
15.4781711808
 20
11.7230880086
 30
0.0
 10
15.4793789473
 20
11.7179967221
 30
0.0
 10
15.4803559147
 20
11.7129324789
 30
0.0
 10
15.4811012405
 20
11.7078994266
 30
0.0
 10
15.4816142597
 20
11.7029017991
 30
0.0
 10
15.4818944944
 20
11.6979437801
 30
0.0
 10
15.4819416702
 20
11.6930295366
 30
0.0
 10
15.4817557075
 20
11.6881632057
 30
0.0
 10
15.4813367243
 20
11.6833488934
 30
0.0
 10
15.4806850495
 20
11.6785906682
 30
0.0
 10
15.4798011998
 20
11.6738925595
 30
0.0
 10
15.4786859183
 20
11.6692585461
 30
0.0
 10
15.4773401243
 20
11.6646925607
 30
0.0
 10
15.4757649746
 20
11.6601984684
 30
0.0
 10
15.4739617891
 20
11.6557800832
 30
0.0
 10
15.4719321317
 20
11.6514411325
 30
0.0
 10
15.4696777143
 20
11.6471852917
 30
0.0
 10
15.4672004949
 20
11.6430161298
 30
0.0
 10
15.4645025642
 20
11.6389371664
 30
0.0
 10
15.4615862591
 20
11.6349517981
 30
0.0
 10
15.4584540299
 20
11.6310633741
 30
0.0
 10
15.4551085914
 20
11.6272751215
 30
0.0
 10
15.4515526775
 20
11.6235901616
 30
0.0
 10
15.4464976513
 20
11.6187831799
 30
0.0
 10
15.4396500315
 20
11.6130486946
 30
0.0
 10
15.4307072742
 20
11.6066824601
 30
0.0
 10
15.4210070356
 20
11.6007993525
 30
0.0
 10
15.4105823014
 20
11.5954185211
 30
0.0
 10
15.3994677429
 20
11.5905570273
 30
0.0
 10
15.3877003368
 20
11.5862304753
 30
0.0
 10
15.3753191115
 20
11.5824527733
 30
0.0
 10
15.3623651132
 20
11.5792361269
 30
0.0
 10
15.3488812762
 20
11.5765909675
 30
0.0
 10
15.3349123297
 20
11.5745258992
 30
0.0
 10
15.3205045475
 20
11.5730476604
 30
0.0
 10
15.3057060445
 20
11.5721610711
 30
0.0
 10
15.2957124306
 20
11.5719683156
 30
0.0
 10
15.2906630354
 20
11.5719683156
 30
0.0
  0
SPLINE
  5
362
100
AcDbEntity
  8
LAYER_FEATURE
100
AcDbSpline
 62
7
  6
CONTINUOUS
 70
0
 71
3
 72
46
 73
42
 74
0
 42
0.0000001
 43
0.0000001
 44
0.0000000001
 40
0.0
 40
0.0
 40
0.0
 40
0.0
 40
0.0396645078
 40
0.0788613625
 40
0.1175671524
 40
0.1557611441
 40
0.1934233488
 40
0.2305356756
 40
0.2670816668
 40
0.3030467311
 40
0.3384182489
 40
0.373185705
 40
0.4073408296
 40
0.4408777429
 40
0.4737931061
 40
0.5060862783
 40
0.5377594784
 40
0.5688179438
 40
0.5992700904
 40
0.6291276687
 40
0.6584059125
 40
0.6728343747
 40
0.6871253929
 40
0.7153052552
 40
0.7429736226
 40
0.7701607626
 40
0.7969008076
 40
0.8232316975
 40
0.8491950558
 40
0.8620540739
 40
0.8748384068
 40
0.8875541856
 40
0.9002077255
 40
0.9128055046
 40
0.9253541479
 40
0.9378604202
 40
0.9503311966
 40
0.9627734571
 40
0.9751942581
 40
0.9876007192
 40
1.0
 40
1.0
 40
1.0
 40
1.0
 10
15.0416485116
 20
12.8373915023
 30
0.0
 10
15.0313850364
 20
12.8373915023
 30
0.0
 10
15.0109782811
 20
12.8371613581
 30
0.0
 10
14.9805723582
 20
12.8361123841
 30
0.0
 10
14.9505795734
 20
12.8343627507
 30
0.0
 10
14.921034089
 20
12.8319144784
 30
0.0
 10
14.8919690927
 20
12.8287702722
 30
0.0
 10
14.8634174315
 20
12.8249336805
 30
0.0
 10
14.8354112965
 20
12.8204089952
 30
0.0
 10
14.8079822813
 20
12.815201293
 30
0.0
 10
14.7811613184
 20
12.8093164126
 30
0.0
 10
14.754978653
 20
12.8027609467
 30
0.0
 10
14.7294638093
 20
12.7955422336
 30
0.0
 10
14.7046455592
 20
12.7876683473
 30
0.0
 10
14.6805518908
 20
12.7791480865
 30
0.0
 10
14.6572099811
 20
12.7699909647
 30
0.0
 10
14.6346461566
 20
12.7602071993
 30
0.0
 10
14.6128859006
 20
12.7498077119
 30
0.0
 10
14.5919537202
 20
12.7388040458
 30
0.0
 10
14.5718735189
 20
12.7272086097
 30
0.0
 10
14.5557910428
 20
12.7170139696
 30
0.0
 10
14.5433815287
 20
12.7085726725
 30
0.0
 10
14.5313912132
 20
12.7000268232
 30
0.0
 10
14.5169654689
 20
12.6890027513
 30
0.0
 10
14.500510025
 20
12.6751751621
 30
0.0
 10
14.4850101234
 20
12.6608264456
 30
0.0
 10
14.4704836641
 20
12.64597269
 30
0.0
 10
14.4569475484
 20
12.6306308425
 30
0.0
 10
14.4464717389
 20
12.6174104945
 30
0.0
 10
14.4386117719
 20
12.6066134252
 30
0.0
 10
14.432991844
 20
12.5984303915
 30
0.0
 10
14.4276302273
 20
12.590139133
 30
0.0
 10
14.422528381
 20
12.5817419394
 30
0.0
 10
14.4176877606
 20
12.5732412129
 30
0.0
 10
14.4131097784
 20
12.5646393367
 30
0.0
 10
14.4087956893
 20
12.5559387784
 30
0.0
 10
14.4047467776
 20
12.5471419749
 30
0.0
 10
14.4009641536
 20
12.538251452
 30
0.0
 10
14.3974489115
 20
12.5292696928
 30
0.0
 10
14.3942020869
 20
12.5201993524
 30
0.0
 10
14.3922168054
 20
12.5140942806
 30
0.0
 10
14.3912695343
 20
12.5110289054
 30
0.0
  0
SPLINE
  5
363
100
AcDbEntity
  8
LAYER_FEATURE
100
AcDbSpline
 62
7
  6
CONTINUOUS
 70
0
 71
3
 72
46
 73
42
 74
0
 42
0.0000001
 43
0.0000001
 44
0.0000000001
 40
0.0
 40
0.0
 40
0.0
 40
0.0
 40
0.0396645078
 40
0.0788613625
 40
0.1175671524
 40
0.1557611441
 40
0.1934233488
 40
0.2305356756
 40
0.2670816668
 40
0.3030467311
 40
0.3384182489
 40
0.373185705
 40
0.4073408296
 40
0.4408777429
 40
0.4737931061
 40
0.5060862783
 40
0.5377594784
 40
0.5688179438
 40
0.5992700904
 40
0.6291276687
 40
0.6584059125
 40
0.6728343747
 40
0.6871253929
 40
0.7153052552
 40
0.7429736226
 40
0.7701607626
 40
0.7969008076
 40
0.8232316975
 40
0.8491950558
 40
0.8620540739
 40
0.8748384068
 40
0.8875541856
 40
0.9002077255
 40
0.9128055046
 40
0.9253541479
 40
0.9378604202
 40
0.9503311966
 40
0.9627734571
 40
0.9751942581
 40
0.9876007192
 40
1.0
 40
1.0
 40
1.0
 40
1.0
 10
15.2750004474
 20
13.5925186432
 30
0.0
 10
15.2647369722
 20
13.5925186432
 30
0.0
 10
15.2443302169
 20
13.5922884989
 30
0.0
 10
15.213924294
 20
13.591239525
 30
0.0
 10
15.1839315091
 20
13.5894898916
 30
0.0
 10
15.1543860248
 20
13.5870416193
 30
0.0
 10
15.1253210285
 20
13.5838974131
 30
0.0
 10
15.0967693672
 20
13.5800608213
 30
0.0
 10
15.0687632323
 20
13.5755361361
 30
0.0
 10
15.0413342171
 20
13.5703284339
 30
0.0
 10
15.0145132542
 20
13.5644435535
 30
0.0
 10
14.9883305887
 20
13.5578880876
 30
0.0
 10
14.9628157451
 20
13.5506693745
 30
0.0
 10
14.937997495
 20
13.5427954882
 30
0.0
 10
14.9139038266
 20
13.5342752274
 30
0.0
 10
14.8905619168
 20
13.5251181056
 30
0.0
 10
14.8679980924
 20
13.5153343402
 30
0.0
 10
14.8462378364
 20
13.5049348528
 30
0.0
 10
14.825305656
 20
13.4939311867
 30
0.0
 10
14.8052254547
 20
13.4823357506
 30
0.0
 10
14.7891429785
 20
13.4721411105
 30
0.0
 10
14.7767334645
 20
13.4636998134
 30
0.0
 10
14.7647431489
 20
13.4551539641
 30
0.0
 10
14.7503174046
 20
13.4441298922
 30
0.0
 10
14.7338619607
 20
13.430302303
 30
0.0
 10
14.7183620592
 20
13.4159535865
 30
0.0
 10
14.7038355999
 20
13.4010998308
 30
0.0
 10
14.6902994842
 20
13.3857579834
 30
0.0
 10
14.6798236747
 20
13.3725376353
 30
0.0
 10
14.6719637076
 20
13.3617405661
 30
0.0
 10
14.6663437797
 20
13.3535575324
 30
0.0
 10
14.6609821631
 20
13.3452662738
 30
0.0
 10
14.6558803167
 20
13.3368690803
 30
0.0
 10
14.6510396963
 20
13.3283683537
 30
0.0
 10
14.6464617142
 20
13.3197664776
 30
0.0
 10
14.6421476251
 20
13.3110659193
 30
0.0
 10
14.6380987133
 20
13.3022691158
 30
0.0
 10
14.6343160893
 20
13.2933785929
 30
0.0
 10
14.6308008472
 20
13.2843968337
 30
0.0
 10
14.6275540227
 20
13.2753264932
 30
0.0
 10
14.6255687412
 20
13.2692214215
 30
0.0
 10
14.62462147
 20
13.2661560463
 30
0.0
  0
SPLINE
  5
364
100
AcDbEntity
  8
LAYER_FEATURE
100
AcDbSpline
 62
7
  6
CONTINUOUS
 70
0
 71
3
 72
95
 73
91
 74
0
 42
0.0000001
 43
0.0000001
 44
0.0000000001
 40
0.0
 40
0.0
 40
0.0
 40
0.0
 40
0.0182517836
 40
0.0367544328
 40
0.055486004
 40
0.0744233121
 40
0.0935423555
 40
0.1128183069
 40
0.1322256766
 40
0.1517384188
 40
0.1713300498
 40
0.1909737603
 40
0.2106425277
 40
0.2303092272
 40
0.2499467428
 40
0.2695280773
 40
0.2890264638
 40
0.3084154779
 40
0.327669151
 40
0.3467620861
 40
0.3656695759
 40
0.3843677245
 40
0.4028335725
 40
0.4210452267
 40
0.4389819958
 40
0.4566245321
 40
0.4739549808
 40
0.4824983545
 40
0.4909577782
 40
0.4993315096
 40
0.5076179375
 40
0.515815573
 40
0.523923073
 40
0.5319392277
 40
0.5398629845
 40
0.5476934408
 40
0.5554298587
 40
0.570617583
 40
0.5854245958
 40
0.5998515582
 40
0.6139024298
 40
0.6275847086
 40
0.6409096625
 40
0.6538925403
 40
0.6665527442
 40
0.6727698909
 40
0.6789156099
 40
0.684993532
 40
0.6910075493
 40
0.696961817
 40
0.7028607355
 40
0.7087089508
 40
0.7145113311
 40
0.7202729597
 40
0.7259991107
 40
0.7316952308
 40
0.7373669157
 40
0.7430198831
 40
0.7486599474
 40
0.7542929884
 40
0.7599249231
 40
0.7655616741
 40
0.7712091384
 40
0.7768731586
 40
0.7825594916
 40
0.7882737817
 40
0.7940215346
 40
0.7998080906
 40
0.8056386078
 40
0.811518035
 40
0.8174511047
 40
0.8234423088
 40
0.8294958963
 40
0.8356158577
 40
0.8418059218
 40
0.8544083677
 40
0.8673293943
 40
0.8805891938
 40
0.8942037787
 40
0.9081851453
 40
0.9225414784
 40
0.9372773802
 40
0.9447886505
 40
0.9523950211
 40
0.9600961658
 40
0.9678915806
 40
0.9757805917
 40
0.9837623551
 40
0.9918358763
 40
1.0
 40
1.0
 40
1.0
 40
1.0
 10
15.0848857699
 20
12.8003474822
 30
0.0
 10
15.0973560898
 20
12.8003474822
 30
0.0
 10
15.122469667
 20
12.7999609139
 30
0.0
 10
15.1603464421
 20
12.7982520925
 30
0.0
 10
15.198625204
 20
12.795413665
 30
0.0
 10
15.2372271174
 20
12.7914514303
 30
0.0
 10
15.276073191
 20
12.7863735295
 30
0.0
 10
15.3150838093
 20
12.780190363
 30
0.0
 10
15.3541790393
 20
12.772914606
 30
0.0
 10
15.3932787603
 20
12.7645611681
 30
0.0
 10
15.4323028394
 20
12.7551471695
 30
0.0
 10
15.471171294
 20
12.7446919035
 30
0.0
 10
15.509804459
 20
12.7332168001
 30
0.0
 10
15.54812315
 20
12.7207453799
 30
0.0
 10
15.5860488278
 20
12.7073032052
 30
0.0
 10
15.6235037596
 20
12.6929178276
 30
0.0
 10
15.6604111803
 20
12.6776187305
 30
0.0
 10
15.69669545
 20
12.6614372681
 30
0.0
 10
15.7322822102
 20
12.6444066
 30
0.0
 10
15.7670985373
 20
12.6265616221
 30
0.0
 10
15.801073093
 20
12.6079388926
 30
0.0
 10
15.8341362702
 20
12.5885765588
 30
0.0
 10
15.8662203436
 20
12.568514269
 30
0.0
 10
15.8972595787
 20
12.5477931105
 30
0.0
 10
15.9271904735
 20
12.5264554416
 30
0.0
 10
15.955951498
 20
12.5045450959
 30
0.0
 10
15.9790037079
 20
12.4857580704
 30
0.0
 10
15.9968022718
 20
12.4704765505
 30
0.0
 10
16.0097597328
 20
12.4589548271
 30
0.0
 10
16.0223819948
 20
12.4473244077
 30
0.0
 10
16.0346626481
 20
12.4355912401
 30
0.0
 10
16.0465953548
 20
12.4237613128
 30
0.0
 10
16.0581740274
 20
12.4118407214
 30
0.0
 10
16.069392703
 20
12.3998355355
 30
0.0
 10
16.0802456299
 20
12.3877519525
 30
0.0
 10
16.0907273031
 20
12.375596063
 30
0.0
 10
16.1041174605
 20
12.3594007352
 30
0.0
 10
16.1199132145
 20
12.3390163582
 30
0.0
 10
16.137421681
 20
12.3142122605
 30
0.0
 10
16.1533297778
 20
12.2892678009
 30
0.0
 10
16.1676044644
 20
12.2642338532
 30
0.0
 10
16.1802161461
 20
12.2391611974
 30
0.0
 10
16.1911384874
 20
12.2141004997
 30
0.0
 10
16.2003482266
 20
12.189103417
 30
0.0
 10
16.206617295
 20
12.1682411541
 30
0.0
 10
16.2107399419
 20
12.1516463034
 30
0.0
 10
16.2133749752
 20
12.1393230126
 30
0.0
 10
16.2155700526
 20
12.1270547984
 30
0.0
 10
16.2173240167
 20
12.1148478217
 30
0.0
 10
16.2186359642
 20
12.1027084007
 30
0.0
 10
16.2195051222
 20
12.0906427647
 30
0.0
 10
16.2199310686
 20
12.0786571371
 30
0.0
 10
16.219913485
 20
12.066757693
 30
0.0
 10
16.2194523944
 20
12.054950576
 30
0.0
 10
16.21854797
 20
12.0432418856
 30
0.0
 10
16.2172006605
 20
12.0316376772
 30
0.0
 10
16.2154111491
 20
12.0201439537
 30
0.0
 10
16.2131803082
 20
12.0087666732
 30
0.0
 10
16.2105093285
 20
11.9975117196
 30
0.0
 10
16.207399521
 20
11.9863849404
 30
0.0
 10
16.2038525593
 20
11.9753920828
 30
0.0
 10
16.1998702213
 20
11.9645388612
 30
0.0
 10
16.195454627
 20
11.9538308778
 30
0.0
 10
16.1906080436
 20
11.9432736852
 30
0.0
 10
16.1853330094
 20
11.9328727364
 30
0.0
 10
16.1796322834
 20
11.9226333962
 30
0.0
 10
16.1735088108
 20
11.9125609619
 30
0.0
 10
16.1669658244
 20
11.9026605939
 30
0.0
 10
16.1600066805
 20
11.8929374201
 30
0.0
 10
16.1526350517
 20
11.8833963945
 30
0.0
 10
16.1448547216
 20
11.8740424522
 30
0.0
 10
16.1366697588
 20
11.8648803464
 30
0.0
 10
16.1280844095
 20
11.8559148123
 30
0.0
 10
16.1191030159
 20
11.8471503353
 30
0.0
 10
16.1065320493
 20
11.8356708454
 30
0.0
 10
16.0898250952
 20
11.8218481931
 30
0.0
 10
16.0683940907
 20
11.8062377056
 30
0.0
 10
16.0455045533
 20
11.7915352632
 30
0.0
 10
16.0212043477
 20
11.7777707639
 30
0.0
 10
15.9955431971
 20
11.764971489
 30
0.0
 10
15.9685741014
 20
11.7531631875
 30
0.0
 10
15.945206338
 20
11.7442259499
 30
0.0
 10
15.9259201347
 20
11.7375823896
 30
0.0
 10
15.9110703407
 20
11.7328291646
 30
0.0
 10
15.8959361761
 20
11.7283398698
 30
0.0
 10
15.8805252791
 20
11.724116757
 30
0.0
 10
15.8648455835
 20
11.7201620148
 30
0.0
 10
15.8489051053
 20
11.7164776232
 30
0.0
 10
15.8327120847
 20
11.7130655243
 30
0.0
 10
15.8218139611
 20
11.7109849123
 30
0.0
 10
15.8163254257
 20
11.7099896522
 30
0.0
  0
SPLINE
  5
365
100
AcDbEntity
  8
LAYER_FEATURE
100
AcDbSpline
 62
7
  6
CONTINUOUS
 70
0
 71
3
 72
71
 73
67
 74
0
 42
0.0000001
 43
0.0000001
 44
0.0000000001
 40
0.0
 40
0.0
 40
0.0
 40
0.0
 40
0.0204122512
 40
0.040612493
 40
0.0605906507
 40
0.080338432
 40
0.099847454
 40
0.1191100213
 40
0.138119058
 40
0.1568680864
 40
0.1753513168
 40
0.1935636753
 40
0.2115008396
 40
0.2291592856
 40
0.2465363423
 40
0.263630234
 40
0.2804401241
 40
0.2969661693
 40
0.3132095785
 40
0.3291726553
 40
0.3448588471
 40
0.3602728012
 40
0.3754204159
 40
0.3903088751
 40
0.4049466878
 40
0.4193437274
 40
0.4335112506
 40
0.4474619027
 40
0.4612097157
 40
0.4747700936
 40
0.4881597672
 40
0.5013967307
 40
0.5145001601
 40
0.5274903078
 40
0.5403883665
 40
0.5532163148
 40
0.5659967454
 40
0.5787526736
 40
0.5915073344
 40
0.6042839742
 40
0.6171056418
 40
0.6299949848
 40
0.6429740588
 40
0.6560641511
 40
0.6692856201
 40
0.682657765
 40
0.6961987164
 40
0.7099253458
 40
0.7238531995
 40
0.7379964623
 40
0.7523679352
 40
0.7669790229
 40
0.7818397445
 40
0.7969587603
 40
0.8123434007
 40
0.8279996957
 40
0.8439324253
 40
0.8601451706
 40
0.8766403587
 40
0.893419308
 40
0.910482289
 40
0.9278285764
 40
0.9454564924
 40
0.9633634553
 40
0.9815460353
 40
1.0
 40
1.0
 40
1.0
 40
1.0
 10
15.0848857699
 20
12.8003474822
 30
0.0
 10
15.0767732061
 20
12.8003474822
 30
0.0
 10
15.0606318361
 20
12.8001857914
 30
0.0
 10
15.0365605242
 20
12.7994499141
 30
0.0
 10
15.0127735384
 20
12.7982225031
 30
0.0
 10
14.9892923353
 20
12.7965047047
 30
0.0
 10
14.9661376225
 20
12.7942979983
 30
0.0
 10
14.9433300387
 20
12.7916043556
 30
0.0
 10
14.9208898545
 20
12.7884261664
 30
0.0
 10
14.8988370172
 20
12.7847662282
 30
0.0
 10
14.8771911323
 20
12.7806277823
 30
0.0
 10
14.8559714356
 20
12.7760144985
 30
0.0
 10
14.8351967872
 20
12.7709304538
 30
0.0
 10
14.8148856547
 20
12.7653801283
 30
0.0
 10
14.7950560869
 20
12.7593684332
 30
0.0
 10
14.7757257039
 20
12.7529006815
 30
0.0
 10
14.7569116889
 20
12.7459825747
 30
0.0
 10
14.7386307711
 20
12.7386202026
 30
0.0
 10
14.7208991988
 20
12.7308200661
 30
0.0
 10
14.70373274
 20
12.722589038
 30
0.0
 10
14.6871466752
 20
12.7139343552
 30
0.0
 10
14.6711557749
 20
12.7048636299
 30
0.0
 10
14.6557742808
 20
12.6953848533
 30
0.0
 10
14.6410159131
 20
12.6855063624
 30
0.0
 10
14.6268938636
 20
12.6752368342
 30
0.0
 10
14.6134207641
 20
12.6645853099
 30
0.0
 10
14.6006086834
 20
12.6535611761
 30
0.0
 10
14.5884691338
 20
12.6421741464
 30
0.0
 10
14.577013061
 20
12.63043426
 30
0.0
 10
14.5662508012
 20
12.6183519086
 30
0.0
 10
14.5561920965
 20
12.6059378035
 30
0.0
 10
14.5468460915
 20
12.5932029695
 30
0.0
 10
14.5382213093
 20
12.5801587495
 30
0.0
 10
14.5303256096
 20
12.5668168134
 30
0.0
 10
14.5231662111
 20
12.5531891234
 30
0.0
 10
14.5167496799
 20
12.539287927
 30
0.0
 10
14.5110818857
 20
12.5251257577
 30
0.0
 10
14.506167986
 20
12.5107154158
 30
0.0
 10
14.5020124464
 20
12.4960699368
 30
0.0
 10
14.4986190329
 20
12.4812025766
 30
0.0
 10
14.4959907614
 20
12.4661267999
 30
0.0
 10
14.4941299256
 20
12.4508562487
 30
0.0
 10
14.4930381136
 20
12.4354047192
 30
0.0
 10
14.4927162057
 20
12.4197861482
 30
0.0
 10
14.4931643374
 20
12.4040145946
 30
0.0
 10
14.4943819542
 20
12.38810422
 30
0.0
 10
14.4963678221
 20
12.3720692777
 30
0.0
 10
14.4991200143
 20
12.3559241021
 30
0.0
 10
14.502635902
 20
12.3396830928
 30
0.0
 10
14.5069122011
 20
12.3233607096
 30
0.0
 10
14.5119449774
 20
12.306971467
 30
0.0
 10
14.5177296174
 20
12.2905299176
 30
0.0
 10
14.5242608471
 20
12.274050644
 30
0.0
 10
14.5315327586
 20
12.2575482557
 30
0.0
 10
14.5395388107
 20
12.2410373823
 30
0.0
 10
14.5482717975
 20
12.2245326469
 30
0.0
 10
14.5577238855
 20
12.208048668
 30
0.0
 10
14.567886626
 20
12.1916000511
 30
0.0
 10
14.5787509495
 20
12.1752013752
 30
0.0
 10
14.5903071503
 20
12.1588671652
 30
0.0
 10
14.6025449253
 20
12.1426118993
 30
0.0
 10
14.6154533848
 20
12.1264499935
 30
0.0
 10
14.6290210283
 20
12.1103957907
 30
0.0
 10
14.6432358028
 20
12.0944634961
 30
0.0
 10
14.6580849384
 20
12.0786673641
 30
0.0
 10
14.6683238699
 20
12.0683122056
 30
0.0
 10
14.6735437268
 20
12.0631600592
 30
0.0
  0
SPLINE
  5
366
100
AcDbEntity
  8
LAYER_FEATURE
100
AcDbSpline
 62
7
  6
CONTINUOUS
 70
0
 71
3
 72
77
 73
73
 74
0
 42
0.0000001
 43
0.0000001
 44
0.0000000001
 40
0.0
 40
0.0
 40
0.0
 40
0.0
 40
0.0171786634
 40
0.0345302872
 40
0.0520441255
 40
0.0697097495
 40
0.0875159883
 40
0.1054514913
 40
0.1235045846
 40
0.1416633385
 40
0.1599155966
 40
0.1782490006
 40
0.1966510199
 40
0.2151089789
 40
0.2336100845
 40
0.2521414543
 40
0.270690143
 40
0.2892431696
 40
0.3077875436
 40
0.3263102927
 40
0.3447984895
 40
0.3632392786
 40
0.381619903
 40
0.3999277318
 40
0.4181502883
 40
0.4362752783
 40
0.4542906174
 40
0.4721844603
 40
0.4899452295
 40
0.5075616466
 40
0.5250227635
 40
0.5423179931
 40
0.5594371417
 40
0.5763704419
 40
0.5931085889
 40
0.6096427775
 40
0.6259647383
 40
0.6420667766
 40
0.6579418124
 40
0.673583424
 40
0.6889858938
 40
0.7041442547
 40
0.7190543367
 40
0.7337128182
 40
0.7481172784
 40
0.7622662543
 40
0.776159297
 40
0.7897970278
 40
0.8031811969
 40
0.8163147416
 40
0.8292018451
 40
0.8418479934
 40
0.854260024
 40
0.8603811077
 40
0.8664468693
 40
0.8784167977
 40
0.8901816316
 40
0.9017539638
 40
0.9131478469
 40
0.9243787626
 40
0.9354635682
 40
0.9464204148
 40
0.9518573449
 40
0.9572696286
 40
0.9626598443
 40
0.9680306244
 40
0.9733846525
 40
0.9787246524
 40
0.9840533863
 40
0.9893736446
 40
0.9946882398
 40
1.0
 40
1.0
 40
1.0
 40
1.0
 10
15.0416485116
 20
12.8373915023
 30
0.0
 10
15.0516099853
 20
12.8373915023
 30
0.0
 10
15.0716338675
 20
12.837172312
 30
0.0
 10
15.101799352
 20
12.8361983966
 30
0.0
 10
15.1322199241
 20
12.8345785988
 30
0.0
 10
15.1628635988
 20
12.8323146703
 30
0.0
 10
15.1936986532
 20
12.8294089256
 30
0.0
 10
15.2246929346
 20
12.8258644056
 30
0.0
 10
15.255814202
 20
12.8216847959
 30
0.0
 10
15.2870300602
 20
12.8168744519
 30
0.0
 10
15.3183080178
 20
12.811438382
 30
0.0
 10
15.3496155183
 20
12.8053822436
 30
0.0
 10
15.3809199724
 20
12.7987123375
 30
0.0
 10
15.4121887932
 20
12.7914356055
 30
0.0
 10
15.4433894317
 20
12.7835596269
 30
0.0
 10
15.4744894088
 20
12.7750926013
 30
0.0
 10
15.5054563499
 20
12.7660433425
 30
0.0
 10
15.5362580181
 20
12.7564212683
 30
0.0
 10
15.5668623475
 20
12.7462363922
 30
0.0
 10
15.5972374803
 20
12.7354993203
 30
0.0
 10
15.6273517973
 20
12.7242212317
 30
0.0
 10
15.6571739505
 20
12.7124138667
 30
0.0
 10
15.6866728954
 20
12.7000895148
 30
0.0
 10
15.7158179235
 20
12.6872610012
 30
0.0
 10
15.7445786977
 20
12.6739416813
 30
0.0
 10
15.7729252829
 20
12.6601454214
 30
0.0
 10
15.8008281748
 20
12.6458865811
 30
0.0
 10
15.8282583308
 20
12.63118
 30
0.0
 10
15.8551871994
 20
12.6160409799
 30
0.0
 10
15.881586754
 20
12.6004852743
 30
0.0
 10
15.907429523
 20
12.5845290729
 30
0.0
 10
15.9326886142
 20
12.5681889775
 30
0.0
 10
15.9573377426
 20
12.5514819863
 30
0.0
 10
15.9813512573
 20
12.5344254756
 30
0.0
 10
16.0047041694
 20
12.5170371819
 30
0.0
 10
16.0273721844
 20
12.49933519
 30
0.0
 10
16.0493317198
 20
12.4813379046
 30
0.0
 10
16.0705599294
 20
12.4630640327
 30
0.0
 10
16.091034726
 20
12.4445325636
 30
0.0
 10
16.1107348038
 20
12.425762747
 30
0.0
 10
16.1296396684
 20
12.4067740806
 30
0.0
 10
16.1477296518
 20
12.3875862824
 30
0.0
 10
16.1649859291
 20
12.3682192692
 30
0.0
 10
16.1813905365
 20
12.3486931369
 30
0.0
 10
16.1969263875
 20
12.3290281368
 30
0.0
 10
16.2115772966
 20
12.30924466
 30
0.0
 10
16.225327995
 20
12.2893632147
 30
0.0
 10
16.2381641349
 20
12.2694044028
 30
0.0
 10
16.2500723064
 20
12.2493888945
 30
0.0
 10
16.261040036
 20
12.2293374365
 30
0.0
 10
16.271055841
 20
12.2092707247
 30
0.0
 10
16.2801091005
 20
12.1892097883
 30
0.0
 10
16.2868745548
 20
12.1724371657
 30
0.0
 10
16.2917890556
 20
12.1590452125
 30
0.0
 10
16.2963324735
 20
12.1457936449
 30
0.0
 10
16.3014036312
 20
12.1292675027
 30
0.0
 10
16.3065212963
 20
12.1094364426
 30
0.0
 10
16.3106386771
 20
12.0897143761
 30
0.0
 10
16.3137511593
 20
12.0701220983
 30
0.0
 10
16.3158552411
 20
12.0506799148
 30
0.0
 10
16.3169484788
 20
12.0314085823
 30
0.0
 10
16.3170160524
 20
12.0154664076
 30
0.0
 10
16.3165604503
 20
12.0028285633
 30
0.0
 10
16.315966918
 20
11.993429241
 30
0.0
 10
16.3151208237
 20
11.9840878452
 30
0.0
 10
16.3140223553
 20
11.9748067403
 30
0.0
 10
16.312671846
 20
11.9655883701
 30
0.0
 10
16.3110695896
 20
11.9564351462
 30
0.0
 10
16.3092160423
 20
11.9473494666
 30
0.0
 10
16.3071116692
 20
11.9383336842
 30
0.0
 10
16.304757025
 20
11.9293902577
 30
0.0
 10
16.3030206289
 20
11.9234770081
 30
0.0
 10
16.3021112222
 20
11.9205341626
 30
0.0
  0
SPLINE
  5
367
100
AcDbEntity
  8
LAYER_FEATURE
100
AcDbSpline
 62
7
  6
CONTINUOUS
 70
0
 71
3
 72
80
 73
76
 74
0
 42
0.0000001
 43
0.0000001
 44
0.0000000001
 40
0.0
 40
0.0
 40
0.0
 40
0.0
 40
0.005354095
 40
0.0107128795
 40
0.0160810219
 40
0.0214631517
 40
0.0268638369
 40
0.0322875691
 40
0.0377387414
 40
0.0432216371
 40
0.0487404092
 40
0.0542990721
 40
0.0599014848
 40
0.0655513445
 40
0.0712521749
 40
0.0770073205
 40
0.0828199412
 40
0.0886930055
 40
0.1006301234
 40
0.1128399028
 40
0.1190529653
 40
0.125340225
 40
0.1381426323
 40
0.1512590067
 40
0.1646973076
 40
0.1784628134
 40
0.1925582762
 40
0.2069840812
 40
0.2217384052
 40
0.2368173709
 40
0.2522151962
 40
0.2679243367
 40
0.2839356206
 40
0.3002383765
 40
0.316820554
 40
0.3336688384
 40
0.3507687578
 40
0.3681047864
 40
0.3856604415
 40
0.4034183769
 40
0.4213604723
 40
0.439467919
 40
0.457721303
 40
0.4761006861
 40
0.4945856842
 40
0.5131555441
 40
0.5317892194
 40
0.550465445
 40
0.5691628106
 40
0.5878598341
 40
0.6065350345
 40
0.625167005
 40
0.6437344863
 40
0.6622164401
 40
0.680592124
 40
0.6988411668
 40
0.7169436455
 40
0.7348801645
 40
0.7526319357
 40
0.7701808618
 40
0.7875096229
 40
0.8046017653
 40
0.8214417951
 40
0.8380152759
 40
0.8543089313
 40
0.8703107531
 40
0.8860101157
 40
0.9013978972
 40
0.916466607
 40
0.9312105221
 40
0.945625826
 40
0.9597107701
 40
0.9734657945
 40
0.9868937697
 40
1.0
 40
1.0
 40
1.0
 40
1.0
 10
14.7095531254
 20
12.4469970791
 30
0.0
 10
14.7103419635
 20
12.4495497603
 30
0.0
 10
14.7120127458
 20
12.4546293263
 30
0.0
 10
14.7147941802
 20
12.4621583474
 30
0.0
 10
14.7178501247
 20
12.4695954238
 30
0.0
 10
14.7211792787
 20
12.4769371965
 30
0.0
 10
14.7247801531
 20
12.4841805694
 30
0.0
 10
14.728651238
 20
12.4913223929
 30
0.0
 10
14.7327908095
 20
12.4983596288
 30
0.0
 10
14.7371971158
 20
12.5052892329
 30
0.0
 10
14.7418682147
 20
12.5121082579
 30
0.0
 10
14.7468021134
 20
12.5188137649
 30
0.0
 10
14.7519966582
 20
12.5254029022
 30
0.0
 10
14.7574496194
 20
12.531872842
 30
0.0
 10
14.7631586402
 20
12.5382208326
 30
0.0
 10
14.7691212464
 20
12.5444441516
 30
0.0
 10
14.7753349342
 20
12.5505401927
 30
0.0
 10
14.7839972577
 20
12.5585377841
 30
0.0
 10
14.7954547751
 20
12.568202861
 30
0.0
 10
14.8075776394
 20
12.5773028523
 30
0.0
 10
14.8177315067
 20
12.5843012514
 30
0.0
 10
14.8283151068
 20
12.5911895648
 30
0.0
 10
14.8421231141
 20
12.5994278463
 30
0.0
 10
14.8594709604
 20
12.6086509444
 30
0.0
 10
14.8776667696
 20
12.6172551203
 30
0.0
 10
14.8966791597
 20
12.6252257855
 30
0.0
 10
14.9164757857
 20
12.6325496383
 30
0.0
 10
14.9370228767
 20
12.6392143735
 30
0.0
 10
14.9582854249
 20
12.6452087937
 30
0.0
 10
14.9802271987
 20
12.6505228079
 30
0.0
 10
15.0028108105
 20
12.6551474596
 30
0.0
 10
15.0259977731
 20
12.6590749448
 30
0.0
 10
15.0497485642
 20
12.6622986294
 30
0.0
 10
15.0740226921
 20
12.6648130644
 30
0.0
 10
15.0987787636
 20
12.6666139979
 30
0.0
 10
15.1239745548
 20
12.6676983859
 30
0.0
 10
15.149567083
 20
12.6680643991
 30
0.0
 10
15.1755126805
 20
12.6677114281
 30
0.0
 10
15.2017670695
 20
12.6666400867
 30
0.0
 10
15.2282854383
 20
12.6648522113
 30
0.0
 10
15.2550225188
 20
12.6623508594
 30
0.0
 10
15.2819326638
 20
12.6591403052
 30
0.0
 10
15.3089699262
 20
12.6552260327
 30
0.0
 10
15.336088138
 20
12.6506147273
 30
0.0
 10
15.3632409893
 20
12.6453142643
 30
0.0
 10
15.3903821088
 20
12.6393336961
 30
0.0
 10
15.4174651428
 20
12.6326832367
 30
0.0
 10
15.4444438356
 20
12.6253742445
 30
0.0
 10
15.4712721085
 20
12.617419203
 30
0.0
 10
15.4979041393
 20
12.6088316991
 30
0.0
 10
15.524294441
 20
12.5996264001
 30
0.0
 10
15.5503979401
 20
12.5898190284
 30
0.0
 10
15.5761700537
 20
12.5794263345
 30
0.0
 10
15.6015667665
 20
12.5684660676
 30
0.0
 10
15.6265447059
 20
12.5569569453
 30
0.0
 10
15.651061217
 20
12.5449186212
 30
0.0
 10
15.6750744352
 20
12.5323716504
 30
0.0
 10
15.6985433586
 20
12.519337454
 30
0.0
 10
15.7214279177
 20
12.5058382815
 30
0.0
 10
15.7436890444
 20
12.491897172
 30
0.0
 10
15.7652887384
 20
12.4775379138
 30
0.0
 10
15.7861901325
 20
12.4627850024
 30
0.0
 10
15.8063575547
 20
12.4476635973
 30
0.0
 10
15.8257565888
 20
12.4321994775
 30
0.0
 10
15.8443541325
 20
12.4164189955
 30
0.0
 10
15.8621184524
 20
12.4003490307
 30
0.0
 10
15.8790192364
 20
12.3840169408
 30
0.0
 10
15.8950276424
 20
12.3674505139
 30
0.0
 10
15.9101163464
 20
12.3506779169
 30
0.0
 10
15.9242595784
 20
12.3337276517
 30
0.0
 10
15.9374331791
 20
12.3166284839
 30
0.0
 10
15.9496145793
 20
12.2994094707
 30
0.0
 10
15.9607830002
 20
12.2820996326
 30
0.0
 10
15.9709189416
 20
12.264728898
 30
0.0
 10
15.9770500697
 20
12.2529859896
 30
0.0
 10
15.9799313241
 20
12.2471146104
 30
0.0
  0
SPLINE
  5
368
100
AcDbEntity
  8
LAYER_FEATURE
100
AcDbSpline
 62
7
  6
CONTINUOUS
 70
0
 71
3
 72
15
 73
11
 74
0
 42
0.0000001
 43
0.0000001
 44
0.0000000001
 40
0.0
 40
0.0
 40
0.0
 40
0.0
 40
0.1393348855
 40
0.2752663311
 40
0.4073424578
 40
0.5352201174
 40
0.6585967087
 40
0.777249811
 40
0.891067037
 40
1.0
 40
1.0
 40
1.0
 40
1.0
 10
14.8346518249
 20
13.1792584262
 30
0.0
 10
14.8342225425
 20
13.1792830101
 30
0.0
 10
14.8333731182
 20
13.1793110248
 30
0.0
 10
14.8321157193
 20
13.1792880415
 30
0.0
 10
14.8308965846
 20
13.1791996597
 30
0.0
 10
14.8297228975
 20
13.1790464225
 30
0.0
 10
14.8286014508
 20
13.1788291574
 30
0.0
 10
14.8275387032
 20
13.1785491045
 30
0.0
 10
14.826540966
 20
13.1782078329
 30
0.0
 10
14.8259091128
 20
13.177934786
 30
0.0
 10
14.825606661
 20
13.1777880538
 30
0.0
  0
SPLINE
  5
369
100
AcDbEntity
  8
LAYER_FEATURE
100
AcDbSpline
 62
7
  6
CONTINUOUS
 70
0
 71
3
 72
15
 73
11
 74
0
 42
0.0000001
 43
0.0000001
 44
0.0000000001
 40
0.0
 40
0.0
 40
0.0
 40
0.0
 40
0.1350195828
 40
0.2680666142
 40
0.3986249544
 40
0.5262606691
 40
0.6505538031
 40
0.7711334494
 40
0.8877053833
 40
1.0
 40
1.0
 40
1.0
 40
1.0
 10
14.8781385066
 20
13.2560326777
 30
0.0
 10
14.8776953973
 20
13.2561121205
 30
0.0
 10
14.87681197
 20
13.2562501097
 30
0.0
 10
14.8754902686
 20
13.2563942765
 30
0.0
 10
14.8741876974
 20
13.2564734898
 30
0.0
 10
14.8729119511
 20
13.2564873149
 30
0.0
 10
14.8716704325
 20
13.2564356331
 30
0.0
 10
14.870470331
 20
13.2563187627
 30
0.0
 10
14.8693187487
 20
13.2561373417
 30
0.0
 10
14.8685733802
 20
13.2559708458
 30
0.0
 10
14.8682110616
 20
13.2558764781
 30
0.0
  0
SPLINE
  5
36A
100
AcDbEntity
  8
LAYER_FEATURE
100
AcDbSpline
 62
7
  6
CONTINUOUS
 70
0
 71
3
 72
14
 73
10
 74
0
 42
0.0000001
 43
0.0000001
 44
0.0000000001
 40
0.0
 40
0.0
 40
0.0
 40
0.0
 40
0.260421901
 40
0.3892281567
 40
0.5164234994
 40
0.6415287939
 40
0.7640921227
 40
0.8837159253
 40
1.0
 40
1.0
 40
1.0
 40
1.0
 10
14.9482268591
 20
13.3206456611
 30
0.0
 10
14.9473491722
 20
13.320908571
 30
0.0
 10
14.9460192251
 20
13.3212446267
 30
0.0
 10
14.9442314216
 20
13.3215707639
 30
0.0
 10
14.9429022665
 20
13.3217510751
 30
0.0
 10
14.941588018
 20
13.3218668556
 30
0.0
 10
14.9402962524
 20
13.3219174679
 30
0.0
 10
14.9390346252
 20
13.3219025709
 30
0.0
 10
14.9382059267
 20
13.3218482243
 30
0.0
 10
14.9377986391
 20
13.3218096369
 30
0.0
  0
SPLINE
  5
36B
100
AcDbEntity
  8
LAYER_FEATURE
100
AcDbSpline
 62
7
  6
CONTINUOUS
 70
0
 71
3
 72
11
 73
7
 74
0
 42
0.0000001
 43
0.0000001
 44
0.0000000001
 40
0.0
 40
0.0
 40
0.0
 40
0.0
 40
0.2471517939
 40
0.4967900773
 40
0.748037634
 40
1.0
 40
1.0
 40
1.0
 40
1.0
 10
14.9622292721
 20
13.3151347706
 30
0.0
 10
14.9611177645
 20
13.3156869123
 30
0.0
 10
14.9588587228
 20
13.316747451
 30
0.0
 10
14.9553920773
 20
13.3181967798
 30
0.0
 10
14.9518446937
 20
13.3195068437
 30
0.0
 10
14.9494388981
 20
13.3202825965
 30
0.0
 10
14.9482268591
 20
13.3206456611
 30
0.0
  0
SPLINE
  5
36C
100
AcDbEntity
  8
LAYER_FEATURE
100
AcDbSpline
 62
7
  6
CONTINUOUS
 70
0
 71
3
 72
15
 73
11
 74
0
 42
0.0000001
 43
0.0000001
 44
0.0000000001
 40
0.0
 40
0.0
 40
0.0
 40
0.0
 40
0.124247706
 40
0.2498381061
 40
0.3762126582
 40
0.5028026772
 40
0.6290363408
 40
0.7543467056
 40
0.8781792853
 40
1.0
 40
1.0
 40
1.0
 40
1.0
 10
14.9622292721
 20
13.3151347706
 30
0.0
 10
14.963382434
 20
13.3145619372
 30
0.0
 10
14.9657302351
 20
13.3134675568
 30
0.0
 10
14.9693403304
 20
13.311991599
 30
0.0
 10
14.9730390816
 20
13.3106797384
 30
0.0
 10
14.9768016204
 20
13.3095408103
 30
0.0
 10
14.9806027851
 20
13.3085824239
 30
0.0
 10
14.9844171648
 20
13.3078109943
 30
0.0
 10
14.9882191032
 20
13.3072316923
 30
0.0
 10
14.9907530476
 20
13.3069736697
 30
0.0
 10
14.9920119113
 20
13.3068785636
 30
0.0
  0
SPLINE
  5
36D
100
AcDbEntity
  8
LAYER_FEATURE
100
AcDbSpline
 62
7
  6
CONTINUOUS
 70
0
 71
3
 72
14
 73
10
 74
0
 42
0.0000001
 43
0.0000001
 44
0.0000000001
 40
0.0
 40
0.0
 40
0.0
 40
0.0
 40
0.2528058236
 40
0.3797570368
 40
0.5063949641
 40
0.6322174971
 40
0.7567325397
 40
0.8794857996
 40
1.0
 40
1.0
 40
1.0
 40
1.0
 10
15.0422234263
 20
13.3706143357
 30
0.0
 10
15.0413817597
 20
13.3709743904
 30
0.0
 10
15.0400921857
 20
13.3714587218
 30
0.0
 10
15.0383366548
 20
13.3719898153
 30
0.0
 10
15.0370049554
 20
13.3723297088
 30
0.0
 10
15.0356681969
 20
13.3726085057
 30
0.0
 10
15.0343340962
 20
13.3728246287
 30
0.0
 10
15.0330105578
 20
13.3729767601
 30
0.0
 10
15.0321312022
 20
13.3730355729
 30
0.0
 10
15.0316951818
 20
13.373053756
 30
0.0
  0
SPLINE
  5
36E
100
AcDbEntity
  8
LAYER_FEATURE
100
AcDbSpline
 62
7
  6
CONTINUOUS
 70
0
 71
3
 72
11
 73
7
 74
0
 42
0.0000001
 43
0.0000001
 44
0.0000000001
 40
0.0
 40
0.0
 40
0.0
 40
0.0
 40
0.2435784783
 40
0.491982218
 40
0.7444063181
 40
1.0
 40
1.0
 40
1.0
 40
1.0
 10
15.0550937218
 20
13.3637217936
 30
0.0
 10
15.0541041466
 20
13.3643771251
 30
0.0
 10
15.0520726206
 20
13.3656519131
 30
0.0
 10
15.0489128291
 20
13.3674356536
 30
0.0
 10
15.0456240531
 20
13.3691023835
 30
0.0
 10
15.0433684923
 20
13.3701244904
 30
0.0
 10
15.0422234263
 20
13.3706143357
 30
0.0
  0
SPLINE
  5
36F
100
AcDbEntity
  8
LAYER_FEATURE
100
AcDbSpline
 62
7
  6
CONTINUOUS
 70
0
 71
3
 72
23
 73
19
 74
0
 42
0.0000001
 43
0.0000001
 44
0.0000000001
 40
0.0
 40
0.0
 40
0.0
 40
0.0
 40
0.0607157807
 40
0.1225841545
 40
0.1854206313
 40
0.2490395294
 40
0.3132423168
 40
0.3778266938
 40
0.4425861141
 40
0.5073124756
 40
0.5717979948
 40
0.6358371874
 40
0.6992288821
 40
0.7617782553
 40
0.823298946
 40
0.8836152918
 40
0.9425646758
 40
1.0
 40
1.0
 40
1.0
 40
1.0
 10
15.0550937218
 20
13.3637217936
 30
0.0
 10
15.0559586462
 20
13.3631490101
 30
0.0
 10
15.0577320234
 20
13.3620330038
 30
0.0
 10
15.0604859926
 20
13.3604650738
 30
0.0
 10
15.0633484477
 20
13.3589933024
 30
0.0
 10
15.0663056053
 20
13.3576247352
 30
0.0
 10
15.0693434426
 20
13.3563658884
 30
0.0
 10
15.0724474467
 20
13.3552227633
 30
0.0
 10
15.0756028259
 20
13.3542008155
 30
0.0
 10
15.0787945285
 20
13.3533049166
 30
0.0
 10
15.0820073335
 20
13.3525393375
 30
0.0
 10
15.0852259211
 20
13.3519077282
 30
0.0
 10
15.0884349458
 20
13.3514131003
 30
0.0
 10
15.0916191153
 20
13.3510578133
 30
0.0
 10
15.0947632504
 20
13.3508435646
 30
0.0
 10
15.0978524093
 20
13.3507713815
 30
0.0
 10
15.1008717822
 20
13.3508416059
 30
0.0
 10
15.1028561457
 20
13.3509851419
 30
0.0
 10
15.1038327331
 20
13.3510815937
 30
0.0
  0
SPLINE
  5
370
100
AcDbEntity
  8
LAYER_FEATURE
100
AcDbSpline
 62
7
  6
CONTINUOUS
 70
0
 71
3
 72
11
 73
7
 74
0
 42
0.0000001
 43
0.0000001
 44
0.0000000001
 40
0.0
 40
0.0
 40
0.0
 40
0.0
 40
0.2554595464
 40
0.5063288483
 40
0.7539786362
 40
1.0
 40
1.0
 40
1.0
 40
1.0
 10
15.1199160738
 20
13.4016366279
 30
0.0
 10
15.1197878253
 20
13.4014792976
 30
0.0
 10
15.1195473762
 20
13.4011559195
 30
0.0
 10
15.1192360926
 20
13.4006430182
 30
0.0
 10
15.1189792069
 20
13.4001091034
 30
0.0
 10
15.1188446276
 20
13.3997398494
 30
0.0
 10
15.118786916
 20
13.3995530828
 30
0.0
  0
SPLINE
  5
371
100
AcDbEntity
  8
LAYER_FEATURE
100
AcDbSpline
 62
7
  6
CONTINUOUS
 70
0
 71
3
 72
15
 73
11
 74
0
 42
0.0000001
 43
0.0000001
 44
0.0000000001
 40
0.0
 40
0.0
 40
0.0
 40
0.0
 40
0.1217017897
 40
0.2453192934
 40
0.3703604524
 40
0.4963611552
 40
0.6228235506
 40
0.7492441569
 40
0.8751430397
 40
1.0
 40
1.0
 40
1.0
 40
1.0
 10
15.1565159728
 20
13.4040184334
 30
0.0
 10
15.1561328135
 20
13.4042393378
 30
0.0
 10
15.1553495063
 20
13.404665883
 30
0.0
 10
15.1541384037
 20
13.4052540701
 30
0.0
 10
15.1528875313
 20
13.4057929669
 30
0.0
 10
15.1516043027
 20
13.4062794179
 30
0.0
 10
15.150296176
 20
13.4067105637
 30
0.0
 10
15.1489707753
 20
13.407083923
 30
0.0
 10
15.147635931
 20
13.4073972537
 30
0.0
 10
15.1467400182
 20
13.407565858
 30
0.0
 10
15.1462922985
 20
13.4076395527
 30
0.0
  0
SPLINE
  5
372
100
AcDbEntity
  8
LAYER_FEATURE
100
AcDbSpline
 62
7
  6
CONTINUOUS
 70
0
 71
3
 72
11
 73
7
 74
0
 42
0.0000001
 43
0.0000001
 44
0.0000000001
 40
0.0
 40
0.0
 40
0.0
 40
0.0
 40
0.2400992471
 40
0.4872518884
 40
0.7407992707
 40
1.0
 40
1.0
 40
1.0
 40
1.0
 10
15.1677595526
 20
13.3960091161
 30
0.0
 10
15.1669314856
 20
13.3967431602
 30
0.0
 10
15.1652080934
 20
13.3981850001
 30
0.0
 10
15.1624760095
 20
13.4002349831
 30
0.0
 10
15.1595716807
 20
13.4021946359
 30
0.0
 10
15.1575509045
 20
13.40342176
 30
0.0
 10
15.1565159728
 20
13.4040184334
 30
0.0
  0
SPLINE
  5
373
100
AcDbEntity
  8
LAYER_FEATURE
100
AcDbSpline
 62
7
  6
CONTINUOUS
 70
0
 71
3
 72
15
 73
11
 74
0
 42
0.0000001
 43
0.0000001
 44
0.0000000001
 40
0.0
 40
0.0
 40
0.0
 40
0.0
 40
0.1090506486
 40
0.2229707835
 40
0.3417003981
 40
0.4651174094
 40
0.5929913774
 40
0.725013231
 40
0.8608346824
 40
1.0
 40
1.0
 40
1.0
 40
1.0
 10
16.3206072041
 20
12.7196007816
 30
0.0
 10
16.3204368325
 20
12.7198924133
 30
0.0
 10
16.320062462
 20
12.7204737977
 30
0.0
 10
16.3194216885
 20
12.7213172182
 30
0.0
 10
16.3186931237
 20
12.7221462607
 30
0.0
 10
16.3178811446
 20
12.7229560787
 30
0.0
 10
16.3169904338
 20
12.7237420146
 30
0.0
 10
16.3160261797
 20
12.7244995672
 30
0.0
 10
16.3149940516
 20
12.7252242532
 30
0.0
 10
16.3142726361
 20
12.7256777246
 30
0.0
 10
16.3139022906
 20
12.7258982325
 30
0.0
  0
SPLINE
  5
374
100
AcDbEntity
  8
LAYER_FEATURE
100
AcDbSpline
 62
7
  6
CONTINUOUS
 70
0
 71
3
 72
24
 73
20
 74
0
 42
0.0000001
 43
0.0000001
 44
0.0000000001
 40
0.0
 40
0.0
 40
0.0
 40
0.0
 40
0.0588578572
 40
0.1199396777
 40
0.1829433719
 40
0.2475211606
 40
0.3132938349
 40
0.3798580226
 40
0.4467951281
 40
0.5136794786
 40
0.5800864061
 40
0.6456003247
 40
0.7098229869
 40
0.7723821111
 40
0.8329406182
 40
0.8912066615
 40
0.9194093639
 40
0.9469560953
 40
1.0
 40
1.0
 40
1.0
 40
1.0
 10
15.1677595526
 20
13.3960091161
 30
0.0
 10
15.1687839308
 20
13.395101051
 30
0.0
 10
15.1709429144
 20
13.393330018
 30
0.0
 10
15.1744137359
 20
13.3908636946
 30
0.0
 10
15.1781498025
 20
13.3885568426
 30
0.0
 10
15.1821158254
 20
13.3864312995
 30
0.0
 10
15.1862745725
 20
13.384506964
 30
0.0
 10
15.1905869079
 20
13.382801957
 30
0.0
 10
15.1950122392
 20
13.3813323233
 30
0.0
 10
15.1995088938
 20
13.3801119003
 30
0.0
 10
15.2040345303
 20
13.3791521782
 30
0.0
 10
15.2085465552
 20
13.3784621916
 30
0.0
 10
15.2130025176
 20
13.3780484377
 30
0.0
 10
15.2173606073
 20
13.3779148291
 30
0.0
 10
15.2215797778
 20
13.3780626576
 30
0.0
 10
15.2249836865
 20
13.3784231491
 30
0.0
 10
15.2276007041
 20
13.3788552682
 30
0.0
 10
15.2300790226
 20
13.3793676231
 30
0.0
 10
15.2318904725
 20
13.3798616549
 30
0.0
 10
15.2330637901
 20
13.3802428777
 30
0.0
  0
SPLINE
  5
375
100
AcDbEntity
  8
LAYER_FEATURE
100
AcDbSpline
 62
7
  6
CONTINUOUS
 70
0
 71
3
 72
14
 73
10
 74
0
 42
0.0000001
 43
0.0000001
 44
0.0000000001
 40
0.0
 40
0.0
 40
0.0
 40
0.0
 40
0.2666129701
 40
0.3946032928
 40
0.5195464256
 40
0.6419642629
 40
0.7624273341
 40
0.8815540533
 40
1.0
 40
1.0
 40
1.0
 40
1.0
 10
15.247686868
 20
13.4222109744
 30
0.0
 10
15.2473494386
 20
13.4219782859
 30
0.0
 10
15.2468717957
 20
13.4215996241
 30
0.0
 10
15.2463077894
 20
13.4210331457
 30
0.0
 10
15.2459346754
 20
13.4205920288
 30
0.0
 10
15.2456070513
 20
13.4201302758
 30
0.0
 10
15.2453258151
 20
13.4196491501
 30
0.0
 10
15.2450919096
 20
13.4191500835
 30
0.0
 10
15.2449677967
 20
13.4188059271
 30
0.0
 10
15.2449140341
 20
13.4186319502
 30
0.0
  0
SPLINE
  5
376
100
AcDbEntity
  8
LAYER_FEATURE
100
AcDbSpline
 62
7
  6
CONTINUOUS
 70
0
 71
3
 72
15
 73
11
 74
0
 42
0.0000001
 43
0.0000001
 44
0.0000000001
 40
0.0
 40
0.0
 40
0.0
 40
0.0
 40
0.1124507588
 40
0.2291449737
 40
0.3498061729
 40
0.4741345953
 40
0.6017548964
 40
0.7322437315
 40
0.8651646691
 40
1.0
 40
1.0
 40
1.0
 40
1.0
 10
16.3282803366
 20
12.8083949294
 30
0.0
 10
16.3280313645
 20
12.8086766136
 30
0.0
 10
16.3275039509
 20
12.8092331269
 30
0.0
 10
16.3266471559
 20
12.8100300756
 30
0.0
 10
16.3257144337
 20
12.810800618
 30
0.0
 10
16.3247113335
 20
12.811540238
 30
0.0
 10
16.323643654
 20
12.8122446355
 30
0.0
 10
16.3225176128
 20
12.812909754
 30
0.0
 10
16.3213398435
 20
12.8135316364
 30
0.0
 10
16.320529486
 20
12.8139127942
 30
0.0
 10
16.3201173802
 20
12.8140954692
 30
0.0
  0
SPLINE
  5
377
100
AcDbEntity
  8
LAYER_FEATURE
100
AcDbSpline
 62
7
  6
CONTINUOUS
 70
0
 71
3
 72
14
 73
10
 74
0
 42
0.0000001
 43
0.0000001
 44
0.0000000001
 40
0.0
 40
0.0
 40
0.0
 40
0.0
 40
0.117439037
 40
0.2379251436
 40
0.3610325119
 40
0.4863441072
 40
0.6133935245
 40
0.7416922167
 40
1.0
 40
1.0
 40
1.0
 40
1.0
 10
15.2867123002
 20
13.4195742534
 30
0.0
 10
15.2863809712
 20
13.4198283438
 30
0.0
 10
15.2856953279
 20
13.4203246007
 30
0.0
 10
15.2846175856
 20
13.4210227711
 30
0.0
 10
15.2834825019
 20
13.4216809888
 30
0.0
 10
15.2822968252
 20
13.4222953855
 30
0.0
 10
15.2810673778
 20
13.4228623917
 30
0.0
 10
15.279375975
 20
13.4235521872
 30
0.0
 10
15.2780694005
 20
13.4239865469
 30
0.0
 10
15.2771860861
 20
13.424237914
 30
0.0
  0
SPLINE
  5
378
100
AcDbEntity
  8
LAYER_FEATURE
100
AcDbSpline
 62
7
  6
CONTINUOUS
 70
0
 71
3
 72
11
 73
7
 74
0
 42
0.0000001
 43
0.0000001
 44
0.0000000001
 40
0.0
 40
0.0
 40
0.0
 40
0.0
 40
0.2369409488
 40
0.4828700106
 40
0.7373981177
 40
1.0
 40
1.0
 40
1.0
 40
1.0
 10
15.2958970798
 20
13.4107559545
 30
0.0
 10
15.2952644538
 20
13.4115405108
 30
0.0
 10
15.2939190866
 20
13.4130948046
 30
0.0
 10
15.2917190706
 20
13.4153329997
 30
0.0
 10
15.2893101794
 20
13.4175108571
 30
0.0
 10
15.2875986594
 20
13.4188945199
 30
0.0
 10
15.2867123002
 20
13.4195742534
 30
0.0
  0
SPLINE
  5
379
100
AcDbEntity
  8
LAYER_FEATURE
100
AcDbSpline
 62
7
  6
CONTINUOUS
 70
0
 71
3
 72
38
 73
34
 74
0
 42
0.0000001
 43
0.0000001
 44
0.0000000001
 40
0.0
 40
0.0
 40
0.0
 40
0.0
 40
0.0277976713
 40
0.0565181202
 40
0.0861258188
 40
0.1165804972
 40
0.1478291942
 40
0.1798114253
 40
0.212459343
 40
0.2456987711
 40
0.279450251
 40
0.3136298207
 40
0.3481498915
 40
0.3829200869
 40
0.4178480035
 40
0.4528399568
 40
0.4878017509
 40
0.5226394459
 40
0.5572600911
 40
0.5915724683
 40
0.6254878997
 40
0.6589210518
 40
0.6917907335
 40
0.7240207452
 40
0.7555408366
 40
0.7862877101
 40
0.8162060257
 40
0.8452495267
 40
0.8733823154
 40
0.9005802738
 40
0.9268324666
 40
0.9521426876
 40
1.0
 40
1.0
 40
1.0
 40
1.0
 10
15.2958970798
 20
13.4107559545
 30
0.0
 10
15.2964020352
 20
13.4101297299
 30
0.0
 10
15.297467353
 20
13.4088872334
 30
0.0
 10
15.2991928601
 20
13.4070871097
 30
0.0
 10
15.3010657639
 20
13.405326605
 30
0.0
 10
15.3030784381
 20
13.4036127871
 30
0.0
 10
15.3052229447
 20
13.4019524292
 30
0.0
 10
15.3074907034
 20
13.4003521413
 30
0.0
 10
15.3098726716
 20
13.3988182872
 30
0.0
 10
15.3123593473
 20
13.3973569812
 30
0.0
 10
15.3149408084
 20
13.3959740554
 30
0.0
 10
15.3176067495
 20
13.3946750307
 30
0.0
 10
15.3203465209
 20
13.393465088
 30
0.0
 10
15.3231491793
 20
13.3923490593
 30
0.0
 10
15.3260035302
 20
13.3913314056
 30
0.0
 10
15.3288981712
 20
13.3904161977
 30
0.0
 10
15.3318215347
 20
13.3896070863
 30
0.0
 10
15.3347619408
 20
13.3889073021
 30
0.0
 10
15.3377076431
 20
13.3883196418
 30
0.0
 10
15.3406468759
 20
13.3878464598
 30
0.0
 10
15.3435679001
 20
13.3874896423
 30
0.0
 10
15.3464590539
 20
13.3872506114
 30
0.0
 10
15.349308799
 20
13.3871303237
 30
0.0
 10
15.3521057671
 20
13.3871292699
 30
0.0
 10
15.3548388065
 20
13.3872474626
 30
0.0
 10
15.3574970287
 20
13.3874844365
 30
0.0
 10
15.3600698539
 20
13.3878392679
 30
0.0
 10
15.3625470373
 20
13.3883105731
 30
0.0
 10
15.364918759
 20
13.3888965424
 30
0.0
 10
15.3671754924
 20
13.3895948409
 30
0.0
 10
15.3693086449
 20
13.3904029887
 30
0.0
 10
15.3719263403
 20
13.3915996273
 30
0.0
 10
15.3737580943
 20
13.3926837006
 30
0.0
 10
15.3748850002
 20
13.3934888121
 30
0.0
  0
SPLINE
  5
37A
100
AcDbEntity
  8
LAYER_FEATURE
100
AcDbSpline
 62
7
  6
CONTINUOUS
 70
0
 71
3
 72
14
 73
10
 74
0
 42
0.0000001
 43
0.0000001
 44
0.0000000001
 40
0.0
 40
0.0
 40
0.0
 40
0.0
 40
0.1164554475
 40
0.2362076445
 40
0.3588523271
 40
0.4839888183
 40
0.6111628538
 40
0.7398937292
 40
1.0
 40
1.0
 40
1.0
 40
1.0
 10
16.3068270025
 20
12.9022302767
 30
0.0
 10
16.3065099178
 20
12.9024908376
 30
0.0
 10
16.3058514371
 20
12.9030009201
 30
0.0
 10
16.3048113346
 20
12.90372126
 30
0.0
 10
16.3037100501
 20
12.9044040799
 30
0.0
 10
16.3025541331
 20
12.9050453668
 30
0.0
 10
16.3013502312
 20
12.9056413987
 30
0.0
 10
16.2996851308
 20
12.906373477
 30
0.0
 10
16.2983943983
 20
12.9068406742
 30
0.0
 10
16.2975197012
 20
12.9071148369
 30
0.0
  0
SPLINE
  5
37B
100
AcDbEntity
  8
LAYER_FEATURE
100
AcDbSpline
 62
7
  6
CONTINUOUS
 70
0
 71
3
 72
11
 73
7
 74
0
 42
0.0000001
 43
0.0000001
 44
0.0000000001
 40
0.0
 40
0.0
 40
0.0
 40
0.0
 40
0.2521121685
 40
0.5034089548
 40
0.7529966775
 40
1.0
 40
1.0
 40
1.0
 40
1.0
 10
16.2975197012
 20
12.9071148369
 30
0.0
 10
16.2963125367
 20
12.9074932073
 30
0.0
 10
16.2938860338
 20
12.9081984854
 30
0.0
 10
16.2902157192
 20
12.9091005321
 30
0.0
 10
16.2865356686
 20
12.9098415529
 30
0.0
 10
16.2840730393
 20
12.9102280591
 30
0.0
 10
16.2828446274
 20
12.9103930131
 30
0.0
  0
SPLINE
  5
37C
100
AcDbEntity
  8
LAYER_FEATURE
100
AcDbSpline
 62
7
  6
CONTINUOUS
 70
0
 71
3
 72
16
 73
12
 74
0
 42
0.0000001
 43
0.0000001
 44
0.0000000001
 40
0.0
 40
0.0
 40
0.0
 40
0.0
 40
0.1430073749
 40
0.2797571765
 40
0.4105328953
 40
0.4738619968
 40
0.5359112807
 40
0.6565114227
 40
0.7732948098
 40
0.8873827504
 40
1.0
 40
1.0
 40
1.0
 40
1.0
 10
15.3878577967
 20
13.424237914
 30
0.0
 10
15.3875462648
 20
13.4241149045
 30
0.0
 10
15.3869457673
 20
13.4238505749
 30
0.0
 10
15.3861013248
 20
13.4233882496
 30
0.0
 10
15.3854586119
 20
13.4229528611
 30
0.0
 10
15.3849895216
 20
13.4225784388
 30
0.0
 10
15.3845590536
 20
13.4221952137
 30
0.0
 10
15.3840746985
 20
13.4216857078
 30
0.0
 10
15.3835821304
 20
13.4210235184
 30
0.0
 10
15.3831870115
 20
13.4203202495
 30
0.0
 10
15.3829897293
 20
13.4198252814
 30
0.0
 10
15.382908767
 20
13.4195742534
 30
0.0
  0
SPLINE
  5
37D
100
AcDbEntity
  8
LAYER_FEATURE
100
AcDbSpline
 62
7
  6
CONTINUOUS
 70
0
 71
3
 72
14
 73
10
 74
0
 42
0.0000001
 43
0.0000001
 44
0.0000000001
 40
0.0
 40
0.0
 40
0.0
 40
0.0
 40
0.1206920719
 40
0.2435753927
 40
0.3681703191
 40
0.4940209459
 40
0.6206341802
 40
0.7475075764
 40
1.0
 40
1.0
 40
1.0
 40
1.0
 10
16.2570716416
 20
12.9975007838
 30
0.0
 10
16.2566993814
 20
12.9977302983
 30
0.0
 10
16.2559364112
 20
12.9981747897
 30
0.0
 10
16.2547527218
 20
12.9987910851
 30
0.0
 10
16.2535249549
 20
12.9993601352
 30
0.0
 10
16.2522604059
 20
12.9998785993
 30
0.0
 10
16.2509663569
 20
13.0003434575
 30
0.0
 10
16.2492150257
 20
13.0008871619
 30
0.0
 10
16.2478760325
 20
13.0012084673
 30
0.0
 10
16.2469776697
 20
13.0013816535
 30
0.0
  0
SPLINE
  5
37E
100
AcDbEntity
  8
LAYER_FEATURE
100
AcDbSpline
 62
7
  6
CONTINUOUS
 70
0
 71
3
 72
11
 73
7
 74
0
 42
0.0000001
 43
0.0000001
 44
0.0000000001
 40
0.0
 40
0.0
 40
0.0
 40
0.0
 40
0.2557438757
 40
0.5082157975
 40
0.7565680223
 40
1.0
 40
1.0
 40
1.0
 40
1.0
 10
16.2469776697
 20
13.0013816535
 30
0.0
 10
16.2457562243
 20
13.0016171235
 30
0.0
 10
16.2433186625
 20
13.0020334509
 30
0.0
 10
16.23966648
 20
13.0024940147
 30
0.0
 10
16.2360569256
 20
13.0027849709
 30
0.0
 10
16.233665178
 20
13.002865719
 30
0.0
 10
16.2324811765
 20
13.0028764757
 30
0.0
  0
SPLINE
  5
37F
100
AcDbEntity
  8
LAYER_FEATURE
100
AcDbSpline
 62
7
  6
CONTINUOUS
 70
0
 71
3
 72
15
 73
11
 74
0
 42
0.0000001
 43
0.0000001
 44
0.0000000001
 40
0.0
 40
0.0
 40
0.0
 40
0.0
 40
0.1133578277
 40
0.230756603
 40
0.3518834543
 40
0.4764094213
 40
0.6039358911
 40
0.7340219438
 40
0.8662184246
 40
1.0
 40
1.0
 40
1.0
 40
1.0
 10
15.4278090365
 20
13.4166839943
 30
0.0
 10
15.4275429715
 20
13.4169616634
 30
0.0
 10
15.4269825117
 20
13.4175090953
 30
0.0
 10
15.4260793013
 20
13.4182906287
 30
0.0
 10
15.4251033956
 20
13.4190430362
 30
0.0
 10
15.4240605953
 20
13.4197619059
 30
0.0
 10
15.4229569338
 20
13.4204430511
 30
0.0
 10
15.4217988391
 20
13.4210825466
 30
0.0
 10
15.4205931367
 20
13.4216765841
 30
0.0
 10
15.4197661132
 20
13.4220383535
 30
0.0
 10
15.4193463697
 20
13.4222109744
 30
0.0
  0
SPLINE
  5
380
100
AcDbEntity
  8
LAYER_FEATURE
100
AcDbSpline
 62
7
  6
CONTINUOUS
 70
0
 71
3
 72
11
 73
7
 74
0
 42
0.0000001
 43
0.0000001
 44
0.0000000001
 40
0.0
 40
0.0
 40
0.0
 40
0.0
 40
0.2347045641
 40
0.4795796381
 40
0.7347190845
 40
1.0
 40
1.0
 40
1.0
 40
1.0
 10
15.4345820501
 20
13.407395596
 30
0.0
 10
15.4341716135
 20
13.408199169
 30
0.0
 10
15.4332607093
 20
13.4098050344
 30
0.0
 10
15.4316768896
 20
13.4121468975
 30
0.0
 10
15.4298554558
 20
13.4144604391
 30
0.0
 10
15.4285146454
 20
13.4159476111
 30
0.0
 10
15.4278090365
 20
13.4166839943
 30
0.0
  0
SPLINE
  5
381
100
AcDbEntity
  8
LAYER_FEATURE
100
AcDbSpline
 62
7
  6
CONTINUOUS
 70
0
 71
3
 72
42
 73
38
 74
0
 42
0.0000001
 43
0.0000001
 44
0.0000000001
 40
0.0
 40
0.0
 40
0.0
 40
0.0
 40
0.0262893982
 40
0.0538032925
 40
0.0825500121
 40
0.1125092237
 40
0.1436343728
 40
0.1758569927
 40
0.2090896041
 40
0.2432287088
 40
0.2781573603
 40
0.3137475579
 40
0.3498624505
 40
0.386358414
 40
0.4230870304
 40
0.4598970053
 40
0.4966360465
 40
0.5331527312
 40
0.5692983836
 40
0.6049289879
 40
0.6399071637
 40
0.6741042336
 40
0.7074024209
 40
0.739697219
 40
0.7708999818
 40
0.8009407862
 40
0.8297716161
 40
0.8573698909
 40
0.8837423107
 40
0.9089288787
 40
0.9330067601
 40
0.9446695968
 40
0.9561027964
 40
0.9673275865
 40
0.9783676046
 40
0.9892490119
 40
1.0
 40
1.0
 40
1.0
 40
1.0
 10
15.4345820501
 20
13.407395596
 30
0.0
 10
15.4349899341
 20
13.4065970206
 30
0.0
 10
15.4359021303
 20
13.4050013231
 30
0.0
 10
15.4375013036
 20
13.4026803751
 30
0.0
 10
15.4393523528
 20
13.4003916273
 30
0.0
 10
15.4414437169
 20
13.3981490949
 30
0.0
 10
15.4437626461
 20
13.3959662057
 30
0.0
 10
15.4462949444
 20
13.3938561944
 30
0.0
 10
15.4490251423
 20
13.391831874
 30
0.0
 10
15.451936544
 20
13.3899055796
 30
0.0
 10
15.4550113374
 20
13.3880890731
 30
0.0
 10
15.4582306966
 20
13.3863934644
 30
0.0
 10
15.4615748997
 20
13.3848291358
 30
0.0
 10
15.4650234499
 20
13.3834056733
 30
0.0
 10
15.4685552036
 20
13.382131804
 30
0.0
 10
15.4721485029
 20
13.3810153398
 30
0.0
 10
15.4757813104
 20
13.3800631281
 30
0.0
 10
15.4794313482
 20
13.379281008
 30
0.0
 10
15.483076237
 20
13.3786737753
 30
0.0
 10
15.4866936375
 20
13.3782451531
 30
0.0
 10
15.4902613909
 20
13.3779977716
 30
0.0
 10
15.493757659
 20
13.3779331546
 30
0.0
 10
15.4971610617
 20
13.3780517161
 30
0.0
 10
15.5004508122
 20
13.3783527657
 30
0.0
 10
15.5036068465
 20
13.378834525
 30
0.0
 10
15.506609943
 20
13.3794941527
 30
0.0
 10
15.5094418395
 20
13.3803277908
 30
0.0
 10
15.5120853012
 20
13.3813305896
 30
0.0
 10
15.5145242719
 20
13.3824968442
 30
0.0
 10
15.5167436158
 20
13.383819761
 30
0.0
 10
15.5184164822
 20
13.3850599368
 30
0.0
 10
15.5196256477
 20
13.3861226611
 30
0.0
 10
15.5204598696
 20
13.3869449224
 30
0.0
 10
15.5212296299
 20
13.3877994476
 30
0.0
 10
15.5219337004
 20
13.3886850084
 30
0.0
 10
15.5225709666
 20
13.3896001452
 30
0.0
 10
15.5229525836
 20
13.3902324026
 30
0.0
 10
15.5231314739
 20
13.3905525169
 30
0.0
  0
SPLINE
  5
382
100
AcDbEntity
  8
LAYER_FEATURE
100
AcDbSpline
 62
7
  6
CONTINUOUS
 70
0
 71
3
 72
14
 73
10
 74
0
 42
0.0000001
 43
0.0000001
 44
0.0000000001
 40
0.0
 40
0.0
 40
0.0
 40
0.0
 40
0.2510215859
 40
0.3775283129
 40
0.5040239543
 40
0.6300050802
 40
0.7549745402
 40
0.8784695237
 40
1.0
 40
1.0
 40
1.0
 40
1.0
 10
16.1809263243
 20
13.0905452585
 30
0.0
 10
16.180098074
 20
13.09092659
 30
0.0
 10
16.1788253235
 20
13.0914435837
 30
0.0
 10
16.1770872037
 20
13.0920199903
 30
0.0
 10
16.1757623601
 20
13.0923958076
 30
0.0
 10
16.1744277516
 20
13.0927116841
 30
0.0
 10
16.1730910827
 20
13.0929658289
 30
0.0
 10
16.1717602728
 20
13.093156699
 30
0.0
 10
16.1708739162
 20
13.0932418416
 30
0.0
 10
16.1704335875
 20
13.093273298
 30
0.0
  0
SPLINE
  5
383
100
AcDbEntity
  8
LAYER_FEATURE
100
AcDbSpline
 62
7
  6
CONTINUOUS
 70
0
 71
3
 72
11
 73
7
 74
0
 42
0.0000001
 43
0.0000001
 44
0.0000000001
 40
0.0
 40
0.0
 40
0.0
 40
0.0
 40
0.2593474652
 40
0.5129391752
 40
0.7600401597
 40
1.0
 40
1.0
 40
1.0
 40
1.0
 10
16.1704335875
 20
13.093273298
 30
0.0
 10
16.1692447202
 20
13.0933582289
 30
0.0
 10
16.16688913
 20
13.093472512
 30
0.0
 10
16.1633947992
 20
13.0934739428
 30
0.0
 10
16.1599937564
 20
13.0933036584
 30
0.0
 10
16.1577659485
 20
13.0930726276
 30
0.0
 10
16.1566727671
 20
13.092927321
 30
0.0
  0
SPLINE
  5
384
100
AcDbEntity
  8
LAYER_FEATURE
100
AcDbSpline
 62
7
  6
CONTINUOUS
 70
0
 71
3
 72
11
 73
7
 74
0
 42
0.0000001
 43
0.0000001
 44
0.0000000001
 40
0.0
 40
0.0
 40
0.0
 40
0.0
 40
0.2544281195
 40
0.50510819
 40
0.7532028071
 40
1.0
 40
1.0
 40
1.0
 40
1.0
 10
15.5283724698
 20
13.4040184334
 30
0.0
 10
15.5280593782
 20
13.4036026662
 30
0.0
 10
15.5274710552
 20
13.4027515267
 30
0.0
 10
15.5267047147
 20
13.401412706
 30
0.0
 10
15.5260643078
 20
13.400026411
 30
0.0
 10
15.5257221573
 20
13.3990719417
 30
0.0
 10
15.5255730974
 20
13.3985895888
 30
0.0
  0
SPLINE
  5
385
100
AcDbEntity
  8
LAYER_FEATURE
100
AcDbSpline
 62
7
  6
CONTINUOUS
 70
0
 71
3
 72
15
 73
11
 74
0
 42
0.0000001
 43
0.0000001
 44
0.0000000001
 40
0.0
 40
0.0
 40
0.0
 40
0.0
 40
0.1443891649
 40
0.2830678618
 40
0.4159125325
 40
0.5429871493
 40
0.6644796894
 40
0.7807488041
 40
0.8923534404
 40
1.0
 40
1.0
 40
1.0
 40
1.0
 10
15.5350421696
 20
13.4076395527
 30
0.0
 10
15.5346759506
 20
13.4075676587
 30
0.0
 10
15.533962155
 20
13.4074041273
 30
0.0
 10
15.5329324946
 20
13.4070920303
 30
0.0
 10
15.5319707503
 20
13.4067195965
 30
0.0
 10
15.5310825919
 20
13.4062889421
 30
0.0
 10
15.5302732061
 20
13.4058023634
 30
0.0
 10
15.5295473316
 20
13.4052624816
 30
0.0
 10
15.5289095476
 20
13.4046723432
 30
0.0
 10
15.528539846
 20
13.4042406992
 30
0.0
 10
15.5283724698
 20
13.4040184334
 30
0.0
  0
SPLINE
  5
386
100
AcDbEntity
  8
LAYER_FEATURE
100
AcDbSpline
 62
7
  6
CONTINUOUS
 70
0
 71
3
 72
14
 73
10
 74
0
 42
0.0000001
 43
0.0000001
 44
0.0000000001
 40
0.0
 40
0.0
 40
0.0
 40
0.0
 40
0.2586232358
 40
0.3869980503
 40
0.5140697079
 40
0.639350906
 40
0.7623772227
 40
0.8827343269
 40
1.0
 40
1.0
 40
1.0
 40
1.0
 10
16.0813172726
 20
13.1777880538
 30
0.0
 10
16.0804449972
 20
13.1780747312
 30
0.0
 10
16.0791200007
 20
13.1784469545
 30
0.0
 10
16.0773336678
 20
13.1788229957
 30
0.0
 10
16.0759992983
 20
13.1790417601
 30
0.0
 10
16.0746751559
 20
13.1791965842
 30
0.0
 10
16.0733688781
 20
13.1792866058
 30
0.0
 10
16.072088206
 20
13.179311252
 30
0.0
 10
16.0712445588
 20
13.1792836413
 30
0.0
 10
16.0708290008
 20
13.1792584262
 30
0.0
  0
SPLINE
  5
387
100
AcDbEntity
  8
LAYER_FEATURE
100
AcDbSpline
 62
7
  6
CONTINUOUS
 70
0
 71
3
 72
11
 73
7
 74
0
 42
0.0000001
 43
0.0000001
 44
0.0000000001
 40
0.0
 40
0.0
 40
0.0
 40
0.0
 40
0.2627322962
 40
0.5172952662
 40
0.7631758704
 40
1.0
 40
1.0
 40
1.0
 40
1.0
 10
16.0708290008
 20
13.1792584262
 30
0.0
 10
16.0697177439
 20
13.1791909975
 30
0.0
 10
16.0675327016
 20
13.1790017236
 30
0.0
 10
16.0643296503
 20
13.1785438166
 30
0.0
 10
16.0612668628
 20
13.177918555
 30
0.0
 10
16.0592912461
 20
13.1773819081
 30
0.0
 10
16.0583326738
 20
13.1770849457
 30
0.0
  0
SPLINE
  5
388
100
AcDbEntity
  8
LAYER_FEATURE
100
AcDbSpline
 62
7
  6
CONTINUOUS
 70
0
 71
3
 72
15
 73
11
 74
0
 42
0.0000001
 43
0.0000001
 44
0.0000000001
 40
0.0
 40
0.0
 40
0.0
 40
0.0
 40
0.1097639753
 40
0.2242932166
 40
0.3434660338
 40
0.4671091285
 40
0.5949498652
 40
0.7266453264
 40
0.8618205232
 40
1.0
 40
1.0
 40
1.0
 40
1.0
 10
15.5743839135
 20
13.3954587271
 30
0.0
 10
15.5741942312
 20
13.3957490839
 30
0.0
 10
15.5737821033
 20
13.3963266658
 30
0.0
 10
15.5730878996
 20
13.3971619463
 30
0.0
 10
15.5723084192
 20
13.3979799597
 30
0.0
 10
15.571448328
 20
13.3987759207
 30
0.0
 10
15.5705125868
 20
13.3995452373
 30
0.0
 10
15.5695066444
 20
13.4002834961
 30
0.0
 10
15.5684364177
 20
13.4009863212
 30
0.0
 10
15.567691504
 20
13.4014242868
 30
0.0
 10
15.5673100094
 20
13.4016366279
 30
0.0
  0
SPLINE
  5
389
100
AcDbEntity
  8
LAYER_FEATURE
100
AcDbSpline
 62
7
  6
CONTINUOUS
 70
0
 71
3
 72
11
 73
7
 74
0
 42
0.0000001
 43
0.0000001
 44
0.0000000001
 40
0.0
 40
0.0
 40
0.0
 40
0.0
 40
0.2346818148
 40
0.4790283436
 40
0.7339402419
 40
1.0
 40
1.0
 40
1.0
 40
1.0
 10
15.5784848778
 20
13.3860571775
 30
0.0
 10
15.5783140122
 20
13.3868454262
 30
0.0
 10
15.5778773066
 20
13.388436371
 30
0.0
 10
15.5769713278
 20
13.3907942926
 30
0.0
 10
15.5758075295
 20
13.3931566966
 30
0.0
 10
15.574884008
 20
13.3946932053
 30
0.0
 10
15.5743839135
 20
13.3954587271
 30
0.0
  0
SPLINE
  5
38A
100
AcDbEntity
  8
LAYER_FEATURE
100
AcDbSpline
 62
7
  6
CONTINUOUS
 70
0
 71
3
 72
16
 73
12
 74
0
 42
0.0000001
 43
0.0000001
 44
0.0000000001
 40
0.0
 40
0.0
 40
0.0
 40
0.0
 40
0.1123024985
 40
0.2262074506
 40
0.3429224729
 40
0.4635467927
 40
0.5256349229
 40
0.5890168413
 40
0.7199287646
 40
0.8568355795
 40
1.0
 40
1.0
 40
1.0
 40
1.0
 10
15.9908954365
 20
13.2332386999
 30
0.0
 10
15.9909666778
 20
13.2334928817
 30
0.0
 10
15.9910758008
 20
13.2340151902
 30
0.0
 10
15.9911353513
 20
13.2348212256
 30
0.0
 10
15.991091289
 20
13.2356477792
 30
0.0
 10
15.9909698772
 20
13.2363427517
 30
0.0
 10
15.9908235981
 20
13.2369026515
 30
0.0
 10
15.9906403378
 20
13.237477028
 30
0.0
 10
15.9903464516
 20
13.2381994389
 30
0.0
 10
15.9898998297
 20
13.2390573942
 30
0.0
 10
15.9895466624
 20
13.2396140061
 30
0.0
 10
15.9893556383
 20
13.2398910544
 30
0.0
  0
SPLINE
  5
38B
100
AcDbEntity
  8
LAYER_FEATURE
100
AcDbSpline
 62
7
  6
CONTINUOUS
 70
0
 71
3
 72
15
 73
11
 74
0
 42
0.0000001
 43
0.0000001
 44
0.0000000001
 40
0.0
 40
0.0
 40
0.0
 40
0.0
 40
0.1339668222
 40
0.266291049
 40
0.3964485281
 40
0.5239921581
 40
0.6484838969
 40
0.7695289757
 40
0.8868032793
 40
1.0
 40
1.0
 40
1.0
 40
1.0
 10
15.9620724064
 20
13.2558764781
 30
0.0
 10
15.9616284967
 20
13.2559685585
 30
0.0
 10
15.9607419172
 20
13.256132005
 30
0.0
 10
15.9594123663
 20
13.2563149836
 30
0.0
 10
15.9580972965
 20
13.2564334748
 30
0.0
 10
15.9568044797
 20
13.2564868125
 30
0.0
 10
15.9555414217
 20
13.2564746509
 30
0.0
 10
15.9543154443
 20
13.2563970829
 30
0.0
 10
15.9531338008
 20
13.2562545186
 30
0.0
 10
15.9523659721
 20
13.2561141166
 30
0.0
 10
15.9519916581
 20
13.2560326777
 30
0.0
  0
SPLINE
  5
38C
100
AcDbEntity
  8
LAYER_FEATURE
100
AcDbSpline
 62
7
  6
CONTINUOUS
 70
0
 71
3
 72
11
 73
7
 74
0
 42
0.0000001
 43
0.0000001
 44
0.0000000001
 40
0.0
 40
0.0
 40
0.0
 40
0.0
 40
0.2653619491
 40
0.5205128622
 40
0.7653521566
 40
1.0
 40
1.0
 40
1.0
 40
1.0
 10
15.9519916581
 20
13.2560326777
 30
0.0
 10
15.9509992864
 20
13.2558167689
 30
0.0
 10
15.9490650306
 20
13.2553334838
 30
0.0
 10
15.9462752236
 20
13.2544331458
 30
0.0
 10
15.9436672175
 20
13.253375914
 30
0.0
 10
15.9420243657
 20
13.252552627
 30
0.0
 10
15.9412400513
 20
13.2521152193
 30
0.0
  0
SPLINE
  5
38D
100
AcDbEntity
  8
LAYER_FEATURE
100
AcDbSpline
 62
7
  6
CONTINUOUS
 70
0
 71
3
 72
41
 73
37
 74
0
 42
0.0000001
 43
0.0000001
 44
0.0000000001
 40
0.0
 40
0.0
 40
0.0
 40
0.0
 40
0.0239599544
 40
0.0490851511
 40
0.0754891386
 40
0.1032351723
 40
0.1323419484
 40
0.1627889295
 40
0.1945219169
 40
0.22745802
 40
0.2614901489
 40
0.2964910089
 40
0.3323166905
 40
0.368809937
 40
0.4058031687
 40
0.44312133
 40
0.4805846172
 40
0.5180111326
 40
0.5552195075
 40
0.592031533
 40
0.628274839
 40
0.6637856632
 40
0.6984117633
 40
0.7320155301
 40
0.7644773754
 40
0.7956994759
 40
0.8256099579
 40
0.8541675903
 40
0.8813669895
 40
0.9072442091
 40
0.9318822414
 40
0.9554157189
 40
0.9668308682
 40
0.978045447
 40
0.9890912837
 40
1.0
 40
1.0
 40
1.0
 40
1.0
 10
15.5784848778
 20
13.3860571775
 30
0.0
 10
15.5786691714
 20
13.3852069816
 30
0.0
 10
15.5791580306
 20
13.3834879061
 30
0.0
 10
15.5802038964
 20
13.3809490255
 30
0.0
 10
15.5815699605
 20
13.3784101955
 30
0.0
 10
15.5832457375
 20
13.3758896023
 30
0.0
 10
15.5852189294
 20
13.3734046144
 30
0.0
 10
15.5874752572
 20
13.3709726741
 30
0.0
 10
15.5899985106
 20
13.3686109017
 30
0.0
 10
15.592770602
 20
13.3663360387
 30
0.0
 10
15.5957716639
 20
13.3641642801
 30
0.0
 10
15.5989801745
 20
13.3621111432
 30
0.0
 10
15.6023731043
 20
13.3601913354
 30
0.0
 10
15.6059260801
 20
13.3584186346
 30
0.0
 10
15.609613561
 20
13.3568057789
 30
0.0
 10
15.6134090257
 20
13.3553643672
 30
0.0
 10
15.6172851668
 20
13.35410477
 30
0.0
 10
15.6212140924
 20
13.3530360511
 30
0.0
 10
15.625167532
 20
13.3521659005
 30
0.0
 10
15.6291170449
 20
13.3515005782
 30
0.0
 10
15.6330342319
 20
13.3510448703
 30
0.0
 10
15.6368909457
 20
13.3508020584
 30
0.0
 10
15.6406595007
 20
13.3507739013
 30
0.0
 10
15.6443128792
 20
13.350960633
 30
0.0
 10
15.6478249311
 20
13.3513609763
 30
0.0
 10
15.6511705652
 20
13.3519721755
 30
0.0
 10
15.6543259205
 20
13.3527900449
 30
0.0
 10
15.6572685241
 20
13.3538090519
 30
0.0
 10
15.6599773727
 20
13.3550223623
 30
0.0
 10
15.6624330899
 20
13.3564220603
 30
0.0
 10
15.6646175689
 20
13.3579987277
 30
0.0
 10
15.6662148613
 20
13.3594669903
 30
0.0
 10
15.6673331307
 20
13.3607169082
 30
0.0
 10
15.6680863003
 20
13.3616813441
 30
0.0
 10
15.6687606705
 20
13.3626802551
 30
0.0
 10
15.669159067
 20
13.3633716269
 30
0.0
 10
15.6693441581
 20
13.3637217936
 30
0.0
  0
SPLINE
  5
38E
100
AcDbEntity
  8
LAYER_FEATURE
100
AcDbSpline
 62
7
  6
CONTINUOUS
 70
0
 71
3
 72
13
 73
9
 74
0
 42
0.0000001
 43
0.0000001
 44
0.0000000001
 40
0.0
 40
0.0
 40
0.0
 40
0.0
 40
0.2626942602
 40
0.5157213188
 40
0.6391642542
 40
0.7608513882
 40
0.8810440797
 40
1.0
 40
1.0
 40
1.0
 40
1.0
 10
15.6754497167
 20
13.3706143357
 30
0.0
 10
15.6747954598
 20
13.3701318987
 30
0.0
 10
15.6735551695
 20
13.3691227692
 30
0.0
 10
15.6721578937
 20
13.3677169908
 30
0.0
 10
15.6711680128
 20
13.3665343107
 30
0.0
 10
15.6704937135
 20
13.3656261025
 30
0.0
 10
15.6698825972
 20
13.3646908258
 30
0.0
 10
15.6695161776
 20
13.3640472307
 30
0.0
 10
15.6693441581
 20
13.3637217936
 30
0.0
  0
SPLINE
  5
38F
100
AcDbEntity
  8
LAYER_FEATURE
100
AcDbSpline
 62
7
  6
CONTINUOUS
 70
0
 71
3
 72
15
 73
11
 74
0
 42
0.0000001
 43
0.0000001
 44
0.0000000001
 40
0.0
 40
0.0
 40
0.0
 40
0.0
 40
0.1075531331
 40
0.2191328913
 40
0.3354228633
 40
0.4569600517
 40
0.584083096
 40
0.7169623637
 40
0.8556467361
 40
1.0
 40
1.0
 40
1.0
 40
1.0
 10
15.8614428708
 20
13.301939127
 30
0.0
 10
15.8614263897
 20
13.3022178554
 30
0.0
 10
15.8613572464
 20
13.302784136
 30
0.0
 10
15.8611528145
 20
13.303632296
 30
0.0
 10
15.8608474823
 20
13.3044881362
 30
0.0
 10
15.8604433664
 20
13.3053465634
 30
0.0
 10
15.859942952
 20
13.3062027414
 30
0.0
 10
15.8593492775
 20
13.3070518501
 30
0.0
 10
15.8586658835
 20
13.3078889474
 30
0.0
 10
15.8581629065
 20
13.3084254532
 30
0.0
 10
15.8578982146
 20
13.3086907387
 30
0.0
  0
SPLINE
  5
390
100
AcDbEntity
  8
LAYER_FEATURE
100
AcDbSpline
 62
7
  6
CONTINUOUS
 70
0
 71
3
 72
15
 73
11
 74
0
 42
0.0000001
 43
0.0000001
 44
0.0000000001
 40
0.0
 40
0.0
 40
0.0
 40
0.0
 40
0.1383546027
 40
0.2736453748
 40
0.4054000585
 40
0.5332480445
 40
0.6568519973
 40
0.7759462707
 40
0.8903660742
 40
1.0
 40
1.0
 40
1.0
 40
1.0
 10
15.8277742391
 20
13.3218096369
 30
0.0
 10
15.8273401989
 20
13.3218472604
 30
0.0
 10
15.8264798067
 20
13.3219013401
 30
0.0
 10
15.8252028115
 20
13.321917901
 30
0.0
 10
15.8239596822
 20
13.3218689453
 30
0.0
 10
15.8227577487
 20
13.3217547877
 30
0.0
 10
15.8216039719
 20
13.321576037
 30
0.0
 10
15.8205050055
 20
13.3213337234
 30
0.0
 10
15.8194673667
 20
13.3210292032
 30
0.0
 10
15.818806218
 20
13.3207805019
 30
0.0
 10
15.8184884118
 20
13.3206456611
 30
0.0
  0
SPLINE
  5
391
100
AcDbEntity
  8
LAYER_FEATURE
100
AcDbSpline
 62
7
  6
CONTINUOUS
 70
0
 71
3
 72
11
 73
7
 74
0
 42
0.0000001
 43
0.0000001
 44
0.0000000001
 40
0.0
 40
0.0
 40
0.0
 40
0.0
 40
0.2660239441
 40
0.5208985451
 40
0.7652433812
 40
1.0
 40
1.0
 40
1.0
 40
1.0
 10
15.8184884118
 20
13.3206456611
 30
0.0
 10
15.8176506316
 20
13.3202902024
 30
0.0
 10
15.8160356474
 20
13.3195316782
 30
0.0
 10
15.8137652949
 20
13.3182216193
 30
0.0
 10
15.8117116469
 20
13.3167705648
 30
0.0
 10
15.8104713539
 20
13.3156937427
 30
0.0
 10
15.8098947033
 20
13.3151347706
 30
0.0
  0
SPLINE
  5
392
100
AcDbEntity
  8
LAYER_FEATURE
100
AcDbSpline
 62
7
  6
CONTINUOUS
 70
0
 71
3
 72
41
 73
37
 74
0
 42
0.0000001
 43
0.0000001
 44
0.0000000001
 40
0.0
 40
0.0
 40
0.0
 40
0.0
 40
0.0109300319
 40
0.0220038933
 40
0.0332527089
 40
0.0447077416
 40
0.0683355931
 40
0.0930829754
 40
0.1190794337
 40
0.1464032437
 40
0.1750862561
 40
0.2051194304
 40
0.2364584018
 40
0.2690286376
 40
0.3027300804
 40
0.3374412864
 40
0.3730231307
 40
0.4093221654
 40
0.4461737099
 40
0.4834047466
 40
0.520836679
 40
0.5582880036
 40
0.595576938
 40
0.6325240447
 40
0.66895489
 40
0.7047027807
 40
0.7396116246
 40
0.7735389749
 40
0.8063593241
 40
0.8379677292
 40
0.8682838477
 40
0.8972564796
 40
0.924868585
 40
0.9511428877
 40
0.97614719
 40
1.0
 40
1.0
 40
1.0
 40
1.0
 10
15.722075458
 20
13.3475607222
 30
0.0
 10
15.7220360877
 20
13.3471657677
 30
0.0
 10
15.7219857629
 20
13.3463674947
 30
0.0
 10
15.7219951317
 20
13.3451590746
 30
0.0
 10
15.7220889884
 20
13.3439350904
 30
0.0
 10
15.7223287868
 20
13.3422687351
 30
0.0
 10
15.7228462103
 20
13.3401523589
 30
0.0
 10
15.7237915902
 20
13.3376167519
 30
0.0
 10
15.7250599291
 20
13.3350759262
 30
0.0
 10
15.7266414037
 20
13.3325478624
 30
0.0
 10
15.7285242982
 20
13.3300500214
 30
0.0
 10
15.7306949397
 20
13.3275998803
 30
0.0
 10
15.7331377103
 20
13.3252146595
 30
0.0
 10
15.7358350924
 20
13.3229112366
 30
0.0
 10
15.7387677554
 20
13.3207059891
 30
0.0
 10
15.7419146729
 20
13.3186146578
 30
0.0
 10
15.7452532637
 20
13.3166522133
 30
0.0
 10
15.7487595506
 20
13.3148327323
 30
0.0
 10
15.7524083336
 20
13.3131692847
 30
0.0
 10
15.7561733731
 20
13.3116738308
 30
0.0
 10
15.7600275831
 20
13.3103571288
 30
0.0
 10
15.7639432303
 20
13.3092286533
 30
0.0
 10
15.7678921386
 20
13.3082965244
 30
0.0
 10
15.7718458974
 20
13.3075674484
 30
0.0
 10
15.7757760723
 20
13.30704667
 30
0.0
 10
15.7796544158
 20
13.3067379373
 30
0.0
 10
15.7834530776
 20
13.3066434798
 30
0.0
 10
15.7871448124
 20
13.3067640012
 30
0.0
 10
15.7907031816
 20
13.3070986875
 30
0.0
 10
15.7941027483
 20
13.3076452352
 30
0.0
 10
15.7973192532
 20
13.3083998907
 30
0.0
 10
15.8003297871
 20
13.3093575355
 30
0.0
 10
15.8031128638
 20
13.3105117036
 30
0.0
 10
15.8056486786
 20
13.3118548829
 30
0.0
 10
15.8079184618
 20
13.3133778558
 30
0.0
 10
15.8092727564
 20
13.3145318908
 30
0.0
 10
15.8098947033
 20
13.3151347706
 30
0.0
  0
SPLINE
  5
393
100
AcDbEntity
  8
LAYER_FEATURE
100
AcDbSpline
 62
7
  6
CONTINUOUS
 70
0
 71
3
 72
13
 73
9
 74
0
 42
0.0000001
 43
0.0000001
 44
0.0000000001
 40
0.0
 40
0.0
 40
0.0
 40
0.0
 40
0.1187850231
 40
0.238865928
 40
0.3604956817
 40
0.4839303995
 40
0.7370675344
 40
1.0
 40
1.0
 40
1.0
 40
1.0
 10
15.722075458
 20
13.3475607222
 30
0.0
 10
15.7221120463
 20
13.3479277682
 30
0.0
 10
15.7221625914
 20
13.3486683558
 30
0.0
 10
15.7221706874
 20
13.3497884173
 30
0.0
 10
15.7221113547
 20
13.3509214365
 30
0.0
 10
15.7219411655
 20
13.3524598652
 30
0.0
 10
15.7215554783
 20
13.3544121531
 30
0.0
 10
15.7210816258
 20
13.3559462366
 30
0.0
 10
15.7208041406
 20
13.3567141269
 30
0.0
  0
SPLINE
  5
394
100
AcDbEntity
  8
LAYER_FEATURE
100
AcDbSpline
 62
7
  6
CONTINUOUS
 70
0
 71
3
 72
14
 73
10
 74
0
 42
0.0000001
 43
0.0000001
 44
0.0000000001
 40
0.0
 40
0.0
 40
0.0
 40
0.0
 40
0.2194551573
 40
0.3368929623
 40
0.4595559419
 40
0.5873974334
 40
0.72025889
 40
0.8579136179
 40
1.0
 40
1.0
 40
1.0
 40
1.0
 10
15.7208041406
 20
13.3567141269
 30
0.0
 10
15.7205892418
 20
13.3573088206
 30
0.0
 10
15.7201622867
 20
13.3581886775
 30
0.0
 10
15.7194412412
 20
13.359300023
 30
0.0
 10
15.7187966095
 20
13.3601431475
 30
0.0
 10
15.7180645266
 20
13.3609714042
 30
0.0
 10
15.7172491335
 20
13.3617803599
 30
0.0
 10
15.7163552657
 20
13.3625651786
 30
0.0
 10
15.7157199154
 20
13.3630619704
 30
0.0
 10
15.7153908456
 20
13.3633055352
 30
0.0
  0
SPLINE
  5
395
100
AcDbEntity
  8
LAYER_FEATURE
100
AcDbSpline
 62
7
  6
CONTINUOUS
 70
0
 71
3
 72
14
 73
10
 74
0
 42
0.0000001
 43
0.0000001
 44
0.0000000001
 40
0.0
 40
0.0
 40
0.0
 40
0.0
 40
0.1422234972
 40
0.2799583058
 40
0.4128495029
 40
0.5406788214
 40
0.6632979929
 40
0.7806727176
 40
1.0
 40
1.0
 40
1.0
 40
1.0
 10
15.6835837739
 20
13.373053756
 30
0.0
 10
15.6831760628
 20
13.3730360278
 30
0.0
 10
15.6823742348
 20
13.3729797669
 30
0.0
 10
15.6811985414
 20
13.3728292297
 30
0.0
 10
15.6800747334
 20
13.3726145968
 30
0.0
 10
15.6790094974
 20
13.3723371722
 30
0.0
 10
15.6780087143
 20
13.3719983089
 30
0.0
 10
15.6767964868
 20
13.3714794535
 30
0.0
 10
15.6759562386
 20
13.3709878356
 30
0.0
 10
15.6754497167
 20
13.3706143357
 30
0.0
  0
ENDSEC
  0
SECTION
  2
OBJECTS
  0
DICTIONARY
  5
C
100
AcDbDictionary
280
0
281
1
  3
ACAD_GROUP
350
D
  3
ACAD_MLINESTYLE
350
17
  3
ACAD_LAYOUT
350
1A
  3
ACAD_PLOTSETTINGS
350
19
  3
ACAD_PLOTSTYLENAME
350
E
  0
DICTIONARY
  5
D
102
{ACAD_REACTORS
330
C
102
}
100
AcDbDictionary
280
0
281
1
  0
ACDBDICTIONARYWDFLT
  5
E
102
{ACAD_REACTORS
330
C
102
}
100
AcDbDictionary
281
1
  3
Normal
350
F
100
AcDbDictionaryWithDefault
340
F
  0
DICTIONARY
  5
17
102
{ACAD_REACTORS
330
C
102
}
100
AcDbDictionary
280
0
281
1
  3
Standard
350
18
  0
DICTIONARY
  5
19
102
{ACAD_REACTORS
330
C
102
}
100
AcDbDictionary
281
1
  0
DICTIONARY
  5
1A
102
{ACAD_REACTORS
330
C
102
}
100
AcDbDictionary
281
1
  3
Model
350
396
  3
Layout1
350
397
  0
ACDBPLACEHOLDER
  5
F
102
{ACAD_REACTORS
330
E
102
}
  0
MLINESTYLE
  5
18
102
{ACAD_REACTORS
330
17
102
}
100
AcDbMlineStyle
  2
STANDARD
 70
0
  3

 62
256
 51
90.0
 52
90.0
 71
2
 49
0.5
 62
256
  6
BYLAYER
 49
-0.5
 62
256
  6
BYLAYER
  0
LAYOUT
  5
396
102
{ACAD_REACTORS
330
1A
102
}
100
AcDbPlotSettings
  1

  2
none_device
  4
ANSI_C_(22.00_x_17.00_Inches)
  6

 40
0.0
 41
0.0
 42
0.0
 43
0.0
 44
558.8
 45
431.8
 46
0.0
 47
0.0
 48
0.0
 49
0.0
140
0.0
141
0.0
142
1.0
143
1.0
 70
1024
 72
0
 73
0
 74
0
  7

 75
0
147
1.0
148
0.0
149
0.0
100
AcDbLayout
  1
Model
 70
0
 71
0
 10
0.0
 20
0.0
 11
22.0
 21
17.0
 12
0.0
 22
0.0
 32
0.0
 14
0.0
 24
0.0
 34
0.0
 15
0.0
 25
0.0
 35
0.0
146
0.0
 13
0.0
 23
0.0
 33
0.0
 16
1.0
 26
0.0
 36
0.0
 17
0.0
 27
1.0
 37
0.0
 76
0
330
222
345
0
346
0
  0
LAYOUT
  5
397
102
{ACAD_REACTORS
330
1A
102
}
100
AcDbPlotSettings
  1

  2
none_device
  4
ANSI_C_(22.00_x_17.00_Inches)
  6

 40
0.0
 41
0.0
 42
0.0
 43
0.0
 44
558.8
 45
431.8
 46
0.0
 47
0.0
 48
0.0
 49
0.0
140
0.0
141
0.0
142
1.0
143
1.0
 70
0
 72
0
 73
0
 74
0
  7

 75
0
147
1.0
148
0.0
149
0.0
100
AcDbLayout
  1
Layout1
 70
0
 71
1
 10
0.0
 20
0.0
 11
22.0
 21
17.0
 12
0.0
 22
0.0
 32
0.0
 14
0.0
 24
0.0
 34
0.0
 15
0.0
 25
0.0
 35
0.0
146
0.0
 13
0.0
 23
0.0
 33
0.0
 16
1.0
 26
0.0
 36
0.0
 17
0.0
 27
1.0
 37
0.0
 76
0
330
223
345
0
346
0
  0
ENDSEC
  0
EOF