999
DXF file: _cgs_temp_output.dxf
999
Pro/ENGINEER 2016360 by Parametric Technology Corporation
  0
SECTION
  2
HEADER
  9
$ACADVER
  1
AC1021
  9
$DWGCODEPAGE
  3
ANSI_1252
  9
$EXTMAX
 10
22.0
 20
17.0
 30
0.0
  9
$EXTMIN
 10
0.0
 20
0.0
 30
0.0
  9
$LIMMIN
 10
0.0
 20
0.0
  9
$LIMMAX
 10
22.0
 20
17.0
  9
$VIEWCTR
 10
11.0
 20
8.5
  9
$VIEWSIZE
 40
17.0
  9
$CLAYER
  8
0
  9
$LTSCALE
 40
1.21
  9
$CELTYPE
  6
BYLAYER
  9
$DIMSCALE
 40
1.0
  9
$DIMASZ
 40
0.1875
  9
$DIMEXO
 40
0.0625
  9
$DIMDLI
 40
0.836
  9
$DIMEXE
 40
0.125
  9
$DIMCEN
 40
0.198
  9
$DIMLFAC
 40
1.0
  9
$DIMBLK
  1
_CLOSED
  9
$DIMALT
 70
0
  9
$DIMALTF
 40
25.4
  9
$DIMTXT
 40
0.15625
  9
$DIMTOL
 70
0
  9
$DIMLIM
 70
0
  9
$DIMTFAC
 40
1.0
  9
$DIMGAP
 40
0.09
  9
$DIMDSEP
 70
46
  9
$AUNITS
 70
0
  9
$PDMODE
 70
3
  9
$PDSIZE
 40
0.3125
  9
$HANDSEED
  5
397
  9
$TILEMODE
 70
1
  9
$MEASUREMENT
 70
0
  9
$INSUNITS
 70
1
  0
ENDSEC
  0
SECTION
  2
CLASSES
  0
CLASS
  1
ACDBDICTIONARYWDFLT
  2
AcDbDictionaryWithDefault
  3
AutoCAD 2000
 90
0
 91
1
280
0
281
0
  0
CLASS
  1
ACDBPLACEHOLDER
  2
AcDbPlaceHolder
  3
AutoCAD 2000
 90
0
 91
1
280
0
281
0
  0
CLASS
  1
LAYOUT
  2
AcDbLayout
  3
AutoCAD 2000
 90
0
 91
0
280
0
281
0
  0
ENDSEC
  0
SECTION
  2
TABLES
  0
TABLE
  2
VPORT
  5
8
100
AcDbSymbolTable
 70
2
  0
VPORT
  5
1F4
100
AcDbSymbolTableRecord
100
AcDbViewportTableRecord
  2
*ACTIVE
 70
0
 10
0.0
 20
0.0
 11
1.0
 21
1.0
 12
11.0
 22
8.5
 13
0.0
 23
0.0
 14
1.0
 24
1.0
 15
0.0
 25
0.0
 16
0.0
 26
0.0
 36
1.0
 17
0.0
 27
0.0
 37
0.0
 40
17.0
 41
1.2941176471
 42
50.0
 43
0.0
 44
0.0
 50
0.0
 51
0.0
 71
0
 72
100
 73
1
 74
1
 75
0
 76
0
 77
0
 78
0
  0
ENDTAB
  0
TABLE
  2
LTYPE
  5
5
100
AcDbSymbolTable
 70
6
  0
LTYPE
  5
14
100
AcDbSymbolTableRecord
100
AcDbLinetypeTableRecord
  2
BYBLOCK
 70
0
  3

 72
65
 73
0
 40
0.0
  0
LTYPE
  5
15
100
AcDbSymbolTableRecord
100
AcDbLinetypeTableRecord
  2
BYLAYER
 70
0
  3

 72
65
 73
0
 40
0.0
  0
LTYPE
  5
16
100
AcDbSymbolTableRecord
100
AcDbLinetypeTableRecord
  2
CONTINUOUS
 70
64
  3
Solid line
 72
65
 73
0
 40
0.0
  0
LTYPE
  5
1F5
100
AcDbSymbolTableRecord
100
AcDbLinetypeTableRecord
  2
CENTER
 70
64
  3
____ _ ____ _ ____ _ ____ _ ____ _ ____ _ ____
 72
65
 73
4
 40
0.6
 49
0.375
 74
0
 49
-0.075
 74
0
 49
0.075
 74
0
 49
-0.075
 74
0
  0
LTYPE
  5
1F6
100
AcDbSymbolTableRecord
100
AcDbLinetypeTableRecord
  2
HIDDEN
 70
64
  3
- - - - - - - - - - - - - - - - - - - -
 72
65
 73
2
 40
0.2
 49
0.1
 74
0
 49
-0.1
 74
0
  0
LTYPE
  5
1F7
100
AcDbSymbolTableRecord
100
AcDbLinetypeTableRecord
  2
PHANTOM
 70
64
  3
_____ _ _ _____ _ _ _____ _ _ _____
 72
65
 73
6
 40
0.8
 49
0.45
 74
0
 49
-0.05
 74
0
 49
0.1
 74
0
 49
-0.05
 74
0
 49
0.1
 74
0
 49
-0.05
 74
0
  0
LTYPE
  5
1F8
100
AcDbSymbolTableRecord
100
AcDbLinetypeTableRecord
  2
DOT
 70
64
  3
. . . . . . . . . . . . . . . . . . . .
 72
65
 73
2
 40
0.2
 49
0.1
 74
0
 49
-0.1
 74
0
  0
LTYPE
  5
1F9
100
AcDbSymbolTableRecord
100
AcDbLinetypeTableRecord
  2
DASHED
 70
64
  3
- - - - - - - - - - - - - - - - - - - -
 72
65
 73
2
 40
0.2
 49
0.1
 74
0
 49
-0.1
 74
0
  0
ENDTAB
  0
TABLE
  2
LAYER
  5
2
100
AcDbSymbolTable
 70
36
  0
LAYER
  5
10
100
AcDbSymbolTableRecord
100
AcDbLayerTableRecord
  2
0
 70
0
 62
7
  6
CONTINUOUS
370
-3
390
F
  0
LAYER
  5
1FA
100
AcDbSymbolTableRecord
100
AcDbLayerTableRecord
  2
DEFAULT_1
 70
0
 62
7
  6
CENTER
370
-3
390
F
  0
LAYER
  5
1FB
100
AcDbSymbolTableRecord
100
AcDbLayerTableRecord
  2
DEFAULT_2
 70
0
 62
8
  6
HIDDEN
370
-3
390
F
  0
LAYER
  5
1FC
100
AcDbSymbolTableRecord
100
AcDbLayerTableRecord
  2
DEFAULT_3
 70
0
 62
7
  6
PHANTOM
370
-3
390
F
  0
LAYER
  5
1FD
100
AcDbSymbolTableRecord
100
AcDbLayerTableRecord
  2
01_ALL_DTM_PLN
 70
0
 62
7
  6
CONTINUOUS
370
-3
390
F
  0
LAYER
  5
1FE
100
AcDbSymbolTableRecord
100
AcDbLayerTableRecord
  2
01__ASM_ALL_DTM_PLN
 70
0
 62
7
  6
CONTINUOUS
370
-3
390
F
  0
LAYER
  5
1FF
100
AcDbSymbolTableRecord
100
AcDbLayerTableRecord
  2
01__ASM_DEF_DTM_PLN
 70
0
 62
7
  6
CONTINUOUS
370
-3
390
F
  0
LAYER
  5
200
100
AcDbSymbolTableRecord
100
AcDbLayerTableRecord
  2
01___PRT_ALL_DTM_PLN
 70
0
 62
7
  6
CONTINUOUS
370
-3
390
F
  0
LAYER
  5
201
100
AcDbSymbolTableRecord
100
AcDbLayerTableRecord
  2
01___PRT_DEF_DTM_PLN
 70
0
 62
7
  6
CONTINUOUS
370
-3
390
F
  0
LAYER
  5
202
100
AcDbSymbolTableRecord
100
AcDbLayerTableRecord
  2
02_ALL_AXES
 70
0
 62
7
  6
CONTINUOUS
370
-3
390
F
  0
LAYER
  5
203
100
AcDbSymbolTableRecord
100
AcDbLayerTableRecord
  2
02__ASM_ALL_AXES
 70
0
 62
7
  6
CONTINUOUS
370
-3
390
F
  0
LAYER
  5
204
100
AcDbSymbolTableRecord
100
AcDbLayerTableRecord
  2
02___PRT_ALL_AXES
 70
0
 62
7
  6
CONTINUOUS
370
-3
390
F
  0
LAYER
  5
205
100
AcDbSymbolTableRecord
100
AcDbLayerTableRecord
  2
03_ALL_CURVES
 70
0
 62
7
  6
CONTINUOUS
370
-3
390
F
  0
LAYER
  5
206
100
AcDbSymbolTableRecord
100
AcDbLayerTableRecord
  2
03__ASM_ALL_CURVES
 70
0
 62
7
  6
CONTINUOUS
370
-3
390
F
  0
LAYER
  5
207
100
AcDbSymbolTableRecord
100
AcDbLayerTableRecord
  2
03___PRT_ALL_CURVES
 70
0
 62
7
  6
CONTINUOUS
370
-3
390
F
  0
LAYER
  5
208
100
AcDbSymbolTableRecord
100
AcDbLayerTableRecord
  2
04_ALL_DTM_PNT
 70
0
 62
7
  6
CONTINUOUS
370
-3
390
F
  0
LAYER
  5
209
100
AcDbSymbolTableRecord
100
AcDbLayerTableRecord
  2
04__ASM_ALL_DTM_PNT
 70
0
 62
7
  6
CONTINUOUS
370
-3
390
F
  0
LAYER
  5
20A
100
AcDbSymbolTableRecord
100
AcDbLayerTableRecord
  2
04___PRT_ALL_DTM_PNT
 70
0
 62
7
  6
CONTINUOUS
370
-3
390
F
  0
LAYER
  5
20B
100
AcDbSymbolTableRecord
100
AcDbLayerTableRecord
  2
05_ALL_DTM_CSYS
 70
0
 62
7
  6
CONTINUOUS
370
-3
390
F
  0
LAYER
  5
20C
100
AcDbSymbolTableRecord
100
AcDbLayerTableRecord
  2
05__ASM_ALL_DTM_CSYS
 70
0
 62
7
  6
CONTINUOUS
370
-3
390
F
  0
LAYER
  5
20D
100
AcDbSymbolTableRecord
100
AcDbLayerTableRecord
  2
05__ASM_DEF_DTM_CSYS
 70
0
 62
7
  6
CONTINUOUS
370
-3
390
F
  0
LAYER
  5
20E
100
AcDbSymbolTableRecord
100
AcDbLayerTableRecord
  2
05___PRT_ALL_DTM_CSYS
 70
0
 62
7
  6
CONTINUOUS
370
-3
390
F
  0
LAYER
  5
20F
100
AcDbSymbolTableRecord
100
AcDbLayerTableRecord
  2
05___PRT_DEF_DTM_CSYS
 70
0
 62
7
  6
CONTINUOUS
370
-3
390
F
  0
LAYER
  5
210
100
AcDbSymbolTableRecord
100
AcDbLayerTableRecord
  2
06_ALL_SURFS
 70
0
 62
7
  6
CONTINUOUS
370
-3
390
F
  0
LAYER
  5
211
100
AcDbSymbolTableRecord
100
AcDbLayerTableRecord
  2
06__ASM_ALL_SURFS
 70
0
 62
7
  6
CONTINUOUS
370
-3
390
F
  0
LAYER
  5
212
100
AcDbSymbolTableRecord
100
AcDbLayerTableRecord
  2
06___PRT_ALL_SURFS
 70
0
 62
7
  6
CONTINUOUS
370
-3
390
F
  0
LAYER
  5
213
100
AcDbSymbolTableRecord
100
AcDbLayerTableRecord
  2
07__ASM_ALL_SKELETONS
 70
0
 62
7
  6
CONTINUOUS
370
-3
390
F
  0
LAYER
  5
214
100
AcDbSymbolTableRecord
100
AcDbLayerTableRecord
  2
LAYER_AXIS
 70
0
 62
7
  6
CONTINUOUS
370
-3
390
F
  0
LAYER
  5
215
100
AcDbSymbolTableRecord
100
AcDbLayerTableRecord
  2
LAYER_CHAMFER_FEAT
 70
0
 62
7
  6
CONTINUOUS
370
-3
390
F
  0
LAYER
  5
216
100
AcDbSymbolTableRecord
100
AcDbLayerTableRecord
  2
LAYER_CUT_FEAT
 70
0
 62
7
  6
CONTINUOUS
370
-3
390
F
  0
LAYER
  5
217
100
AcDbSymbolTableRecord
100
AcDbLayerTableRecord
  2
LAYER_DATUM
 70
0
 62
7
  6
CONTINUOUS
370
-3
390
F
  0
LAYER
  5
218
100
AcDbSymbolTableRecord
100
AcDbLayerTableRecord
  2
LAYER_DIM
 70
0
 62
7
  6
CONTINUOUS
370
-3
390
F
  0
LAYER
  5
219
100
AcDbSymbolTableRecord
100
AcDbLayerTableRecord
  2
LAYER_FEATURE
 70
0
 62
7
  6
CONTINUOUS
370
-3
390
F
  0
LAYER
  5
21A
100
AcDbSymbolTableRecord
100
AcDbLayerTableRecord
  2
LAYER_GEOM_FEAT
 70
0
 62
7
  6
CONTINUOUS
370
-3
390
F
  0
LAYER
  5
21B
100
AcDbSymbolTableRecord
100
AcDbLayerTableRecord
  2
LAYER_NOGEOM_FEAT
 70
0
 62
7
  6
CONTINUOUS
370
-3
390
F
  0
LAYER
  5
21C
100
AcDbSymbolTableRecord
100
AcDbLayerTableRecord
  2
LAYER_PARAMETER_DIM
 70
0
 62
7
  6
CONTINUOUS
370
-3
390
F
  0
LAYER
  5
21D
100
AcDbSymbolTableRecord
100
AcDbLayerTableRecord
  2
LAYER_PROTRUSION_FEAT
 70
0
 62
7
  6
CONTINUOUS
370
-3
390
F
  0
LAYER
  5
21E
100
AcDbSymbolTableRecord
100
AcDbLayerTableRecord
  2
LAYER_QUILT
 70
0
 62
7
  6
CONTINUOUS
370
-3
390
F
  0
LAYER
  5
21F
100
AcDbSymbolTableRecord
100
AcDbLayerTableRecord
  2
LAYER_ROUND_FEAT
 70
0
 62
7
  6
CONTINUOUS
370
-3
390
F
  0
ENDTAB
  0
TABLE
  2
STYLE
  5
3
100
AcDbSymbolTable
 70
1
  0
STYLE
  5
11
100
AcDbSymbolTableRecord
100
AcDbTextStyleTableRecord
  2
STANDARD
 70
0
 40
0.0
 41
0.8
 50
0.0
 71
0
 42
0.2
  3
txt
  4

  0
STYLE
  5
220
100
AcDbSymbolTableRecord
100
AcDbTextStyleTableRecord
  2
TEXTSTYLE_1
 70
0
 40
0.0
 41
0.8
 50
0.0
 71
0
 42
0.2
  3
gdt
  4

  0
ENDTAB
  0
TABLE
  2
VIEW
  5
6
100
AcDbSymbolTable
 70
0
  0
ENDTAB
  0
TABLE
  2
UCS
  5
7
100
AcDbSymbolTable
 70
0
  0
ENDTAB
  0
TABLE
  2
APPID
  5
9
100
AcDbSymbolTable
 70
1
  0
APPID
  5
221
100
AcDbSymbolTableRecord
100
AcDbRegAppTableRecord
  2
ACAD
 70
0
  0
ENDTAB
  0
TABLE
  2
BLOCK_RECORD
  5
1
100
AcDbSymbolTable
 70
0
  0
BLOCK_RECORD
  5
222
100
AcDbSymbolTableRecord
100
AcDbBlockTableRecord
  2
*Model_Space
  0
BLOCK_RECORD
  5
223
100
AcDbSymbolTableRecord
100
AcDbBlockTableRecord
  2
*Paper_Space
  0
ENDTAB
  0
TABLE
  2
DIMSTYLE
  5
A
100
AcDbSymbolTable
 70
1
100
AcDbDimStyleTable
 71
0
  0
DIMSTYLE
105
224
100
AcDbSymbolTableRecord
100
AcDbDimStyleTableRecord
  2
STANDARD
 70
0
  3

  4

 40
1.0
 41
0.1875
 42
0.0625
 43
0.38
 44
0.125
 45
0.0
 46
0.0
 47
0.0001
 48
0.0001
140
0.15625
141
0.09
142
0.0
143
25.4
144
1.0
145
0.0
146
1.0
147
0.09
 71
0.0
 72
0.0
 73
1
 74
1
 75
0
 76
0
 77
0
 78
4
 79
1
170
0
171
3
172
0
173
0
174
0
175
0
176
0
177
0
178
0
270
2
179
4
271
4
272
4
273
2
274
2
275
0
280
0
281
0
282
0
283
1
284
4
285
0
286
0
287
3
288
0
340
11
278
46
  0
ENDTAB
  0
ENDSEC
  0
SECTION
  2
BLOCKS
  0
BLOCK
  5
20
100
AcDbEntity
  8
0
100
AcDbBlockBegin
  2
*Model_Space
 70
0
 10
0.0
 20
0.0
 30
0.0
  3
*Model_Space
  1

  0
ENDBLK
  5
21
100
AcDbEntity
  8
0
100
AcDbBlockEnd
  0
BLOCK
  5
1C
100
AcDbEntity
  8
0
100
AcDbBlockBegin
  2
*Paper_Space
 70
0
 10
0.0
 20
0.0
 30
0.0
  3
*Paper_Space
  1

  0
ENDBLK
  5
1D
100
AcDbEntity
  8
0
100
AcDbBlockEnd
  0
ENDSEC
  0
SECTION
  2
ENTITIES
  0
MTEXT
  5
225
100
AcDbEntity
  8
0
100
AcDbMText
 62
7
  6
CONTINUOUS
  7
STANDARD
 71
1
 72
1
 10
15.9560215477
 20
0.9479130325
 30
0.0
 11
1.0
 21
0.0
 31
0.0
 44
0.9
  1
SCALE: 1:3.000
 40
0.3
 41
3.36
  0
LINE
  5
226
100
AcDbEntity
  8
0
100
AcDbLine
 62
7
  6
CONTINUOUS
 10
0.0
 20
0.0
 11
0.0
 21
17.0
  0
LINE
  5
227
100
AcDbEntity
  8
0
100
AcDbLine
 62
7
  6
CONTINUOUS
 10
0.0
 20
0.0
 11
22.0
 21
0.0
  0
LINE
  5
228
100
AcDbEntity
  8
0
100
AcDbLine
 62
7
  6
CONTINUOUS
 10
0.0
 20
17.0
 11
22.0
 21
17.0
  0
LINE
  5
229
100
AcDbEntity
  8
0
100
AcDbLine
 62
7
  6
CONTINUOUS
 10
22.0
 20
0.0
 11
22.0
 21
17.0
  0
LINE
  5
22A
100
AcDbEntity
  8
LAYER_FEATURE
100
AcDbLine
 62
7
  6
CONTINUOUS
 10
5.9335672762
 20
6.4171198968
 11
5.9046685563
 21
6.3882211769
  0
LINE
  5
22B
100
AcDbEntity
  8
LAYER_FEATURE
100
AcDbLine
 62
7
  6
CONTINUOUS
 10
7.0273672762
 20
5.3233198968
 11
6.9984685563
 21
5.2944211769
  0
LINE
  5
22C
100
AcDbEntity
  8
LAYER_FEATURE
100
AcDbLine
 62
7
  6
CONTINUOUS
 10
6.3271672762
 20
6.4171198968
 11
6.356065996
 21
6.3882211769
  0
LINE
  5
22D
100
AcDbEntity
  8
LAYER_FEATURE
100
AcDbLine
 62
7
  6
CONTINUOUS
 10
7.0273672762
 20
5.7169198968
 11
6.9984685563
 21
5.7458186166
  0
LINE
  5
22E
100
AcDbEntity
  8
LAYER_FEATURE
100
AcDbLine
 62
7
  6
CONTINUOUS
 10
7.0273672762
 20
5.7169198968
 11
7.0273672762
 21
5.3233198968
  0
LINE
  5
22F
100
AcDbEntity
  8
LAYER_FEATURE
100
AcDbLine
 62
7
  6
CONTINUOUS
 10
5.9335672762
 20
6.4171198968
 11
6.3271672762
 21
6.4171198968
  0
LINE
  5
230
100
AcDbEntity
  8
LAYER_FEATURE
100
AcDbLine
 62
7
  6
CONTINUOUS
 10
4.5708720839
 20
12.4618602814
 11
4.5708720839
 21
12.5578602814
  0
LINE
  5
231
100
AcDbEntity
  8
LAYER_FEATURE
100
AcDbLine
 62
7
  6
CONTINUOUS
 10
4.5708720839
 20
13.5328602814
 11
4.5708720839
 21
13.6288602814
  0
LINE
  5
232
100
AcDbEntity
  8
LAYER_FEATURE
100
AcDbLine
 62
7
  6
CONTINUOUS
 10
4.9013389194
 20
12.6103602814
 11
4.9013389194
 21
13.4803602814
  0
LINE
  5
233
100
AcDbEntity
  8
LAYER_FEATURE
100
AcDbLine
 62
7
  6
CONTINUOUS
 10
4.9062301046
 20
12.6103602814
 11
4.9062301046
 21
13.4803602814
  0
LINE
  5
234
100
AcDbEntity
  8
LAYER_FEATURE
100
AcDbLine
 62
7
  6
CONTINUOUS
 10
4.9413922379
 20
12.6103602814
 11
4.9413922379
 21
13.4803602814
  0
LINE
  5
235
100
AcDbEntity
  8
LAYER_FEATURE
100
AcDbLine
 62
7
  6
CONTINUOUS
 10
4.9558778278
 20
12.6103602814
 11
4.9558778278
 21
13.4803602814
  0
LINE
  5
236
100
AcDbEntity
  8
LAYER_FEATURE
100
AcDbLine
 62
7
  6
CONTINUOUS
 10
5.0248508335
 20
12.6103602814
 11
5.0248508335
 21
13.4803602814
  0
LINE
  5
237
100
AcDbEntity
  8
LAYER_FEATURE
100
AcDbLine
 62
7
  6
CONTINUOUS
 10
5.0483741551
 20
12.6103602814
 11
5.0483741551
 21
13.4803602814
  0
LINE
  5
238
100
AcDbEntity
  8
02___PRT_ALL_AXES
100
AcDbLine
 62
7
  6
CONTINUOUS
 10
5.1738720839
 20
11.5712352814
 11
6.9678720839
 21
11.5712352814
  0
LINE
  5
239
100
AcDbEntity
  8
0
100
AcDbLine
 62
7
  6
CONTINUOUS
 10
5.1482677348
 20
13.4803602814
 11
5.1482677348
 21
12.6103602814
  0
LINE
  5
23A
100
AcDbEntity
  8
LAYER_FEATURE
100
AcDbLine
 62
7
  6
CONTINUOUS
 10
5.148507439
 20
12.6103602814
 11
5.148507439
 21
13.4803602814
  0
LINE
  5
23B
100
AcDbEntity
  8
02___PRT_ALL_AXES
100
AcDbLine
 62
7
  6
CONTINUOUS
 10
5.1738720839
 20
11.5712352814
 11
5.1738720839
 21
12.4618602814
  0
LINE
  5
23C
100
AcDbEntity
  8
LAYER_FEATURE
100
AcDbLine
 62
7
  6
CONTINUOUS
 10
5.1801645043
 20
12.6103602814
 11
5.1801645043
 21
13.4803602814
  0
LINE
  5
23D
100
AcDbEntity
  8
0
100
AcDbLine
 62
7
  6
CONTINUOUS
 10
5.3061557723
 20
13.4803602814
 11
5.3061557723
 21
12.6103602814
  0
LINE
  5
23E
100
AcDbEntity
  8
LAYER_FEATURE
100
AcDbLine
 62
7
  6
CONTINUOUS
 10
5.3076100007
 20
12.6103602814
 11
5.3076100007
 21
13.4803602814
  0
LINE
  5
23F
100
AcDbEntity
  8
LAYER_FEATURE
100
AcDbLine
 62
7
  6
CONTINUOUS
 10
5.3461842463
 20
12.6103602814
 11
5.3461842463
 21
13.4803602814
  0
LINE
  5
240
100
AcDbEntity
  8
LAYER_CUT_FEAT
100
AcDbLine
 62
7
  6
CONTINUOUS
 10
5.9998580007
 20
11.9169852814
 11
6.141886167
 21
11.9169852814
  0
LINE
  5
241
100
AcDbEntity
  8
0
100
AcDbLine
 62
7
  6
CONTINUOUS
 10
5.4923938338
 20
13.4803602814
 11
5.4923938338
 21
12.6103602814
  0
LINE
  5
242
100
AcDbEntity
  8
LAYER_FEATURE
100
AcDbLine
 62
7
  6
CONTINUOUS
 10
5.4960442961
 20
12.6103602814
 11
5.4960442961
 21
13.4803602814
  0
LINE
  5
243
100
AcDbEntity
  8
LAYER_FEATURE
100
AcDbLine
 62
7
  6
CONTINUOUS
 10
5.5400533354
 20
12.6103602814
 11
5.5400533354
 21
13.4803602814
  0
LINE
  5
244
100
AcDbEntity
  8
0
100
AcDbLine
 62
7
  6
CONTINUOUS
 10
5.699520776
 20
13.4803602814
 11
5.699520776
 21
12.6103602814
  0
LINE
  5
245
100
AcDbEntity
  8
LAYER_FEATURE
100
AcDbLine
 62
7
  6
CONTINUOUS
 10
5.706568901
 20
12.6103602814
 11
5.706568901
 21
13.4803602814
  0
LINE
  5
246
100
AcDbEntity
  8
LAYER_FEATURE
100
AcDbLine
 62
7
  6
CONTINUOUS
 10
7.4417123775
 20
13.4917640112
 11
7.5708720839
 21
13.5328602814
  0
LINE
  5
247
100
AcDbEntity
  8
LAYER_FEATURE
100
AcDbLine
 62
7
  6
CONTINUOUS
 10
4.5708720839
 20
12.5578602814
 11
4.7000317902
 21
12.5989565516
  0
LINE
  5
248
100
AcDbEntity
  8
LAYER_CUT_FEAT
100
AcDbLine
 62
7
  6
CONTINUOUS
 10
6.141886167
 20
12.1629852814
 11
5.9998580007
 21
12.1629852814
  0
LINE
  5
249
100
AcDbEntity
  8
LAYER_CUT_FEAT
100
AcDbLine
 62
7
  6
CONTINUOUS
 10
5.9288439176
 20
12.0399852814
 11
5.9998580007
 21
11.9169852814
  0
LINE
  5
24A
100
AcDbEntity
  8
LAYER_FEATURE
100
AcDbLine
 62
7
  6
CONTINUOUS
 10
5.7543214914
 20
12.6103602814
 11
5.7543214914
 21
13.4803602814
  0
LINE
  5
24B
100
AcDbEntity
  8
LAYER_FEATURE
100
AcDbLine
 62
7
  6
CONTINUOUS
 10
5.931093473
 20
12.6103602814
 11
5.931093473
 21
13.4803602814
  0
LINE
  5
24C
100
AcDbEntity
  8
LAYER_FEATURE
100
AcDbLine
 62
7
  6
CONTINUOUS
 10
4.5708720839
 20
12.4618602814
 11
7.5708720839
 21
12.4618602814
  0
LINE
  5
24D
100
AcDbEntity
  8
LAYER_CUT_FEAT
100
AcDbLine
 62
7
  6
CONTINUOUS
 10
6.2129002501
 20
12.0399852814
 11
6.141886167
 21
12.1629852814
  0
LINE
  5
24E
100
AcDbEntity
  8
LAYER_FEATURE
100
AcDbLine
 62
7
  6
CONTINUOUS
 10
5.9807545091
 20
12.6103602814
 11
5.9807545091
 21
13.4803602814
  0
LINE
  5
24F
100
AcDbEntity
  8
LAYER_FEATURE
100
AcDbLine
 62
7
  6
CONTINUOUS
 10
4.5708720839
 20
12.5578602814
 11
7.5708720839
 21
12.5578602814
  0
LINE
  5
250
100
AcDbEntity
  8
LAYER_FEATURE
100
AcDbLine
 62
7
  6
CONTINUOUS
 10
7.3682612915
 20
12.6103602814
 11
4.7734828762
 21
12.6103602814
  0
LINE
  5
251
100
AcDbEntity
  8
LAYER_FEATURE
100
AcDbLine
 62
7
  6
CONTINUOUS
 10
6.1609896586
 20
12.6103602814
 11
6.1609896586
 21
13.4803602814
  0
LINE
  5
252
100
AcDbEntity
  8
LAYER_FEATURE
100
AcDbLine
 62
7
  6
CONTINUOUS
 10
6.2106506947
 20
12.6103602814
 11
6.2106506947
 21
13.4803602814
  0
LINE
  5
253
100
AcDbEntity
  8
LAYER_CUT_FEAT
100
AcDbLine
 62
7
  6
CONTINUOUS
 10
5.9998580007
 20
12.1629852814
 11
5.9288439176
 21
12.0399852814
  0
LINE
  5
254
100
AcDbEntity
  8
LAYER_FEATURE
100
AcDbLine
 62
7
  6
CONTINUOUS
 10
6.3874226763
 20
12.6103602814
 11
6.3874226763
 21
13.4803602814
  0
LINE
  5
255
100
AcDbEntity
  8
LAYER_FEATURE
100
AcDbLine
 62
7
  6
CONTINUOUS
 10
6.4351752667
 20
12.6103602814
 11
6.4351752667
 21
13.4803602814
  0
LINE
  5
256
100
AcDbEntity
  8
LAYER_CUT_FEAT
100
AcDbLine
 62
7
  6
CONTINUOUS
 10
6.4422233917
 20
13.4803602814
 11
6.4422233917
 21
12.6103602814
  0
LINE
  5
257
100
AcDbEntity
  8
LAYER_FEATURE
100
AcDbLine
 62
7
  6
CONTINUOUS
 10
6.9579176036
 20
12.2467397616
 11
6.9678720839
 21
12.2367852814
  0
LINE
  5
258
100
AcDbEntity
  8
LAYER_CUT_FEAT
100
AcDbLine
 62
7
  6
CONTINUOUS
 10
6.141886167
 20
11.9169852814
 11
6.2129002501
 21
12.0399852814
  0
LINE
  5
259
100
AcDbEntity
  8
LAYER_FEATURE
100
AcDbLine
 62
7
  6
CONTINUOUS
 10
7.5708720839
 20
12.5578602814
 11
7.4417123775
 21
12.5989565516
  0
LINE
  5
25A
100
AcDbEntity
  8
LAYER_FEATURE
100
AcDbLine
 62
7
  6
CONTINUOUS
 10
4.7000317902
 20
13.4917640112
 11
4.5708720839
 21
13.5328602814
  0
LINE
  5
25B
100
AcDbEntity
  8
LAYER_FEATURE
100
AcDbLine
 62
7
  6
CONTINUOUS
 10
6.6016908323
 20
12.6103602814
 11
6.6016908323
 21
13.4803602814
  0
LINE
  5
25C
100
AcDbEntity
  8
LAYER_FEATURE
100
AcDbLine
 62
7
  6
CONTINUOUS
 10
6.6456998716
 20
12.6103602814
 11
6.6456998716
 21
13.4803602814
  0
LINE
  5
25D
100
AcDbEntity
  8
LAYER_CUT_FEAT
100
AcDbLine
 62
7
  6
CONTINUOUS
 10
6.6493503339
 20
13.4803602814
 11
6.6493503339
 21
12.6103602814
  0
LINE
  5
25E
100
AcDbEntity
  8
LAYER_FEATURE
100
AcDbLine
 62
7
  6
CONTINUOUS
 10
6.7955599215
 20
12.6103602814
 11
6.7955599215
 21
13.4803602814
  0
LINE
  5
25F
100
AcDbEntity
  8
LAYER_FEATURE
100
AcDbLine
 62
7
  6
CONTINUOUS
 10
6.8341341671
 20
12.6103602814
 11
6.8341341671
 21
13.4803602814
  0
LINE
  5
260
100
AcDbEntity
  8
LAYER_CUT_FEAT
100
AcDbLine
 62
7
  6
CONTINUOUS
 10
6.8355883955
 20
13.4803602814
 11
6.8355883955
 21
12.6103602814
  0
LINE
  5
261
100
AcDbEntity
  8
LAYER_FEATURE
100
AcDbLine
 62
7
  6
CONTINUOUS
 10
6.9615796634
 20
12.6103602814
 11
6.9615796634
 21
13.4803602814
  0
LINE
  5
262
100
AcDbEntity
  8
02___PRT_ALL_AXES
100
AcDbLine
 62
7
  6
CONTINUOUS
 10
6.9678720839
 20
11.5712352814
 11
6.9678720839
 21
11.7939852814
  0
LINE
  5
263
100
AcDbEntity
  8
LAYER_FEATURE
100
AcDbLine
 62
7
  6
CONTINUOUS
 10
6.9678720839
 20
11.8431852814
 11
6.9678720839
 21
12.2367852814
  0
LINE
  5
264
100
AcDbEntity
  8
02___PRT_ALL_AXES
100
AcDbLine
 62
7
  6
CONTINUOUS
 10
6.9678720839
 20
12.2859852814
 11
6.9678720839
 21
12.4618602814
  0
LINE
  5
265
100
AcDbEntity
  8
LAYER_FEATURE
100
AcDbLine
 62
7
  6
CONTINUOUS
 10
6.9932367287
 20
12.6103602814
 11
6.9932367287
 21
13.4803602814
  0
LINE
  5
266
100
AcDbEntity
  8
LAYER_CUT_FEAT
100
AcDbLine
 62
7
  6
CONTINUOUS
 10
6.9934764329
 20
13.4803602814
 11
6.9934764329
 21
12.6103602814
  0
LINE
  5
267
100
AcDbEntity
  8
LAYER_FEATURE
100
AcDbLine
 62
7
  6
CONTINUOUS
 10
7.3682612915
 20
13.4803602814
 11
4.7734828762
 21
13.4803602814
  0
LINE
  5
268
100
AcDbEntity
  8
LAYER_FEATURE
100
AcDbLine
 62
7
  6
CONTINUOUS
 10
4.5708720839
 20
13.5328602814
 11
7.5708720839
 21
13.5328602814
  0
LINE
  5
269
100
AcDbEntity
  8
LAYER_FEATURE
100
AcDbLine
 62
7
  6
CONTINUOUS
 10
7.0933700127
 20
12.6103602814
 11
7.0933700127
 21
13.4803602814
  0
LINE
  5
26A
100
AcDbEntity
  8
LAYER_FEATURE
100
AcDbLine
 62
7
  6
CONTINUOUS
 10
7.1168933343
 20
12.6103602814
 11
7.1168933343
 21
13.4803602814
  0
LINE
  5
26B
100
AcDbEntity
  8
LAYER_FEATURE
100
AcDbLine
 62
7
  6
CONTINUOUS
 10
4.5708720839
 20
13.6288602814
 11
7.5708720839
 21
13.6288602814
  0
LINE
  5
26C
100
AcDbEntity
  8
LAYER_FEATURE
100
AcDbLine
 62
7
  6
CONTINUOUS
 10
7.1858663399
 20
12.6103602814
 11
7.1858663399
 21
13.4803602814
  0
LINE
  5
26D
100
AcDbEntity
  8
LAYER_FEATURE
100
AcDbLine
 62
7
  6
CONTINUOUS
 10
7.2003519298
 20
12.6103602814
 11
7.2003519298
 21
13.4803602814
  0
LINE
  5
26E
100
AcDbEntity
  8
LAYER_FEATURE
100
AcDbLine
 62
7
  6
CONTINUOUS
 10
7.2355140632
 20
12.6103602814
 11
7.2355140632
 21
13.4803602814
  0
LINE
  5
26F
100
AcDbEntity
  8
LAYER_FEATURE
100
AcDbLine
 62
7
  6
CONTINUOUS
 10
7.2404052483
 20
12.6103602814
 11
7.2404052483
 21
13.4803602814
  0
LINE
  5
270
100
AcDbEntity
  8
LAYER_FEATURE
100
AcDbLine
 62
7
  6
CONTINUOUS
 10
6.9579176025
 20
11.8332308
 11
6.9678720839
 21
11.8431852814
  0
LINE
  5
271
100
AcDbEntity
  8
LAYER_FEATURE
100
AcDbLine
 62
7
  6
CONTINUOUS
 10
7.5708720839
 20
12.4618602814
 11
7.5708720839
 21
12.5578602814
  0
LINE
  5
272
100
AcDbEntity
  8
LAYER_FEATURE
100
AcDbLine
 62
7
  6
CONTINUOUS
 10
7.5708720839
 20
13.5328602814
 11
7.5708720839
 21
13.6288602814
  0
LINE
  5
273
100
AcDbEntity
  8
LAYER_FEATURE
100
AcDbLine
 62
7
  6
CONTINUOUS
 10
16.5891677569
 20
3.9606247044
 11
16.4931677569
 21
3.9606247044
  0
LINE
  5
274
100
AcDbEntity
  8
LAYER_FEATURE
100
AcDbLine
 62
7
  6
CONTINUOUS
 10
15.5181677569
 20
3.9606247044
 11
15.4221677569
 21
3.9606247044
  0
LINE
  5
275
100
AcDbEntity
  8
LAYER_FEATURE
100
AcDbLine
 62
7
  6
CONTINUOUS
 10
14.7935411145
 20
6.347673062
 11
14.8034927569
 21
6.3576247044
  0
LINE
  5
276
100
AcDbEntity
  8
LAYER_FEATURE
100
AcDbLine
 62
7
  6
CONTINUOUS
 10
15.5706677569
 20
4.29109154
 11
16.4406677569
 21
4.29109154
  0
LINE
  5
277
100
AcDbEntity
  8
LAYER_FEATURE
100
AcDbLine
 62
7
  6
CONTINUOUS
 10
15.5706677569
 20
4.2959827251
 11
16.4406677569
 21
4.2959827251
  0
LINE
  5
278
100
AcDbEntity
  8
LAYER_FEATURE
100
AcDbLine
 62
7
  6
CONTINUOUS
 10
15.5706677569
 20
4.3311448585
 11
16.4406677569
 21
4.3311448585
  0
LINE
  5
279
100
AcDbEntity
  8
LAYER_FEATURE
100
AcDbLine
 62
7
  6
CONTINUOUS
 10
15.5706677569
 20
4.3456304484
 11
16.4406677569
 21
4.3456304484
  0
LINE
  5
27A
100
AcDbEntity
  8
02___PRT_ALL_AXES
100
AcDbLine
 62
7
  6
CONTINUOUS
 10
14.5315427569
 20
6.3576247044
 11
14.5315427569
 21
4.5636247044
  0
LINE
  5
27B
100
AcDbEntity
  8
LAYER_FEATURE
100
AcDbLine
 62
7
  6
CONTINUOUS
 10
15.5706677569
 20
4.414603454
 11
16.4406677569
 21
4.414603454
  0
LINE
  5
27C
100
AcDbEntity
  8
LAYER_FEATURE
100
AcDbLine
 62
7
  6
CONTINUOUS
 10
15.5706677569
 20
4.4381267756
 11
16.4406677569
 21
4.4381267756
  0
LINE
  5
27D
100
AcDbEntity
  8
LAYER_CUT_FEAT
100
AcDbLine
 62
7
  6
CONTINUOUS
 10
16.4406677569
 20
4.5380203554
 11
15.5706677569
 21
4.5380203554
  0
LINE
  5
27E
100
AcDbEntity
  8
LAYER_FEATURE
100
AcDbLine
 62
7
  6
CONTINUOUS
 10
15.5706677569
 20
4.5382600596
 11
16.4406677569
 21
4.5382600596
  0
LINE
  5
27F
100
AcDbEntity
  8
02___PRT_ALL_AXES
100
AcDbLine
 62
7
  6
CONTINUOUS
 10
15.4221677569
 20
4.5636247044
 11
14.5315427569
 21
4.5636247044
  0
LINE
  5
280
100
AcDbEntity
  8
LAYER_FEATURE
100
AcDbLine
 62
7
  6
CONTINUOUS
 10
15.5706677569
 20
4.5699171249
 11
16.4406677569
 21
4.5699171249
  0
LINE
  5
281
100
AcDbEntity
  8
LAYER_CUT_FEAT
100
AcDbLine
 62
7
  6
CONTINUOUS
 10
16.4406677569
 20
4.6959083928
 11
15.5706677569
 21
4.6959083928
  0
LINE
  5
282
100
AcDbEntity
  8
LAYER_FEATURE
100
AcDbLine
 62
7
  6
CONTINUOUS
 10
15.5706677569
 20
4.6973626212
 11
16.4406677569
 21
4.6973626212
  0
LINE
  5
283
100
AcDbEntity
  8
LAYER_FEATURE
100
AcDbLine
 62
7
  6
CONTINUOUS
 10
15.5706677569
 20
4.7359368668
 11
16.4406677569
 21
4.7359368668
  0
LINE
  5
284
100
AcDbEntity
  8
LAYER_CUT_FEAT
100
AcDbLine
 62
7
  6
CONTINUOUS
 10
14.8772927569
 20
5.5316387876
 11
14.8772927569
 21
5.3896106213
  0
LINE
  5
285
100
AcDbEntity
  8
LAYER_CUT_FEAT
100
AcDbLine
 62
7
  6
CONTINUOUS
 10
16.4406677569
 20
4.8821464544
 11
15.5706677569
 21
4.8821464544
  0
LINE
  5
286
100
AcDbEntity
  8
LAYER_FEATURE
100
AcDbLine
 62
7
  6
CONTINUOUS
 10
15.5706677569
 20
4.8857969167
 11
16.4406677569
 21
4.8857969167
  0
LINE
  5
287
100
AcDbEntity
  8
LAYER_FEATURE
100
AcDbLine
 62
7
  6
CONTINUOUS
 10
15.5706677569
 20
4.929805956
 11
16.4406677569
 21
4.929805956
  0
LINE
  5
288
100
AcDbEntity
  8
LAYER_CUT_FEAT
100
AcDbLine
 62
7
  6
CONTINUOUS
 10
15.1232927569
 20
5.3896106213
 11
15.1232927569
 21
5.5316387876
  0
LINE
  5
289
100
AcDbEntity
  8
LAYER_CUT_FEAT
100
AcDbLine
 62
7
  6
CONTINUOUS
 10
15.0002927569
 20
5.6026528707
 11
14.8772927569
 21
5.5316387876
  0
LINE
  5
28A
100
AcDbEntity
  8
LAYER_CUT_FEAT
100
AcDbLine
 62
7
  6
CONTINUOUS
 10
16.4406677569
 20
5.0892733966
 11
15.5706677569
 21
5.0892733966
  0
LINE
  5
28B
100
AcDbEntity
  8
LAYER_FEATURE
100
AcDbLine
 62
7
  6
CONTINUOUS
 10
15.5706677569
 20
5.0963215216
 11
16.4406677569
 21
5.0963215216
  0
LINE
  5
28C
100
AcDbEntity
  8
LAYER_CUT_FEAT
100
AcDbLine
 62
7
  6
CONTINUOUS
 10
14.8772927569
 20
5.3896106213
 11
15.0002927569
 21
5.3185965382
  0
LINE
  5
28D
100
AcDbEntity
  8
LAYER_FEATURE
100
AcDbLine
 62
7
  6
CONTINUOUS
 10
15.5706677569
 20
5.144074112
 11
16.4406677569
 21
5.144074112
  0
LINE
  5
28E
100
AcDbEntity
  8
LAYER_FEATURE
100
AcDbLine
 62
7
  6
CONTINUOUS
 10
15.4221677569
 20
6.9606247044
 11
15.4221677569
 21
3.9606247044
  0
LINE
  5
28F
100
AcDbEntity
  8
LAYER_CUT_FEAT
100
AcDbLine
 62
7
  6
CONTINUOUS
 10
15.0002927569
 20
5.3185965382
 11
15.1232927569
 21
5.3896106213
  0
LINE
  5
290
100
AcDbEntity
  8
LAYER_FEATURE
100
AcDbLine
 62
7
  6
CONTINUOUS
 10
15.5706677569
 20
5.3208460936
 11
16.4406677569
 21
5.3208460936
  0
LINE
  5
291
100
AcDbEntity
  8
LAYER_CUT_FEAT
100
AcDbLine
 62
7
  6
CONTINUOUS
 10
15.1232927569
 20
5.5316387876
 11
15.0002927569
 21
5.6026528707
  0
LINE
  5
292
100
AcDbEntity
  8
LAYER_FEATURE
100
AcDbLine
 62
7
  6
CONTINUOUS
 10
15.5181677569
 20
6.9606247044
 11
15.5181677569
 21
3.9606247044
  0
LINE
  5
293
100
AcDbEntity
  8
LAYER_FEATURE
100
AcDbLine
 62
7
  6
CONTINUOUS
 10
15.5706677569
 20
4.1632354968
 11
15.5706677569
 21
6.7580139121
  0
LINE
  5
294
100
AcDbEntity
  8
LAYER_FEATURE
100
AcDbLine
 62
7
  6
CONTINUOUS
 10
15.5706677569
 20
5.3705071297
 11
16.4406677569
 21
5.3705071297
  0
LINE
  5
295
100
AcDbEntity
  8
LAYER_FEATURE
100
AcDbLine
 62
7
  6
CONTINUOUS
 10
15.5706677569
 20
5.5507422792
 11
16.4406677569
 21
5.5507422792
  0
LINE
  5
296
100
AcDbEntity
  8
LAYER_FEATURE
100
AcDbLine
 62
7
  6
CONTINUOUS
 10
15.5706677569
 20
5.6004033153
 11
16.4406677569
 21
5.6004033153
  0
LINE
  5
297
100
AcDbEntity
  8
LAYER_FEATURE
100
AcDbLine
 62
7
  6
CONTINUOUS
 10
15.5706677569
 20
5.7771752969
 11
16.4406677569
 21
5.7771752969
  0
LINE
  5
298
100
AcDbEntity
  8
LAYER_FEATURE
100
AcDbLine
 62
7
  6
CONTINUOUS
 10
15.5706677569
 20
5.8249278873
 11
16.4406677569
 21
5.8249278873
  0
LINE
  5
299
100
AcDbEntity
  8
LAYER_CUT_FEAT
100
AcDbLine
 62
7
  6
CONTINUOUS
 10
16.4406677569
 20
5.8319760123
 11
15.5706677569
 21
5.8319760123
  0
LINE
  5
29A
100
AcDbEntity
  8
LAYER_FEATURE
100
AcDbLine
 62
7
  6
CONTINUOUS
 10
15.2070443993
 20
6.3476730621
 11
15.1970927569
 21
6.3576247044
  0
LINE
  5
29B
100
AcDbEntity
  8
LAYER_FEATURE
100
AcDbLine
 62
7
  6
CONTINUOUS
 10
15.5592640271
 20
4.0897844108
 11
15.5181677569
 21
3.9606247044
  0
LINE
  5
29C
100
AcDbEntity
  8
LAYER_FEATURE
100
AcDbLine
 62
7
  6
CONTINUOUS
 10
16.4931677569
 20
6.9606247044
 11
16.4520714867
 21
6.8314649981
  0
LINE
  5
29D
100
AcDbEntity
  8
LAYER_FEATURE
100
AcDbLine
 62
7
  6
CONTINUOUS
 10
15.5592640271
 20
6.8314649981
 11
15.5181677569
 21
6.9606247044
  0
LINE
  5
29E
100
AcDbEntity
  8
LAYER_FEATURE
100
AcDbLine
 62
7
  6
CONTINUOUS
 10
16.4931677569
 20
3.9606247044
 11
16.4520714867
 21
4.0897844108
  0
LINE
  5
29F
100
AcDbEntity
  8
LAYER_FEATURE
100
AcDbLine
 62
7
  6
CONTINUOUS
 10
15.5706677569
 20
5.9914434529
 11
16.4406677569
 21
5.9914434529
  0
LINE
  5
2A0
100
AcDbEntity
  8
LAYER_FEATURE
100
AcDbLine
 62
7
  6
CONTINUOUS
 10
15.5706677569
 20
6.0354524922
 11
16.4406677569
 21
6.0354524922
  0
LINE
  5
2A1
100
AcDbEntity
  8
LAYER_CUT_FEAT
100
AcDbLine
 62
7
  6
CONTINUOUS
 10
16.4406677569
 20
6.0391029545
 11
15.5706677569
 21
6.0391029545
  0
LINE
  5
2A2
100
AcDbEntity
  8
LAYER_FEATURE
100
AcDbLine
 62
7
  6
CONTINUOUS
 10
15.5706677569
 20
6.1853125421
 11
16.4406677569
 21
6.1853125421
  0
LINE
  5
2A3
100
AcDbEntity
  8
LAYER_FEATURE
100
AcDbLine
 62
7
  6
CONTINUOUS
 10
15.5706677569
 20
6.2238867877
 11
16.4406677569
 21
6.2238867877
  0
LINE
  5
2A4
100
AcDbEntity
  8
LAYER_CUT_FEAT
100
AcDbLine
 62
7
  6
CONTINUOUS
 10
16.4406677569
 20
6.2253410161
 11
15.5706677569
 21
6.2253410161
  0
LINE
  5
2A5
100
AcDbEntity
  8
LAYER_FEATURE
100
AcDbLine
 62
7
  6
CONTINUOUS
 10
16.4406677569
 20
4.1632354968
 11
16.4406677569
 21
6.7580139121
  0
LINE
  5
2A6
100
AcDbEntity
  8
LAYER_FEATURE
100
AcDbLine
 62
7
  6
CONTINUOUS
 10
16.4931677569
 20
6.9606247044
 11
16.4931677569
 21
3.9606247044
  0
LINE
  5
2A7
100
AcDbEntity
  8
LAYER_FEATURE
100
AcDbLine
 62
7
  6
CONTINUOUS
 10
15.5706677569
 20
6.351332284
 11
16.4406677569
 21
6.351332284
  0
LINE
  5
2A8
100
AcDbEntity
  8
02___PRT_ALL_AXES
100
AcDbLine
 62
7
  6
CONTINUOUS
 10
15.4221677569
 20
6.3576247044
 11
15.2462927569
 21
6.3576247044
  0
LINE
  5
2A9
100
AcDbEntity
  8
02___PRT_ALL_AXES
100
AcDbLine
 62
7
  6
CONTINUOUS
 10
14.7542927569
 20
6.3576247044
 11
14.5315427569
 21
6.3576247044
  0
LINE
  5
2AA
100
AcDbEntity
  8
LAYER_FEATURE
100
AcDbLine
 62
7
  6
CONTINUOUS
 10
14.8034927569
 20
6.3576247044
 11
15.1970927569
 21
6.3576247044
  0
LINE
  5
2AB
100
AcDbEntity
  8
LAYER_FEATURE
100
AcDbLine
 62
7
  6
CONTINUOUS
 10
15.5706677569
 20
6.3829893493
 11
16.4406677569
 21
6.3829893493
  0
LINE
  5
2AC
100
AcDbEntity
  8
LAYER_CUT_FEAT
100
AcDbLine
 62
7
  6
CONTINUOUS
 10
16.4406677569
 20
6.3832290535
 11
15.5706677569
 21
6.3832290535
  0
LINE
  5
2AD
100
AcDbEntity
  8
LAYER_FEATURE
100
AcDbLine
 62
7
  6
CONTINUOUS
 10
16.5891677569
 20
6.9606247044
 11
16.5891677569
 21
3.9606247044
  0
LINE
  5
2AE
100
AcDbEntity
  8
LAYER_FEATURE
100
AcDbLine
 62
7
  6
CONTINUOUS
 10
15.5706677569
 20
6.4831226332
 11
16.4406677569
 21
6.4831226332
  0
LINE
  5
2AF
100
AcDbEntity
  8
LAYER_FEATURE
100
AcDbLine
 62
7
  6
CONTINUOUS
 10
15.5706677569
 20
6.5066459549
 11
16.4406677569
 21
6.5066459549
  0
LINE
  5
2B0
100
AcDbEntity
  8
LAYER_FEATURE
100
AcDbLine
 62
7
  6
CONTINUOUS
 10
15.5706677569
 20
6.5756189605
 11
16.4406677569
 21
6.5756189605
  0
LINE
  5
2B1
100
AcDbEntity
  8
LAYER_FEATURE
100
AcDbLine
 62
7
  6
CONTINUOUS
 10
15.5706677569
 20
6.5901045504
 11
16.4406677569
 21
6.5901045504
  0
LINE
  5
2B2
100
AcDbEntity
  8
LAYER_FEATURE
100
AcDbLine
 62
7
  6
CONTINUOUS
 10
15.5706677569
 20
6.6252666837
 11
16.4406677569
 21
6.6252666837
  0
LINE
  5
2B3
100
AcDbEntity
  8
LAYER_FEATURE
100
AcDbLine
 62
7
  6
CONTINUOUS
 10
15.5706677569
 20
6.6301578689
 11
16.4406677569
 21
6.6301578689
  0
LINE
  5
2B4
100
AcDbEntity
  8
LAYER_FEATURE
100
AcDbLine
 62
7
  6
CONTINUOUS
 10
16.5891677569
 20
6.9606247044
 11
16.4931677569
 21
6.9606247044
  0
LINE
  5
2B5
100
AcDbEntity
  8
LAYER_FEATURE
100
AcDbLine
 62
7
  6
CONTINUOUS
 10
15.5181677569
 20
6.9606247044
 11
15.4221677569
 21
6.9606247044
  0
LINE
  5
2B6
100
AcDbEntity
  8
LAYER_FEATURE
100
AcDbLine
 62
7
  6
CONTINUOUS
 10
13.8967355024
 20
12.6580146574
 11
13.9199738694
 21
12.7332140407
  0
LINE
  5
2B7
100
AcDbEntity
  8
LAYER_FEATURE
100
AcDbLine
 62
7
  6
CONTINUOUS
 10
14.1559885348
 20
13.4969577776
 11
14.1792269018
 21
13.5721571609
  0
LINE
  5
2B8
100
AcDbEntity
  8
02___PRT_ALL_AXES
100
AcDbLine
 62
7
  6
CONTINUOUS
 10
14.3903748489
 20
13.1478863216
 11
14.4557026688
 21
13.3592872243
  0
LINE
  5
2B9
100
AcDbEntity
  8
LAYER_FEATURE
100
AcDbLine
 62
7
  6
CONTINUOUS
 10
14.3905784673
 20
13.1479566124
 11
14.4592818191
 21
13.3702807405
  0
LINE
  5
2BA
100
AcDbEntity
  8
LAYER_FEATURE
100
AcDbLine
 62
7
  6
CONTINUOUS
 10
14.4102991863
 20
13.1544039058
 11
14.5057970919
 21
13.4634352413
  0
LINE
  5
2BB
100
AcDbEntity
  8
LAYER_FEATURE
100
AcDbLine
 62
7
  6
CONTINUOUS
 10
14.4213136879
 20
13.1577466234
 11
14.5231884199
 21
13.4874133769
  0
LINE
  5
2BC
100
AcDbEntity
  8
LAYER_FEATURE
100
AcDbLine
 62
7
  6
CONTINUOUS
 10
14.4557026765
 20
13.359287222
 11
14.4592818191
 21
13.3702807405
  0
LINE
  5
2BD
100
AcDbEntity
  8
LAYER_FEATURE
100
AcDbLine
 62
7
  6
CONTINUOUS
 10
14.4804681895
 20
13.1743372761
 11
14.6016972834
 21
13.5666347679
  0
LINE
  5
2BE
100
AcDbEntity
  8
LAYER_FEATURE
100
AcDbLine
 62
7
  6
CONTINUOUS
 10
14.5018857285
 20
13.1795993558
 11
14.6275697861
 21
13.5863131152
  0
LINE
  5
2BF
100
AcDbEntity
  8
LAYER_CUT_FEAT
100
AcDbLine
 62
7
  6
CONTINUOUS
 10
14.3596369014
 20
12.5149673059
 11
14.3723453834
 21
12.5560919686
  0
LINE
  5
2C0
100
AcDbEntity
  8
LAYER_FEATURE
100
AcDbLine
 62
7
  6
CONTINUOUS
 10
14.5960235016
 20
13.1986502582
 11
14.7350551887
 21
13.6485569627
  0
LINE
  5
2C1
100
AcDbEntity
  8
LAYER_FEATURE
100
AcDbLine
 62
7
  6
CONTINUOUS
 10
14.6263612567
 20
13.2034945053
 11
14.7684146003
 21
13.6631792939
  0
LINE
  5
2C2
100
AcDbEntity
  8
02___PRT_ALL_AXES
100
AcDbLine
 62
7
  6
CONTINUOUS
 10
14.2572639522
 20
11.7823299635
 11
14.4728542715
 21
12.4799804924
  0
LINE
  5
2C3
100
AcDbEntity
  8
0
100
AcDbLine
 62
7
  6
CONTINUOUS
 10
14.8990521959
 20
13.7029282857
 11
14.7489389257
 21
13.2171615655
  0
LINE
  5
2C4
100
AcDbEntity
  8
LAYER_FEATURE
100
AcDbLine
 62
7
  6
CONTINUOUS
 10
14.7496826647
 20
13.217212669
 11
14.9007459383
 21
13.7060536017
  0
LINE
  5
2C5
100
AcDbEntity
  8
LAYER_FEATURE
100
AcDbLine
 62
7
  6
CONTINUOUS
 10
14.7872623846
 20
13.2197948332
 11
14.9403102753
 21
13.7150579888
  0
LINE
  5
2C6
100
AcDbEntity
  8
0
100
AcDbLine
 62
7
  6
CONTINUOUS
 10
15.0882428793
 20
13.7315465849
 11
14.9308715394
 21
13.2222927422
  0
LINE
  5
2C7
100
AcDbEntity
  8
LAYER_FEATURE
100
AcDbLine
 62
7
  6
CONTINUOUS
 10
14.933361654
 20
13.2222599539
 11
15.0924021296
 21
13.7369151214
  0
LINE
  5
2C8
100
AcDbEntity
  8
LAYER_FEATURE
100
AcDbLine
 62
7
  6
CONTINUOUS
 10
14.9762871935
 20
13.2210182032
 11
15.1366509566
 21
13.7399555308
  0
LINE
  5
2C9
100
AcDbEntity
  8
LAYER_CUT_FEAT
100
AcDbLine
 62
7
  6
CONTINUOUS
 10
16.0972612871
 20
11.7963914363
 11
16.0202058045
 21
11.7963914363
  0
LINE
  5
2CA
100
AcDbEntity
  8
LAYER_CUT_FEAT
100
AcDbLine
 62
7
  6
CONTINUOUS
 10
16.1053731764
 20
11.9368837081
 11
16.00852899
 21
11.9368837081
  0
LINE
  5
2CB
100
AcDbEntity
  8
LAYER_CUT_FEAT
100
AcDbLine
 62
7
  6
CONTINUOUS
 10
14.8233058803
 20
12.4422617017
 11
14.8705872051
 21
12.3459124918
  0
LINE
  5
2CC
100
AcDbEntity
  8
LAYER_CUT_FEAT
100
AcDbLine
 62
7
  6
CONTINUOUS
 10
14.8233058803
 20
12.4422617017
 11
14.8589400245
 21
12.3459124918
  0
LINE
  5
2CD
100
AcDbEntity
  8
0
100
AcDbLine
 62
7
  6
CONTINUOUS
 10
15.2951404661
 20
13.7326607245
 11
15.1334532713
 21
13.2094407702
  0
LINE
  5
2CE
100
AcDbEntity
  8
LAYER_FEATURE
100
AcDbLine
 62
7
  6
CONTINUOUS
 10
15.1385382558
 20
13.208862153
 11
15.3026585225
 21
13.7399555308
  0
LINE
  5
2CF
100
AcDbEntity
  8
LAYER_FEATURE
100
AcDbLine
 62
7
  6
CONTINUOUS
 10
15.1849937536
 20
13.2033062
 11
15.3498913821
 21
13.7369151214
  0
LINE
  5
2D0
100
AcDbEntity
  8
LAYER_FEATURE
100
AcDbLine
 62
7
  6
CONTINUOUS
 10
15.2952349781
 20
13.7329600399
 11
15.2951405057
 21
13.7326607123
  0
LINE
  5
2D1
100
AcDbEntity
  8
LAYER_CUT_FEAT
100
AcDbLine
 62
7
  6
CONTINUOUS
 10
14.91848834
 20
12.5386109116
 11
14.9935286392
 21
12.3856948594
  0
LINE
  5
2D2
100
AcDbEntity
  8
LAYER_CUT_FEAT
100
AcDbLine
 62
7
  6
CONTINUOUS
 10
15.509231474
 20
13.7014830429
 11
15.3470504511
 21
13.1766650604
  0
LINE
  5
2D3
100
AcDbEntity
  8
LAYER_FEATURE
100
AcDbLine
 62
7
  6
CONTINUOUS
 10
15.3564493704
 20
13.174692028
 11
15.523435082
 21
13.7150579888
  0
LINE
  5
2D4
100
AcDbEntity
  8
LAYER_CUT_FEAT
100
AcDbLine
 62
7
  6
CONTINUOUS
 10
14.91848834
 20
12.5386109116
 11
14.8233058803
 21
12.4422617017
  0
LINE
  5
2D5
100
AcDbEntity
  8
LAYER_CUT_FEAT
100
AcDbLine
 62
7
  6
CONTINUOUS
 10
15.0849390882
 20
12.4422617017
 11
15.049304944
 21
12.5386109116
  0
LINE
  5
2D6
100
AcDbEntity
  8
LAYER_FEATURE
100
AcDbLine
 62
7
  6
CONTINUOUS
 10
15.404498386
 20
13.1645461607
 11
15.5718368417
 21
13.7060536017
  0
LINE
  5
2D7
100
AcDbEntity
  8
LAYER_CUT_FEAT
100
AcDbLine
 62
7
  6
CONTINUOUS
 10
14.9935286392
 20
12.3856948594
 11
14.9542280201
 21
12.3459124918
  0
LINE
  5
2D8
100
AcDbEntity
  8
LAYER_CUT_FEAT
100
AcDbLine
 62
7
  6
CONTINUOUS
 10
14.9897566284
 20
12.3459124918
 11
15.0849390882
 21
12.4422617017
  0
LINE
  5
2D9
100
AcDbEntity
  8
LAYER_CUT_FEAT
100
AcDbLine
 62
7
  6
CONTINUOUS
 10
14.8589400245
 20
12.3459124918
 11
14.9897566284
 21
12.3459124918
  0
LINE
  5
2DA
100
AcDbEntity
  8
LAYER_FEATURE
100
AcDbLine
 62
7
  6
CONTINUOUS
 10
15.578214197
 20
13.1194233636
 11
15.7462474885
 21
13.6631792939
  0
LINE
  5
2DB
100
AcDbEntity
  8
LAYER_FEATURE
100
AcDbLine
 62
7
  6
CONTINUOUS
 10
15.6259248045
 20
13.1048010324
 11
15.7939580959
 21
13.6485569627
  0
LINE
  5
2DC
100
AcDbEntity
  8
LAYER_CUT_FEAT
100
AcDbLine
 62
7
  6
CONTINUOUS
 10
15.0290572475
 20
12.3856948594
 11
14.9935286392
 21
12.3856948594
  0
LINE
  5
2DD
100
AcDbEntity
  8
LAYER_FEATURE
100
AcDbLine
 62
7
  6
CONTINUOUS
 10
15.7951400291
 20
13.0446286602
 11
15.9625331862
 21
13.5863131152
  0
LINE
  5
2DE
100
AcDbEntity
  8
LAYER_CUT_FEAT
100
AcDbLine
 62
7
  6
CONTINUOUS
 10
15.049304944
 20
12.5386109116
 11
14.91848834
 21
12.5386109116
  0
LINE
  5
2DF
100
AcDbEntity
  8
LAYER_FEATURE
100
AcDbLine
 62
7
  6
CONTINUOUS
 10
15.8406610792
 20
13.0260346542
 11
16.0077191495
 21
13.5666347679
  0
LINE
  5
2E0
100
AcDbEntity
  8
LAYER_CUT_FEAT
100
AcDbLine
 62
7
  6
CONTINUOUS
 10
16.0119287751
 20
13.5470374124
 11
15.8497712584
 21
13.0222954961
  0
LINE
  5
2E1
100
AcDbEntity
  8
LAYER_FEATURE
100
AcDbLine
 62
7
  6
CONTINUOUS
 10
16.0491228342
 20
12.1076092011
 11
16.0863385781
 21
12.0630228729
  0
LINE
  5
2E2
100
AcDbEntity
  8
LAYER_CUT_FEAT
100
AcDbLine
 62
7
  6
CONTINUOUS
 10
16.002500324
 20
11.8324714122
 11
16.0458248609
 21
11.7441852883
  0
LINE
  5
2E3
100
AcDbEntity
  8
LAYER_CUT_FEAT
100
AcDbLine
 62
7
  6
CONTINUOUS
 10
16.1053731764
 20
11.9368837081
 11
16.0620486395
 21
12.025169832
  0
LINE
  5
2E4
100
AcDbEntity
  8
LAYER_FEATURE
100
AcDbLine
 62
7
  6
CONTINUOUS
 10
16.2070237804
 20
13.4528079001
 11
16.2072149823
 21
13.4534567097
  0
LINE
  5
2E5
100
AcDbEntity
  8
LAYER_FEATURE
100
AcDbLine
 62
7
  6
CONTINUOUS
 10
15.9989492522
 20
12.9533722667
 11
16.1639804372
 21
13.4874133769
  0
LINE
  5
2E6
100
AcDbEntity
  8
LAYER_FEATURE
100
AcDbLine
 62
7
  6
CONTINUOUS
 10
16.0406291301
 20
12.9318374091
 11
16.204905285
 21
13.4634352413
  0
LINE
  5
2E7
100
AcDbEntity
  8
LAYER_CUT_FEAT
100
AcDbLine
 62
7
  6
CONTINUOUS
 10
16.2070238422
 20
13.452807881
 11
16.045281233
 21
12.9294086059
  0
LINE
  5
2E8
100
AcDbEntity
  8
LAYER_CUT_FEAT
100
AcDbLine
 62
7
  6
CONTINUOUS
 10
16.0106122133
 20
11.972963684
 11
16.002500324
 21
11.8324714122
  0
LINE
  5
2E9
100
AcDbEntity
  8
LAYER_FEATURE
100
AcDbLine
 62
7
  6
CONTINUOUS
 10
16.1822488857
 20
12.8505826691
 11
16.3428477364
 21
13.3702807405
  0
LINE
  5
2EA
100
AcDbEntity
  8
LAYER_CUT_FEAT
100
AcDbLine
 62
7
  6
CONTINUOUS
 10
16.0972612871
 20
11.7963914363
 11
16.1053731764
 21
11.9368837081
  0
LINE
  5
2EB
100
AcDbEntity
  8
LAYER_FEATURE
100
AcDbLine
 62
7
  6
CONTINUOUS
 10
16.2186330342
 20
12.8274107981
 11
16.3779387499
 21
13.342924283
  0
LINE
  5
2EC
100
AcDbEntity
  8
LAYER_CUT_FEAT
100
AcDbLine
 62
7
  6
CONTINUOUS
 10
16.3783972709
 20
13.3360092569
 11
16.2207907719
 21
12.8259944394
  0
LINE
  5
2ED
100
AcDbEntity
  8
LAYER_FEATURE
100
AcDbLine
 62
7
  6
CONTINUOUS
 10
16.3388334044
 20
12.74292365
 11
16.492261314
 21
13.2394165475
  0
LINE
  5
2EE
100
AcDbEntity
  8
LAYER_CUT_FEAT
100
AcDbLine
 62
7
  6
CONTINUOUS
 10
16.0620486395
 20
12.025169832
 11
16.0106122133
 21
11.972963684
  0
LINE
  5
2EF
100
AcDbEntity
  8
LAYER_FEATURE
100
AcDbLine
 62
7
  6
CONTINUOUS
 10
16.368715938
 20
12.7196276497
 11
16.5201699652
 21
13.2097330613
  0
LINE
  5
2F0
100
AcDbEntity
  8
LAYER_CUT_FEAT
100
AcDbLine
 62
7
  6
CONTINUOUS
 10
16.5198171927
 20
13.2060655287
 11
16.3693449769
 21
12.7191372599
  0
LINE
  5
2F1
100
AcDbEntity
  8
02___PRT_ALL_AXES
100
AcDbLine
 62
7
  6
CONTINUOUS
 10
15.9712889468
 20
11.252656179
 11
16.1868792661
 21
11.9503067079
  0
LINE
  5
2F2
100
AcDbEntity
  8
LAYER_FEATURE
100
AcDbLine
 62
7
  6
CONTINUOUS
 10
16.4638646064
 20
12.6383485504
 11
16.6064792899
 21
13.0998498355
  0
LINE
  5
2F3
100
AcDbEntity
  8
LAYER_FEATURE
100
AcDbLine
 62
7
  6
CONTINUOUS
 10
16.4865191626
 20
12.6171892869
 11
16.6261330649
 21
13.0689800404
  0
LINE
  5
2F4
100
AcDbEntity
  8
LAYER_CUT_FEAT
100
AcDbLine
 62
7
  6
CONTINUOUS
 10
16.3000966361
 20
11.9153198944
 11
16.3128051181
 21
11.9564445572
  0
LINE
  5
2F5
100
AcDbEntity
  8
LAYER_FEATURE
100
AcDbLine
 62
7
  6
CONTINUOUS
 10
16.5546390857
 20
12.5476765021
 11
16.6811123313
 21
12.9569440748
  0
LINE
  5
2F6
100
AcDbEntity
  8
LAYER_FEATURE
100
AcDbLine
 62
7
  6
CONTINUOUS
 10
16.5696344488
 20
12.5308889678
 11
16.6917559466
 21
12.9260742797
  0
LINE
  5
2F7
100
AcDbEntity
  8
LAYER_FEATURE
100
AcDbLine
 62
7
  6
CONTINUOUS
 10
16.0491228342
 20
11.6617459192
 11
16.0863385781
 21
11.7063322474
  0
LINE
  5
2F8
100
AcDbEntity
  8
LAYER_CUT_FEAT
100
AcDbLine
 62
7
  6
CONTINUOUS
 10
16.0458248609
 20
11.7441852883
 11
16.0972612871
 21
11.7963914363
  0
LINE
  5
2F9
100
AcDbEntity
  8
LAYER_FEATURE
100
AcDbLine
 62
7
  6
CONTINUOUS
 10
16.6102690113
 20
12.4828074646
 11
16.7132923324
 21
12.8161910539
  0
LINE
  5
2FA
100
AcDbEntity
  8
LAYER_FEATURE
100
AcDbLine
 62
7
  6
CONTINUOUS
 10
16.6178099484
 20
12.4735642113
 11
16.7145167598
 21
12.7865075677
  0
LINE
  5
2FB
100
AcDbEntity
  8
LAYER_FEATURE
100
AcDbLine
 62
7
  6
CONTINUOUS
 10
16.6314956034
 20
12.455550919
 11
16.7017826337
 21
12.6829998322
  0
LINE
  5
2FC
100
AcDbEntity
  8
02___PRT_ALL_AXES
100
AcDbLine
 62
7
  6
CONTINUOUS
 10
16.6317751158
 20
12.455180867
 11
16.6971199695
 21
12.6666368909
  0
LINE
  5
2FD
100
AcDbEntity
  8
LAYER_FEATURE
100
AcDbLine
 62
7
  6
CONTINUOUS
 10
16.7629980351
 20
11.7722725429
 11
16.7862364022
 21
11.8474719263
  0
LINE
  5
2FE
100
AcDbEntity
  8
LAYER_FEATURE
100
AcDbLine
 62
7
  6
CONTINUOUS
 10
17.0222510675
 20
12.6112156631
 11
17.0454894346
 21
12.6864150465
  0
CIRCLE
  5
2FF
100
AcDbEntity
  8
LAYER_FEATURE
100
AcDbCircle
 62
7
  6
CONTINUOUS
 10
6.1303672762
 20
5.5201198968
 40
1.5
  0
CIRCLE
  5
300
100
AcDbEntity
  8
LAYER_FEATURE
100
AcDbCircle
 62
7
  6
CONTINUOUS
 10
6.1303672762
 20
5.5201198968
 40
1.335
  0
CIRCLE
  5
301
100
AcDbEntity
  8
LAYER_CUT_FEAT
100
AcDbCircle
 62
7
  6
CONTINUOUS
 10
6.1303672762
 20
5.5201198968
 40
1.0155
  0
CIRCLE
  5
302
100
AcDbEntity
  8
02___PRT_ALL_AXES
100
AcDbCircle
 62
7
  6
CONTINUOUS
 10
6.1303672762
 20
5.5201198968
 40
0.897
  0
CIRCLE
  5
303
100
AcDbEntity
  8
LAYER_CHAMFER_FEAT
100
AcDbCircle
 62
7
  6
CONTINUOUS
 10
6.1303672762
 20
5.5201198968
 40
0.43125
  0
CIRCLE
  5
304
100
AcDbEntity
  8
LAYER_CHAMFER_FEAT
100
AcDbCircle
 62
7
  6
CONTINUOUS
 10
6.1303672762
 20
5.5201198968
 40
0.375
  0
CIRCLE
  5
305
100
AcDbEntity
  8
02___PRT_ALL_AXES
100
AcDbCircle
 62
7
  6
CONTINUOUS
 10
6.0708720839
 20
12.0399852814
 40
0.246
  0
ARC
  5
306
100
AcDbEntity
  8
LAYER_FEATURE
100
AcDbCircle
 62
7
  6
CONTINUOUS
 10
7.3682612915
 20
12.3681102814
 40
0.24225
100
AcDbArc
 50
72.3498757801
 51
90.0
  0
ARC
  5
307
100
AcDbEntity
  8
LAYER_FEATURE
100
AcDbCircle
 62
7
  6
CONTINUOUS
 10
4.7734828762
 20
12.3681102814
 40
0.24225
100
AcDbArc
 50
90.0
 51
107.6501242199
  0
ARC
  5
308
100
AcDbEntity
  8
LAYER_FEATURE
100
AcDbCircle
 62
7
  6
CONTINUOUS
 10
7.3682612915
 20
13.7226102814
 40
0.24225
100
AcDbArc
 50
270.0
 51
287.6501242199
  0
ARC
  5
309
100
AcDbEntity
  8
LAYER_FEATURE
100
AcDbCircle
 62
7
  6
CONTINUOUS
 10
4.7734828762
 20
13.7226102814
 40
0.24225
100
AcDbArc
 50
252.3498757801
 51
270.0
  0
CIRCLE
  5
30A
100
AcDbEntity
  8
LAYER_FEATURE
100
AcDbCircle
 62
7
  6
CONTINUOUS
 10
6.0708720839
 20
12.0399852814
 40
0.1968
  0
CIRCLE
  5
30B
100
AcDbEntity
  8
02___PRT_ALL_AXES
100
AcDbCircle
 62
7
  6
CONTINUOUS
 10
15.0002927569
 20
5.4606247044
 40
0.246
  0
ARC
  5
30C
100
AcDbEntity
  8
LAYER_FEATURE
100
AcDbCircle
 62
7
  6
CONTINUOUS
 10
15.3284177569
 20
4.1632354968
 40
0.24225
100
AcDbArc
 50
342.3498757801
 51
360.0
  0
ARC
  5
30D
100
AcDbEntity
  8
LAYER_FEATURE
100
AcDbCircle
 62
7
  6
CONTINUOUS
 10
15.3284177569
 20
6.7580139121
 40
0.24225
100
AcDbArc
 50
0.0
 51
17.6501242199
  0
ARC
  5
30E
100
AcDbEntity
  8
LAYER_FEATURE
100
AcDbCircle
 62
7
  6
CONTINUOUS
 10
16.6829177569
 20
4.1632354968
 40
0.24225
100
AcDbArc
 50
180.0
 51
197.6501242199
  0
ARC
  5
30F
100
AcDbEntity
  8
LAYER_FEATURE
100
AcDbCircle
 62
7
  6
CONTINUOUS
 10
16.6829177569
 20
6.7580139121
 40
0.24225
100
AcDbArc
 50
162.3498757801
 51
180.0
  0
CIRCLE
  5
310
100
AcDbEntity
  8
LAYER_FEATURE
100
AcDbCircle
 62
7
  6
CONTINUOUS
 10
15.0002927569
 20
5.4606247044
 40
0.1968
  0
ARC
  5
311
100
AcDbEntity
  8
LAYER_FEATURE
100
AcDbCircle
 62
7
  6
CONTINUOUS
 10
15.1698871197
 20
11.697448917
 40
2.0484841199
100
AcDbArc
 50
72.2628831979
 51
73.6586422069
  0
ARC
  5
312
100
AcDbEntity
  8
LAYER_FEATURE
100
AcDbCircle
 62
7
  6
CONTINUOUS
 10
15.1960894217
 20
11.7646660263
 40
1.9763183349
100
AcDbArc
 50
65.7525904989
 51
67.1814565431
  0
ARC
  5
313
100
AcDbEntity
  8
LAYER_FEATURE
100
AcDbCircle
 62
7
  6
CONTINUOUS
 10
15.1883730516
 20
11.7793908103
 40
1.964452593
100
AcDbArc
 50
78.743514105
 51
80.1794718904
  0
ARC
  5
314
100
AcDbEntity
  8
LAYER_FEATURE
100
AcDbCircle
 62
7
  6
CONTINUOUS
 10
15.2926979274
 20
11.9534325091
 40
1.7641515
100
AcDbArc
 50
58.8634170949
 51
60.4039508845
  0
ARC
  5
315
100
AcDbEntity
  8
LAYER_FEATURE
100
AcDbCircle
 62
7
  6
CONTINUOUS
 10
15.2143149796
 20
11.9991335084
 40
1.7430622179
100
AcDbArc
 50
85.5389948564
 51
87.0948359333
  0
ARC
  5
316
100
AcDbEntity
  8
LAYER_FEATURE
100
AcDbCircle
 62
7
  6
CONTINUOUS
 10
15.4639201021
 20
12.2066673992
 40
1.458255737
100
AcDbArc
 50
51.1863842727
 51
52.9346663723
  0
ARC
  5
317
100
AcDbEntity
  8
LAYER_FEATURE
100
AcDbCircle
 62
7
  6
CONTINUOUS
 10
15.2127072895
 20
12.3095544626
 40
1.4324216495
100
AcDbArc
 50
93.0436268791
 51
94.8177905104
  0
ARC
  5
318
100
AcDbEntity
  8
LAYER_FEATURE
100
AcDbCircle
 62
7
  6
CONTINUOUS
 10
15.6896216715
 20
12.4568066236
 40
1.1210301908
100
AcDbArc
 50
42.193610058
 51
44.2761030852
  0
ARC
  5
319
100
AcDbEntity
  8
LAYER_FEATURE
100
AcDbCircle
 62
7
  6
CONTINUOUS
 10
15.1635792376
 20
12.6426144974
 40
1.0954378448
100
AcDbArc
 50
101.7602618403
 51
103.8826727928
  0
ARC
  5
31A
100
AcDbEntity
  8
LAYER_FEATURE
100
AcDbCircle
 62
7
  6
CONTINUOUS
 10
15.9306689852
 20
12.6478924709
 40
0.8130098568
100
AcDbArc
 50
31.1939449057
 51
33.7731665453
  0
ARC
  5
31B
100
AcDbEntity
  8
LAYER_FEATURE
100
AcDbCircle
 62
7
  6
CONTINUOUS
 10
15.0695145922
 20
12.9308849787
 40
0.7917803793
100
AcDbArc
 50
112.3511644357
 51
114.9871103301
  0
ARC
  5
31C
100
AcDbEntity
  8
LAYER_FEATURE
100
AcDbCircle
 62
7
  6
CONTINUOUS
 10
16.1406997611
 20
12.7533450912
 40
0.57749311
100
AcDbArc
 50
17.403658967
 51
20.6437656287
  0
ARC
  5
31D
100
AcDbEntity
  8
LAYER_FEATURE
100
AcDbCircle
 62
7
  6
CONTINUOUS
 10
14.9573308115
 20
13.1259058078
 40
0.5663190113
100
AcDbArc
 50
125.6116622723
 51
128.9007943299
  0
ARC
  5
31E
100
AcDbEntity
  8
LAYER_FEATURE
100
AcDbCircle
 62
7
  6
CONTINUOUS
 10
16.2821326322
 20
12.7835389572
 40
0.4323943183
100
AcDbArc
 50
0.3933682279
 51
4.3307922467
  0
ARC
  5
31F
100
AcDbEntity
  8
LAYER_FEATURE
100
AcDbCircle
 62
7
  6
CONTINUOUS
 10
14.8612199334
 20
13.2239432847
 40
0.42858114
100
AcDbArc
 50
142.0662706325
 51
146.0270182067
  0
ARC
  5
320
100
AcDbEntity
  8
LAYER_FEATURE
100
AcDbCircle
 62
7
  6
CONTINUOUS
 10
16.3294650104
 20
12.78024696
 40
0.3848082853
100
AcDbArc
 50
342.8281842564
 51
345.361723286
  0
ARC
  5
321
100
AcDbEntity
  8
LAYER_FEATURE
100
AcDbCircle
 62
7
  6
CONTINUOUS
 10
16.6463201065
 20
12.7010069318
 40
0.1352982193
100
AcDbArc
 50
66.1402588425
 51
75.7547747362
  0
ARC
  5
322
100
AcDbEntity
  8
LAYER_FEATURE
100
AcDbCircle
 62
7
  6
CONTINUOUS
 10
14.5141094132
 20
13.3546284107
 40
0.1351623212
100
AcDbArc
 50
70.1639096528
 51
79.7848843255
  0
ARC
  5
323
100
AcDbEntity
  8
LAYER_FEATURE
100
AcDbCircle
 62
7
  6
CONTINUOUS
 10
16.7105188074
 20
12.9537484001
 40
0.1254690927
100
AcDbArc
 50
248.3651151163
 51
255.7401839584
  0
ARC
  5
324
100
AcDbEntity
  8
LAYER_FEATURE
100
AcDbCircle
 62
7
  6
CONTINUOUS
 10
14.602513727
 20
13.5998037484
 40
0.1254640055
100
AcDbArc
 50
250.1805474166
 51
256.9506663756
  0
ARC
  5
325
100
AcDbEntity
  8
LAYER_FEATURE
100
AcDbCircle
 62
7
  6
CONTINUOUS
 10
16.6308353121
 20
12.5901487791
 40
0.1190475086
100
AcDbArc
 50
59.2378001964
 51
62.1861749261
  0
ARC
  5
326
100
AcDbEntity
  8
LAYER_FEATURE
100
AcDbCircle
 62
7
  6
CONTINUOUS
 10
14.4660378572
 20
13.2540607676
 40
0.1186212708
100
AcDbArc
 50
84.4208141314
 51
86.7080363389
  0
SPLINE
  5
327
100
AcDbEntity
  8
02___PRT_ALL_AXES
100
AcDbSpline
 62
7
  6
CONTINUOUS
 70
0
 71
3
 72
31
 73
27
 74
0
 42
0.0000001
 43
0.0000001
 44
0.0000000001
 40
0.0
 40
0.0
 40
0.0
 40
0.0
 40
0.0099167812
 40
0.0391144114
 40
0.0860758912
 40
0.1486358456
 40
0.1849848125
 40
0.2242628161
 40
0.2661126588
 40
0.3101583611
 40
0.356002022
 40
0.4032223004
 40
0.4513754599
 40
0.5000000002
 40
0.5486245406
 40
0.5967777001
 40
0.6439979785
 40
0.6898416394
 40
0.7338873416
 40
0.7757371843
 40
0.8150151879
 40
0.8513641548
 40
0.9139241091
 40
0.9608855887
 40
0.9900832189
 40
1.0
 40
1.0
 40
1.0
 40
1.0
 10
6.9678720839
 20
11.7939852814
 30
0.0
 10
6.9674364546
 20
11.7955737297
 30
0.0
 10
6.9657325294
 20
11.8018429339
 30
0.0
 10
6.9621082268
 20
11.8156729467
 30
0.0
 10
6.9566714967
 20
11.8380644286
 30
0.0
 10
6.9515910491
 20
11.8617583628
 30
0.0
 10
6.9473506846
 20
11.8843162592
 30
0.0
 10
6.9441273178
 20
11.9035616735
 30
0.0
 10
6.9411399739
 20
11.9241381131
 30
0.0
 10
6.9385061404
 20
11.9458620984
 30
0.0
 10
6.9363323861
 20
11.9685335358
 30
0.0
 10
6.9347092742
 20
11.9919352527
 30
0.0
 10
6.9337062167
 20
12.0158342599
 30
0.0
 10
6.9333668485
 20
12.0399852815
 30
0.0
 10
6.9337062167
 20
12.0641363031
 30
0.0
 10
6.9347092742
 20
12.0880353102
 30
0.0
 10
6.9363323861
 20
12.1114370271
 30
0.0
 10
6.9385061404
 20
12.1341084646
 30
0.0
 10
6.941139974
 20
12.1558324499
 30
0.0
 10
6.9441273178
 20
12.1764088895
 30
0.0
 10
6.9473506847
 20
12.1956543038
 30
0.0
 10
6.9515910491
 20
12.2182122001
 30
0.0
 10
6.9566714968
 20
12.2419061343
 30
0.0
 10
6.9621082268
 20
12.264297616
 30
0.0
 10
6.9657325294
 20
12.2781276288
 30
0.0
 10
6.9674364546
 20
12.2843968331
 30
0.0
 10
6.9678720839
 20
12.2859852814
 30
0.0
  0
SPLINE
  5
328
100
AcDbEntity
  8
02___PRT_ALL_AXES
100
AcDbSpline
 62
7
  6
CONTINUOUS
 70
0
 71
3
 72
31
 73
27
 74
0
 42
0.0000001
 43
0.0000001
 44
0.0000000001
 40
0.0
 40
0.0
 40
0.0
 40
0.0
 40
0.0099167851
 40
0.0391144075
 40
0.0860758731
 40
0.1486358328
 40
0.1849848294
 40
0.2242628235
 40
0.2661126815
 40
0.3101583838
 40
0.3560020383
 40
0.4032223202
 40
0.451375468
 40
0.5000000003
 40
0.5486245325
 40
0.5967776803
 40
0.6439979622
 40
0.6898416167
 40
0.7338873189
 40
0.7757371769
 40
0.8150151709
 40
0.8513641674
 40
0.9139241271
 40
0.9608855926
 40
0.9900832149
 40
1.0
 40
1.0
 40
1.0
 40
1.0
 10
15.2462927569
 20
6.3576247044
 30
0.0
 10
15.2447043083
 20
6.3571890741
 30
0.0
 10
15.2384351052
 20
6.355485147
 30
0.0
 10
15.2246050943
 20
6.3518608489
 30
0.0
 10
15.2022136148
 20
6.3464241211
 30
0.0
 10
15.1785196781
 20
6.3413436681
 30
0.0
 10
15.1559617767
 20
6.3371033078
 30
0.0
 10
15.1367163577
 20
6.333879933
 30
0.0
 10
15.1161399163
 20
6.3308925947
 30
0.0
 10
15.0944159294
 20
6.3282587628
 30
0.0
 10
15.0717444935
 20
6.3260849956
 30
0.0
 10
15.0483427777
 20
6.3244619034
 30
0.0
 10
15.024443774
 20
6.3234588297
 30
0.0
 10
15.0002927568
 20
6.3231194728
 30
0.0
 10
14.9761417396
 20
6.3234588297
 30
0.0
 10
14.9522427359
 20
6.3244619034
 30
0.0
 10
14.9288410201
 20
6.3260849956
 30
0.0
 10
14.9061695843
 20
6.3282587629
 30
0.0
 10
14.8844455974
 20
6.3308925947
 30
0.0
 10
14.863869156
 20
6.3338799331
 30
0.0
 10
14.844623737
 20
6.3371033079
 30
0.0
 10
14.8220658357
 20
6.3413436681
 30
0.0
 10
14.798371899
 20
6.3464241211
 30
0.0
 10
14.7759804196
 20
6.3518608489
 30
0.0
 10
14.7621504087
 20
6.355485147
 30
0.0
 10
14.7558812056
 20
6.3571890741
 30
0.0
 10
14.7542927569
 20
6.3576247044
 30
0.0
  0
SPLINE
  5
329
100
AcDbEntity
  8
02___PRT_ALL_AXES
100
AcDbSpline
 62
7
  6
CONTINUOUS
 70
0
 71
3
 72
71
 73
67
 74
0
 42
0.0000001
 43
0.0000001
 44
0.0000000001
 40
0.0
 40
0.0
 40
0.0
 40
0.0
 40
0.013547754
 40
0.0276057882
 40
0.0421528996
 40
0.0571689209
 40
0.072631677
 40
0.0885177196
 40
0.1048028346
 40
0.1214620898
 40
0.1384699866
 40
0.1558005895
 40
0.1734277457
 40
0.1913251539
 40
0.2094664923
 40
0.2278255232
 40
0.246376177
 40
0.2650926293
 40
0.2839493475
 40
0.3029211365
 40
0.3219831701
 40
0.341111038
 40
0.3602807369
 40
0.3794686945
 40
0.3986517839
 40
0.41780734
 40
0.4369131414
 40
0.4559474458
 40
0.4748890186
 40
0.4937171129
 40
0.5124115499
 40
0.5309527129
 40
0.5493216237
 40
0.567499998
 40
0.5854702708
 40
0.6032157199
 40
0.6207205102
 40
0.6379697849
 40
0.6549497409
 40
0.6716477306
 40
0.6880523426
 40
0.7041534409
 40
0.7199422998
 40
0.735411614
 40
0.7505555612
 40
0.7653698767
 40
0.7798518118
 40
0.7940002382
 40
0.8078156112
 40
0.8212999443
 40
0.8344569072
 40
0.8472917274
 40
0.8598112339
 40
0.8720238874
 40
0.883939729
 40
0.8955704721
 40
0.9069294761
 40
0.9180317921
 40
0.9288942338
 40
0.9395353552
 40
0.9499755272
 40
0.9602369291
 40
0.9703435304
 40
0.9803210701
 40
0.9901969223
 40
1.0
 40
1.0
 40
1.0
 40
1.0
 10
15.9943884346
 20
11.6919791404
 30
0.0
 10
15.9933988295
 20
11.6939957437
 30
0.0
 10
15.9914216218
 20
11.698124279
 30
0.0
 10
15.9885127086
 20
11.7044798229
 30
0.0
 10
15.9856099494
 20
11.7111048665
 30
0.0
 10
15.9827190266
 20
11.7179883942
 30
0.0
 10
15.979845867
 20
11.7251192686
 30
0.0
 10
15.9769967358
 20
11.7324858433
 30
0.0
 10
15.9741781786
 20
11.7400761543
 30
0.0
 10
15.9713969776
 20
11.7478779937
 30
0.0
 10
15.9686601157
 20
11.755878931
 30
0.0
 10
15.9659747923
 20
11.7640663825
 30
0.0
 10
15.963348343
 20
11.7724276359
 30
0.0
 10
15.960788249
 20
11.7809499069
 30
0.0
 10
15.9583021103
 20
11.7896203632
 30
0.0
 10
15.9558975969
 20
11.7984261476
 30
0.0
 10
15.9535824649
 20
11.80735441
 30
0.0
 10
15.9513644973
 20
11.8163923097
 30
0.0
 10
15.9492515112
 20
11.8255270286
 30
0.0
 10
15.9472513178
 20
11.8347457655
 30
0.0
 10
15.9453717124
 20
11.8440357365
 30
0.0
 10
15.9436204464
 20
11.8533841634
 30
0.0
 10
15.9420051911
 20
11.8627782586
 30
0.0
 10
15.9405335509
 20
11.8722052141
 30
0.0
 10
15.93921296
 20
11.8816521748
 30
0.0
 10
15.9380507436
 20
11.8911062322
 30
0.0
 10
15.9370539993
 20
11.9005543932
 30
0.0
 10
15.9362295836
 20
11.9099835716
 30
0.0
 10
15.9355841334
 20
11.9193805759
 30
0.0
 10
15.935123859
 20
11.9287320926
 30
0.0
 10
15.9348546979
 20
11.9380246896
 30
0.0
 10
15.9347820948
 20
11.947244813
 30
0.0
 10
15.934910982
 20
11.9563788012
 30
0.0
 10
15.9352458609
 20
11.9654128948
 30
0.0
 10
15.9357904635
 20
11.9743332712
 30
0.0
 10
15.9365479908
 20
11.9831260665
 30
0.0
 10
15.9375209018
 20
11.9917774214
 30
0.0
 10
15.9387107835
 20
12.000273542
 30
0.0
 10
15.9401186007
 20
12.0086007164
 30
0.0
 10
15.9417442938
 20
12.0167454245
 30
0.0
 10
15.943586982
 20
12.0246943693
 30
0.0
 10
15.9456449924
 20
12.0324345189
 30
0.0
 10
15.9479155437
 20
12.0399532481
 30
0.0
 10
15.9503951397
 20
12.0472383016
 30
0.0
 10
15.953079341
 20
12.0542779066
 30
0.0
 10
15.9559627521
 20
12.0610608519
 30
0.0
 10
15.959039348
 20
12.0675764124
 30
0.0
 10
15.9623021461
 20
12.0738145326
 30
0.0
 10
15.9657434993
 20
12.0797657554
 30
0.0
 10
15.9693551724
 20
12.085421203
 30
0.0
 10
15.9731281527
 20
12.0907727369
 30
0.0
 10
15.9770530402
 20
12.0958127528
 30
0.0
 10
15.9811198795
 20
12.1005343046
 30
0.0
 10
15.9853182622
 20
12.1049310803
 30
0.0
 10
15.9896375264
 20
12.1089972405
 30
0.0
 10
15.9940665815
 20
12.1127276044
 30
0.0
 10
15.9985941628
 20
12.1161174243
 30
0.0
 10
16.0032087804
 20
12.1191624357
 30
0.0
 10
16.0078987335
 20
12.1218588885
 30
0.0
 10
16.0126522507
 20
12.1242033477
 30
0.0
 10
16.0174573902
 20
12.126192875
 30
0.0
 10
16.0223021687
 20
12.1278248612
 30
0.0
 10
16.0271745055
 20
12.1290970496
 30
0.0
 10
16.0320623825
 20
12.130007633
 30
0.0
 10
16.0369533235
 20
12.130555068
 30
0.0
 10
16.0402175258
 20
12.1306775587
 30
0.0
 10
16.0418429588
 20
12.1306775545
 30
0.0
  0
SPLINE
  5
32A
100
AcDbEntity
  8
02___PRT_ALL_AXES
100
AcDbSpline
 62
7
  6
CONTINUOUS
 70
0
 71
3
 72
36
 73
32
 74
0
 42
0.0000001
 43
0.0000001
 44
0.0000000001
 40
0.0
 40
0.0
 40
0.0
 40
0.0
 40
0.0386874435
 40
0.0769356045
 40
0.1147181191
 40
0.1520165549
 40
0.1888147285
 40
0.2250971549
 40
0.2608500356
 40
0.296062546
 40
0.3307259777
 40
0.3648343661
 40
0.3983841128
 40
0.4313747042
 40
0.4638082414
 40
0.4956900771
 40
0.5578262512
 40
0.6178954923
 40
0.6760546976
 40
0.704487291
 40
0.7325253809
 40
0.7602030735
 40
0.7875576115
 40
0.8146288809
 40
0.8414594157
 40
0.8680938944
 40
0.8945789535
 40
0.9209626838
 40
0.9472942478
 40
0.9736234162
 40
1.0
 40
1.0
 40
1.0
 40
1.0
 10
14.8945741687
 20
12.2495632819
 30
0.0
 10
14.8922763174
 20
12.2495632819
 30
0.0
 10
14.8877065599
 20
12.2496095397
 30
0.0
 10
14.880895624
 20
12.2498202574
 30
0.0
 10
14.8741730712
 20
12.2501719027
 30
0.0
 10
14.8675457002
 20
12.250664267
 30
0.0
 10
14.8610197512
 20
12.2512971314
 30
0.0
 10
14.8546013451
 20
12.2520701752
 30
0.0
 10
14.8482964533
 20
12.2529830867
 30
0.0
 10
14.8421108146
 20
12.2540354132
 30
0.0
 10
14.8360499106
 20
12.2552267249
 30
0.0
 10
14.830119
 20
12.2565564737
 30
0.0
 10
14.8243230959
 20
12.2580241405
 30
0.0
 10
14.8186670054
 20
12.2596290822
 30
0.0
 10
14.8131551734
 20
12.2613707294
 30
0.0
 10
14.8060655525
 20
12.2638527807
 30
0.0
 10
14.7975738821
 20
12.2672856668
 30
0.0
 10
14.7879337107
 20
12.2719778318
 30
0.0
 10
14.7803968869
 20
12.2763645507
 30
0.0
 10
14.7747273996
 20
12.2801373339
 30
0.0
 10
14.7706823492
 20
12.2830754798
 30
0.0
 10
14.7668153682
 20
12.2861423144
 30
0.0
 10
14.7631287465
 20
12.289336855
 30
0.0
 10
14.7596247777
 20
12.2926580943
 30
0.0
 10
14.756305534
 20
12.2961048972
 30
0.0
 10
14.753173037
 20
12.2996761318
 30
0.0
 10
14.7502290989
 20
12.3033705108
 30
0.0
 10
14.7474755057
 20
12.3071867216
 30
0.0
 10
14.7449138019
 20
12.3111233191
 30
0.0
 10
14.7425456013
 20
12.3151786584
 30
0.0
 10
14.7410987254
 20
12.3179563183
 30
0.0
 10
14.7404085534
 20
12.3193627455
 30
0.0
  0
SPLINE
  5
32B
100
AcDbEntity
  8
LAYER_CUT_FEAT
100
AcDbSpline
 62
7
  6
CONTINUOUS
 70
0
 71
3
 72
23
 73
19
 74
0
 42
0.0000001
 43
0.0000001
 44
0.0000000001
 40
0.0
 40
0.0
 40
0.0
 40
0.0
 40
0.1378271855
 40
0.2049629443
 40
0.2709647384
 40
0.3358842491
 40
0.3997805545
 40
0.4627194807
 40
0.5247734328
 40
0.5860213576
 40
0.6465484173
 40
0.7064455551
 40
0.7658089763
 40
0.8247395201
 40
0.8833418833
 40
0.9417237484
 40
0.9708688071
 40
1.0
 40
1.0
 40
1.0
 40
1.0
 10
14.392307974
 20
12.2197203552
 30
0.0
 10
14.3862607577
 20
12.2323191562
 30
0.0
 10
14.3779377978
 20
12.2513910507
 30
0.0
 10
14.3684661817
 20
12.2771868838
 30
0.0
 10
14.3623166602
 20
12.2963105076
 30
0.0
 10
14.3570662915
 20
12.3153595887
 30
0.0
 10
14.3527198755
 20
12.3343169738
 30
0.0
 10
14.3492816849
 20
12.3531649205
 30
0.0
 10
14.3467551211
 20
12.3718859392
 30
0.0
 10
14.3451427551
 20
12.3904625647
 30
0.0
 10
14.344446264
 20
12.4088774373
 30
0.0
 10
14.3446664929
 20
12.4271133139
 30
0.0
 10
14.3458034308
 20
12.4451530427
 30
0.0
 10
14.3478561767
 20
12.4629797324
 30
0.0
 10
14.3508228044
 20
12.4805762379
 30
0.0
 10
14.3540564856
 20
12.4950435902
 30
0.0
 10
14.3570953006
 20
12.5064761974
 30
0.0
 10
14.3587648249
 20
12.5121452338
 30
0.0
 10
14.3596369081
 20
12.5149673038
 30
0.0
  0
SPLINE
  5
32C
100
AcDbEntity
  8
LAYER_CHAMFER_FEAT
100
AcDbSpline
 62
7
  6
CONTINUOUS
 70
0
 71
3
 72
29
 73
25
 74
0
 42
0.0000001
 43
0.0000001
 44
0.0000000001
 40
0.0
 40
0.0
 40
0.0
 40
0.0
 40
0.073957116
 40
0.1461167841
 40
0.2164831511
 40
0.2850749932
 40
0.3519266703
 40
0.4170891352
 40
0.4806309427
 40
0.5426389129
 40
0.6032186032
 40
0.6624945231
 40
0.6916918439
 40
0.7206184591
 40
0.7492951063
 40
0.7777434625
 40
0.8059862232
 40
0.8340469932
 40
0.861950135
 40
0.8897207913
 40
0.9173846911
 40
0.9449680611
 40
0.9724975395
 40
1.0
 40
1.0
 40
1.0
 40
1.0
 10
14.8949119437
 20
11.7784509744
 30
0.0
 10
14.8908810476
 20
11.77721919
 30
0.0
 10
14.8829656956
 20
11.7746228767
 30
0.0
 10
14.8714164791
 20
11.7702721811
 30
0.0
 10
14.860357675
 20
11.7655208957
 30
0.0
 10
14.8498106921
 20
11.7603780101
 30
0.0
 10
14.8397956726
 20
11.7548531249
 30
0.0
 10
14.8303318754
 20
11.7489565414
 30
0.0
 10
14.8214375328
 20
11.7426993112
 30
0.0
 10
14.8131297903
 20
11.7360930629
 30
0.0
 10
14.8054250317
 20
11.7291504227
 30
0.0
 10
14.7994892493
 20
11.7230642566
 30
0.0
 10
14.7950655473
 20
11.7180431384
 30
0.0
 10
14.791923789
 20
11.7142207047
 30
0.0
 10
14.7889431687
 20
11.7103249705
 30
0.0
 10
14.7861251319
 20
11.7063577227
 30
0.0
 10
14.7834710581
 20
11.7023208817
 30
0.0
 10
14.7809821873
 20
11.6982164132
 30
0.0
 10
14.7786598011
 20
11.6940462505
 30
0.0
 10
14.7765049807
 20
11.6898124309
 30
0.0
 10
14.7745187694
 20
11.6855170024
 30
0.0
 10
14.7727021878
 20
11.6811619892
 30
0.0
 10
14.7710560711
 20
11.6767496145
 30
0.0
 10
14.7700726327
 20
11.6737704992
 30
0.0
 10
14.7696098666
 20
11.6722729733
 30
0.0
  0
SPLINE
  5
32D
100
AcDbEntity
  8
LAYER_CHAMFER_FEAT
100
AcDbSpline
 62
7
  6
CONTINUOUS
 70
0
 71
3
 72
27
 73
23
 74
0
 42
0.0000001
 43
0.0000001
 44
0.0000000001
 40
0.0
 40
0.0
 40
0.0
 40
0.0
 40
0.0738802816
 40
0.1459714146
 40
0.2162787213
 40
0.284821925
 40
0.3516361657
 40
0.4167730806
 40
0.4803015954
 40
0.5423085929
 40
0.6028994403
 40
0.6621982204
 40
0.7203473567
 40
0.7775067835
 40
0.8057743886
 40
0.8338618398
 40
0.8617933062
 40
0.8895936369
 40
0.9172883333
 40
0.9449033519
 40
0.9724650387
 40
1.0
 40
1.0
 40
1.0
 40
1.0
 10
15.4433734489
 20
11.6082522181
 30
0.0
 10
15.4459725377
 20
11.6049775694
 30
0.0
 10
15.4509767873
 20
11.5984021135
 30
0.0
 10
15.4579629376
 20
11.5883484789
 30
0.0
 10
15.4643245376
 20
11.5782429968
 30
0.0
 10
15.4700492817
 20
11.5681048279
 30
0.0
 10
15.4751262193
 20
11.5579529173
 30
0.0
 10
15.4795455633
 20
11.5478063244
 30
0.0
 10
15.4832987238
 20
11.5376840903
 30
0.0
 10
15.4863782815
 20
11.5276052295
 30
0.0
 10
15.4887780187
 20
11.5175887597
 30
0.0
 10
15.4904929959
 20
11.5076535451
 30
0.0
 10
15.4915195464
 20
11.4978188396
 30
0.0
 10
15.4918002571
 20
11.4896915772
 30
0.0
 10
15.4916753948
 20
11.4832680599
 30
0.0
 10
15.491409583
 20
11.4785047565
 30
0.0
 10
15.4909713724
 20
11.4737808035
 30
0.0
 10
15.4903608963
 20
11.4690983909
 30
0.0
 10
15.489578516
 20
11.4644597723
 30
0.0
 10
15.4886245608
 20
11.4598671386
 30
0.0
 10
15.4874994754
 20
11.4553227816
 30
0.0
 10
15.4866355292
 20
11.4523261362
 30
0.0
 10
15.4861754938
 20
11.4508374466
 30
0.0
  0
SPLINE
  5
32E
100
AcDbEntity
  8
LAYER_FEATURE
100
AcDbSpline
 62
7
  6
CONTINUOUS
 70
0
 71
3
 72
45
 73
41
 74
0
 42
0.0000001
 43
0.0000001
 44
0.0000000001
 40
0.0
 40
0.0
 40
0.0
 40
0.0
 40
0.009989956
 40
0.020281742
 40
0.0308783909
 40
0.0417818591
 40
0.0529929634
 40
0.064511484
 40
0.0763363783
 40
0.0884656062
 40
0.1008964791
 40
0.1136254816
 40
0.1266484485
 40
0.1399606356
 40
0.1674293164
 40
0.1959835247
 40
0.2255662847
 40
0.2561139311
 40
0.2875569131
 40
0.3198205372
 40
0.3528256194
 40
0.3864890737
 40
0.4207244586
 40
0.4554424882
 40
0.4905515263
 40
0.5259580764
 40
0.5615672437
 40
0.597283188
 40
0.6330095695
 40
0.6686499971
 40
0.7041084819
 40
0.7392898877
 40
0.7741003772
 40
0.8084478794
 40
0.8422425524
 40
0.875397261
 40
0.9078283042
 40
0.939455082
 40
0.9702031904
 40
1.0
 40
1.0
 40
1.0
 40
1.0
 10
16.0863385763
 20
12.0630228632
 30
0.0
 10
16.0870013976
 20
12.0622287719
 30
0.0
 10
16.0883175675
 20
12.0605917647
 30
0.0
 10
16.0902351634
 20
12.0580328183
 30
0.0
 10
16.0921238766
 20
12.0553361584
 30
0.0
 10
16.0939821549
 20
12.0525039398
 30
0.0
 10
16.0958085556
 20
12.0495383964
 30
0.0
 10
16.0976016617
 20
12.0464418879
 30
0.0
 10
16.0993600131
 20
12.0432168432
 30
0.0
 10
16.1010822765
 20
12.0398658403
 30
0.0
 10
16.1027670424
 20
12.0363915129
 30
0.0
 10
16.1044130013
 20
12.0327966284
 30
0.0
 10
16.1060188611
 20
12.0290840248
 30
0.0
 10
16.1081267803
 20
12.023926999
 30
0.0
 10
16.1106478401
 20
12.0172032687
 30
0.0
 10
16.1134626205
 20
12.0087966558
 30
0.0
 10
16.1160887993
 20
11.9999961004
 30
0.0
 10
16.1185180071
 20
11.9908295392
 30
0.0
 10
16.1207425251
 20
11.9813259694
 30
0.0
 10
16.1227552688
 20
11.9715155189
 30
0.0
 10
16.124549825
 20
11.9614292968
 30
0.0
 10
16.1261204711
 20
11.9510993048
 30
0.0
 10
16.1274621947
 20
11.9405583298
 30
0.0
 10
16.1285707137
 20
11.9298398408
 30
0.0
 10
16.1294424953
 20
11.9189778792
 30
0.0
 10
16.1300747594
 20
11.9080069475
 30
0.0
 10
16.1304654887
 20
11.896961897
 30
0.0
 10
16.1306134353
 20
11.8858778171
 30
0.0
 10
16.1305181233
 20
11.8747899237
 30
0.0
 10
16.1301798567
 20
11.863733445
 30
0.0
 10
16.1295997189
 20
11.8527435079
 30
0.0
 10
16.1287795621
 20
11.8418550248
 30
0.0
 10
16.1277220031
 20
11.8311025818
 30
0.0
 10
16.1264304148
 20
11.8205203287
 30
0.0
 10
16.1249089122
 20
11.8101418727
 30
0.0
 10
16.1231623548
 20
11.8000001419
 30
0.0
 10
16.121196305
 20
11.7901273715
 30
0.0
 10
16.1190170409
 20
11.7805547312
 30
0.0
 10
16.1166315035
 20
11.7713128257
 30
0.0
 10
16.1148798807
 20
11.7652923632
 30
0.0
 10
16.1139689896
 20
11.7623447184
 30
0.0
  0
SPLINE
  5
32F
100
AcDbEntity
  8
LAYER_FEATURE
100
AcDbSpline
 62
7
  6
CONTINUOUS
 70
0
 71
3
 72
23
 73
19
 74
0
 42
0.0000001
 43
0.0000001
 44
0.0000000001
 40
0.0
 40
0.0
 40
0.0
 40
0.0
 40
0.0507377155
 40
0.1030493762
 40
0.1569516586
 40
0.2124540277
 40
0.2695607267
 40
0.3282698489
 40
0.3885747904
 40
0.4504644232
 40
0.5139231573
 40
0.5789318532
 40
0.6454662965
 40
0.7134996618
 40
0.7830037887
 40
0.8539489856
 40
0.9262973792
 40
1.0
 40
1.0
 40
1.0
 40
1.0
 10
16.0863385773
 20
11.706332252
 30
0.0
 10
16.0870196029
 20
11.7071481604
 30
0.0
 10
16.0883716253
 20
11.7088315182
 30
0.0
 10
16.0903399032
 20
11.7114655388
 30
0.0
 10
16.0922775716
 20
11.714244727
 30
0.0
 10
16.0941830499
 20
11.7171666836
 30
0.0
 10
16.0960547125
 20
11.7202290158
 30
0.0
 10
16.0978910456
 20
11.7234291401
 30
0.0
 10
16.099690505
 20
11.7267643955
 30
0.0
 10
16.1014515834
 20
11.7302320035
 30
0.0
 10
16.1031728464
 20
11.7338290618
 30
0.0
 10
16.1048528004
 20
11.7375525734
 30
0.0
 10
16.1064900936
 20
11.741399379
 30
0.0
 10
16.1080833159
 20
11.7453662842
 30
0.0
 10
16.1096311826
 20
11.7494500435
 30
0.0
 10
16.1111323941
 20
11.7536472897
 30
0.0
 10
16.1125856137
 20
11.7579542828
 30
0.0
 10
16.1135131818
 20
11.7608697241
 30
0.0
 10
16.1139689896
 20
11.7623447184
 30
0.0
  0
SPLINE
  5
330
100
AcDbEntity
  8
02___PRT_ALL_AXES
100
AcDbSpline
 62
7
  6
CONTINUOUS
 70
0
 71
3
 72
36
 73
32
 74
0
 42
0.0000001
 43
0.0000001
 44
0.0000000001
 40
0.0
 40
0.0
 40
0.0
 40
0.0
 40
0.0183650488
 40
0.0369402639
 40
0.0558378302
 40
0.0751637395
 40
0.0950167526
 40
0.1154877122
 40
0.1366583324
 40
0.1586016863
 40
0.1813828018
 40
0.2050581218
 40
0.229676707
 40
0.2552813126
 40
0.2819078455
 40
0.3095866646
 40
0.3383436767
 40
0.3681995278
 40
0.3991708329
 40
0.4312711523
 40
0.4645099069
 40
0.498893558
 40
0.5344264565
 40
0.5711096306
 40
0.6089419319
 40
0.6479206553
 40
0.6880399828
 40
0.7292923344
 40
0.8151584371
 40
0.9054360542
 40
1.0
 40
1.0
 40
1.0
 40
1.0
 10
16.0418429586
 20
11.6386775658
 30
0.0
 10
16.0413889383
 20
11.638677568
 30
0.0
 10
16.0404753106
 20
11.6387137759
 30
0.0
 10
16.0391031068
 20
11.6388755494
 30
0.0
 10
16.037723684
 20
11.6391449234
 30
0.0
 10
16.0363370085
 20
11.6395217177
 30
0.0
 10
16.0349428753
 20
11.6400057317
 30
0.0
 10
16.0335411186
 20
11.6405967688
 30
0.0
 10
16.0321315371
 20
11.6412945579
 30
0.0
 10
16.0307139399
 20
11.6420988282
 30
0.0
 10
16.0292881697
 20
11.6430093155
 30
0.0
 10
16.0278540724
 20
11.644025693
 30
0.0
 10
16.0264115286
 20
11.6451476188
 30
0.0
 10
16.0249604699
 20
11.646374736
 30
0.0
 10
16.023500845
 20
11.6477066225
 30
0.0
 10
16.0220326458
 20
11.6491428228
 30
0.0
 10
16.020555916
 20
11.6506828464
 30
0.0
 10
16.0190707233
 20
11.6523261365
 30
0.0
 10
16.0175771798
 20
11.6540720911
 30
0.0
 10
16.0160754458
 20
11.65592006
 30
0.0
 10
16.0145657107
 20
11.6578693276
 30
0.0
 10
16.0130482083
 20
11.6599191259
 30
0.0
 10
16.0115232144
 20
11.6620686321
 30
0.0
 10
16.0099910395
 20
11.6643169641
 30
0.0
 10
16.0084520357
 20
11.6666631848
 30
0.0
 10
16.0069065997
 20
11.6691062911
 30
0.0
 10
16.0053551598
 20
11.6716452141
 30
0.0
 10
16.0032510712
 20
11.6752043552
 30
0.0
 10
16.000612899
 20
11.6798875403
 30
0.0
 10
15.997472364
 20
11.6857979647
 30
0.0
 10
15.9954183388
 20
11.6898804164
 30
0.0
 10
15.9943884346
 20
11.6919791404
 30
0.0
  0
SPLINE
  5
331
100
AcDbEntity
  8
LAYER_FEATURE
100
AcDbSpline
 62
7
  6
CONTINUOUS
 70
0
 71
3
 72
45
 73
41
 74
0
 42
0.0000001
 43
0.0000001
 44
0.0000000001
 40
0.0
 40
0.0
 40
0.0
 40
0.0
 40
0.012891851
 40
0.0257892783
 40
0.038697847
 40
0.0516230967
 40
0.064570534
 40
0.077545617
 40
0.0905537442
 40
0.1036002506
 40
0.1166903855
 40
0.1298293126
 40
0.1562717787
 40
0.1829688165
 40
0.2099576653
 40
0.2372734065
 40
0.2649487991
 40
0.2930141469
 40
0.3214972204
 40
0.3504232136
 40
0.3798147245
 40
0.3946920716
 40
0.4096930854
 40
0.4400730721
 40
0.47097096
 40
0.5023992489
 40
0.5343680608
 40
0.5668852382
 40
0.5999564355
 40
0.633585202
 40
0.6677730682
 40
0.7025196541
 40
0.7378227631
 40
0.7736784608
 40
0.810081162
 40
0.84702373
 40
0.8844975588
 40
0.9224926398
 40
0.9609976427
 40
1.0
 40
1.0
 40
1.0
 40
1.0
 10
13.8967355105
 20
12.6580146548
 30
0.0
 10
13.8955075919
 20
12.6540411024
 30
0.0
 10
13.8931519714
 20
12.6460607411
 30
0.0
 10
13.8899222305
 20
12.6340003851
 30
0.0
 10
13.8869965109
 20
12.6218515282
 30
0.0
 10
13.8843754065
 20
12.609616858
 30
0.0
 10
13.8820595196
 20
12.5972989264
 30
0.0
 10
13.8800493155
 20
12.5849003586
 30
0.0
 10
13.8783451901
 20
12.5724237748
 30
0.0
 10
13.8769475609
 20
12.5598718354
 30
0.0
 10
13.8758566643
 20
12.5472471127
 30
0.0
 10
13.8748092525
 20
12.5302860085
 30
0.0
 10
13.8742725325
 20
12.5089020061
 30
0.0
 10
13.8748603096
 20
12.4830496082
 30
0.0
 10
13.8766776854
 20
12.4569720457
 30
0.0
 10
13.8797229334
 20
12.4306918813
 30
0.0
 10
13.8839932535
 20
12.4042312744
 30
0.0
 10
13.8894847831
 20
12.3776126538
 30
0.0
 10
13.8961926664
 20
12.3508584282
 30
0.0
 10
13.9041109483
 20
12.3239913851
 30
0.0
 10
13.9116816478
 20
12.3016181891
 30
0.0
 10
13.9183277671
 20
12.2836887293
 30
0.0
 10
13.9254279326
 20
12.2655911295
 30
0.0
 10
13.935055151
 20
12.2429381665
 30
0.0
 10
13.94773662
 20
12.2158459155
 30
0.0
 10
13.9615843918
 20
12.1887540215
 30
0.0
 10
13.9765865738
 20
12.1616854939
 30
0.0
 10
13.9927304594
 20
12.1346630002
 30
0.0
 10
14.0100023743
 20
12.1077092672
 30
0.0
 10
14.0283877135
 20
12.0808469443
 30
0.0
 10
14.0478709164
 20
12.0540986001
 30
0.0
 10
14.0684355231
 20
12.0274867197
 30
0.0
 10
14.0900641825
 20
12.0010336874
 30
0.0
 10
14.112738643
 20
11.9747617551
 30
0.0
 10
14.1364397591
 20
11.9486930171
 30
0.0
 10
14.1611475418
 20
11.922849408
 30
0.0
 10
14.1868411525
 20
11.8972527017
 30
0.0
 10
14.2134989663
 20
11.8719244071
 30
0.0
 10
14.2410983179
 20
11.846885998
 30
0.0
 10
14.259991505
 20
11.8305038418
 30
0.0
 10
14.2695869089
 20
11.8223649051
 30
0.0
  0
SPLINE
  5
332
100
AcDbEntity
  8
LAYER_FEATURE
100
AcDbSpline
 62
7
  6
CONTINUOUS
 70
0
 71
3
 72
29
 73
25
 74
0
 42
0.0000001
 43
0.0000001
 44
0.0000000001
 40
0.0
 40
0.0
 40
0.0
 40
0.0
 40
0.0291563497
 40
0.0583263711
 40
0.0875237062
 40
0.1167619293
 40
0.1460545276
 40
0.1754148566
 40
0.2048561202
 40
0.2343913465
 40
0.2640333398
 40
0.2937946858
 40
0.3236877007
 40
0.3537244162
 40
0.4142710473
 40
0.4755291957
 40
0.5375831426
 40
0.6005111241
 40
0.6643850411
 40
0.72927026
 40
0.7952255208
 40
0.8623029403
 40
0.9305480704
 40
1.0
 40
1.0
 40
1.0
 40
1.0
 10
14.1559885429
 20
13.4969577751
 30
0.0
 10
14.1547100126
 20
13.4928204433
 30
0.0
 10
14.1522615752
 20
13.4845096309
 30
0.0
 10
14.1489182207
 20
13.4719462045
 30
0.0
 10
14.1459045271
 20
13.4592870575
 30
0.0
 10
14.1432211669
 20
13.4465352241
 30
0.0
 10
14.1408688143
 20
13.4336935892
 30
0.0
 10
14.1388479561
 20
13.4207651224
 30
0.0
 10
14.1371590578
 20
13.4077527881
 30
0.0
 10
14.1358025439
 20
13.3946595738
 30
0.0
 10
14.1347786521
 20
13.3814884851
 30
0.0
 10
14.1340876698
 20
13.3682425672
 30
0.0
 10
14.1337297318
 20
13.3549247642
 30
0.0
 10
14.1336964785
 20
13.337029799
 30
0.0
 10
14.1344949756
 20
13.3144821426
 30
0.0
 10
14.1367834685
 20
13.2872608465
 30
0.0
 10
14.1404023362
 20
13.2598275409
 30
0.0
 10
14.1453479852
 20
13.2322078808
 30
0.0
 10
14.1516156104
 20
13.2044270587
 30
0.0
 10
14.1591992043
 20
13.1765105166
 30
0.0
 10
14.1680915465
 20
13.1484837761
 30
0.0
 10
14.1782843351
 20
13.1203722863
 30
0.0
 10
14.1897678247
 20
13.0922021465
 30
0.0
 10
14.1982021725
 20
13.0735651487
 30
0.0
 10
14.2026247942
 20
13.0642461721
 30
0.0
  0
SPLINE
  5
333
100
AcDbEntity
  8
LAYER_FEATURE
100
AcDbSpline
 62
7
  6
CONTINUOUS
 70
0
 71
3
 72
46
 73
42
 74
0
 42
0.0000001
 43
0.0000001
 44
0.0000000001
 40
0.0
 40
0.0
 40
0.0
 40
0.0
 40
0.0128920976
 40
0.0257897712
 40
0.038698584
 40
0.0516240756
 40
0.0645717521
 40
0.0775470689
 40
0.0905554271
 40
0.1036021578
 40
0.1166925099
 40
0.1298316503
 40
0.1430246406
 40
0.1562764376
 40
0.1829738401
 40
0.2099630163
 40
0.2372790408
 40
0.2649546672
 40
0.2930202033
 40
0.3215034168
 40
0.3504294963
 40
0.3798210376
 40
0.394698386
 40
0.4096993808
 40
0.4400793002
 40
0.4709770666
 40
0.5024051816
 40
0.5343737776
 40
0.5668906949
 40
0.5999615851
 40
0.6335900037
 40
0.6677774909
 40
0.702523665
 40
0.7378263281
 40
0.7736815555
 40
0.81008377
 40
0.8470258342
 40
0.8844991416
 40
0.9224936957
 40
0.960998177
 40
1.0
 40
1.0
 40
1.0
 40
1.0
 10
16.762998027
 20
11.7722725454
 30
0.0
 10
16.7617702095
 20
11.7682993204
 30
0.0
 10
16.7592130831
 20
11.7603819464
 30
0.0
 10
16.7550759983
 20
11.7486030573
 30
0.0
 10
16.7506380557
 20
11.7369225856
 30
0.0
 10
16.745900217
 20
11.7253431078
 30
0.0
 10
16.7408634437
 20
11.713867065
 30
0.0
 10
16.7355288654
 20
11.702496868
 30
0.0
 10
16.7298975709
 20
11.69123494
 30
0.0
 10
16.7239707613
 20
11.6800836654
 30
0.0
 10
16.7177497285
 20
11.669045376
 30
0.0
 10
16.7112357534
 20
11.6581224559
 30
0.0
 10
16.7044302027
 20
11.6473171218
 30
0.0
 10
16.694946636
 20
11.6330356363
 30
0.0
 10
16.6823581331
 20
11.6154816867
 30
0.0
 10
16.666147597
 20
11.5949775022
 30
0.0
 10
16.6488089238
 20
11.5749983171
 30
0.0
 10
16.6303572042
 20
11.555561279
 30
0.0
 10
16.6108081755
 20
11.5366826259
 30
0.0
 10
16.5901785127
 20
11.5183781426
 30
0.0
 10
16.5684859847
 20
11.5006632685
 30
0.0
 10
16.549615385
 20
11.4864624098
 30
0.0
 10
16.5340147433
 20
11.4754087976
 30
0.0
 10
16.5179444584
 20
11.4644724537
 30
0.0
 10
16.4972182943
 20
11.4512006828
 30
0.0
 10
16.4714665255
 20
11.4359866294
 30
0.0
 10
16.4447521206
 20
11.4214307334
 30
0.0
 10
16.4170978625
 20
11.4075453003
 30
0.0
 10
16.3885270315
 20
11.394341863
 30
0.0
 10
16.3590637393
 20
11.3818314588
 30
0.0
 10
16.3287328111
 20
11.3700245511
 30
0.0
 10
16.2975598115
 20
11.3589310127
 30
0.0
 10
16.2655710151
 20
11.3485601073
 30
0.0
 10
16.2327933736
 20
11.338920515
 30
0.0
 10
16.1992544966
 20
11.330020323
 30
0.0
 10
16.1649826445
 20
11.321866982
 30
0.0
 10
16.1300066932
 20
11.3144673134
 30
0.0
 10
16.0943561268
 20
11.3078275254
 30
0.0
 10
16.0580609196
 20
11.3019531955
 30
0.0
 10
16.0211518939
 20
11.2968492737
 30
0.0
 10
15.9963132712
 20
11.2939811034
 30
0.0
 10
15.9838005144
 20
11.2926740031
 30
0.0
  0
SPLINE
  5
334
100
AcDbEntity
  8
LAYER_FEATURE
100
AcDbSpline
 62
7
  6
CONTINUOUS
 70
0
 71
3
 72
30
 73
26
 74
0
 42
0.0000001
 43
0.0000001
 44
0.0000000001
 40
0.0
 40
0.0
 40
0.0
 40
0.0
 40
0.0291547306
 40
0.0583231447
 40
0.0875188925
 40
0.1167555618
 40
0.1460466486
 40
0.1754055167
 40
0.204845387
 40
0.2343792875
 40
0.2640200391
 40
0.2937802366
 40
0.3236721965
 40
0.3537079728
 40
0.3838993062
 40
0.4142576098
 40
0.47551474
 40
0.5375682379
 40
0.6004963732
 40
0.6643710728
 40
0.7292577341
 40
0.7952151166
 40
0.8622953363
 40
0.9305439361
 40
1.0
 40
1.0
 40
1.0
 40
1.0
 10
17.0222510594
 20
12.6112156657
 30
0.0
 10
17.0209719899
 20
12.607076589
 30
0.0
 10
17.0183036763
 20
12.5988298969
 30
0.0
 10
17.0139741694
 20
12.5865654821
 30
0.0
 10
17.0093182407
 20
12.5744080967
 30
0.0
 10
17.0043369708
 20
12.5623606582
 30
0.0
 10
16.9990314792
 20
12.5504259149
 30
0.0
 10
16.993403046
 20
12.5386065915
 30
0.0
 10
16.9874529055
 20
12.526905431
 30
0.0
 10
16.9811824715
 20
12.5153251012
 30
0.0
 10
16.974593191
 20
12.5038682566
 30
0.0
 10
16.9676865429
 20
12.4925375537
 30
0.0
 10
16.9604641746
 20
12.4813355489
 30
0.0
 10
16.9529277203
 20
12.4702648593
 30
0.0
 10
16.9450788682
 20
12.4593279432
 30
0.0
 10
16.9341678248
 20
12.4448848842
 30
0.0
 10
16.9197426217
 20
12.4271718473
 30
0.0
 10
16.9012656571
 20
12.4065566743
 30
0.0
 10
16.8815868859
 20
12.3865363716
 30
0.0
 10
16.860724856
 20
12.3671295102
 30
0.0
 10
16.8386988052
 20
12.3483536103
 30
0.0
 10
16.8155291446
 20
12.33022573
 30
0.0
 10
16.7912371205
 20
12.3127621971
 30
0.0
 10
16.765845545
 20
12.2959790777
 30
0.0
 10
16.7483553109
 20
12.285348295
 30
0.0
 10
16.739440174
 20
12.2801485339
 30
0.0
  0
SPLINE
  5
335
100
AcDbEntity
  8
LAYER_CUT_FEAT
100
AcDbSpline
 62
7
  6
CONTINUOUS
 70
0
 71
3
 72
24
 73
20
 74
0
 42
0.0000001
 43
0.0000001
 44
0.0000000001
 40
0.0
 40
0.0
 40
0.0
 40
0.0
 40
0.0291308574
 40
0.058275584
 40
0.087448014
 40
0.1166619172
 40
0.1752636473
 40
0.2341935967
 40
0.2935564636
 40
0.3534530968
 40
0.4139797267
 40
0.4752272952
 40
0.5372809546
 40
0.6002196683
 40
0.6641158867
 40
0.7290353676
 40
0.7950371221
 40
0.8621733952
 40
1.0
 40
1.0
 40
1.0
 40
1.0
 10
16.3000966295
 20
11.9153198965
 30
0.0
 10
16.2992244944
 20
11.9124976584
 30
0.0
 10
16.2974045561
 20
11.906874774
 30
0.0
 10
16.2944500702
 20
11.8985130211
 30
0.0
 10
16.2912713994
 20
11.8902247414
 30
0.0
 10
16.2867310164
 20
11.8792640001
 30
0.0
 10
16.2804921422
 20
11.8657465148
 30
0.0
 10
16.2721290974
 20
11.8498690469
 30
0.0
 10
16.2628895184
 20
11.834332072
 30
0.0
 10
16.2527823353
 20
11.8191504491
 30
0.0
 10
16.2418171391
 20
11.8043382649
 30
0.0
 10
16.230004392
 20
11.7899092988
 30
0.0
 10
16.217355294
 20
11.7758769127
 30
0.0
 10
16.2038817962
 20
11.7622540998
 30
0.0
 10
16.189596568
 20
11.749053397
 30
0.0
 10
16.1745131817
 20
11.7362870271
 30
0.0
 10
16.1586452602
 20
11.7239663979
 30
0.0
 10
16.1362695582
 20
11.7080111086
 30
0.0
 10
16.1186362392
 20
11.6969595825
 30
0.0
 10
16.1065343629
 20
11.6899689226
 30
0.0
  0
SPLINE
  5
336
100
AcDbEntity
  8
02___PRT_ALL_AXES
100
AcDbSpline
 62
7
  6
CONTINUOUS
 70
0
 71
3
 72
56
 73
52
 74
0
 42
0.0000001
 43
0.0000001
 44
0.0000000001
 40
0.0
 40
0.0
 40
0.0
 40
0.0
 40
0.0139563759
 40
0.0278828775
 40
0.0417835634
 40
0.055662786
 40
0.0695252366
 40
0.0833759436
 40
0.0972202966
 40
0.1110640305
 40
0.1249132419
 40
0.1387743612
 40
0.1526541447
 40
0.1665596359
 40
0.1804981092
 40
0.1944770614
 40
0.208504105
 40
0.2225869505
 40
0.2367332803
 40
0.2509507283
 40
0.2652467676
 40
0.2796286328
 40
0.2941032683
 40
0.3086771977
 40
0.3233565394
 40
0.3381468518
 40
0.3530531439
 40
0.3680797845
 40
0.3832304842
 40
0.3985082674
 40
0.4294490682
 40
0.4609163036
 40
0.492907191
 40
0.5254068174
 40
0.5583883773
 40
0.5918134447
 40
0.6256323634
 40
0.6597846296
 40
0.6941993636
 40
0.7287958057
 40
0.7634840696
 40
0.7981660295
 40
0.8327366191
 40
0.8670854333
 40
0.9010987668
 40
0.9179447436
 40
0.934664022
 40
0.9512424258
 40
0.9676666731
 40
0.9839241406
 40
1.0
 40
1.0
 40
1.0
 40
1.0
 10
15.1820925261
 20
12.5361097578
 30
0.0
 10
15.1830812255
 20
12.5340949952
 30
0.0
 10
15.1849732218
 20
12.5300282787
 30
0.0
 10
15.1875511388
 20
12.5238213791
 30
0.0
 10
15.1898615577
 20
12.5175230864
 30
0.0
 10
15.1919003292
 20
12.5111425151
 30
0.0
 10
15.1936636577
 20
12.5046886987
 30
0.0
 10
15.1951479669
 20
12.4981707903
 30
0.0
 10
15.1963501199
 20
12.4915980309
 30
0.0
 10
15.1972671618
 20
12.4849796943
 30
0.0
 10
15.1978967149
 20
12.4783251291
 30
0.0
 10
15.1982366026
 20
12.4716436812
 30
0.0
 10
15.1982852567
 20
12.4649447131
 30
0.0
 10
15.1980414585
 20
12.4582375539
 30
0.0
 10
15.1975044954
 20
12.4515314834
 30
0.0
 10
15.1966742384
 20
12.4448356865
 30
0.0
 10
15.1955509079
 20
12.4381592496
 30
0.0
 10
15.1941355017
 20
12.4315110735
 30
0.0
 10
15.1924292953
 20
12.4248999203
 30
0.0
 10
15.1904343459
 20
12.4183342839
 30
0.0
 10
15.1881530936
 20
12.4118224431
 30
0.0
 10
15.1855885623
 20
12.4053723871
 30
0.0
 10
15.1827443601
 20
12.3989917687
 30
0.0
 10
15.1796244305
 20
12.3926879804
 30
0.0
 10
15.1762334214
 20
12.3864679579
 30
0.0
 10
15.1725761873
 20
12.3803383945
 30
0.0
 10
15.1686582139
 20
12.3743054872
 30
0.0
 10
15.1644852443
 20
12.3683751616
 30
0.0
 10
15.1600633642
 20
12.3625528318
 30
0.0
 10
15.1538186591
 20
12.3549090916
 30
0.0
 10
15.1454149699
 20
12.3456517152
 30
0.0
 10
15.1344900335
 20
12.3350980079
 30
0.0
 10
15.1227416449
 20
12.3250794307
 30
0.0
 10
15.1102331367
 20
12.3156199377
 30
0.0
 10
15.0970293811
 20
12.306739149
 30
0.0
 10
15.0831970317
 20
12.2984537556
 30
0.0
 10
15.068804275
 20
12.2907780177
 30
0.0
 10
15.0539208899
 20
12.2837244024
 30
0.0
 10
15.038618349
 20
12.2773040478
 30
0.0
 10
15.0229699522
 20
12.2715271136
 30
0.0
 10
15.0070509261
 20
12.2664030031
 30
0.0
 10
14.9909384529
 20
12.2619404633
 30
0.0
 10
14.9747114688
 20
12.2581475586
 30
0.0
 10
14.9584506686
 20
12.2550316415
 30
0.0
 10
14.9448962063
 20
12.2529979417
 30
0.0
 10
14.9341042044
 20
12.2517171822
 30
0.0
 10
14.9260783919
 20
12.2509327926
 30
0.0
 10
14.9181055455
 20
12.250321974
 30
0.0
 10
14.9101956177
 20
12.2498851038
 30
0.0
 10
14.9023588738
 20
12.2496224868
 30
0.0
 10
14.8971592765
 20
12.2495632819
 30
0.0
 10
14.8945741687
 20
12.2495632819
 30
0.0
  0
SPLINE
  5
337
100
AcDbEntity
  8
02___PRT_ALL_AXES
100
AcDbSpline
 62
7
  6
CONTINUOUS
 70
0
 71
3
 72
78
 73
74
 74
0
 42
0.0000001
 43
0.0000001
 44
0.0000000001
 40
0.0
 40
0.0
 40
0.0
 40
0.0
 40
0.0053117551
 40
0.0106263453
 40
0.0159465983
 40
0.0212753271
 40
0.0266153221
 40
0.0319693448
 40
0.0373401199
 40
0.0427303303
 40
0.0481426087
 40
0.0535795341
 40
0.0590436239
 40
0.0645373315
 40
0.075622126
 40
0.0868530306
 40
0.0982469029
 40
0.1098192246
 40
0.1215840475
 40
0.1335539638
 40
0.1396197192
 40
0.1457407967
 40
0.1581528153
 40
0.1707989521
 40
0.1836860439
 40
0.1968195755
 40
0.2102037308
 40
0.2238414483
 40
0.2377344781
 40
0.2518834412
 40
0.2662878875
 40
0.2809463539
 40
0.2958564211
 40
0.3110147678
 40
0.3264172236
 40
0.3420588205
 40
0.3579338404
 40
0.3740358626
 40
0.3903578079
 40
0.4068919812
 40
0.4236301127
 40
0.4405633963
 40
0.4576825278
 40
0.4749777408
 40
0.4924388414
 40
0.5100552421
 40
0.5278159941
 40
0.5457098193
 40
0.563725141
 40
0.5818501138
 40
0.6000726531
 40
0.6183804643
 40
0.6367610708
 40
0.655201842
 40
0.6736900212
 40
0.6922127526
 40
0.7107571087
 40
0.7293101173
 40
0.7478587883
 40
0.7663901403
 40
0.7848912282
 40
0.8033491692
 40
0.8217511708
 40
0.8400845574
 40
0.8583367982
 40
0.8764955348
 40
0.89454861
 40
0.9124840953
 40
0.9302903222
 40
0.9479559078
 40
0.9654697968
 40
0.9828212627
 40
1.0
 40
1.0
 40
1.0
 40
1.0
 10
14.2572639534
 20
11.7823299631
 30
0.0
 10
14.2564482156
 20
11.7796902308
 30
0.0
 10
14.2548906585
 20
11.7743860486
 30
0.0
 10
14.2527785549
 20
11.7663637917
 30
0.0
 10
14.2508909252
 20
11.7582766368
 30
0.0
 10
14.2492282929
 20
11.7501267819
 30
0.0
 10
14.2477910762
 20
11.7419163392
 30
0.0
 10
14.2465796588
 20
11.7336474618
 30
0.0
 10
14.2455943419
 20
11.7253223126
 30
0.0
 10
14.2448353916
 20
11.7169430697
 30
0.0
 10
14.2443029867
 20
11.7085119203
 30
0.0
 10
14.2439972749
 20
11.7000310863
 30
0.0
 10
14.2439183212
 20
11.6915027144
 30
0.0
 10
14.2441159696
 20
11.6800378969
 30
0.0
 10
14.2449355587
 20
11.6655890178
 30
0.0
 10
14.246822927
 20
11.6481496417
 30
0.0
 10
14.2496148219
 20
11.6305752965
 30
0.0
 10
14.2533081167
 20
11.6128846226
 30
0.0
 10
14.2578986643
 20
11.5950961567
 30
0.0
 10
14.2624474903
 20
11.5802722081
 30
0.0
 10
14.2665229337
 20
11.5683855516
 30
0.0
 10
14.2709312397
 20
11.5563729696
 30
0.0
 10
14.276999852
 20
11.5413279267
 30
0.0
 10
14.2851206284
 20
11.5233332672
 30
0.0
 10
14.2941048084
 20
11.5053334276
 30
0.0
 10
14.30394286
 20
11.4873472693
 30
0.0
 10
14.3146244866
 20
11.4693933573
 30
0.0
 10
14.3261385031
 20
11.4514903028
 30
0.0
 10
14.3384728811
 20
11.4336566466
 30
0.0
 10
14.3516147494
 20
11.4159108692
 30
0.0
 10
14.3655504076
 20
11.3982713642
 30
0.0
 10
14.3802653375
 20
11.380756422
 30
0.0
 10
14.3957442166
 20
11.3633842105
 30
0.0
 10
14.4119709326
 20
11.3461727557
 30
0.0
 10
14.4289285986
 20
11.3291399232
 30
0.0
 10
14.4465995695
 20
11.3123033986
 30
0.0
 10
14.46496546
 20
11.2956806692
 30
0.0
 10
14.4840071623
 20
11.2792890049
 30
0.0
 10
14.5037048658
 20
11.2631454399
 30
0.0
 10
14.5240380772
 20
11.2472667544
 30
0.0
 10
14.5449856412
 20
11.2316694566
 30
0.0
 10
14.5665257629
 20
11.2163697654
 30
0.0
 10
14.5886360294
 20
11.2013835927
 30
0.0
 10
14.611293434
 20
11.1867265267
 30
0.0
 10
14.6344743991
 20
11.1724138151
 30
0.0
 10
14.6581548013
 20
11.1584603492
 30
0.0
 10
14.6823099964
 20
11.144880648
 30
0.0
 10
14.7069148449
 20
11.1316888428
 30
0.0
 10
14.7319437383
 20
11.1188986622
 30
0.0
 10
14.7573706258
 20
11.1065234177
 30
0.0
 10
14.7831690416
 20
11.0945759898
 30
0.0
 10
14.8093121323
 20
11.083068814
 30
0.0
 10
14.8357726849
 20
11.0720138684
 30
0.0
 10
14.8625231556
 20
11.0614226604
 30
0.0
 10
14.8895356981
 20
11.0513062151
 30
0.0
 10
14.9167821931
 20
11.0416750634
 30
0.0
 10
14.9442342771
 20
11.0325392314
 30
0.0
 10
14.9718633729
 20
11.0239082293
 30
0.0
 10
14.9996407186
 20
11.015791042
 30
0.0
 10
15.0275373981
 20
11.0081961195
 30
0.0
 10
15.0555243711
 20
11.001131368
 30
0.0
 10
15.0835725038
 20
10.9946041417
 30
0.0
 10
15.111652599
 20
10.9886212353
 30
0.0
 10
15.1397354268
 20
10.9831888767
 30
0.0
 10
15.1677917549
 20
10.9783127207
 30
0.0
 10
15.1957923797
 20
10.9739978431
 30
0.0
 10
15.2237081564
 20
10.9702487355
 30
0.0
 10
15.2515100289
 20
10.9670693007
 30
0.0
 10
15.2791690642
 20
10.9644628492
 30
0.0
 10
15.3066564665
 20
10.9624320938
 30
0.0
 10
15.333943671
 20
10.960979152
 30
0.0
 10
15.3610021188
 20
10.9601055353
 30
0.0
 10
15.3789635149
 20
10.9599089297
 30
0.0
 10
15.3878990039
 20
10.9599089297
 30
0.0
  0
SPLINE
  5
338
100
AcDbEntity
  8
02___PRT_ALL_AXES
100
AcDbSpline
 62
7
  6
CONTINUOUS
 70
0
 71
3
 72
46
 73
42
 74
0
 42
0.0000001
 43
0.0000001
 44
0.0000000001
 40
0.0
 40
0.0
 40
0.0
 40
0.0
 40
0.0123992807
 40
0.0248057418
 40
0.037226543
 40
0.049668803
 40
0.0621395803
 40
0.0746458514
 40
0.087194496
 40
0.0997922739
 40
0.1124458144
 40
0.1251615932
 40
0.1379459255
 40
0.1508049449
 40
0.1767683028
 40
0.2030991918
 40
0.2298392362
 40
0.2570263766
 40
0.284694745
 40
0.3128746085
 40
0.3271656229
 40
0.3415940889
 40
0.370872331
 40
0.4007299077
 40
0.4311820537
 40
0.4622405199
 40
0.4939137215
 40
0.5262068948
 40
0.5591222572
 40
0.5926591691
 40
0.6268142931
 40
0.6615817498
 40
0.696953269
 40
0.7329183348
 40
0.769464326
 40
0.8065766482
 40
0.8442388655
 40
0.8824328077
 40
0.9211387356
 40
0.9603353116
 40
1.0
 40
1.0
 40
1.0
 40
1.0
 10
15.9712889456
 20
11.2526561794
 30
0.0
 10
15.9704392434
 20
11.2499065379
 30
0.0
 10
15.9686584525
 20
11.2444302864
 30
0.0
 10
15.9657460467
 20
11.2362941923
 30
0.0
 10
15.9625928715
 20
11.2282375557
 30
0.0
 10
15.959199868
 20
11.220262752
 30
0.0
 10
15.955567978
 20
11.2123720269
 30
0.0
 10
15.9516982588
 20
11.2045676166
 30
0.0
 10
15.947591791
 20
11.1968517434
 30
0.0
 10
15.9432497688
 20
11.1892265834
 30
0.0
 10
15.9386734042
 20
11.1816943058
 30
0.0
 10
15.933864036
 20
11.1742570458
 30
0.0
 10
15.9288229638
 20
11.1669168621
 30
0.0
 10
15.9217725657
 20
11.1572318964
 30
0.0
 10
15.9123757687
 20
11.1453732412
 30
0.0
 10
15.9002338739
 20
11.1316116035
 30
0.0
 10
15.8872036415
 20
11.1182877834
 30
0.0
 10
15.8733002287
 20
11.1054169855
 30
0.0
 10
15.8585396951
 20
11.0930136372
 30
0.0
 10
15.8455997969
 20
11.083125053
 30
0.0
 10
15.8348444926
 20
11.0754594132
 30
0.0
 10
15.8237131499
 20
11.067887583
 30
0.0
 10
15.8092871746
 20
11.0587429819
 30
0.0
 10
15.7912752345
 20
11.0483418761
 30
0.0
 10
15.7724990698
 20
11.0384715862
 30
0.0
 10
15.7529801192
 20
11.0291432469
 30
0.0
 10
15.732740367
 20
11.020367211
 30
0.0
 10
15.7118026728
 20
11.0121532745
 30
0.0
 10
15.6901906528
 20
11.0045105995
 30
0.0
 10
15.6679286836
 20
10.9974477218
 30
0.0
 10
15.6450418693
 20
10.9909725353
 30
0.0
 10
15.6215560179
 20
10.9850922829
 30
0.0
 10
15.5974976129
 20
10.9798135469
 30
0.0
 10
15.5728937851
 20
10.97514224
 30
0.0
 10
15.5477722827
 20
10.9710835978
 30
0.0
 10
15.5221614411
 20
10.9676421711
 30
0.0
 10
15.4960901487
 20
10.9648218211
 30
0.0
 10
15.4695878265
 20
10.9626257098
 30
0.0
 10
15.4426843416
 20
10.9610563059
 30
0.0
 10
15.41541022
 20
10.9601153617
 30
0.0
 10
15.3971053831
 20
10.9599089297
 30
0.0
 10
15.3878990039
 20
10.9599089297
 30
0.0
  0
SPLINE
  5
339
100
AcDbEntity
  8
LAYER_CHAMFER_FEAT
100
AcDbSpline
 62
7
  6
CONTINUOUS
 70
0
 71
3
 72
15
 73
11
 74
0
 42
0.0000001
 43
0.0000001
 44
0.0000000001
 40
0.0
 40
0.0
 40
0.0
 40
0.0
 40
0.1317638601
 40
0.2617725488
 40
0.3899186996
 40
0.5161210406
 40
0.6402989362
 40
0.7623789528
 40
0.8822975205
 40
1.0
 40
1.0
 40
1.0
 40
1.0
 10
14.9827271445
 20
11.7855623701
 30
0.0
 10
14.9777478838
 20
11.7855623701
 30
0.0
 10
14.9678551853
 20
11.7854368438
 30
0.0
 10
14.9531299266
 20
11.7848639293
 30
0.0
 10
14.9386349863
 20
11.7839082853
 30
0.0
 10
14.924391466
 20
11.7825713287
 30
0.0
 10
14.9104195091
 20
11.7808549732
 30
0.0
 10
14.8967390727
 20
11.7787616225
 30
0.0
 10
14.8833699213
 20
11.7762942662
 30
0.0
 10
14.8745939723
 20
11.774384234
 30
0.0
 10
14.8702642077
 20
11.7733659631
 30
0.0
  0
SPLINE
  5
33A
100
AcDbEntity
  8
LAYER_CHAMFER_FEAT
100
AcDbSpline
 62
7
  6
CONTINUOUS
 70
0
 71
3
 72
39
 73
35
 74
0
 42
0.0000001
 43
0.0000001
 44
0.0000000001
 40
0.0
 40
0.0
 40
0.0
 40
0.0
 40
0.0305398276
 40
0.0614592177
 40
0.09272646
 40
0.1243126296
 40
0.1561858779
 40
0.1883135656
 40
0.220662363
 40
0.2531980732
 40
0.2858858946
 40
0.318690537
 40
0.351576321
 40
0.3845072986
 40
0.4174473805
 40
0.4503604477
 40
0.4832104638
 40
0.5159616034
 40
0.5485783636
 40
0.5810256747
 40
0.6132690389
 40
0.6452746463
 40
0.6770094844
 40
0.7084414828
 40
0.7395396546
 40
0.7702742047
 40
0.8006166747
 40
0.8305401226
 40
0.8600192444
 40
0.8890305203
 40
0.9175524224
 40
0.9455655835
 40
0.9730529495
 40
1.0
 40
1.0
 40
1.0
 40
1.0
 10
14.9827271445
 20
11.7855623701
 30
0.0
 10
14.9881103907
 20
11.7855623701
 30
0.0
 10
14.9989443204
 20
11.7854137597
 30
0.0
 10
15.0152777093
 20
11.7847556826
 30
0.0
 10
15.0317726323
 20
11.7836619505
 30
0.0
 10
15.0484018147
 20
11.7821344397
 30
0.0
 10
15.0651383978
 20
11.7801755949
 30
0.0
 10
15.0819550486
 20
11.7777886302
 30
0.0
 10
15.0988243648
 20
11.7749774361
 30
0.0
 10
15.1157188618
 20
11.7717465694
 30
0.0
 10
15.1326110074
 20
11.7681013222
 30
0.0
 10
15.149473273
 20
11.7640476366
 30
0.0
 10
15.1662781711
 20
11.7595920947
 30
0.0
 10
15.1829983154
 20
11.7547419719
 30
0.0
 10
15.1996064586
 20
11.7495051862
 30
0.0
 10
15.2160755272
 20
11.7438902571
 30
0.0
 10
15.2323786757
 20
11.7379063277
 30
0.0
 10
15.2484893413
 20
11.7315631728
 30
0.0
 10
15.2643812665
 20
11.724871127
 30
0.0
 10
15.2800285419
 20
11.717841074
 30
0.0
 10
15.2954056763
 20
11.7104844888
 30
0.0
 10
15.3104876165
 20
11.7028133663
 30
0.0
 10
15.3252497772
 20
11.6948401864
 30
0.0
 10
15.3396681053
 20
11.6865779382
 30
0.0
 10
15.3537191219
 20
11.6780400978
 30
0.0
 10
15.3673799328
 20
11.6692405619
 30
0.0
 10
15.3806282728
 20
11.6601936399
 30
0.0
 10
15.3934425788
 20
11.6509140789
 30
0.0
 10
15.4058019839
 20
11.6414169833
 30
0.0
 10
15.4176863473
 20
11.6317177781
 30
0.0
 10
15.4290763107
 20
11.6218322569
 30
0.0
 10
15.4399533849
 20
11.6117764498
 30
0.0
 10
15.450299687
 20
11.6015668643
 30
0.0
 10
15.4568989718
 20
11.5945983846
 30
0.0
 10
15.4601031639
 20
11.5910919387
 30
0.0
  0
SPLINE
  5
33B
100
AcDbEntity
  8
LAYER_FEATURE
100
AcDbSpline
 62
7
  6
CONTINUOUS
 70
0
 71
3
 72
80
 73
76
 74
0
 42
0.0000001
 43
0.0000001
 44
0.0000000001
 40
0.0
 40
0.0
 40
0.0
 40
0.0
 40
0.017178625
 40
0.0345301896
 40
0.0520439856
 40
0.0697095611
 40
0.0875157513
 40
0.105451206
 40
0.1235042502
 40
0.1416629551
 40
0.159915164
 40
0.1782485184
 40
0.1966504877
 40
0.2151083967
 40
0.2336094524
 40
0.2521407721
 40
0.2706894106
 40
0.2892423869
 40
0.3077867108
 40
0.3263094099
 40
0.3447975567
 40
0.3632382956
 40
0.3816188701
 40
0.3999266497
 40
0.4181491573
 40
0.4362740982
 40
0.4542893881
 40
0.4721831821
 40
0.4899439035
 40
0.5075602738
 40
0.5250213437
 40
0.5423165259
 40
0.5594356272
 40
0.5763688815
 40
0.5931069843
 40
0.6096411291
 40
0.6259630453
 40
0.6420650388
 40
0.6579400309
 40
0.673581601
 40
0.6889840307
 40
0.7041423508
 40
0.7190523912
 40
0.7337108317
 40
0.7481152531
 40
0.7622641923
 40
0.7761571984
 40
0.7897948916
 40
0.8031790229
 40
0.8163125314
 40
0.8291996012
 40
0.8418457167
 40
0.8542577138
 40
0.8603787793
 40
0.8664445248
 40
0.8784144197
 40
0.8901792221
 40
0.8959889949
 40
0.9017523402
 40
0.9131461931
 40
0.9243770779
 40
0.9299370835
 40
0.935462781
 40
0.9409564793
 40
0.9464205592
 40
0.9518574755
 40
0.9572697442
 40
0.9626599452
 40
0.9680307112
 40
0.9733847242
 40
0.9787247102
 40
0.9840534294
 40
0.9893736733
 40
0.9946882542
 40
1.0
 40
1.0
 40
1.0
 40
1.0
 10
15.1547953682
 20
14.0617010561
 30
0.0
 10
15.1697375859
 20
14.0617010561
 30
0.0
 10
15.1997734056
 20
14.061372272
 30
0.0
 10
15.2450216331
 20
14.0599113968
 30
0.0
 10
15.2906524843
 20
14.0574817018
 30
0.0
 10
15.3366179998
 20
14.0540858074
 30
0.0
 10
15.3828705806
 20
14.04972719
 30
0.0
 10
15.4293620026
 20
14.0444104123
 30
0.0
 10
15.4760439039
 20
14.0381409979
 30
0.0
 10
15.5228676911
 20
14.0309254812
 30
0.0
 10
15.5697846275
 20
14.0227713747
 30
0.0
 10
15.616745878
 20
14.0136871659
 30
0.0
 10
15.6637025594
 20
14.0036823091
 30
0.0
 10
15.7106057911
 20
13.9927672136
 30
0.0
 10
15.7574067487
 20
13.9809532447
 30
0.0
 10
15.8040567139
 20
13.9682527041
 30
0.0
 10
15.8505071249
 20
13.9546788137
 30
0.0
 10
15.8967096272
 20
13.9402457031
 30
0.0
 10
15.9426161231
 20
13.9249683938
 30
0.0
 10
15.9881788226
 20
13.9088627861
 30
0.0
 10
16.0333502971
 20
13.8919456509
 30
0.0
 10
16.0780835253
 20
13.8742346003
 30
0.0
 10
16.122331942
 20
13.8557480712
 30
0.0
 10
16.1660494866
 20
13.8365053055
 30
0.0
 10
16.2091906501
 20
13.8165263287
 30
0.0
 10
16.2517105268
 20
13.7958319368
 30
0.0
 10
16.293564862
 20
13.7744436731
 30
0.0
 10
16.3347100937
 20
13.7523837986
 30
0.0
 10
16.3751033985
 20
13.7296752705
 30
0.0
 10
16.4147027351
 20
13.7063417178
 30
0.0
 10
16.453466889
 20
13.6824074155
 30
0.0
 10
16.4913555225
 20
13.6578972691
 30
0.0
 10
16.5283292111
 20
13.6328367789
 30
0.0
 10
16.5643494826
 20
13.6072520122
 30
0.0
 10
16.5993788567
 20
13.581169577
 30
0.0
 10
16.6333808832
 20
13.554616592
 30
0.0
 10
16.6663201835
 20
13.5276206614
 30
0.0
 10
16.6981624921
 20
13.5002098501
 30
0.0
 10
16.7288746834
 20
13.4724126439
 30
0.0
 10
16.7584248048
 20
13.4442579221
 30
0.0
 10
16.7867821094
 20
13.4157749268
 30
0.0
 10
16.813917085
 20
13.3869932292
 30
0.0
 10
16.8398014944
 20
13.3579427064
 30
0.0
 10
16.8644083985
 20
13.3286535049
 30
0.0
 10
16.8877121762
 20
13.2991560055
 30
0.0
 10
16.909688549
 20
13.2694807939
 30
0.0
 10
16.9303146025
 20
13.2396586278
 30
0.0
 10
16.9495688073
 20
13.2097204079
 30
0.0
 10
16.9674310552
 20
13.1796971428
 30
0.0
 10
16.9838826454
 20
13.1496199551
 30
0.0
 10
16.9989063617
 20
13.1195198894
 30
0.0
 10
17.0124862578
 20
13.089428487
 30
0.0
 10
17.0226344481
 20
13.0642695519
 30
0.0
 10
17.030006177
 20
13.0441816239
 30
0.0
 10
17.0368213192
 20
13.024304245
 30
0.0
 10
17.0444279912
 20
12.9995152734
 30
0.0
 10
17.0508517661
 20
12.9746228547
 30
0.0
 10
17.0552297042
 20
12.9547991662
 30
0.0
 10
17.0590735599
 20
12.9351938004
 30
0.0
 10
17.0629493827
 20
12.9107969941
 30
0.0
 10
17.0655882275
 20
12.8864126723
 30
0.0
 10
17.0669330118
 20
12.867046195
 30
0.0
 10
17.0675593509
 20
12.8526371031
 30
0.0
 10
17.0678065538
 20
12.8383000249
 30
0.0
 10
17.0676745015
 20
12.8240386019
 30
0.0
 10
17.0671632935
 20
12.8098565869
 30
0.0
 10
17.0662729762
 20
12.7957576799
 30
0.0
 10
17.0650038253
 20
12.7817455674
 30
0.0
 10
17.0633561531
 20
12.7678239117
 30
0.0
 10
17.0613303485
 20
12.7539963608
 30
0.0
 10
17.0589270026
 20
12.740266519
 30
0.0
 10
17.0561466584
 20
12.7266380034
 30
0.0
 10
17.0529900991
 20
12.7131143305
 30
0.0
 10
17.0494581532
 20
12.6996991849
 30
0.0
 10
17.0468535363
 20
12.6908293171
 30
0.0
 10
17.0454894264
 20
12.686415049
 30
0.0
  0
SPLINE
  5
33C
100
AcDbEntity
  8
LAYER_FEATURE
100
AcDbSpline
 62
7
  6
CONTINUOUS
 70
0
 71
3
 72
50
 73
46
 74
0
 42
0.0000001
 43
0.0000001
 44
0.0000000001
 40
0.0
 40
0.0
 40
0.0
 40
0.0
 40
0.0396641793
 40
0.0788606661
 40
0.1175661307
 40
0.1557597858
 40
0.1934216622
 40
0.2305336657
 40
0.2670793388
 40
0.3030440904
 40
0.3384152998
 40
0.3731824522
 40
0.4073372782
 40
0.4408738985
 40
0.4737889752
 40
0.5060818677
 40
0.5377547925
 40
0.5688129867
 40
0.5992648666
 40
0.6291221833
 40
0.6584001714
 40
0.6728285106
 40
0.6871194029
 40
0.7152990215
 40
0.7429671481
 40
0.7566197094
 40
0.7701560775
 40
0.7835806402
 40
0.7968980187
 40
0.8101130807
 40
0.8232309096
 40
0.8362568292
 40
0.8491963692
 40
0.8620552768
 40
0.874839498
 40
0.8875551653
 40
0.9002085963
 40
0.9128062638
 40
0.9253547993
 40
0.9378609614
 40
0.9503316297
 40
0.9627737816
 40
0.9751944743
 40
0.9876008274
 40
1.0
 40
1.0
 40
1.0
 40
1.0
 10
14.8955423359
 20
13.2227579359
 30
0.0
 10
14.8801471163
 20
13.2227579359
 30
0.0
 10
14.8495369868
 20
13.2224127208
 30
0.0
 10
14.8039281014
 20
13.2208392578
 30
0.0
 10
14.7589389309
 20
13.2182148099
 30
0.0
 10
14.7146207012
 20
13.2145423996
 30
0.0
 10
14.6710232082
 20
13.20982609
 30
0.0
 10
14.6281957161
 20
13.2040712019
 30
0.0
 10
14.5861865128
 20
13.1972841759
 30
0.0
 10
14.5450429892
 20
13.1894726239
 30
0.0
 10
14.5048115448
 20
13.1806453031
 30
0.0
 10
14.4655375476
 20
13.1708121029
 30
0.0
 10
14.4272652835
 20
13.1599840316
 30
0.0
 10
14.3900379092
 20
13.1481732009
 30
0.0
 10
14.3538974058
 20
13.1353928103
 30
0.0
 10
14.3188845382
 20
13.1216571319
 30
0.0
 10
14.2850388003
 20
13.1069814846
 30
0.0
 10
14.2523984172
 20
13.0913822525
 30
0.0
 10
14.2210001491
 20
13.0748767502
 30
0.0
 10
14.1908798497
 20
13.0574835968
 30
0.0
 10
14.1667561365
 20
13.042191626
 30
0.0
 10
14.1481418629
 20
13.0295297007
 30
0.0
 10
14.1301563664
 20
13.0167108901
 30
0.0
 10
14.108517956
 20
13.0001749906
 30
0.0
 10
14.0878573321
 20
12.982813703
 30
0.0
 10
14.0720608979
 20
12.9685341774
 30
0.0
 10
14.0606274055
 20
12.9576796321
 30
0.0
 10
14.0495591476
 20
12.9466363837
 30
0.0
 10
14.0388592262
 20
12.9354074491
 30
0.0
 10
14.0285306458
 20
12.9239960639
 30
0.0
 10
14.0185763985
 20
12.9124053833
 30
0.0
 10
14.0089992551
 20
12.9006387349
 30
0.0
 10
13.9998019823
 20
12.8886994023
 30
0.0
 10
13.9909871793
 20
12.8765907753
 30
0.0
 10
13.9825573424
 20
12.8643162845
 30
0.0
 10
13.9745149157
 20
12.8518793725
 30
0.0
 10
13.9668621245
 20
12.839283602
 30
0.0
 10
13.9596012267
 20
12.8265324915
 30
0.0
 10
13.95273422
 20
12.8136296961
 30
0.0
 10
13.9462631138
 20
12.8005788443
 30
0.0
 10
13.9401897317
 20
12.7873836464
 30
0.0
 10
13.9345157921
 20
12.7740478629
 30
0.0
 10
13.9292429494
 20
12.7605752166
 30
0.0
 10
13.9243726782
 20
12.746969718
 30
0.0
 10
13.9213947842
 20
12.7378121009
 30
0.0
 10
13.9199738776
 20
12.7332140382
 30
0.0
  0
SPLINE
  5
33D
100
AcDbEntity
  8
LAYER_FEATURE
100
AcDbSpline
 62
7
  6
CONTINUOUS
 70
0
 71
3
 72
50
 73
46
 74
0
 42
0.0000001
 43
0.0000001
 44
0.0000000001
 40
0.0
 40
0.0
 40
0.0
 40
0.0
 40
0.0396641793
 40
0.0788606661
 40
0.1175661307
 40
0.1557597858
 40
0.1934216622
 40
0.2305336657
 40
0.2670793388
 40
0.3030440904
 40
0.3384152998
 40
0.3731824522
 40
0.4073372782
 40
0.4408738985
 40
0.4737889752
 40
0.5060818677
 40
0.5377547925
 40
0.5688129867
 40
0.5992648666
 40
0.6291221833
 40
0.6584001714
 40
0.6728285106
 40
0.6871194029
 40
0.7152990215
 40
0.7429671481
 40
0.7566197094
 40
0.7701560775
 40
0.7835806402
 40
0.7968980187
 40
0.8101130807
 40
0.8232309096
 40
0.8362568292
 40
0.8491963692
 40
0.8620552768
 40
0.874839498
 40
0.8875551653
 40
0.9002085963
 40
0.9128062638
 40
0.9253547993
 40
0.9378609614
 40
0.9503316297
 40
0.9627737816
 40
0.9751944743
 40
0.9876008274
 40
1.0
 40
1.0
 40
1.0
 40
1.0
 10
15.1547953682
 20
14.0617010561
 30
0.0
 10
15.1394001487
 20
14.0617010561
 30
0.0
 10
15.1087900192
 20
14.061355841
 30
0.0
 10
15.0631811337
 20
14.059782378
 30
0.0
 10
15.0181919632
 20
14.0571579302
 30
0.0
 10
14.9738737336
 20
14.0534855198
 30
0.0
 10
14.9302762405
 20
14.0487692102
 30
0.0
 10
14.8874487485
 20
14.0430143221
 30
0.0
 10
14.8454395452
 20
14.0362272961
 30
0.0
 10
14.8042960216
 20
14.0284157441
 30
0.0
 10
14.7640645772
 20
14.0195884233
 30
0.0
 10
14.72479058
 20
14.0097552232
 30
0.0
 10
14.6865183158
 20
13.9989271518
 30
0.0
 10
14.6492909415
 20
13.9871163211
 30
0.0
 10
14.6131504382
 20
13.9743359305
 30
0.0
 10
14.5781375706
 20
13.9606002521
 30
0.0
 10
14.5442918326
 20
13.9459246048
 30
0.0
 10
14.5116514495
 20
13.9303253727
 30
0.0
 10
14.4802531815
 20
13.9138198704
 30
0.0
 10
14.4501328821
 20
13.8964267171
 30
0.0
 10
14.4260091689
 20
13.8811347462
 30
0.0
 10
14.4073948952
 20
13.8684728209
 30
0.0
 10
14.3894093988
 20
13.8556540104
 30
0.0
 10
14.3677709884
 20
13.8391181109
 30
0.0
 10
14.3471103645
 20
13.8217568232
 30
0.0
 10
14.3313139303
 20
13.8074772976
 30
0.0
 10
14.3198804379
 20
13.7966227523
 30
0.0
 10
14.3088121799
 20
13.7855795039
 30
0.0
 10
14.2981122586
 20
13.7743505693
 30
0.0
 10
14.2877836782
 20
13.7629391841
 30
0.0
 10
14.2778294309
 20
13.7513485035
 30
0.0
 10
14.2682522874
 20
13.7395818551
 30
0.0
 10
14.2590550146
 20
13.7276425225
 30
0.0
 10
14.2502402117
 20
13.7155338955
 30
0.0
 10
14.2418103748
 20
13.7032594047
 30
0.0
 10
14.2337679481
 20
13.6908224927
 30
0.0
 10
14.2261151568
 20
13.6782267222
 30
0.0
 10
14.218854259
 20
13.6654756117
 30
0.0
 10
14.2119872524
 20
13.6525728163
 30
0.0
 10
14.2055161462
 20
13.6395219645
 30
0.0
 10
14.1994427641
 20
13.6263267666
 30
0.0
 10
14.1937688244
 20
13.6129909831
 30
0.0
 10
14.1884959818
 20
13.5995183368
 30
0.0
 10
14.1836257105
 20
13.5859128382
 30
0.0
 10
14.1806478166
 20
13.5767552211
 30
0.0
 10
14.1792269099
 20
13.5721571584
 30
0.0
  0
SPLINE
  5
33E
100
AcDbEntity
  8
LAYER_FEATURE
100
AcDbSpline
 62
7
  6
CONTINUOUS
 70
0
 71
3
 72
80
 73
76
 74
0
 42
0.0000001
 43
0.0000001
 44
0.0000000001
 40
0.0
 40
0.0
 40
0.0
 40
0.0
 40
0.017178625
 40
0.0345301896
 40
0.0520439856
 40
0.0697095611
 40
0.0875157513
 40
0.105451206
 40
0.1235042502
 40
0.1416629551
 40
0.159915164
 40
0.1782485184
 40
0.1966504877
 40
0.2151083967
 40
0.2336094524
 40
0.2521407721
 40
0.2706894106
 40
0.2892423869
 40
0.3077867108
 40
0.3263094099
 40
0.3447975567
 40
0.3632382956
 40
0.3816188701
 40
0.3999266497
 40
0.4181491573
 40
0.4362740982
 40
0.4542893881
 40
0.4721831821
 40
0.4899439035
 40
0.5075602738
 40
0.5250213437
 40
0.5423165259
 40
0.5594356272
 40
0.5763688815
 40
0.5931069843
 40
0.6096411291
 40
0.6259630453
 40
0.6420650388
 40
0.6579400309
 40
0.673581601
 40
0.6889840307
 40
0.7041423508
 40
0.7190523912
 40
0.7337108317
 40
0.7481152531
 40
0.7622641923
 40
0.7761571984
 40
0.7897948916
 40
0.8031790229
 40
0.8163125314
 40
0.8291996012
 40
0.8418457167
 40
0.8542577138
 40
0.8603787793
 40
0.8664445248
 40
0.8784144197
 40
0.8901792221
 40
0.8959889949
 40
0.9017523402
 40
0.9131461931
 40
0.9243770779
 40
0.9299370835
 40
0.935462781
 40
0.9409564793
 40
0.9464205592
 40
0.9518574755
 40
0.9572697442
 40
0.9626599452
 40
0.9680307112
 40
0.9733847242
 40
0.9787247102
 40
0.9840534294
 40
0.9893736733
 40
0.9946882542
 40
1.0
 40
1.0
 40
1.0
 40
1.0
 10
14.8955423359
 20
13.2227579359
 30
0.0
 10
14.9104845535
 20
13.2227579359
 30
0.0
 10
14.9405203733
 20
13.2224291517
 30
0.0
 10
14.9857686007
 20
13.2209682766
 30
0.0
 10
15.031399452
 20
13.2185385815
 30
0.0
 10
15.0773649674
 20
13.2151426872
 30
0.0
 10
15.1236175482
 20
13.2107840698
 30
0.0
 10
15.1701089702
 20
13.205467292
 30
0.0
 10
15.2167908715
 20
13.1991978777
 30
0.0
 10
15.2636146587
 20
13.1919823609
 30
0.0
 10
15.3105315951
 20
13.1838282545
 30
0.0
 10
15.3574928456
 20
13.1747440457
 30
0.0
 10
15.404449527
 20
13.1647391889
 30
0.0
 10
15.4513527588
 20
13.1538240934
 30
0.0
 10
15.4981537164
 20
13.1420101245
 30
0.0
 10
15.5448036815
 20
13.1293095839
 30
0.0
 10
15.5912540926
 20
13.1157356935
 30
0.0
 10
15.6374565949
 20
13.1013025829
 30
0.0
 10
15.6833630907
 20
13.0860252736
 30
0.0
 10
15.7289257902
 20
13.0699196659
 30
0.0
 10
15.7740972647
 20
13.0530025307
 30
0.0
 10
15.8188304929
 20
13.0352914801
 30
0.0
 10
15.8630789097
 20
13.016804951
 30
0.0
 10
15.9067964543
 20
12.9975621853
 30
0.0
 10
15.9499376177
 20
12.9775832085
 30
0.0
 10
15.9924574944
 20
12.9568888166
 30
0.0
 10
16.0343118296
 20
12.9355005529
 30
0.0
 10
16.0754570614
 20
12.9134406784
 30
0.0
 10
16.1158503661
 20
12.8907321503
 30
0.0
 10
16.1554497027
 20
12.8673985976
 30
0.0
 10
16.1942138566
 20
12.8434642953
 30
0.0
 10
16.2321024901
 20
12.8189541489
 30
0.0
 10
16.2690761787
 20
12.7938936587
 30
0.0
 10
16.3050964502
 20
12.768308892
 30
0.0
 10
16.3401258243
 20
12.7422264568
 30
0.0
 10
16.3741278508
 20
12.7156734718
 30
0.0
 10
16.4070671511
 20
12.6886775412
 30
0.0
 10
16.4389094597
 20
12.6612667299
 30
0.0
 10
16.469621651
 20
12.6334695237
 30
0.0
 10
16.4991717724
 20
12.6053148019
 30
0.0
 10
16.527529077
 20
12.5768318066
 30
0.0
 10
16.5546640527
 20
12.548050109
 30
0.0
 10
16.580548462
 20
12.5189995862
 30
0.0
 10
16.6051553661
 20
12.4897103847
 30
0.0
 10
16.6284591439
 20
12.4602128853
 30
0.0
 10
16.6504355167
 20
12.4305376737
 30
0.0
 10
16.6710615701
 20
12.4007155075
 30
0.0
 10
16.6903157749
 20
12.3707772877
 30
0.0
 10
16.7081780228
 20
12.3407540226
 30
0.0
 10
16.724629613
 20
12.3106768349
 30
0.0
 10
16.7396533293
 20
12.2805767692
 30
0.0
 10
16.7532332255
 20
12.2504853668
 30
0.0
 10
16.7633814158
 20
12.2253264317
 30
0.0
 10
16.7707531446
 20
12.2052385037
 30
0.0
 10
16.7775682868
 20
12.1853611248
 30
0.0
 10
16.7851749588
 20
12.1605721532
 30
0.0
 10
16.7915987338
 20
12.1356797345
 30
0.0
 10
16.7959766719
 20
12.115856046
 30
0.0
 10
16.7998205275
 20
12.0962506802
 30
0.0
 10
16.8036963503
 20
12.0718538739
 30
0.0
 10
16.8063351951
 20
12.0474695521
 30
0.0
 10
16.8076799794
 20
12.0281030748
 30
0.0
 10
16.8083063185
 20
12.0136939829
 30
0.0
 10
16.8085535214
 20
11.9993569047
 30
0.0
 10
16.8084214691
 20
11.9850954817
 30
0.0
 10
16.8079102611
 20
11.9709134667
 30
0.0
 10
16.8070199439
 20
11.9568145597
 30
0.0
 10
16.8057507929
 20
11.9428024472
 30
0.0
 10
16.8041031208
 20
11.9288807915
 30
0.0
 10
16.8020773161
 20
11.9150532405
 30
0.0
 10
16.7996739702
 20
11.9013233988
 30
0.0
 10
16.796893626
 20
11.8876948832
 30
0.0
 10
16.7937370668
 20
11.8741712103
 30
0.0
 10
16.7902051209
 20
11.8607560647
 30
0.0
 10
16.787600504
 20
11.8518861969
 30
0.0
 10
16.7862363941
 20
11.8474719288
 30
0.0
  0
SPLINE
  5
33F
100
AcDbEntity
  8
LAYER_CUT_FEAT
100
AcDbSpline
 62
7
  6
CONTINUOUS
 70
0
 71
3
 72
89
 73
85
 74
0
 42
0.0000001
 43
0.0000001
 44
0.0000000001
 40
0.0
 40
0.0
 40
0.0
 40
0.0
 40
0.0053540537
 40
0.0107127968
 40
0.0160808978
 40
0.0214629861
 40
0.0268636296
 40
0.03228732
 40
0.0377384501
 40
0.0432213038
 40
0.0487400329
 40
0.0542986535
 40
0.0599010222
 40
0.0655508392
 40
0.0712516246
 40
0.0770067271
 40
0.0828193015
 40
0.0886923221
 40
0.0946285615
 40
0.1006306075
 40
0.1128402928
 40
0.1190533051
 40
0.1253405187
 40
0.1317035524
 40
0.1381438481
 40
0.1446626596
 40
0.1512610706
 40
0.1646992676
 40
0.1784646668
 40
0.1925600205
 40
0.206985714
 40
0.2217399238
 40
0.2368187728
 40
0.2522164791
 40
0.2679254982
 40
0.2839366585
 40
0.3002392885
 40
0.3168213382
 40
0.3336694927
 40
0.3507692804
 40
0.3681051755
 40
0.3856606954
 40
0.4034184941
 40
0.4213604514
 40
0.4394677586
 40
0.457721002
 40
0.4761002435
 40
0.494585099
 40
0.5131548157
 40
0.5317883473
 40
0.5504644287
 40
0.56916165
 40
0.5878585291
 40
0.6065335852
 40
0.6251654119
 40
0.6437327498
 40
0.662214561
 40
0.6805901031
 40
0.6988390051
 40
0.7169413443
 40
0.734877725
 40
0.7526293593
 40
0.7701781502
 40
0.7875067777
 40
0.8045987884
 40
0.8214386885
 40
0.8380120415
 40
0.8543055712
 40
0.8703072696
 40
0.8860065112
 40
0.901394174
 40
0.9089690626
 40
0.9164633937
 40
0.9238765056
 40
0.9312078632
 40
0.9384570467
 40
0.9456237715
 40
0.9527078804
 40
0.959709372
 40
0.9666283674
 40
0.9734651169
 40
0.980220047
 40
0.9868938665
 40
1.0
 40
1.0
 40
1.0
 40
1.0
 10
14.3596369081
 20
12.5149673038
 30
0.0
 10
14.3608201623
 20
12.5187963265
 30
0.0
 10
14.3633263475
 20
12.5264156716
 30
0.0
 10
14.3674984876
 20
12.5377092074
 30
0.0
 10
14.3720824122
 20
12.5488648188
 30
0.0
 10
14.3770761382
 20
12.55987748
 30
0.0
 10
14.3824774517
 20
12.5707425385
 30
0.0
 10
14.3882840796
 20
12.5814552733
 30
0.0
 10
14.3944934334
 20
12.5920111295
 30
0.0
 10
14.4011028989
 20
12.6024055313
 30
0.0
 10
14.4081095385
 20
12.6126340753
 30
0.0
 10
14.4155103975
 20
12.6226923273
 30
0.0
 10
14.4233022013
 20
12.6325760442
 30
0.0
 10
14.431481659
 20
12.6422809411
 30
0.0
 10
14.4400451701
 20
12.6518029399
 30
0.0
 10
14.4489891107
 20
12.6611379113
 30
0.0
 10
14.4583095728
 20
12.670281951
 30
0.0
 10
14.4680025738
 20
12.6792310707
 30
0.0
 10
14.4780640237
 20
12.687981625
 30
0.0
 10
14.4920432698
 20
12.6994435788
 30
0.0
 10
14.5066738693
 20
12.7104260977
 30
0.0
 10
14.5219044024
 20
12.7209235209
 30
0.0
 10
14.5337399114
 20
12.7286266125
 30
0.0
 10
14.5459154611
 20
12.7361099446
 30
0.0
 10
14.5584260257
 20
12.7433704145
 30
0.0
 10
14.5712662592
 20
12.7504049853
 30
0.0
 10
14.5889252371
 20
12.7595341736
 30
0.0
 10
14.6118075776
 20
12.7703544567
 30
0.0
 10
14.6403259096
 20
12.7823103339
 30
0.0
 10
14.6700209175
 20
12.7932961476
 30
0.0
 10
14.7008415334
 20
12.803293242
 30
0.0
 10
14.73273536
 20
12.8122848759
 30
0.0
 10
14.7656480183
 20
12.8202558975
 30
0.0
 10
14.7995234355
 20
12.8271928763
 30
0.0
 10
14.8343038787
 20
12.833084105
 30
0.0
 10
14.8699300651
 20
12.8379196329
 30
0.0
 10
14.9063412567
 20
12.841691286
 30
0.0
 10
14.943475364
 20
12.8443926868
 30
0.0
 10
14.9812690511
 20
12.8460192691
 30
0.0
 10
15.0196578438
 20
12.8465682888
 30
0.0
 10
15.0585762405
 20
12.8460388321
 30
0.0
 10
15.0979578244
 20
12.8444318195
 30
0.0
 10
15.1377353782
 20
12.8417500057
 30
0.0
 10
15.1778409994
 20
12.837997977
 30
0.0
 10
15.2182062173
 20
12.8331821447
 30
0.0
 10
15.2587621113
 20
12.827310735
 30
0.0
 10
15.299439429
 20
12.8203937758
 30
0.0
 10
15.340168706
 20
12.8124430803
 30
0.0
 10
15.3808803851
 20
12.8034722269
 30
0.0
 10
15.4215049359
 20
12.793496537
 30
0.0
 10
15.4619729747
 20
12.7825330481
 30
0.0
 10
15.5022153836
 20
12.7706004853
 30
0.0
 10
15.5421634294
 20
12.7577192293
 30
0.0
 10
15.5817488817
 20
12.7439112809
 30
0.0
 10
15.6209041301
 20
12.7292002238
 30
0.0
 10
15.6595623005
 20
12.7136111832
 30
0.0
 10
15.6976573696
 20
12.6971707834
 30
0.0
 10
15.735124279
 20
12.6799071006
 30
0.0
 10
15.7718990458
 20
12.661849615
 30
0.0
 10
15.8079188736
 20
12.6430291593
 30
0.0
 10
15.8431222591
 20
12.6234778651
 30
0.0
 10
15.8774490983
 20
12.6032291068
 30
0.0
 10
15.9108407889
 20
12.5823174428
 30
0.0
 10
15.9432403304
 20
12.5607785558
 30
0.0
 10
15.9745924222
 20
12.5386491887
 30
0.0
 10
16.0048435551
 20
12.515967082
 30
0.0
 10
16.0339421095
 20
12.4927708994
 30
0.0
 10
16.0618384145
 20
12.469100187
 30
0.0
 10
16.0884849338
 20
12.4449952013
 30
0.0
 10
16.1138359668
 20
12.4204972055
 30
0.0
 10
16.1339503748
 20
12.3996816757
 30
0.0
 10
16.1493465132
 20
12.3828664089
 30
0.0
 10
16.1604834805
 20
12.3702486453
 30
0.0
 10
16.171265426
 20
12.3575645397
 30
0.0
 10
16.1816878078
 20
12.3448194861
 30
0.0
 10
16.1917461249
 20
12.3320189048
 30
0.0
 10
16.2014361193
 20
12.3191682921
 30
0.0
 10
16.2107536064
 20
12.3062730887
 30
0.0
 10
16.2196946468
 20
12.2933388321
 30
0.0
 10
16.2282553605
 20
12.2803709996
 30
0.0
 10
16.2364321073
 20
12.2673752471
 30
0.0
 10
16.2442214746
 20
12.2543568173
 30
0.0
 10
16.2540262553
 20
12.2370820666
 30
0.0
 10
16.2608823252
 20
12.2239506718
 30
0.0
 10
16.2652042082
 20
12.2151436001
 30
0.0
  0
SPLINE
  5
340
100
AcDbEntity
  8
LAYER_FEATURE
100
AcDbSpline
 62
7
  6
CONTINUOUS
 70
0
 71
3
 72
21
 73
17
 74
0
 42
0.0000001
 43
0.0000001
 44
0.0000000001
 40
0.0
 40
0.0
 40
0.0
 40
0.0
 40
0.0594504513
 40
0.1190657808
 40
0.17890603
 40
0.2390295086
 40
0.2994924443
 40
0.3603485859
 40
0.4216488486
 40
0.4834411109
 40
0.5457697373
 40
0.6086757201
 40
0.6721964221
 40
0.7363650185
 40
0.8667343933
 40
1.0
 40
1.0
 40
1.0
 40
1.0
 10
14.7442371547
 20
12.3124463437
 30
0.0
 10
14.7434967443
 20
12.3143097492
 30
0.0
 10
14.742100971
 20
12.3180770084
 30
0.0
 10
14.7402694425
 20
12.3238285421
 30
0.0
 10
14.7386997648
 20
12.3296806062
 30
0.0
 10
14.7373937612
 20
12.3356263033
 30
0.0
 10
14.7363528898
 20
12.3416588457
 30
0.0
 10
14.7355783588
 20
12.3477712971
 30
0.0
 10
14.7350709693
 20
12.3539566412
 30
0.0
 10
14.7348313544
 20
12.3602077847
 30
0.0
 10
14.7348596717
 20
12.3665175673
 30
0.0
 10
14.735155934
 20
12.3728787436
 30
0.0
 10
14.7357197374
 20
12.3792841268
 30
0.0
 10
14.7368330428
 20
12.3879183523
 30
0.0
 10
14.7389010523
 20
12.3987911491
 30
0.0
 10
14.7412224864
 20
12.4073841457
 30
0.0
 10
14.7425495395
 20
12.4116784912
 30
0.0
  0
SPLINE
  5
341
100
AcDbEntity
  8
02___PRT_ALL_AXES
100
AcDbSpline
 62
7
  6
CONTINUOUS
 70
0
 71
3
 72
54
 73
50
 74
0
 42
0.0000001
 43
0.0000001
 44
0.0000000001
 40
0.0
 40
0.0
 40
0.0
 40
0.0
 40
0.011055045
 40
0.0221801118
 40
0.0333994519
 40
0.0447361969
 40
0.0562121423
 40
0.067847564
 40
0.0796609347
 40
0.0916689627
 40
0.1038862537
 40
0.1163255189
 40
0.1289972878
 40
0.1419101036
 40
0.1550704396
 40
0.1684827514
 40
0.1821496674
 40
0.1960718466
 40
0.2102483561
 40
0.2246765188
 40
0.239352248
 40
0.2542700493
 40
0.2694231779
 40
0.284803838
 40
0.3004032067
 40
0.3162117087
 40
0.3322190021
 40
0.348414228
 40
0.3647860613
 40
0.3813228541
 40
0.3980127275
 40
0.4148436733
 40
0.4488782595
 40
0.4833334027
 40
0.518115993
 40
0.5531369204
 40
0.5883120256
 40
0.6235627499
 40
0.6588164696
 40
0.6940066968
 40
0.7290731151
 40
0.7639616796
 40
0.7986246162
 40
0.8330205383
 40
0.8671145006
 40
0.900878063
 40
0.9342894576
 40
0.9673329601
 40
1.0
 40
1.0
 40
1.0
 40
1.0
 10
14.7404085534
 20
12.3193627455
 30
0.0
 10
14.7396378902
 20
12.3209331972
 30
0.0
 10
14.7381759211
 20
12.3241261709
 30
0.0
 10
14.7362326876
 20
12.329043602
 30
0.0
 10
14.7345349596
 20
12.334098246
 30
0.0
 10
14.7330839684
 20
12.3392867227
 30
0.0
 10
14.7318806406
 20
12.3446056195
 30
0.0
 10
14.730925767
 20
12.3500511777
 30
0.0
 10
14.7302198369
 20
12.3556193501
 30
0.0
 10
14.729763244
 20
12.3613057653
 30
0.0
 10
14.7295560203
 20
12.3671057214
 30
0.0
 10
14.7295980986
 20
12.3730141586
 30
0.0
 10
14.7298890603
 20
12.3790256699
 30
0.0
 10
14.7304283045
 20
12.3851344731
 30
0.0
 10
14.73121495
 20
12.3913344192
 30
0.0
 10
14.7322478225
 20
12.3976190053
 30
0.0
 10
14.7335255403
 20
12.4039813477
 30
0.0
 10
14.7350463568
 20
12.4104142497
 30
0.0
 10
14.7368083423
 20
12.4169101468
 30
0.0
 10
14.738809213
 20
12.4234612021
 30
0.0
 10
14.7410464674
 20
12.4300592703
 30
0.0
 10
14.7435173245
 20
12.4366959599
 30
0.0
 10
14.7462187369
 20
12.4433626596
 30
0.0
 10
14.7491474592
 20
12.450050542
 30
0.0
 10
14.7522999682
 20
12.4567506509
 30
0.0
 10
14.7556725906
 20
12.4634538641
 30
0.0
 10
14.7592614146
 20
12.4701509947
 30
0.0
 10
14.7630623894
 20
12.4768327634
 30
0.0
 10
14.7670713014
 20
12.4834898693
 30
0.0
 10
14.7712837836
 20
12.4901129862
 30
0.0
 10
14.7756954093
 20
12.4966928444
 30
0.0
 10
14.7818594374
 20
12.505427748
 30
0.0
 10
14.790035437
 20
12.5161786735
 30
0.0
 10
14.8005302712
 20
12.5287128096
 30
0.0
 10
14.8117063812
 20
12.5408568491
 30
0.0
 10
14.8235234872
 20
12.5525408675
 30
0.0
 10
14.8359403456
 20
12.5636969308
 30
0.0
 10
14.8489142345
 20
12.5742589087
 30
0.0
 10
14.8624006729
 20
12.5841627141
 30
0.0
 10
14.8763529649
 20
12.5933464942
 30
0.0
 10
14.8907217469
 20
12.6017509652
 30
0.0
 10
14.9054545389
 20
12.6093198604
 30
0.0
 10
14.9204953776
 20
12.6160005384
 30
0.0
 10
14.9357845508
 20
12.6217447159
 30
0.0
 10
14.951258547
 20
12.6265092984
 30
0.0
 10
14.9668500562
 20
12.6302573063
 30
0.0
 10
14.982488705
 20
12.6329586923
 30
0.0
 10
14.998100054
 20
12.6345913124
 30
0.0
 10
15.0085015555
 20
12.6349601215
 30
0.0
 10
15.0136707998
 20
12.6349601215
 30
0.0
  0
SPLINE
  5
342
100
AcDbEntity
  8
LAYER_FEATURE
100
AcDbSpline
 62
7
  6
CONTINUOUS
 70
0
 71
3
 72
15
 73
11
 74
0
 42
0.0000001
 43
0.0000001
 44
0.0000000001
 40
0.0
 40
0.0
 40
0.0
 40
0.0
 40
0.1216419399
 40
0.2454093846
 40
0.3707390879
 40
0.4970449844
 40
0.6237268941
 40
0.7501796637
 40
0.8758004801
 40
1.0
 40
1.0
 40
1.0
 40
1.0
 10
16.600068833
 20
12.9846129996
 30
0.0
 10
16.6017450848
 20
12.9836290596
 30
0.0
 10
16.6051810764
 20
12.9817349312
 30
0.0
 10
16.610511012
 20
12.9791438859
 30
0.0
 10
16.6160319928
 20
12.9767922049
 30
0.0
 10
16.6217047458
 20
12.9746966426
 30
0.0
 10
16.62748915
 20
12.9728720038
 30
0.0
 10
16.6333442833
 20
12.9713312162
 30
0.0
 10
16.6392284937
 20
12.9700852048
 30
0.0
 10
16.6431718587
 20
12.9694523008
 30
0.0
 10
16.6451387687
 20
12.9691881795
 30
0.0
  0
SPLINE
  5
343
100
AcDbEntity
  8
LAYER_FEATURE
100
AcDbSpline
 62
7
  6
CONTINUOUS
 70
0
 71
3
 72
11
 73
7
 74
0
 42
0.0000001
 43
0.0000001
 44
0.0000000001
 40
0.0
 40
0.0
 40
0.0
 40
0.0
 40
0.2457467555
 40
0.4932334802
 40
0.7441627543
 40
1.0
 40
1.0
 40
1.0
 40
1.0
 10
16.5198171851
 20
13.2060655311
 30
0.0
 10
16.5199068557
 20
13.2063556907
 30
0.0
 10
16.5200568795
 20
13.2069477975
 30
0.0
 10
16.520190614
 20
13.2078592123
 30
0.0
 10
16.52023296
 20
13.2087918466
 30
0.0
 10
16.5202006736
 20
13.2094183865
 30
0.0
 10
16.5201699652
 20
13.2097330613
 30
0.0
  0
SPLINE
  5
344
100
AcDbEntity
  8
LAYER_FEATURE
100
AcDbSpline
 62
7
  6
CONTINUOUS
 70
0
 71
3
 72
23
 73
19
 74
0
 42
0.0000001
 43
0.0000001
 44
0.0000000001
 40
0.0
 40
0.0
 40
0.0
 40
0.0
 40
0.0572756302
 40
0.116111262
 40
0.1763568611
 40
0.2378457189
 40
0.3003971596
 40
0.3638190695
 40
0.4279102677
 40
0.4924627733
 40
0.5572639927
 40
0.6220988686
 40
0.686752032
 40
0.751009774
 40
0.8146628878
 40
0.8775064707
 40
0.939348552
 40
1.0
 40
1.0
 40
1.0
 40
1.0
 10
16.4974917356
 20
13.1339343014
 30
0.0
 10
16.4986264198
 20
13.1329674045
 30
0.0
 10
16.5009798573
 20
13.1310688896
 30
0.0
 10
16.504693823
 20
13.1283684586
 30
0.0
 10
16.5086238818
 20
13.1257878048
 30
0.0
 10
16.5127505624
 20
13.1233397238
 30
0.0
 10
16.5170535841
 20
13.1210362225
 30
0.0
 10
16.5215117431
 20
13.1188886491
 30
0.0
 10
16.5261030779
 20
13.1169075793
 30
0.0
 10
16.5308049615
 20
13.1151027768
 30
0.0
 10
16.5355942185
 20
13.1134831388
 30
0.0
 10
16.5404472406
 20
13.1120566518
 30
0.0
 10
16.5453401
 20
13.11083035
 30
0.0
 10
16.5502486879
 20
13.1098102653
 30
0.0
 10
16.5551487788
 20
13.1090014505
 30
0.0
 10
16.560016323
 20
13.1084078417
 30
0.0
 10
16.5648271388
 20
13.1080324387
 30
0.0
 10
16.5680150207
 20
13.1079277147
 30
0.0
 10
16.5695935923
 20
13.1079133733
 30
0.0
  0
SPLINE
  5
345
100
AcDbEntity
  8
LAYER_FEATURE
100
AcDbSpline
 62
7
  6
CONTINUOUS
 70
0
 71
3
 72
15
 73
11
 74
0
 42
0.0000001
 43
0.0000001
 44
0.0000000001
 40
0.0
 40
0.0
 40
0.0
 40
0.0
 40
0.1182037715
 40
0.237113264
 40
0.3574070825
 40
0.4797242666
 40
0.6046514484
 40
0.7327228558
 40
0.864398627
 40
1.0
 40
1.0
 40
1.0
 40
1.0
 10
16.3783972711
 20
13.3360092568
 30
0.0
 10
16.3784794625
 20
13.3362752247
 30
0.0
 10
16.3786191767
 20
13.3368168934
 30
0.0
 10
16.3787522053
 20
13.3376492084
 30
0.0
 10
16.3788085707
 20
13.3384999432
 30
0.0
 10
16.3787882019
 20
13.3393663967
 30
0.0
 10
16.3786912157
 20
13.3402460081
 30
0.0
 10
16.378518005
 20
13.3411362308
 30
0.0
 10
16.3782691308
 20
13.3420343158
 30
0.0
 10
16.3780566515
 20
13.3426274934
 30
0.0
 10
16.3779387499
 20
13.342924283
 30
0.0
  0
SPLINE
  5
346
100
AcDbEntity
  8
LAYER_FEATURE
100
AcDbSpline
 62
7
  6
CONTINUOUS
 70
0
 71
3
 72
32
 73
28
 74
0
 42
0.0000001
 43
0.0000001
 44
0.0000000001
 40
0.0
 40
0.0
 40
0.0
 40
0.0
 40
0.0260757889
 40
0.0528506832
 40
0.0803123353
 40
0.1084426735
 40
0.1372187383
 40
0.166613015
 40
0.1965937619
 40
0.227125703
 40
0.258170053
 40
0.2896851751
 40
0.3216267721
 40
0.3539481823
 40
0.3866008481
 40
0.4195343925
 40
0.486029254
 40
0.5530138243
 40
0.6200524801
 40
0.6867085465
 40
0.7525527759
 40
0.817171943
 40
0.8801781953
 40
0.9109680676
 40
0.9412257092
 40
0.970916428
 40
1.0
 40
1.0
 40
1.0
 40
1.0
 10
16.3608009758
 20
13.279136134
 30
0.0
 10
16.3613549871
 20
13.2784025129
 30
0.0
 10
16.3625141716
 20
13.2769427009
 30
0.0
 10
16.36437432
 20
13.2748068691
 30
0.0
 10
16.3663747149
 20
13.272700708
 30
0.0
 10
16.3685104262
 20
13.27062933
 30
0.0
 10
16.3707763062
 20
13.2685977177
 30
0.0
 10
16.3731668767
 20
13.2666107949
 30
0.0
 10
16.3756763268
 20
13.2646733261
 30
0.0
 10
16.378298608
 20
13.2627900344
 30
0.0
 10
16.3810273496
 20
13.2609654438
 30
0.0
 10
16.3838559493
 20
13.2592039808
 30
0.0
 10
16.3867775643
 20
13.2575099221
 30
0.0
 10
16.3897850915
 20
13.2558873431
 30
0.0
 10
16.392871293
 20
13.2543401959
 30
0.0
 10
16.3970942795
 20
13.2523767765
 30
0.0
 10
16.4025204393
 20
13.2501364431
 30
0.0
 10
16.4092006396
 20
13.2478122751
 30
0.0
 10
16.416006591
 20
13.2458659753
 30
0.0
 10
16.4228724815
 20
13.2443163727
 30
0.0
 10
16.4297322184
 20
13.2431783947
 30
0.0
 10
16.4365194821
 20
13.2424630246
 30
0.0
 10
16.4421034944
 20
13.2422229522
 30
0.0
 10
16.4464776382
 20
13.2422523327
 30
0.0
 10
16.4496746541
 20
13.2423827148
 30
0.0
 10
16.4528050518
 20
13.2426213005
 30
0.0
 10
16.454864569
 20
13.2428545394
 30
0.0
 10
16.4558809781
 20
13.2429896414
 30
0.0
  0
SPLINE
  5
347
100
AcDbEntity
  8
LAYER_FEATURE
100
AcDbSpline
 62
7
  6
CONTINUOUS
 70
0
 71
3
 72
39
 73
35
 74
0
 42
0.0000001
 43
0.0000001
 44
0.0000000001
 40
0.0
 40
0.0
 40
0.0
 40
0.0
 40
0.0234023201
 40
0.0476900351
 40
0.0729052448
 40
0.099071277
 40
0.1261943454
 40
0.1542652303
 40
0.183260858
 40
0.2131458821
 40
0.2438741539
 40
0.2753900211
 40
0.3076294906
 40
0.3405213184
 40
0.3739880938
 40
0.4079471907
 40
0.4423116513
 40
0.4769910263
 40
0.5118922437
 40
0.546920419
 40
0.5819796273
 40
0.6169736779
 40
0.6518069197
 40
0.6863850263
 40
0.7206157735
 40
0.7544098428
 40
0.787681701
 40
0.8203504903
 40
0.8523408612
 40
0.8835840413
 40
0.9140189789
 40
0.9435924783
 40
0.9722643854
 40
1.0
 40
1.0
 40
1.0
 40
1.0
 10
16.1953181258
 20
13.4150528352
 30
0.0
 10
16.1956557556
 20
13.4140865103
 30
0.0
 10
16.1964294298
 20
13.4121463322
 30
0.0
 10
16.1978422661
 20
13.4092843196
 30
0.0
 10
16.1995222757
 20
13.4064294143
 30
0.0
 10
16.2014623701
 20
13.4035933088
 30
0.0
 10
16.2036545978
 20
13.4007872535
 30
0.0
 10
16.2060900033
 20
13.3980225255
 30
0.0
 10
16.2087586674
 20
13.3953102276
 30
0.0
 10
16.211649734
 20
13.392661287
 30
0.0
 10
16.2147514582
 20
13.390086402
 30
0.0
 10
16.2180512446
 20
13.3875959966
 30
0.0
 10
16.2215356876
 20
13.3852001703
 30
0.0
 10
16.2251906165
 20
13.3829086383
 30
0.0
 10
16.2290011678
 20
13.3807307086
 30
0.0
 10
16.2329518431
 20
13.3786752367
 30
0.0
 10
16.2370265712
 20
13.3767505922
 30
0.0
 10
16.2412087644
 20
13.3749646032
 30
0.0
 10
16.2454813949
 20
13.3733245348
 30
0.0
 10
16.2498270674
 20
13.3718370645
 30
0.0
 10
16.2542280897
 20
13.370508255
 30
0.0
 10
16.2586665417
 20
13.3693435209
 30
0.0
 10
16.2631243486
 20
13.3683475958
 30
0.0
 10
16.2675833621
 20
13.3675245328
 30
0.0
 10
16.2720254318
 20
13.3668776852
 30
0.0
 10
16.2764324806
 20
13.3664096963
 30
0.0
 10
16.2807865789
 20
13.3661224651
 30
0.0
 10
16.285070021
 20
13.3660171618
 30
0.0
 10
16.2892653968
 20
13.3660942216
 30
0.0
 10
16.2933556743
 20
13.3663533543
 30
0.0
 10
16.2973242063
 20
13.3667935442
 30
0.0
 10
16.3011550295
 20
13.3674130087
 30
0.0
 10
16.3048323376
 20
13.3682093069
 30
0.0
 10
16.3072120253
 20
13.3688670821
 30
0.0
 10
16.3083708382
 20
13.3692260784
 30
0.0
  0
SPLINE
  5
348
100
AcDbEntity
  8
LAYER_FEATURE
100
AcDbSpline
 62
7
  6
CONTINUOUS
 70
0
 71
3
 72
11
 73
7
 74
0
 42
0.0000001
 43
0.0000001
 44
0.0000000001
 40
0.0
 40
0.0
 40
0.0
 40
0.0
 40
0.2465479299
 40
0.4944940924
 40
0.7452270119
 40
1.0
 40
1.0
 40
1.0
 40
1.0
 10
16.011928776
 20
13.5470374121
 30
0.0
 10
16.0121612995
 20
13.5477898581
 30
0.0
 10
16.0125580189
 20
13.5493215383
 30
0.0
 10
16.012941036
 20
13.5516742502
 30
0.0
 10
16.0131118046
 20
13.5540780713
 30
0.0
 10
16.0130841712
 20
13.5556949413
 30
0.0
 10
16.0130361338
 20
13.5565073503
 30
0.0
  0
SPLINE
  5
349
100
AcDbEntity
  8
LAYER_FEATURE
100
AcDbSpline
 62
7
  6
CONTINUOUS
 70
0
 71
3
 72
50
 73
46
 74
0
 42
0.0000001
 43
0.0000001
 44
0.0000000001
 40
0.0
 40
0.0
 40
0.0
 40
0.0
 40
0.010740126
 40
0.0216035624
 40
0.0326195232
 40
0.043815198
 40
0.0552153837
 40
0.0668422661
 40
0.0908431738
 40
0.1032569044
 40
0.1159596041
 40
0.1422594884
 40
0.155874276
 40
0.1698004199
 40
0.1840382163
 40
0.1985858719
 40
0.2134400113
 40
0.2285954267
 40
0.2440455535
 40
0.2597822486
 40
0.2920732369
 40
0.3253832242
 40
0.3596066993
 40
0.3946244094
 40
0.4303058195
 40
0.4665113889
 40
0.5030947128
 40
0.5399045651
 40
0.5767868773
 40
0.6135866784
 40
0.6501500252
 40
0.6863259444
 40
0.7219684138
 40
0.7569384113
 40
0.7911060641
 40
0.8243529335
 40
0.8565744961
 40
0.8876828222
 40
0.9027994512
 40
0.9176140917
 40
0.9321217442
 40
0.9463189922
 40
0.960204367
 40
0.9737792636
 40
1.0
 40
1.0
 40
1.0
 40
1.0
 10
16.0085020622
 20
13.536124966
 30
0.0
 10
16.0084418188
 20
13.5355755688
 30
0.0
 10
16.0083580568
 20
13.5344660185
 30
0.0
 10
16.008342626
 20
13.5327863463
 30
0.0
 10
16.0084367254
 20
13.5310857296
 30
0.0
 10
16.008640164
 20
13.5293669783
 30
0.0
 10
16.0089525913
 20
13.5276327054
 30
0.0
 10
16.0095195848
 20
13.5252788756
 30
0.0
 10
16.0103013843
 20
13.5229275612
 30
0.0
 10
16.0112785956
 20
13.520595729
 30
0.0
 10
16.0124195177
 20
13.5182074268
 30
0.0
 10
16.0137584628
 20
13.515849034
 30
0.0
 10
16.0152755523
 20
13.513530007
 30
0.0
 10
16.0165249458
 20
13.5117795879
 30
0.0
 10
16.0178706882
 20
13.5100411338
 30
0.0
 10
16.019310672
 20
13.5083172166
 30
0.0
 10
16.0208426859
 20
13.5066105869
 30
0.0
 10
16.0224642868
 20
13.5049238463
 30
0.0
 10
16.0241730001
 20
13.5032596517
 30
0.0
 10
16.0265844022
 20
13.501055406
 30
0.0
 10
16.029802936
 20
13.498375228
 30
0.0
 10
16.0339335799
 20
13.4953170286
 30
0.0
 10
16.0383399116
 20
13.492408396
 30
0.0
 10
16.0429944321
 20
13.4896674515
 30
0.0
 10
16.0478682353
 20
13.4871111955
 30
0.0
 10
16.0529309904
 20
13.4847555298
 30
0.0
 10
16.0581511877
 20
13.4826151124
 30
0.0
 10
16.0634963233
 20
13.4807032706
 30
0.0
 10
16.0689331094
 20
13.4790319106
 30
0.0
 10
16.0744276849
 20
13.4776114421
 30
0.0
 10
16.0799458313
 20
13.4764507111
 30
0.0
 10
16.0854531914
 20
13.4755569451
 30
0.0
 10
16.0909154873
 20
13.4749357093
 30
0.0
 10
16.0962987459
 20
13.4745908757
 30
0.0
 10
16.1015694952
 20
13.4745246028
 30
0.0
 10
16.106695057
 20
13.4747373375
 30
0.0
 10
16.1116434771
 20
13.4752278015
 30
0.0
 10
16.1156317555
 20
13.4758715714
 30
0.0
 10
16.1187043623
 20
13.4765265057
 30
0.0
 10
16.1209237239
 20
13.4770799355
 30
0.0
 10
16.1230763891
 20
13.4776994255
 30
0.0
 10
16.1251589989
 20
13.4783839497
 30
0.0
 10
16.1271684308
 20
13.4791325728
 30
0.0
 10
16.1297159413
 20
13.4802020287
 30
0.0
 10
16.1315534516
 20
13.4811142725
 30
0.0
 10
16.1327319044
 20
13.4817714888
 30
0.0
  0
SPLINE
  5
34A
100
AcDbEntity
  8
02___PRT_ALL_AXES
100
AcDbSpline
 62
7
  6
CONTINUOUS
 70
0
 71
3
 72
46
 73
42
 74
0
 42
0.0000001
 43
0.0000001
 44
0.0000000001
 40
0.0
 40
0.0
 40
0.0
 40
0.0
 40
0.0396646884
 40
0.0788612644
 40
0.1175671923
 40
0.1557611345
 40
0.1934233518
 40
0.230535674
 40
0.2670816652
 40
0.303046731
 40
0.3384182502
 40
0.3731857069
 40
0.4073408309
 40
0.4408777428
 40
0.4737931052
 40
0.5060862785
 40
0.5377594801
 40
0.5688179463
 40
0.5992700923
 40
0.629127669
 40
0.6584059111
 40
0.6728343771
 40
0.6871253915
 40
0.715305255
 40
0.7429736234
 40
0.7701607638
 40
0.7969008082
 40
0.8232316972
 40
0.8491950551
 40
0.8620540745
 40
0.8748384068
 40
0.8875541856
 40
0.9002077261
 40
0.912805504
 40
0.9253541486
 40
0.9378604197
 40
0.950331197
 40
0.962773457
 40
0.9751942582
 40
0.9876007193
 40
1.0
 40
1.0
 40
1.0
 40
1.0
 10
14.8406538951
 20
12.0750772128
 30
0.0
 10
14.8314475159
 20
12.0750772128
 30
0.0
 10
14.8131426789
 20
12.0748707808
 30
0.0
 10
14.7858685573
 20
12.0739298366
 30
0.0
 10
14.7589650725
 20
12.0723604327
 30
0.0
 10
14.7324627502
 20
12.0701643214
 30
0.0
 10
14.7063914579
 20
12.0673439715
 30
0.0
 10
14.6807806163
 20
12.0639025447
 30
0.0
 10
14.6556591139
 20
12.0598439026
 30
0.0
 10
14.6310552861
 20
12.0551725956
 30
0.0
 10
14.6069968811
 20
12.0498938596
 30
0.0
 10
14.5835110296
 20
12.0440136072
 30
0.0
 10
14.5606242153
 20
12.0375384207
 30
0.0
 10
14.5383622461
 20
12.0304755431
 30
0.0
 10
14.5167502262
 20
12.0228328681
 30
0.0
 10
14.495812532
 20
12.0146189315
 30
0.0
 10
14.4755727798
 20
12.0058428956
 30
0.0
 10
14.4560538292
 20
11.9965145563
 30
0.0
 10
14.4372776644
 20
11.9866442664
 30
0.0
 10
14.4192657244
 20
11.9762431606
 30
0.0
 10
14.4048397491
 20
11.9670985596
 30
0.0
 10
14.3937084063
 20
11.9595267294
 30
0.0
 10
14.3829531021
 20
11.9518610895
 30
0.0
 10
14.3700132039
 20
11.9419725053
 30
0.0
 10
14.3552526702
 20
11.929569157
 30
0.0
 10
14.3413492575
 20
11.9166983591
 30
0.0
 10
14.3283190251
 20
11.9033745391
 30
0.0
 10
14.3161771303
 20
11.8896129013
 30
0.0
 10
14.3067803333
 20
11.8777542461
 30
0.0
 10
14.2997299352
 20
11.8680692805
 30
0.0
 10
14.2946888629
 20
11.8607290968
 30
0.0
 10
14.2898794947
 20
11.8532918367
 30
0.0
 10
14.2853031302
 20
11.8457595591
 30
0.0
 10
14.280961108
 20
11.8381343992
 30
0.0
 10
14.2768546402
 20
11.8304185259
 30
0.0
 10
14.2729849209
 20
11.8226141156
 30
0.0
 10
14.269353031
 20
11.8147233906
 30
0.0
 10
14.2659600274
 20
11.8067485868
 30
0.0
 10
14.2628068523
 20
11.7986919503
 30
0.0
 10
14.2598944465
 20
11.7905558562
 30
0.0
 10
14.2581136556
 20
11.7850796046
 30
0.0
 10
14.2572639534
 20
11.7823299631
 30
0.0
  0
SPLINE
  5
34B
100
AcDbEntity
  8
02___PRT_ALL_AXES
100
AcDbSpline
 62
7
  6
CONTINUOUS
 70
0
 71
3
 72
46
 73
42
 74
0
 42
0.0000001
 43
0.0000001
 44
0.0000000001
 40
0.0
 40
0.0
 40
0.0
 40
0.0
 40
0.0123992809
 40
0.0248057417
 40
0.0372265433
 40
0.0496688029
 40
0.0621395805
 40
0.0746458516
 40
0.0871944957
 40
0.0997922748
 40
0.1124458135
 40
0.1251615943
 40
0.1379459248
 40
0.1508049455
 40
0.1767683023
 40
0.2030991908
 40
0.2298392362
 40
0.2570263777
 40
0.2846947465
 40
0.3128746091
 40
0.3271656243
 40
0.341594088
 40
0.3708723298
 40
0.4007299082
 40
0.4311820561
 40
0.4622405229
 40
0.4939137235
 40
0.5262068948
 40
0.5591222562
 40
0.5926591693
 40
0.6268142948
 40
0.6615817518
 40
0.69695327
 40
0.7329183338
 40
0.7694643244
 40
0.8065766505
 40
0.8442388555
 40
0.8824328507
 40
0.921138628
 40
0.9603355108
 40
1.0
 40
1.0
 40
1.0
 40
1.0
 10
14.4728542754
 20
12.4799804911
 30
0.0
 10
14.4737039811
 20
12.4827301316
 30
0.0
 10
14.475484768
 20
12.4882063843
 30
0.0
 10
14.4783971699
 20
12.49634248
 30
0.0
 10
14.4815503537
 20
12.504399113
 30
0.0
 10
14.4849433473
 20
12.512373921
 30
0.0
 10
14.4885752446
 20
12.5202646427
 30
0.0
 10
14.4924449626
 20
12.5280690534
 30
0.0
 10
14.496551425
 20
12.5357849299
 30
0.0
 10
14.5008934588
 20
12.5434100827
 30
0.0
 10
14.505469807
 20
12.5509423707
 30
0.0
 10
14.5102791923
 20
12.5583796192
 30
0.0
 10
14.5153202503
 20
12.565719813
 30
0.0
 10
14.52237066
 20
12.5754047699
 30
0.0
 10
14.5317674477
 20
12.5872634317
 30
0.0
 10
14.5439093431
 20
12.6010250691
 30
0.0
 10
14.5569395772
 20
12.6143488879
 30
0.0
 10
14.5708429922
 20
12.6272196843
 30
0.0
 10
14.5856035268
 20
12.6396230314
 30
0.0
 10
14.5985434227
 20
12.6495116188
 30
0.0
 10
14.6092987287
 20
12.657177255
 30
0.0
 10
14.620430067
 20
12.664749091
 30
0.0
 10
14.6348560431
 20
12.6738936904
 30
0.0
 10
14.6528679848
 20
12.6842947948
 30
0.0
 10
14.6716441519
 20
12.6941650822
 30
0.0
 10
14.6911631032
 20
12.7034934207
 30
0.0
 10
14.7114028543
 20
12.7122694575
 30
0.0
 10
14.7323405465
 20
12.7204833964
 30
0.0
 10
14.7539525653
 20
12.7281260731
 30
0.0
 10
14.7762145355
 20
12.7351889491
 30
0.0
 10
14.7991013509
 20
12.7416641337
 30
0.0
 10
14.8225872025
 20
12.7475443856
 30
0.0
 10
14.8466456066
 20
12.7528231228
 30
0.0
 10
14.871249433
 20
12.7574944319
 30
0.0
 10
14.8963709354
 20
12.761553076
 30
0.0
 10
14.9219817753
 20
12.764994499
 30
0.0
 10
14.9480530778
 20
12.7678148516
 30
0.0
 10
14.9745553753
 20
12.7700109506
 30
0.0
 10
15.0014589076
 20
12.7715803732
 30
0.0
 10
15.0287330198
 20
12.7725213015
 30
0.0
 10
15.0470378814
 20
12.7727277417
 30
0.0
 10
15.0562442144
 20
12.7727277417
 30
0.0
  0
SPLINE
  5
34C
100
AcDbEntity
  8
LAYER_CHAMFER_FEAT
100
AcDbSpline
 62
7
  6
CONTINUOUS
 70
0
 71
3
 72
64
 73
60
 74
0
 42
0.0000001
 43
0.0000001
 44
0.0000000001
 40
0.0
 40
0.0
 40
0.0
 40
0.0
 40
0.0106254844
 40
0.0212736114
 40
0.0319667891
 40
0.0427269551
 40
0.0535753638
 40
0.0645324012
 40
0.075617393
 40
0.086848506
 40
0.0982425799
 40
0.1098151169
 40
0.1215801487
 40
0.1335502859
 40
0.145736639
 40
0.1581488833
 40
0.1707952511
 40
0.1836825732
 40
0.1968163482
 40
0.2102007396
 40
0.2238387121
 40
0.2377319863
 40
0.2518812136
 40
0.2662859151
 40
0.2809446525
 40
0.2958549873
 40
0.31101361
 40
0.3264163463
 40
0.342058224
 40
0.3579335362
 40
0.3740358448
 40
0.3903580924
 40
0.4068925594
 40
0.4236310005
 40
0.4405645864
 40
0.4576840324
 40
0.4749795567
 40
0.4924409753
 40
0.5100576955
 40
0.5278187686
 40
0.5457129204
 40
0.5637285663
 40
0.5818538707
 40
0.6000767379
 40
0.6183848839
 40
0.6367658218
 40
0.6736938362
 40
0.7107600078
 40
0.747860776
 40
0.7848922946
 40
0.8217512887
 40
0.8583359326
 40
0.8945466802
 40
0.912482535
 40
0.9302890973
 40
0.9479548071
 40
0.9654690743
 40
0.9828216353
 40
1.0
 40
1.0
 40
1.0
 40
1.0
 10
14.7696098666
 20
11.6722729733
 30
0.0
 10
14.7689277023
 20
11.6700654676
 30
0.0
 10
14.767686337
 20
11.6656061982
 30
0.0
 10
14.7662012564
 20
11.6588119788
 30
0.0
 10
14.7650937106
 20
11.6519162581
 30
0.0
 10
14.7643649255
 20
11.6449266296
 30
0.0
 10
14.7640155376
 20
11.6378504233
 30
0.0
 10
14.7640459182
 20
11.6306951357
 30
0.0
 10
14.7644558437
 20
11.6234682955
 30
0.0
 10
14.7652449068
 20
11.616177506
 30
0.0
 10
14.7664120578
 20
11.6088303861
 30
0.0
 10
14.7679561003
 20
11.6014346328
 30
0.0
 10
14.7698752212
 20
11.5939979282
 30
0.0
 10
14.772167418
 20
11.5865280311
 30
0.0
 10
14.7748301637
 20
11.5790326793
 30
0.0
 10
14.7778606453
 20
11.5715196576
 30
0.0
 10
14.7812556462
 20
11.5639967538
 30
0.0
 10
14.7850115558
 20
11.5564717457
 30
0.0
 10
14.7891244722
 20
11.5489524553
 30
0.0
 10
14.7935900144
 20
11.5414466269
 30
0.0
 10
14.7984035878
 20
11.5339620876
 30
0.0
 10
14.8035600797
 20
11.5265065299
 30
0.0
 10
14.8090541903
 20
11.519087742
 30
0.0
 10
14.8148801198
 20
11.5117133541
 30
0.0
 10
14.8210318568
 20
11.5043910638
 30
0.0
 10
14.8275029544
 20
11.497128428
 30
0.0
 10
14.8342866996
 20
11.489933005
 30
0.0
 10
14.8413760279
 20
11.4828122594
 30
0.0
 10
14.8487635504
 20
11.4757735704
 30
0.0
 10
14.8564416079
 20
11.4688242812
 30
0.0
 10
14.8644021736
 20
11.4619715633
 30
0.0
 10
14.872637012
 20
11.4552225989
 30
0.0
 10
14.8811375057
 20
11.4485843344
 30
0.0
 10
14.8898948598
 20
11.4420637423
 30
0.0
 10
14.8988999179
 20
11.4356675356
 30
0.0
 10
14.9081433472
 20
11.4294024248
 30
0.0
 10
14.9176155021
 20
11.4232748819
 30
0.0
 10
14.927306542
 20
11.4172913091
 30
0.0
 10
14.937206377
 20
11.4114579231
 30
0.0
 10
14.9473046985
 20
11.4057807831
 30
0.0
 10
14.9575910121
 20
11.400265826
 30
0.0
 10
14.9680545883
 20
11.3949187456
 30
0.0
 10
14.9786845677
 20
11.3897451647
 30
0.0
 10
14.9894698428
 20
11.3847504065
 30
0.0
 10
15.0003992647
 20
11.379939716
 30
0.0
 10
15.0151706903
 20
11.3737683634
 30
0.0
 10
15.03392054
 20
11.3665481392
 30
0.0
 10
15.0567758876
 20
11.3587073373
 30
0.0
 10
15.0799268412
 20
11.3517091336
 30
0.0
 10
15.1032769875
 20
11.3455826763
 30
0.0
 10
15.1267294552
 20
11.340353381
 30
0.0
 10
15.1501865588
 20
11.3360430266
 30
0.0
 10
15.1697188749
 20
11.333222766
 30
0.0
 10
15.1852645636
 20
11.3314449452
 30
0.0
 10
15.1968277083
 20
11.3303552907
 30
0.0
 10
15.2083190609
 20
11.3295063113
 30
0.0
 10
15.2197268967
 20
11.3288988717
 30
0.0
 10
15.2310389915
 20
11.3285336941
 30
0.0
 10
15.2385479567
 20
11.3284514718
 30
0.0
 10
15.2422833802
 20
11.3284514718
 30
0.0
  0
SPLINE
  5
34D
100
AcDbEntity
  8
02___PRT_ALL_AXES
100
AcDbSpline
 62
7
  6
CONTINUOUS
 70
0
 71
3
 72
77
 73
73
 74
0
 42
0.0000001
 43
0.0000001
 44
0.0000000001
 40
0.0
 40
0.0
 40
0.0
 40
0.0
 40
0.0171786577
 40
0.0345302975
 40
0.0520441337
 40
0.0697097614
 40
0.0875160039
 40
0.1054515097
 40
0.1235046063
 40
0.1416633632
 40
0.1599156245
 40
0.1782490317
 40
0.1966510544
 40
0.2151090166
 40
0.2336101253
 40
0.2521414983
 40
0.2706901904
 40
0.2892432202
 40
0.3077875973
 40
0.3263103496
 40
0.3447985499
 40
0.3632393423
 40
0.3816199696
 40
0.3999278013
 40
0.4181503612
 40
0.4362753548
 40
0.4542906974
 40
0.4721845428
 40
0.4899453144
 40
0.5075617348
 40
0.5250228556
 40
0.5423180888
 40
0.5594372396
 40
0.5763705416
 40
0.5931086918
 40
0.6096428844
 40
0.625964849
 40
0.6420668892
 40
0.6579419263
 40
0.6735835405
 40
0.6889860145
 40
0.7041443792
 40
0.7190544631
 40
0.7337129454
 40
0.7481174077
 40
0.7622663875
 40
0.7761594341
 40
0.7897971669
 40
0.8031813365
 40
0.8163148826
 40
0.8292019896
 40
0.8418481417
 40
0.8542601744
 40
0.8603812577
 40
0.8664470203
 40
0.8784169498
 40
0.8901817865
 40
0.8959915753
 40
0.901754938
 40
0.9131488232
 40
0.92437974
 40
0.9354645468
 40
0.9464213955
 40
0.9572696215
 40
0.9626598374
 40
0.9680306192
 40
0.9733846476
 40
0.9787246487
 40
0.9840533837
 40
0.9893736426
 40
0.994688239
 40
1.0
 40
1.0
 40
1.0
 40
1.0
 10
15.0562442144
 20
12.7727277417
 30
0.0
 10
15.0651796518
 20
12.7727277417
 30
0.0
 10
15.0831410764
 20
12.7725311272
 30
0.0
 10
15.1101995155
 20
12.7716575264
 30
0.0
 10
15.137486773
 20
12.7702045667
 30
0.0
 10
15.1649741472
 20
12.7681738239
 30
0.0
 10
15.1926331915
 20
12.7655673709
 30
0.0
 10
15.220435062
 20
12.7623879349
 30
0.0
 10
15.2483508387
 20
12.7586388253
 30
0.0
 10
15.2763514635
 20
12.7543239475
 30
0.0
 10
15.3044077915
 20
12.7494477938
 30
0.0
 10
15.3324906196
 20
12.7440154376
 30
0.0
 10
15.3605707145
 20
12.7380325294
 30
0.0
 10
15.3886188468
 20
12.7315053009
 30
0.0
 10
15.4166058197
 20
12.7244405493
 30
0.0
 10
15.4445024996
 20
12.7168456289
 30
0.0
 10
15.4722798459
 20
12.708728444
 30
0.0
 10
15.4999089412
 20
12.7000974402
 30
0.0
 10
15.5273610245
 20
12.690961606
 30
0.0
 10
15.5546075192
 20
12.6813304541
 30
0.0
 10
15.5816200624
 20
12.6712140105
 30
0.0
 10
15.6083705341
 20
12.6606228048
 30
0.0
 10
15.634831086
 20
12.6495678576
 30
0.0
 10
15.6609741754
 20
12.6380606798
 30
0.0
 10
15.6867725909
 20
12.6261132515
 30
0.0
 10
15.7121994794
 20
12.6137380085
 30
0.0
 10
15.7372283741
 20
12.6009478301
 30
0.0
 10
15.7618332217
 20
12.5877560234
 30
0.0
 10
15.785988415
 20
12.5741763202
 30
0.0
 10
15.8096688167
 20
12.560222854
 30
0.0
 10
15.8328497829
 20
12.5459101437
 30
0.0
 10
15.8555071892
 20
12.5312530797
 30
0.0
 10
15.8776174547
 20
12.5162669059
 30
0.0
 10
15.8991575741
 20
12.5009672128
 30
0.0
 10
15.9201051374
 20
12.4853699147
 30
0.0
 10
15.9404383501
 20
12.4694912304
 30
0.0
 10
15.9601360559
 20
12.4533476673
 30
0.0
 10
15.9791777571
 20
12.4369560021
 30
0.0
 10
15.997543645
 20
12.4203332711
 30
0.0
 10
16.0152146152
 20
12.4034967463
 30
0.0
 10
16.0321722829
 20
12.3864639148
 30
0.0
 10
16.0483990018
 20
12.3692524619
 30
0.0
 10
16.06387788
 20
12.3518802497
 30
0.0
 10
16.0785928069
 20
12.3343653061
 30
0.0
 10
16.0925284643
 20
12.3167258009
 30
0.0
 10
16.1056703347
 20
12.2989800242
 30
0.0
 10
16.1180047163
 20
12.2811463696
 30
0.0
 10
16.1295187318
 20
12.2632433145
 30
0.0
 10
16.1402003551
 20
12.2452894014
 30
0.0
 10
16.1500384055
 20
12.227303243
 30
0.0
 10
16.1590225881
 20
12.2093034039
 30
0.0
 10
16.1671433674
 20
12.1913087458
 30
0.0
 10
16.1732119823
 20
12.1762637014
 30
0.0
 10
16.1776202792
 20
12.1642511218
 30
0.0
 10
16.1816957304
 20
12.152364448
 30
0.0
 10
16.1862445213
 20
12.1375406426
 30
0.0
 10
16.1900859445
 20
12.1226549806
 30
0.0
 10
16.192703943
 20
12.1108004067
 30
0.0
 10
16.195002578
 20
12.0990764242
 30
0.0
 10
16.1973203176
 20
12.0844869515
 30
0.0
 10
16.1992076481
 20
12.0670475362
 30
0.0
 10
16.2001882616
 20
12.0497608445
 30
0.0
 10
16.2002608969
 20
12.0326456142
 30
0.0
 10
16.1995629324
 20
12.0185097145
 30
0.0
 10
16.1985488643
 20
12.0073143979
 30
0.0
 10
16.1975635648
 20
11.9989891992
 30
0.0
 10
16.1963521369
 20
11.9907203358
 30
0.0
 10
16.1949149214
 20
11.9825098898
 30
0.0
 10
16.1932522968
 20
11.974360034
 30
0.0
 10
16.1913646549
 20
11.9662728817
 30
0.0
 10
16.1892525624
 20
11.9582506222
 30
0.0
 10
16.1876950032
 20
11.9529464404
 30
0.0
 10
16.1868792621
 20
11.9503067092
 30
0.0
  0
SPLINE
  5
34E
100
AcDbEntity
  8
LAYER_CUT_FEAT
100
AcDbSpline
 62
7
  6
CONTINUOUS
 70
0
 71
3
 72
27
 73
23
 74
0
 42
0.0000001
 43
0.0000001
 44
0.0000000001
 40
0.0
 40
0.0
 40
0.0
 40
0.0
 40
0.0696898209
 40
0.1381387215
 40
0.2053822676
 40
0.2714676875
 40
0.3364469137
 40
0.400379398
 40
0.463331754
 40
0.5253774496
 40
0.5865968222
 40
0.6470767257
 40
0.7069100939
 40
0.76619541
 40
0.7956672324
 40
0.8250411657
 40
0.8543307663
 40
0.8835497729
 40
0.912712102
 40
0.9418318048
 40
0.9709230296
 40
1.0
 40
1.0
 40
1.0
 40
1.0
 10
16.2652042082
 20
12.2151436001
 30
0.0
 10
16.2683693368
 20
12.2086937462
 30
0.0
 10
16.2744099272
 20
12.1957926512
 30
0.0
 10
16.2826498425
 20
12.1762824769
 30
0.0
 10
16.2899784496
 20
12.156807943
 30
0.0
 10
16.2963884543
 20
12.1373881347
 30
0.0
 10
16.3018735953
 20
12.1180413343
 30
0.0
 10
16.3064284399
 20
12.0987860815
 30
0.0
 10
16.310048441
 20
12.079640781
 30
0.0
 10
16.3127298879
 20
12.0606237572
 30
0.0
 10
16.314470003
 20
12.0417532972
 30
0.0
 10
16.3152669004
 20
12.0230474678
 30
0.0
 10
16.3151196539
 20
12.0045246574
 30
0.0
 10
16.3142081507
 20
11.9892254156
 30
0.0
 10
16.3130056265
 20
11.9771051395
 30
0.0
 10
16.3118701485
 20
11.9680890104
 30
0.0
 10
16.310499678
 20
11.9591320162
 30
0.0
 10
16.3088944964
 20
11.9502362352
 30
0.0
 10
16.3070549946
 20
11.9414038318
 30
0.0
 10
16.3049816415
 20
11.9326368921
 30
0.0
 10
16.3026749036
 20
11.9239376196
 30
0.0
 10
16.30098168
 20
11.9181839291
 30
0.0
 10
16.3000966295
 20
11.9153198965
 30
0.0
  0
SPLINE
  5
34F
100
AcDbEntity
  8
LAYER_CHAMFER_FEAT
100
AcDbSpline
 62
7
  6
CONTINUOUS
 70
0
 71
3
 72
39
 73
35
 74
0
 42
0.0000001
 43
0.0000001
 44
0.0000000001
 40
0.0
 40
0.0
 40
0.0
 40
0.0
 40
0.0248034972
 40
0.0496643314
 40
0.0746391968
 40
0.0997834827
 40
0.125150746
 40
0.1507921182
 40
0.1767559196
 40
0.203087265
 40
0.2298277574
 40
0.2570153763
 40
0.284684206
 40
0.3128645638
 40
0.3415828103
 40
0.3708615548
 40
0.4007196492
 40
0.4311723049
 40
0.4622313194
 40
0.4939050469
 40
0.5261987885
 40
0.5591147055
 40
0.5926521959
 40
0.6268079059
 40
0.6615759486
 40
0.6969480967
 40
0.7329137532
 40
0.7694603547
 40
0.8065733747
 40
0.8442363191
 40
0.8824305252
 40
0.9211370866
 40
0.9603361466
 40
1.0
 40
1.0
 40
1.0
 40
1.0
 10
15.4861754938
 20
11.4508374466
 30
0.0
 10
15.4854649164
 20
11.4485379954
 30
0.0
 10
15.4839063545
 20
11.4439744831
 30
0.0
 10
15.4811665115
 20
11.4372660827
 30
0.0
 10
15.4780264709
 20
11.4306985286
 30
0.0
 10
15.4744901194
 20
11.424279614
 30
0.0
 10
15.4705614752
 20
11.4180166407
 30
0.0
 10
15.4662451953
 20
11.4119167239
 30
0.0
 10
15.4615462832
 20
11.40598678
 30
0.0
 10
15.4564701748
 20
11.40023352
 30
0.0
 10
15.4510227831
 20
11.3946633617
 30
0.0
 10
15.4452103089
 20
11.3892826184
 30
0.0
 10
15.4390394877
 20
11.3840972184
 30
0.0
 10
15.4325173034
 20
11.3791130267
 30
0.0
 10
15.4256512302
 20
11.3743355318
 30
0.0
 10
15.4184490433
 20
11.369770085
 30
0.0
 10
15.4109189081
 20
11.3654217698
 30
0.0
 10
15.4030693645
 20
11.3612953865
 30
0.0
 10
15.3949092545
 20
11.3573955991
 30
0.0
 10
15.3864478297
 20
11.3537266654
 30
0.0
 10
15.3776946061
 20
11.350292765
 30
0.0
 10
15.3686594847
 20
11.3470976544
 30
0.0
 10
15.3593526406
 20
11.34414495
 30
0.0
 10
15.3497845738
 20
11.3414379377
 30
0.0
 10
15.3399660763
 20
11.3389796235
 30
0.0
 10
15.3299082117
 20
11.3367728147
 30
0.0
 10
15.3196223368
 20
11.3348199054
 30
0.0
 10
15.3091200317
 20
11.3331231656
 30
0.0
 10
15.2984131476
 20
11.3316844298
 30
0.0
 10
15.2875138004
 20
11.3305053693
 30
0.0
 10
15.2764342686
 20
11.3295872521
 30
0.0
 10
15.2651868579
 20
11.3289311261
 30
0.0
 10
15.2537846058
 20
11.3285378029
 30
0.0
 10
15.2461320539
 20
11.3284514718
 30
0.0
 10
15.2422833802
 20
11.3284514718
 30
0.0
  0
SPLINE
  5
350
100
AcDbEntity
  8
LAYER_FEATURE
100
AcDbSpline
 62
7
  6
CONTINUOUS
 70
0
 71
3
 72
15
 73
11
 74
0
 42
0.0000001
 43
0.0000001
 44
0.0000000001
 40
0.0
 40
0.0
 40
0.0
 40
0.0
 40
0.1389380275
 40
0.2736048844
 40
0.4041115379
 40
0.5305938904
 40
0.6532153408
 40
0.7721689125
 40
0.8876781581
 40
1.0
 40
1.0
 40
1.0
 40
1.0
 10
16.0491228327
 20
11.6617459272
 30
0.0
 10
16.0483015609
 20
11.6607620054
 30
0.0
 10
16.0466488097
 20
11.6588536118
 30
0.0
 10
16.0440987587
 20
11.6561332175
 30
0.0
 10
16.0415189327
 20
11.653602355
 30
0.0
 10
16.038911437
 20
11.6512631949
 30
0.0
 10
16.0362783587
 20
11.64911771
 30
0.0
 10
16.0336217948
 20
11.6471676839
 30
0.0
 10
16.0309439792
 20
11.6454149206
 30
0.0
 10
16.0291217908
 20
11.6443649357
 30
0.0
 10
16.0282087424
 20
11.6438751651
 30
0.0
  0
SPLINE
  5
351
100
AcDbEntity
  8
02___PRT_ALL_AXES
100
AcDbSpline
 62
7
  6
CONTINUOUS
 70
0
 71
3
 72
23
 73
19
 74
0
 42
0.0000001
 43
0.0000001
 44
0.0000000001
 40
0.0
 40
0.0
 40
0.0
 40
0.0
 40
0.0670063996
 40
0.1333070846
 40
0.1989126647
 40
0.2638393033
 40
0.3281083502
 40
0.3917448563
 40
0.4547765682
 40
0.5172330113
 40
0.5791447954
 40
0.6405431214
 40
0.7014597013
 40
0.7619268092
 40
0.8219778179
 40
0.8816478382
 40
0.9409746815
 40
1.0
 40
1.0
 40
1.0
 40
1.0
 10
15.0136707998
 20
12.6349601215
 30
0.0
 10
15.018267177
 20
12.6349601215
 30
0.0
 10
15.0274143486
 20
12.6346717591
 30
0.0
 10
15.0410051343
 20
12.6333607965
 30
0.0
 10
15.054340347
 20
12.6311823562
 30
0.0
 10
15.0673648055
 20
12.6281506978
 30
0.0
 10
15.0800256601
 20
12.6242854058
 30
0.0
 10
15.0922716609
 20
12.6196108982
 30
0.0
 10
15.1040537151
 20
12.6141559401
 30
0.0
 10
15.1153249723
 20
12.6079530889
 30
0.0
 10
15.1260409051
 20
12.6010381671
 30
0.0
 10
15.1361592813
 20
12.5934497595
 30
0.0
 10
15.1456400764
 20
12.5852287897
 30
0.0
 10
15.1544453717
 20
12.5764181297
 30
0.0
 10
15.1625391853
 20
12.5670624209
 30
0.0
 10
15.1698875503
 20
12.5572075183
 30
0.0
 10
15.1764578268
 20
12.5469016628
 30
0.0
 10
15.1803088137
 20
12.5397445909
 30
0.0
 10
15.1820925261
 20
12.5361097578
 30
0.0
  0
SPLINE
  5
352
100
AcDbEntity
  8
LAYER_FEATURE
100
AcDbSpline
 62
7
  6
CONTINUOUS
 70
0
 71
3
 72
72
 73
68
 74
0
 42
0.0000001
 43
0.0000001
 44
0.0000000001
 40
0.0
 40
0.0
 40
0.0
 40
0.0
 40
0.0146663235
 40
0.0219124677
 40
0.0291008564
 40
0.0433088312
 40
0.0573045066
 40
0.0642278994
 40
0.0711038722
 40
0.0847210521
 40
0.0981773775
 40
0.1114948454
 40
0.124697522
 40
0.1378112241
 40
0.1508631595
 40
0.1638815198
 40
0.1768950384
 40
0.1899325273
 40
0.2030224107
 40
0.2161922747
 40
0.229468446
 40
0.24287561
 40
0.2564364972
 40
0.2701716264
 40
0.2840991034
 40
0.298234473
 40
0.3125906508
 40
0.327177896
 40
0.3420038176
 40
0.357073408
 40
0.3723891353
 40
0.3879510437
 40
0.4037568602
 40
0.4198021079
 40
0.4360802557
 40
0.4525828597
 40
0.4692996964
 40
0.486218895
 40
0.5033270945
 40
0.5206095865
 40
0.538050447
 40
0.5556326688
 40
0.57333831
 40
0.5911486279
 40
0.6090442062
 40
0.6270050846
 40
0.6450108979
 40
0.663041003
 40
0.681074603
 40
0.6990908794
 40
0.7170691242
 40
0.734988864
 40
0.7528299871
 40
0.770572881
 40
0.7881985631
 40
0.8056888067
 40
0.8230262742
 40
0.8401946655
 40
0.8571788492
 40
0.8739649943
 40
0.8905407121
 40
0.9068952188
 40
0.9388981258
 40
0.954542286
 40
0.9699405527
 40
0.9850930354
 40
1.0
 40
1.0
 40
1.0
 40
1.0
 10
14.7728576806
 20
12.4422617017
 30
0.0
 10
14.7720845955
 20
12.4397599973
 30
0.0
 10
14.7710269441
 20
12.4359910024
 30
0.0
 10
14.7698291425
 20
12.4309349802
 30
0.0
 10
14.7687882426
 20
12.4259277902
 30
0.0
 10
14.7677623123
 20
12.4196893206
 30
0.0
 10
14.7671043376
 20
12.4134486735
 30
0.0
 10
14.7668061175
 20
12.4084946188
 30
0.0
 10
14.7666598602
 20
12.403601397
 30
0.0
 10
14.7667567755
 20
12.3975368278
 30
0.0
 10
14.7673255007
 20
12.3903433594
 30
0.0
 10
14.7683450412
 20
12.3832743076
 30
0.0
 10
14.7698130756
 20
12.3763470265
 30
0.0
 10
14.7717261249
 20
12.3695783431
 30
0.0
 10
14.7740796095
 20
12.3629847751
 30
0.0
 10
14.7768678536
 20
12.3565824159
 30
0.0
 10
14.7800840961
 20
12.3503869047
 30
0.0
 10
14.7837204599
 20
12.3444133426
 30
0.0
 10
14.7877680315
 20
12.3386762679
 30
0.0
 10
14.7922168907
 20
12.3331896159
 30
0.0
 10
14.7970561435
 20
12.3279666851
 30
0.0
 10
14.8022739202
 20
12.3230200658
 30
0.0
 10
14.8078574609
 20
12.3183616476
 30
0.0
 10
14.8137931527
 20
12.3140025991
 30
0.0
 10
14.8200665636
 20
12.3099533517
 30
0.0
 10
14.8266624522
 20
12.3062235379
 30
0.0
 10
14.8335648395
 20
12.302822019
 30
0.0
 10
14.8407570438
 20
12.2997568717
 30
0.0
 10
14.8482217121
 20
12.2970353755
 30
0.0
 10
14.8559408426
 20
12.2946639529
 30
0.0
 10
14.8638958456
 20
12.2926482037
 30
0.0
 10
14.8720675829
 20
12.2909928924
 30
0.0
 10
14.8804364053
 20
12.2897019379
 30
0.0
 10
14.8889821895
 20
12.2887783587
 30
0.0
 10
14.8976843955
 20
12.2882243116
 30
0.0
 10
14.9065221128
 20
12.2880410847
 30
0.0
 10
14.9154741044
 20
12.2882290933
 30
0.0
 10
14.9245188574
 20
12.2887878337
 30
0.0
 10
14.9336346367
 20
12.2897159287
 30
0.0
 10
14.9427995358
 20
12.2910111291
 30
0.0
 10
14.9519915251
 20
12.2926703171
 30
0.0
 10
14.9611885122
 20
12.2946894717
 30
0.0
 10
14.9703683905
 20
12.2970637205
 30
0.0
 10
14.9795090915
 20
12.2997873503
 30
0.0
 10
14.9885886344
 20
12.3028538187
 30
0.0
 10
14.9975851933
 20
12.3062557312
 30
0.0
 10
15.0064771384
 20
12.3099848988
 30
0.0
 10
15.015243087
 20
12.3140323565
 30
0.0
 10
15.0238619528
 20
12.3183883837
 30
0.0
 10
15.0323130158
 20
12.323042492
 30
0.0
 10
15.0405759556
 20
12.3279834873
 30
0.0
 10
15.0486308985
 20
12.3331994961
 30
0.0
 10
15.0564584634
 20
12.3386779933
 30
0.0
 10
15.0640398333
 20
12.3444057994
 30
0.0
 10
15.0713567779
 20
12.3503691475
 30
0.0
 10
15.0783916948
 20
12.3565537136
 30
0.0
 10
15.0851276515
 20
12.3629446548
 30
0.0
 10
15.0915484494
 20
12.3695266042
 30
0.0
 10
15.0976386595
 20
12.3762837786
 30
0.0
 10
15.1033835639
 20
12.383199872
 30
0.0
 10
15.1087695254
 20
12.3902586162
 30
0.0
 10
15.1154056033
 20
12.3997670761
 30
0.0
 10
15.1213326264
 20
12.4095577496
 30
0.0
 10
15.1264757625
 20
12.41957342
 30
0.0
 10
15.1298898245
 20
12.4270847344
 30
0.0
 10
15.1328805352
 20
12.4346327333
 30
0.0
 10
15.1346015181
 20
12.43971895
 30
0.0
 10
15.1353872878
 20
12.4422617017
 30
0.0
  0
SPLINE
  5
353
100
AcDbEntity
  8
02___PRT_ALL_AXES
100
AcDbSpline
 62
7
  6
CONTINUOUS
 70
0
 71
3
 72
26
 73
22
 74
0
 42
0.0000001
 43
0.0000001
 44
0.0000000001
 40
0.0
 40
0.0
 40
0.0
 40
0.0
 40
0.0248388571
 40
0.0501688863
 40
0.0759885171
 40
0.1022975084
 40
0.1290953983
 40
0.1563795146
 40
0.2123824375
 40
0.2702590732
 40
0.3299383481
 40
0.3913314415
 40
0.4543341653
 40
0.5188288309
 40
0.5846859065
 40
0.6517655243
 40
0.7199185931
 40
0.7889875738
 40
0.8588071639
 40
0.9292046173
 40
1.0
 40
1.0
 40
1.0
 40
1.0
 10
16.1134850658
 20
12.0773759799
 30
0.0
 10
16.1141956004
 20
12.0759280626
 30
0.0
 10
16.1155834433
 20
12.0729801618
 30
0.0
 10
16.117547026
 20
12.0684527676
 30
0.0
 10
16.119411075
 20
12.063780544
 30
0.0
 10
16.1211743336
 20
12.0589677893
 30
0.0
 10
16.1228357487
 20
12.0540185323
 30
0.0
 10
16.1249322727
 20
12.0471840351
 30
0.0
 10
16.1272858867
 20
12.0383210681
 30
0.0
 10
16.1296709198
 20
12.027302963
 30
0.0
 10
16.1316417697
 20
12.0158482688
 30
0.0
 10
16.1332023466
 20
12.003995155
 30
0.0
 10
16.1343594283
 20
11.9917821056
 30
0.0
 10
16.1351223373
 20
11.9792480228
 30
0.0
 10
16.1355027061
 20
11.9664319385
 30
0.0
 10
16.1355142067
 20
11.9533729094
 30
0.0
 10
16.1351722855
 20
11.9401099362
 30
0.0
 10
16.1344939008
 20
11.9266819572
 30
0.0
 10
16.1334972738
 20
11.9131278599
 30
0.0
 10
16.1322016726
 20
11.899486649
 30
0.0
 10
16.1311540222
 20
11.8903779662
 30
0.0
 10
16.1305866247
 20
11.8858161589
 30
0.0
  0
SPLINE
  5
354
100
AcDbEntity
  8
02___PRT_ALL_AXES
100
AcDbSpline
 62
7
  6
CONTINUOUS
 70
0
 71
3
 72
38
 73
34
 74
0
 42
0.0000001
 43
0.0000001
 44
0.0000000001
 40
0.0
 40
0.0
 40
0.0
 40
0.0
 40
0.0979983598
 40
0.1452852831
 40
0.1913974215
 40
0.2363128998
 40
0.2800115044
 40
0.3224748585
 40
0.363687514
 40
0.4036354258
 40
0.4423077353
 40
0.4796958779
 40
0.5157937855
 40
0.5505990849
 40
0.5841118157
 40
0.6163361444
 40
0.6472799726
 40
0.6769551748
 40
0.7053791065
 40
0.7325739491
 40
0.7585684206
 40
0.7833983161
 40
0.8071070877
 40
0.8297478015
 40
0.851383484
 40
0.8720888117
 40
0.8919512663
 40
0.9110716342
 40
0.9295648282
 40
0.9475592231
 40
0.9651953676
 40
0.9826234931
 40
1.0
 40
1.0
 40
1.0
 40
1.0
 10
16.0910225324
 20
11.7124713359
 30
0.0
 10
16.090039108
 20
11.7096087488
 30
0.0
 10
16.088547242
 20
11.705376368
 30
0.0
 10
16.0865048784
 20
11.6998287613
 30
0.0
 10
16.0849900472
 20
11.6958342573
 30
0.0
 10
16.0834743034
 20
11.6919588666
 30
0.0
 10
16.0819579547
 20
11.6882049782
 30
0.0
 10
16.0804412529
 20
11.6845748645
 30
0.0
 10
16.0789243453
 20
11.68107071
 30
0.0
 10
16.0774073356
 20
11.6776945573
 30
0.0
 10
16.0758902376
 20
11.6744483625
 30
0.0
 10
16.074373005
 20
11.6713339642
 30
0.0
 10
16.0728555284
 20
11.6683530882
 30
0.0
 10
16.0713376343
 20
11.6655073701
 30
0.0
 10
16.0698190884
 20
11.6627983273
 30
0.0
 10
16.0682996056
 20
11.660227388
 30
0.0
 10
16.066778848
 20
11.657795881
 30
0.0
 10
16.065256416
 20
11.655505044
 30
0.0
 10
16.0637318868
 20
11.6533560222
 30
0.0
 10
16.0622047618
 20
11.6513498826
 30
0.0
 10
16.0606745181
 20
11.6494876091
 30
0.0
 10
16.0591405941
 20
11.6477701069
 30
0.0
 10
16.0576023548
 20
11.6461982414
 30
0.0
 10
16.0560591774
 20
11.6447727873
 30
0.0
 10
16.0545103613
 20
11.6434945133
 30
0.0
 10
16.0529552026
 20
11.6423641546
 30
0.0
 10
16.0513930104
 20
11.6413824057
 30
0.0
 10
16.0498230732
 20
11.6405500318
 30
0.0
 10
16.0482447871
 20
11.6398677195
 30
0.0
 10
16.0466576317
 20
11.6393361914
 30
0.0
 10
16.0450611648
 20
11.6389561223
 30
0.0
 10
16.0434553349
 20
11.6387279978
 30
0.0
 10
16.0423796537
 20
11.6386775631
 30
0.0
 10
16.0418429586
 20
11.6386775658
 30
0.0
  0
SPLINE
  5
355
100
AcDbEntity
  8
LAYER_FEATURE
100
AcDbSpline
 62
7
  6
CONTINUOUS
 70
0
 71
3
 72
15
 73
11
 74
0
 42
0.0000001
 43
0.0000001
 44
0.0000000001
 40
0.0
 40
0.0
 40
0.0
 40
0.0
 40
0.1101290091
 40
0.2236721029
 40
0.341128598
 40
0.4629300333
 40
0.5894429333
 40
0.7209704304
 40
0.8577587199
 40
1.0
 40
1.0
 40
1.0
 40
1.0
 10
16.0227749022
 20
12.127977501
 30
0.0
 10
16.0239283911
 20
12.1275349903
 30
0.0
 10
16.0262344544
 20
12.1265378232
 30
0.0
 10
16.0296210675
 20
12.1247484129
 30
0.0
 10
16.0329790428
 20
12.1226472906
 30
0.0
 10
16.0363039241
 20
12.1202376603
 30
0.0
 10
16.0395916629
 20
12.1175227735
 30
0.0
 10
16.0428382727
 20
12.1145063291
 30
0.0
 10
16.0460396298
 20
12.111192352
 30
0.0
 10
16.0481003132
 20
12.1088342319
 30
0.0
 10
16.0491228333
 20
12.1076091964
 30
0.0
  0
SPLINE
  5
356
100
AcDbEntity
  8
02___PRT_ALL_AXES
100
AcDbSpline
 62
7
  6
CONTINUOUS
 70
0
 71
3
 72
25
 73
21
 74
0
 42
0.0000001
 43
0.0000001
 44
0.0000000001
 40
0.0
 40
0.0
 40
0.0
 40
0.0
 40
0.0558680149
 40
0.1116827201
 40
0.1396433804
 40
0.1676720002
 40
0.224031011
 40
0.2809891548
 40
0.3387601957
 40
0.397550767
 40
0.4575574538
 40
0.5189641616
 40
0.5819399325
 40
0.646637209
 40
0.7131907966
 40
0.7472043154
 40
0.7817233298
 40
0.8523162509
 40
0.9250587499
 40
1.0
 40
1.0
 40
1.0
 40
1.0
 10
16.0418429588
 20
12.1306775545
 30
0.0
 10
16.043598245
 20
12.13067755
 30
0.0
 10
16.0471087492
 20
12.1305353115
 30
0.0
 10
16.0514683587
 20
12.1299990483
 30
0.0
 10
16.0549227688
 20
12.1293569361
 30
0.0
 10
16.0583647103
 20
12.1285704476
 30
0.0
 10
16.0626304203
 20
12.1273165857
 30
0.0
 10
16.0676539091
 20
12.1253881676
 30
0.0
 10
16.0725781274
 20
12.1230356262
 30
0.0
 10
16.0773888475
 20
12.1202623349
 30
0.0
 10
16.082072615
 20
12.1170724227
 30
0.0
 10
16.0866165152
 20
12.1134709574
 30
0.0
 10
16.0910082646
 20
12.1094637502
 30
0.0
 10
16.0952361385
 20
12.1050575772
 30
0.0
 10
16.0985893705
 20
12.1010885577
 30
0.0
 10
16.1011809689
 20
12.0977268462
 30
0.0
 10
16.1037477036
 20
12.0941880256
 30
0.0
 10
16.1068326688
 20
12.0895250681
 30
0.0
 10
16.1103048342
 20
12.0836077347
 30
0.0
 10
16.1124477914
 20
12.0794897228
 30
0.0
 10
16.1134850658
 20
12.0773759799
 30
0.0
  0
SPLINE
  5
357
100
AcDbEntity
  8
LAYER_FEATURE
100
AcDbSpline
 62
7
  6
CONTINUOUS
 70
0
 71
3
 72
37
 73
33
 74
0
 42
0.0000001
 43
0.0000001
 44
0.0000000001
 40
0.0
 40
0.0
 40
0.0
 40
0.0
 40
0.0272320291
 40
0.0549120075
 40
0.0830414253
 40
0.1116199289
 40
0.1700822989
 40
0.1999584494
 40
0.230238706
 40
0.2609033564
 40
0.2919297822
 40
0.3232927246
 40
0.3549645335
 40
0.3869154233
 40
0.4191137308
 40
0.4515261623
 40
0.4841180367
 40
0.5168535254
 40
0.5496958915
 40
0.5826077332
 40
0.6155512192
 40
0.6484883221
 40
0.6813810518
 40
0.7141916921
 40
0.7468830403
 40
0.7794186394
 40
0.8117630236
 40
0.8438819415
 40
0.8757425985
 40
0.9073140581
 40
0.9385667823
 40
1.0
 40
1.0
 40
1.0
 40
1.0
 10
14.7425495395
 20
12.4116784912
 30
0.0
 10
14.7435317599
 20
12.4148569575
 30
0.0
 10
14.7456829731
 20
12.4212147207
 30
0.0
 10
14.7494213795
 20
12.4306497139
 30
0.0
 10
14.7536889409
 20
12.4400388358
 30
0.0
 10
14.7601178749
 20
12.4525584304
 30
0.0
 10
14.7675266329
 20
12.4647967835
 30
0.0
 10
14.775821743
 20
12.4766823482
 30
0.0
 10
14.7825542026
 20
12.4855057725
 30
0.0
 10
14.7897353243
 20
12.4941508953
 30
0.0
 10
14.7973480795
 20
12.5025973691
 30
0.0
 10
14.8053740802
 20
12.5108248037
 30
0.0
 10
14.8137940353
 20
12.5188134715
 30
0.0
 10
14.8225876778
 20
12.5265441832
 30
0.0
 10
14.8317338549
 20
12.5339983722
 30
0.0
 10
14.8412105679
 20
12.5411581291
 30
0.0
 10
14.8509950269
 20
12.5480062468
 30
0.0
 10
14.8610637031
 20
12.5545262618
 30
0.0
 10
14.8713923775
 20
12.560702507
 30
0.0
 10
14.8819562089
 20
12.5665201376
 30
0.0
 10
14.8927297933
 20
12.5719651671
 30
0.0
 10
14.903687224
 20
12.5770245003
 30
0.0
 10
14.9148021544
 20
12.5816859632
 30
0.0
 10
14.9260478563
 20
12.5859383454
 30
0.0
 10
14.9373972872
 20
12.5897714212
 30
0.0
 10
14.9488231625
 20
12.5931759682
 30
0.0
 10
14.9602980029
 20
12.5961437882
 30
0.0
 10
14.971794259
 20
12.5986677278
 30
0.0
 10
14.9832841699
 20
12.600741701
 30
0.0
 10
14.9947405819
 20
12.6023607116
 30
0.0
 10
15.0098446589
 20
12.6038985753
 30
0.0
 10
15.0211739381
 20
12.604376911
 30
0.0
 10
15.0286788596
 20
12.604376911
 30
0.0
  0
SPLINE
  5
358
100
AcDbEntity
  8
LAYER_FEATURE
100
AcDbSpline
 62
7
  6
CONTINUOUS
 70
0
 71
3
 72
32
 73
28
 74
0
 42
0.0000001
 43
0.0000001
 44
0.0000000001
 40
0.0
 40
0.0
 40
0.0
 40
0.0
 40
0.0709611387
 40
0.1407714154
 40
0.2093824511
 40
0.2767609583
 40
0.3428881989
 40
0.3754848446
 40
0.4077692646
 40
0.471404495
 40
0.5338342128
 40
0.564616685
 40
0.595118741
 40
0.6253498199
 40
0.6553204991
 40
0.6850425724
 40
0.7145289243
 40
0.7437936132
 40
0.772851713
 40
0.8017193854
 40
0.8304137023
 40
0.8589526914
 40
0.8873551523
 40
0.9156406653
 40
0.9438294114
 40
0.97194214
 40
1.0
 40
1.0
 40
1.0
 40
1.0
 10
15.0286788596
 20
12.604376911
 30
0.0
 10
15.0330286831
 20
12.604376911
 30
0.0
 10
15.0416594571
 20
12.604165602
 30
0.0
 10
15.0544633041
 20
12.6031983109
 30
0.0
 10
15.0669813424
 20
12.601586245
 30
0.0
 10
15.0791708253
 20
12.5993347434
 30
0.0
 10
15.0890685952
 20
12.5969200706
 30
0.0
 10
15.0967793982
 20
12.5946725063
 30
0.0
 10
15.1042739982
 20
12.5922418629
 30
0.0
 10
15.1133670969
 20
12.5888269443
 30
0.0
 10
15.1221415787
 20
12.5848788373
 30
0.0
 10
15.1288950932
 20
12.5814265896
 30
0.0
 10
15.1338024175
 20
12.5787062253
 30
0.0
 10
15.1385710648
 20
12.5758450991
 30
0.0
 10
15.1431970386
 20
12.5728455352
 30
0.0
 10
15.1476764519
 20
12.569710115
 30
0.0
 10
15.1520054805
 20
12.5664414065
 30
0.0
 10
15.1561805122
 20
12.5630422235
 30
0.0
 10
15.1601979602
 20
12.5595153536
 30
0.0
 10
15.1640544849
 20
12.5558638352
 30
0.0
 10
15.1677467554
 20
12.552090671
 30
0.0
 10
15.1712717128
 20
12.54819911
 30
0.0
 10
15.1746262993
 20
12.5441923642
 30
0.0
 10
15.1778077403
 20
12.5400738837
 30
0.0
 10
15.1808132815
 20
12.5358470623
 30
0.0
 10
15.1836403892
 20
12.5315156166
 30
0.0
 10
15.1854059436
 20
12.5285582784
 30
0.0
 10
15.1862577287
 20
12.527064106
 30
0.0
  0
SPLINE
  5
359
100
AcDbEntity
  8
LAYER_FEATURE
100
AcDbSpline
 62
7
  6
CONTINUOUS
 70
0
 71
3
 72
72
 73
68
 74
0
 42
0.0000001
 43
0.0000001
 44
0.0000000001
 40
0.0
 40
0.0
 40
0.0
 40
0.0
 40
0.0149069646
 40
0.0300594473
 40
0.045457714
 40
0.0611018742
 40
0.0931047812
 40
0.1094592879
 40
0.1260350057
 40
0.1428211508
 40
0.1598053345
 40
0.1769737258
 40
0.1943111933
 40
0.2118014369
 40
0.229427119
 40
0.2471700129
 40
0.265011136
 40
0.2829308758
 40
0.3009091206
 40
0.318925397
 40
0.336958997
 40
0.3549891021
 40
0.3729949154
 40
0.3909557938
 40
0.4088513721
 40
0.42666169
 40
0.4443673312
 40
0.461949553
 40
0.4793904135
 40
0.4966729055
 40
0.513781105
 40
0.5307003036
 40
0.5474171403
 40
0.5639197443
 40
0.5801978921
 40
0.5962431398
 40
0.6120489563
 40
0.6276108647
 40
0.642926592
 40
0.6579961824
 40
0.672822104
 40
0.6874093492
 40
0.701765527
 40
0.7159008966
 40
0.7298283736
 40
0.7435635028
 40
0.75712439
 40
0.770531554
 40
0.7838077253
 40
0.7969775893
 40
0.8100674727
 40
0.8231049616
 40
0.8361184802
 40
0.8491368405
 40
0.8621887759
 40
0.875302478
 40
0.8885051546
 40
0.9018226225
 40
0.9152789479
 40
0.9288961278
 40
0.9357721006
 40
0.9426954934
 40
0.9566911688
 40
0.9708991436
 40
0.9780875323
 40
0.9853336765
 40
1.0
 40
1.0
 40
1.0
 40
1.0
 10
14.7728576806
 20
12.4422617017
 30
0.0
 10
14.7736434503
 20
12.4448044534
 30
0.0
 10
14.7753644333
 20
12.4498906701
 30
0.0
 10
14.7783551439
 20
12.457438669
 30
0.0
 10
14.7817692059
 20
12.4649499833
 30
0.0
 10
14.786912342
 20
12.4749656538
 30
0.0
 10
14.7928393651
 20
12.4847563273
 30
0.0
 10
14.799475443
 20
12.4942647871
 30
0.0
 10
14.8048614045
 20
12.5013235314
 30
0.0
 10
14.8106063089
 20
12.5082396248
 30
0.0
 10
14.816696519
 20
12.5149967992
 30
0.0
 10
14.823117317
 20
12.5215787485
 30
0.0
 10
14.8298532736
 20
12.5279696898
 30
0.0
 10
14.8368881905
 20
12.5341542559
 30
0.0
 10
14.8442051352
 20
12.5401176039
 30
0.0
 10
14.851786505
 20
12.5458454101
 30
0.0
 10
14.85961407
 20
12.5513239073
 30
0.0
 10
14.8676690129
 20
12.5565399161
 30
0.0
 10
14.8759319527
 20
12.5614809114
 30
0.0
 10
14.8843830156
 20
12.5661350197
 30
0.0
 10
14.8930018814
 20
12.5704910469
 30
0.0
 10
14.90176783
 20
12.5745385046
 30
0.0
 10
14.9106597751
 20
12.5782676722
 30
0.0
 10
14.919656334
 20
12.5816695847
 30
0.0
 10
14.9287358769
 20
12.5847360531
 30
0.0
 10
14.9378765779
 20
12.5874596828
 30
0.0
 10
14.9470564562
 20
12.5898339317
 30
0.0
 10
14.9562534433
 20
12.5918530863
 30
0.0
 10
14.9654454326
 20
12.5935122742
 30
0.0
 10
14.9746103317
 20
12.5948074747
 30
0.0
 10
14.983726111
 20
12.5957355697
 30
0.0
 10
14.992770864
 20
12.5962943101
 30
0.0
 10
15.0017228556
 20
12.5964823187
 30
0.0
 10
15.0105605729
 20
12.5962990918
 30
0.0
 10
15.0192627789
 20
12.5957450446
 30
0.0
 10
15.0278085631
 20
12.5948214655
 30
0.0
 10
15.0361773855
 20
12.593530511
 30
0.0
 10
15.0443491228
 20
12.5918751997
 30
0.0
 10
15.0523041258
 20
12.5898594504
 30
0.0
 10
15.0600232563
 20
12.5874880279
 30
0.0
 10
15.0674879247
 20
12.5847665316
 30
0.0
 10
15.0746801289
 20
12.5817013844
 30
0.0
 10
15.0815825162
 20
12.5782998655
 30
0.0
 10
15.0881784048
 20
12.5745700517
 30
0.0
 10
15.0944518157
 20
12.5705208043
 30
0.0
 10
15.1003875076
 20
12.5661617558
 30
0.0
 10
15.1059710483
 20
12.5615033376
 30
0.0
 10
15.1111888249
 20
12.5565567183
 30
0.0
 10
15.1160280777
 20
12.5513337875
 30
0.0
 10
15.1204769369
 20
12.5458471355
 30
0.0
 10
15.1245245085
 20
12.5401100608
 30
0.0
 10
15.1281608724
 20
12.5341364987
 30
0.0
 10
15.1313771148
 20
12.5279409874
 30
0.0
 10
15.1341653589
 20
12.5215386283
 30
0.0
 10
15.1365188435
 20
12.5149450603
 30
0.0
 10
15.1384318928
 20
12.5081763769
 30
0.0
 10
15.1398999272
 20
12.5012490958
 30
0.0
 10
15.1409194677
 20
12.494180044
 30
0.0
 10
15.1414881929
 20
12.4869865756
 30
0.0
 10
15.1415851082
 20
12.4809220064
 30
0.0
 10
15.1414388509
 20
12.4760287846
 30
0.0
 10
15.1411406308
 20
12.4710747299
 30
0.0
 10
15.1404826561
 20
12.4648340828
 30
0.0
 10
15.1394567258
 20
12.4585956132
 30
0.0
 10
15.138415826
 20
12.4535884232
 30
0.0
 10
15.1372180244
 20
12.448532401
 30
0.0
 10
15.136160373
 20
12.4447634061
 30
0.0
 10
15.1353872878
 20
12.4422617017
 30
0.0
  0
SPLINE
  5
35A
100
AcDbEntity
  8
LAYER_FEATURE
100
AcDbSpline
 62
7
  6
CONTINUOUS
 70
0
 71
3
 72
46
 73
42
 74
0
 42
0.0000001
 43
0.0000001
 44
0.0000000001
 40
0.0
 40
0.0
 40
0.0
 40
0.0
 40
0.0475517155
 40
0.0938180973
 40
0.138742701
 40
0.1822849036
 40
0.2244077556
 40
0.2650791153
 40
0.3042752232
 40
0.3419802734
 40
0.3781872852
 40
0.4128998122
 40
0.4461327175
 40
0.477914185
 40
0.5082872336
 40
0.5373115075
 40
0.5650656943
 40
0.5916489764
 40
0.6171829974
 40
0.6418127374
 40
0.6538436366
 40
0.6657133507
 40
0.6774461712
 40
0.6890674561
 40
0.7006035532
 40
0.7120815302
 40
0.7235289495
 40
0.7349736692
 40
0.7464435587
 40
0.757966266
 40
0.7695689887
 40
0.7812781861
 40
0.7931194422
 40
0.8051173161
 40
0.8296680189
 40
0.8551078095
 40
0.8815837849
 40
0.9092199076
 40
0.9381174945
 40
0.968356987
 40
1.0
 40
1.0
 40
1.0
 40
1.0
 10
15.9939045108
 20
12.0070104019
 30
0.0
 10
15.9945590608
 20
12.0091285263
 30
0.0
 10
15.9959003968
 20
12.0132923183
 30
0.0
 10
15.9980401957
 20
12.0193973463
 30
0.0
 10
16.0002773522
 20
12.0252678615
 30
0.0
 10
16.0026078745
 20
12.0308934632
 30
0.0
 10
16.005027722
 20
12.0362645514
 30
0.0
 10
16.0075327719
 20
12.041371795
 30
0.0
 10
16.0101186518
 20
12.046206354
 30
0.0
 10
16.0127809217
 20
12.0507598874
 30
0.0
 10
16.0155150601
 20
12.0550245256
 30
0.0
 10
16.0183163727
 20
12.0589929427
 30
0.0
 10
16.0211801803
 20
12.0626582737
 30
0.0
 10
16.0241016779
 20
12.0660142015
 30
0.0
 10
16.0270760229
 20
12.0690549121
 30
0.0
 10
16.0300983969
 20
12.0717750263
 30
0.0
 10
16.0331638306
 20
12.0741697067
 30
0.0
 10
16.0362674702
 20
12.0762344846
 30
0.0
 10
16.0394040128
 20
12.0779652399
 30
0.0
 10
16.0420620649
 20
12.0791354098
 30
0.0
 10
16.0441940576
 20
12.0798952401
 30
0.0
 10
16.045785161
 20
12.0803755265
 30
0.0
 10
16.0473799263
 20
12.0807703417
 30
0.0
 10
16.0489776832
 20
12.081079465
 30
0.0
 10
16.0505776954
 20
12.0813027586
 30
0.0
 10
16.0521792389
 20
12.0814401344
 30
0.0
 10
16.0537815873
 20
12.0814914847
 30
0.0
 10
16.0553840055
 20
12.0814567812
 30
0.0
 10
16.0569857629
 20
12.0813360803
 30
0.0
 10
16.0585861299
 20
12.0811294218
 30
0.0
 10
16.0601843758
 20
12.0808368835
 30
0.0
 10
16.0617797771
 20
12.0804586628
 30
0.0
 10
16.0633716556
 20
12.0799949225
 30
0.0
 10
16.0655045173
 20
12.0792573274
 30
0.0
 10
16.0681642252
 20
12.0781149759
 30
0.0
 10
16.0713036769
 20
12.0764167209
 30
0.0
 10
16.0744107541
 20
12.0743841241
 30
0.0
 10
16.0774800985
 20
12.0720212047
 30
0.0
 10
16.0805068589
 20
12.069332361
 30
0.0
 10
16.0834860256
 20
12.0663225625
 30
0.0
 10
16.0853932307
 20
12.0641554319
 30
0.0
 10
16.0863385763
 20
12.0630228632
 30
0.0
  0
SPLINE
  5
35B
100
AcDbEntity
  8
02___PRT_ALL_AXES
100
AcDbSpline
 62
7
  6
CONTINUOUS
 70
0
 71
3
 72
78
 73
74
 74
0
 42
0.0000001
 43
0.0000001
 44
0.0000000001
 40
0.0
 40
0.0
 40
0.0
 40
0.0
 40
0.0171787373
 40
0.0345302032
 40
0.0520440922
 40
0.0697096778
 40
0.0875159047
 40
0.10545139
 40
0.1235044652
 40
0.1416632018
 40
0.1599154426
 40
0.1782488292
 40
0.1966508308
 40
0.2151087718
 40
0.2336098597
 40
0.2521412117
 40
0.2706898827
 40
0.2892428913
 40
0.3077872474
 40
0.3263099788
 40
0.344798158
 40
0.3632389292
 40
0.3816195357
 40
0.3999273469
 40
0.4181498862
 40
0.436274859
 40
0.4542901807
 40
0.4721840059
 40
0.4899447579
 40
0.5075611586
 40
0.5250222592
 40
0.5423174722
 40
0.5594366037
 40
0.5763698873
 40
0.5931080188
 40
0.6096421921
 40
0.6259641374
 40
0.6420661596
 40
0.6579411795
 40
0.6735827764
 40
0.6889852322
 40
0.7041435789
 40
0.7190536461
 40
0.7337121125
 40
0.7481165588
 40
0.7622655219
 40
0.7761585517
 40
0.7897962692
 40
0.8031804245
 40
0.8163139561
 40
0.8292010479
 40
0.8418471847
 40
0.8542592033
 40
0.8603802808
 40
0.8664460362
 40
0.8784159525
 40
0.8901807754
 40
0.9017530971
 40
0.9131469694
 40
0.924377874
 40
0.9354626685
 40
0.9409563761
 40
0.9464204659
 40
0.9518573913
 40
0.9572696697
 40
0.9626598801
 40
0.9680306552
 40
0.9733846779
 40
0.9787246729
 40
0.9840534017
 40
0.9893736547
 40
0.9946882449
 40
1.0
 40
1.0
 40
1.0
 40
1.0
 10
14.8406538951
 20
12.0750772128
 30
0.0
 10
14.8495893841
 20
12.0750772128
 30
0.0
 10
14.8675507802
 20
12.0748806072
 30
0.0
 10
14.894609228
 20
12.0740069906
 30
0.0
 10
14.9218964325
 20
12.0725540487
 30
0.0
 10
14.9493838348
 20
12.0705232934
 30
0.0
 10
14.97704287
 20
12.0679168418
 30
0.0
 10
15.0048447426
 20
12.064737407
 30
0.0
 10
15.0327605193
 20
12.0609882995
 30
0.0
 10
15.060761144
 20
12.0566734218
 30
0.0
 10
15.0888174722
 20
12.0517972658
 30
0.0
 10
15.1169003
 20
12.0463649072
 30
0.0
 10
15.1449803952
 20
12.0403820008
 30
0.0
 10
15.1730285279
 20
12.0338547745
 30
0.0
 10
15.2010155009
 20
12.026790023
 30
0.0
 10
15.2289121804
 20
12.0191951005
 30
0.0
 10
15.256689526
 20
12.0110779133
 30
0.0
 10
15.2843186218
 20
12.0024469112
 30
0.0
 10
15.3117707059
 20
11.9933110791
 30
0.0
 10
15.3390172008
 20
11.9836799274
 30
0.0
 10
15.3660297434
 20
11.9735634821
 30
0.0
 10
15.392780214
 20
11.9629722741
 30
0.0
 10
15.4192407667
 20
11.9519173285
 30
0.0
 10
15.4453838573
 20
11.9404101528
 30
0.0
 10
15.4711822731
 20
11.9284627248
 30
0.0
 10
15.4966091607
 20
11.9160874803
 30
0.0
 10
15.5216380541
 20
11.9032972997
 30
0.0
 10
15.5462429026
 20
11.8901054945
 30
0.0
 10
15.5703980977
 20
11.8765257933
 30
0.0
 10
15.5940784999
 20
11.8625723274
 30
0.0
 10
15.617259465
 20
11.8482596158
 30
0.0
 10
15.6399168695
 20
11.8336025498
 30
0.0
 10
15.6620271361
 20
11.8186163771
 30
0.0
 10
15.6835672578
 20
11.8033166859
 30
0.0
 10
15.7045148218
 20
11.7877193882
 30
0.0
 10
15.7248480331
 20
11.7718407026
 30
0.0
 10
15.7445457366
 20
11.7556971376
 30
0.0
 10
15.7635874389
 20
11.7393054733
 30
0.0
 10
15.7819533294
 20
11.7226827439
 30
0.0
 10
15.7996243004
 20
11.7058462194
 30
0.0
 10
15.8165819663
 20
11.6888133868
 30
0.0
 10
15.8328086823
 20
11.6716019321
 30
0.0
 10
15.8482875615
 20
11.6542297205
 30
0.0
 10
15.8630024913
 20
11.6367147784
 30
0.0
 10
15.8769381495
 20
11.6190752733
 30
0.0
 10
15.8900800179
 20
11.6013294959
 30
0.0
 10
15.9024143959
 20
11.5834958397
 30
0.0
 10
15.9139284123
 20
11.5655927852
 30
0.0
 10
15.924610039
 20
11.5476388732
 30
0.0
 10
15.9344480906
 20
11.5296527149
 30
0.0
 10
15.9434322706
 20
11.5116528753
 30
0.0
 10
15.951553047
 20
11.4936582158
 30
0.0
 10
15.9576216592
 20
11.478613173
 30
0.0
 10
15.9620299652
 20
11.4666005909
 30
0.0
 10
15.9661054087
 20
11.4547139344
 30
0.0
 10
15.9706542346
 20
11.4398899859
 30
0.0
 10
15.9752447822
 20
11.4221015199
 30
0.0
 10
15.9789380771
 20
11.404410846
 30
0.0
 10
15.9817299719
 20
11.3868365008
 30
0.0
 10
15.9836173402
 20
11.3693971247
 30
0.0
 10
15.9844369294
 20
11.3549482457
 30
0.0
 10
15.9846345778
 20
11.3434834281
 30
0.0
 10
15.984555624
 20
11.3349550562
 30
0.0
 10
15.9842499122
 20
11.3264742222
 30
0.0
 10
15.9837175074
 20
11.3180430728
 30
0.0
 10
15.982958557
 20
11.3096638299
 30
0.0
 10
15.9819732402
 20
11.3013386808
 30
0.0
 10
15.9807618228
 20
11.2930698034
 30
0.0
 10
15.9793246061
 20
11.2848593606
 30
0.0
 10
15.9776619738
 20
11.2767095057
 30
0.0
 10
15.9757743441
 20
11.2686223508
 30
0.0
 10
15.9736622405
 20
11.2606000939
 30
0.0
 10
15.9721046833
 20
11.2552959118
 30
0.0
 10
15.9712889456
 20
11.2526561794
 30
0.0
  0
SPLINE
  5
35C
100
AcDbEntity
  8
LAYER_FEATURE
100
AcDbSpline
 62
7
  6
CONTINUOUS
 70
0
 71
3
 72
27
 73
23
 74
0
 42
0.0000001
 43
0.0000001
 44
0.0000000001
 40
0.0
 40
0.0
 40
0.0
 40
0.0
 40
0.0696898209
 40
0.1381387215
 40
0.2053822676
 40
0.2714676875
 40
0.3364469137
 40
0.400379398
 40
0.463331754
 40
0.5253774496
 40
0.5865968222
 40
0.6470767257
 40
0.7069100939
 40
0.76619541
 40
0.7956672324
 40
0.8250411657
 40
0.8543307663
 40
0.8835497729
 40
0.912712102
 40
0.9418318048
 40
0.9709230296
 40
1.0
 40
1.0
 40
1.0
 40
1.0
 10
16.2779126902
 20
12.2562682629
 30
0.0
 10
16.2810778187
 20
12.249818409
 30
0.0
 10
16.2871184091
 20
12.236917314
 30
0.0
 10
16.2953583245
 20
12.2174071396
 30
0.0
 10
16.3026869316
 20
12.1979326058
 30
0.0
 10
16.3090969363
 20
12.1785127975
 30
0.0
 10
16.3145820773
 20
12.159165997
 30
0.0
 10
16.3191369219
 20
12.1399107443
 30
0.0
 10
16.322756923
 20
12.1207654438
 30
0.0
 10
16.3254383699
 20
12.1017484199
 30
0.0
 10
16.3271784849
 20
12.0828779599
 30
0.0
 10
16.3279753823
 20
12.0641721305
 30
0.0
 10
16.3278281359
 20
12.0456493201
 30
0.0
 10
16.3269166326
 20
12.0303500783
 30
0.0
 10
16.3257141085
 20
12.0182298023
 30
0.0
 10
16.3245786305
 20
12.0092136731
 30
0.0
 10
16.32320816
 20
12.000256679
 30
0.0
 10
16.3216029783
 20
11.9913608979
 30
0.0
 10
16.3197634766
 20
11.9825284946
 30
0.0
 10
16.3176901235
 20
11.9737615548
 30
0.0
 10
16.3153833856
 20
11.9650622823
 30
0.0
 10
16.313690162
 20
11.9593085919
 30
0.0
 10
16.3128051114
 20
11.9564445592
 30
0.0
  0
SPLINE
  5
35D
100
AcDbEntity
  8
LAYER_CHAMFER_FEAT
100
AcDbSpline
 62
7
  6
CONTINUOUS
 70
0
 71
3
 72
85
 73
81
 74
0
 42
0.0000001
 43
0.0000001
 44
0.0000000001
 40
0.0
 40
0.0
 40
0.0
 40
0.0
 40
0.0157578073
 40
0.0311471291
 40
0.046164283
 40
0.0608083495
 40
0.0750813818
 40
0.0889886258
 40
0.1025387451
 40
0.1091842268
 40
0.115745351
 40
0.1286219132
 40
0.1411897877
 40
0.1473661286
 40
0.1534746723
 40
0.1595190455
 40
0.165503134
 40
0.1714310623
 40
0.1773071724
 40
0.1831360435
 40
0.1889224467
 40
0.1946713483
 40
0.2003878907
 40
0.2060773587
 40
0.2117451765
 40
0.2173968669
 40
0.2230380339
 40
0.2286743344
 40
0.2343114481
 40
0.2399550519
 40
0.2456107885
 40
0.2512842448
 40
0.2569809144
 40
0.2627061852
 40
0.2684653062
 40
0.2742633645
 40
0.2801052814
 40
0.2859957678
 40
0.2919393358
 40
0.3040009033
 40
0.3163232668
 40
0.3289339417
 40
0.3418564172
 40
0.3551101675
 40
0.3687107398
 40
0.3826698913
 40
0.3969957828
 40
0.411693194
 40
0.4267637429
 40
0.4422060979
 40
0.4580161928
 40
0.4741874486
 40
0.4907109736
 40
0.5075757498
 40
0.5247688004
 40
0.542275368
 40
0.5600790769
 40
0.5781620797
 40
0.5965051918
 40
0.6150880249
 40
0.6338891231
 40
0.652886084
 40
0.6720556723
 40
0.69137393
 40
0.7108162932
 40
0.7303577003
 40
0.7499726952
 40
0.769635529
 40
0.7893202654
 40
0.8090008845
 40
0.828651382
 40
0.8482458694
 40
0.8677586781
 40
0.8871644705
 40
0.906438321
 40
0.9255558524
 40
0.9444933686
 40
0.9632276338
 40
0.9817372632
 40
1.0
 40
1.0
 40
1.0
 40
1.0
 10
14.8702642077
 20
11.7733659631
 30
0.0
 10
14.8652963699
 20
11.7721976306
 30
0.0
 10
14.8555198253
 20
11.7697001256
 30
0.0
 10
14.8411920773
 20
11.765414304
 30
0.0
 10
14.827399903
 20
11.7606407829
 30
0.0
 10
14.8141706271
 20
11.7553888423
 30
0.0
 10
14.8015300497
 20
11.7496685245
 30
0.0
 10
14.7895032499
 20
11.7434909605
 30
0.0
 10
14.7799505238
 20
11.7379359526
 30
0.0
 10
14.7726458493
 20
11.7332722127
 30
0.0
 10
14.7656561995
 20
11.7285267681
 30
0.0
 10
14.7573344009
 20
11.7223363488
 30
0.0
 10
14.7494990445
 20
11.7157311701
 30
0.0
 10
14.7436008287
 20
11.7102525702
 30
0.0
 10
14.7393847017
 20
11.7060721852
 30
0.0
 10
14.7353529906
 20
11.7017988929
 30
0.0
 10
14.7315076376
 20
11.6974347638
 30
0.0
 10
14.7278505322
 20
11.6929819755
 30
0.0
 10
14.7243835554
 20
11.6884426584
 30
0.0
 10
14.7211083657
 20
11.6838191006
 30
0.0
 10
14.7180266319
 20
11.6791135477
 30
0.0
 10
14.7151399042
 20
11.6743283152
 30
0.0
 10
14.7124495643
 20
11.6694657988
 30
0.0
 10
14.7099570373
 20
11.6645283558
 30
0.0
 10
14.7076635029
 20
11.6595184654
 30
0.0
 10
14.7055701208
 20
11.6544385979
 30
0.0
 10
14.7036779793
 20
11.6492912568
 30
0.0
 10
14.7019879383
 20
11.6440790247
 30
0.0
 10
14.7005009212
 20
11.6388044601
 30
0.0
 10
14.6992176185
 20
11.6334701978
 30
0.0
 10
14.6981386471
 20
11.628078886
 30
0.0
 10
14.6972646081
 20
11.622633189
 30
0.0
 10
14.6965958329
 20
11.6171358235
 30
0.0
 10
14.6961327124
 20
11.6115895048
 30
0.0
 10
14.6958754471
 20
11.6059969875
 30
0.0
 10
14.6958241053
 20
11.6003610334
 30
0.0
 10
14.6959787809
 20
11.5946844521
 30
0.0
 10
14.6963393092
 20
11.5889699709
 30
0.0
 10
14.6970978792
 20
11.5812669984
 30
0.0
 10
14.6985686949
 20
11.5715474425
 30
0.0
 10
14.7011439092
 20
11.5598379424
 30
0.0
 10
14.7045323896
 20
11.54804729
 30
0.0
 10
14.708726974
 20
11.5361989743
 30
0.0
 10
14.7137190299
 20
11.5243160006
 30
0.0
 10
14.7194984429
 20
11.5124215483
 30
0.0
 10
14.7260536012
 20
11.5005387468
 30
0.0
 10
14.7333714384
 20
11.4886907102
 30
0.0
 10
14.741437457
 20
11.4769004924
 30
0.0
 10
14.7502357452
 20
11.4651910569
 30
0.0
 10
14.7597489797
 20
11.4535852285
 30
0.0
 10
14.769958441
 20
11.4421056387
 30
0.0
 10
14.7808440722
 20
11.4307747016
 30
0.0
 10
14.792384507
 20
11.419614562
 30
0.0
 10
14.8045571062
 20
11.4086470576
 30
0.0
 10
14.8173379736
 20
11.397893648
 30
0.0
 10
14.8307020224
 20
11.38737539
 30
0.0
 10
14.8446230269
 20
11.3771128953
 30
0.0
 10
14.8590736723
 20
11.3671262922
 30
0.0
 10
14.8740255943
 20
11.3574351713
 30
0.0
 10
14.8894494315
 20
11.3480585373
 30
0.0
 10
14.9053148996
 20
11.3390147925
 30
0.0
 10
14.9215908479
 20
11.3303216931
 30
0.0
 10
14.9382453193
 20
11.3219963194
 30
0.0
 10
14.9552455981
 20
11.3140550121
 30
0.0
 10
14.9725582898
 20
11.3065133635
 30
0.0
 10
14.9901493878
 20
11.2993861877
 30
0.0
 10
15.0079843402
 20
11.2926874947
 30
0.0
 10
15.0260281102
 20
11.2864304463
 30
0.0
 10
15.0442452459
 20
11.2806273238
 30
0.0
 10
15.0625999586
 20
11.2752895266
 30
0.0
 10
15.0810561906
 20
11.270427545
 30
0.0
 10
15.0995776863
 20
11.2660509424
 30
0.0
 10
15.1181280585
 20
11.2621683051
 30
0.0
 10
15.1366708655
 20
11.2587872573
 30
0.0
 10
15.1551696839
 20
11.2559144388
 30
0.0
 10
15.1735881988
 20
11.2535554993
 30
0.0
 10
15.1918901589
 20
11.2517151033
 30
0.0
 10
15.2100398478
 20
11.2503967805
 30
0.0
 10
15.228001215
 20
11.249603245
 30
0.0
 10
15.2399111275
 20
11.2494237724
 30
0.0
 10
15.2458257545
 20
11.2494237724
 30
0.0
  0
SPLINE
  5
35E
100
AcDbEntity
  8
LAYER_FEATURE
100
AcDbSpline
 62
7
  6
CONTINUOUS
 70
0
 71
3
 72
78
 73
74
 74
0
 42
0.0000001
 43
0.0000001
 44
0.0000000001
 40
0.0
 40
0.0
 40
0.0
 40
0.0
 40
0.0176367147
 40
0.0357018449
 40
0.0541702323
 40
0.0730192045
 40
0.0922240316
 40
0.1117584832
 40
0.1315956303
 40
0.1517077217
 40
0.1720661836
 40
0.1926417586
 40
0.2134046583
 40
0.2343245591
 40
0.2553707427
 40
0.2765121701
 40
0.2977175406
 40
0.3189554073
 40
0.3401942266
 40
0.3614024639
 40
0.3825486511
 40
0.403601489
 40
0.4245299162
 40
0.4453031802
 40
0.4658909627
 40
0.4862633973
 40
0.5063912229
 40
0.5262458405
 40
0.5457993736
 40
0.5650248567
 40
0.5838962171
 40
0.6023884687
 40
0.6204778134
 40
0.6381416778
 40
0.6553589967
 40
0.6721102083
 40
0.6883774854
 40
0.7041449614
 40
0.7193987853
 40
0.7341275424
 40
0.7483223849
 40
0.761977357
 40
0.7750898729
 40
0.7876609441
 40
0.7996958435
 40
0.8112045837
 40
0.8222024929
 40
0.8327110721
 40
0.8427585395
 40
0.8523806595
 40
0.8616213312
 40
0.8705328554
 40
0.8748851527
 40
0.8791786188
 40
0.8834220587
 40
0.8876246724
 40
0.8917959881
 40
0.8959458189
 40
0.9000841674
 40
0.9042211338
 40
0.9083668372
 40
0.9125313109
 40
0.9167244235
 40
0.9209558048
 40
0.9252347409
 40
0.9295701347
 40
0.9384413141
 40
0.9476338086
 40
0.9572011467
 40
0.967188331
 40
0.9776321808
 40
0.9885619766
 40
1.0
 40
1.0
 40
1.0
 40
1.0
 10
15.9939045108
 20
12.0070104019
 30
0.0
 10
15.9932316519
 20
12.0048330295
 30
0.0
 10
15.9919236062
 20
12.0004085299
 30
0.0
 10
15.9900941058
 20
11.9936515427
 30
0.0
 10
15.9883761599
 20
11.9867038564
 30
0.0
 10
15.9867728094
 20
11.9795778506
 30
0.0
 10
15.9852867912
 20
11.9722858413
 30
0.0
 10
15.9839207668
 20
11.9648405712
 30
0.0
 10
15.9826771016
 20
11.9572550847
 30
0.0
 10
15.9815579769
 20
11.9495426374
 30
0.0
 10
15.9805653769
 20
11.9417167118
 30
0.0
 10
15.9797010084
 20
11.9337910008
 30
0.0
 10
15.9789664183
 20
11.9257793655
 30
0.0
 10
15.9783628802
 20
11.9176958209
 30
0.0
 10
15.9778914432
 20
11.9095545095
 30
0.0
 10
15.9775529634
 20
11.901369673
 30
0.0
 10
15.9773480002
 20
11.8931556322
 30
0.0
 10
15.9772769354
 20
11.8849267583
 30
0.0
 10
15.9773398931
 20
11.8766974481
 30
0.0
 10
15.9775367414
 20
11.8684820999
 30
0.0
 10
15.9778671691
 20
11.8602950879
 30
0.0
 10
15.9783305668
 20
11.8521507345
 30
0.0
 10
15.9789261324
 20
11.8440632892
 30
0.0
 10
15.9796528347
 20
11.8360469004
 30
0.0
 10
15.9805093688
 20
11.8281155899
 30
0.0
 10
15.9814942663
 20
11.8202832332
 30
0.0
 10
15.9826057795
 20
11.8125635274
 30
0.0
 10
15.983841956
 20
11.8049699726
 30
0.0
 10
15.9852006551
 20
11.7975158494
 30
0.0
 10
15.9866794585
 20
11.7902141851
 30
0.0
 10
15.9882758033
 20
11.7830777459
 30
0.0
 10
15.9899868849
 20
11.776119001
 30
0.0
 10
15.9918096874
 20
11.7693501033
 30
0.0
 10
15.9937410568
 20
11.7627828802
 30
0.0
 10
15.9957775755
 20
11.7564287859
 30
0.0
 10
15.9979157021
 20
11.7502989087
 30
0.0
 10
16.0001517105
 20
11.7444039375
 30
0.0
 10
16.0024816665
 20
11.73875413
 30
0.0
 10
16.0049015566
 20
11.7333593324
 30
0.0
 10
16.0074071435
 20
11.7282289108
 30
0.0
 10
16.0099940912
 20
11.7233717722
 30
0.0
 10
16.012657963
 20
11.7187963514
 30
0.0
 10
16.0153941391
 20
11.714510548
 30
0.0
 10
16.0181979942
 20
11.7105217987
 30
0.0
 10
16.0210647617
 20
11.7068369943
 30
0.0
 10
16.0239896197
 20
11.7034625073
 30
0.0
 10
16.0269677549
 20
11.7004042534
 30
0.0
 10
16.0299942338
 20
11.6976675779
 30
0.0
 10
16.033064144
 20
11.695257439
 30
0.0
 10
16.0361725699
 20
11.6931783172
 30
0.0
 10
16.0393141644
 20
11.69143432
 30
0.0
 10
16.0419768692
 20
11.6902540344
 30
0.0
 10
16.0441126844
 20
11.689486705
 30
0.0
 10
16.0457066085
 20
11.689001214
 30
0.0
 10
16.0473042459
 20
11.6886015265
 30
0.0
 10
16.0489049109
 20
11.6882878012
 30
0.0
 10
16.0505078784
 20
11.6880602407
 30
0.0
 10
16.0521124171
 20
11.6879189563
 30
0.0
 10
16.0537177908
 20
11.6878639855
 30
0.0
 10
16.0553232667
 20
11.6878953829
 30
0.0
 10
16.0569281047
 20
11.688013154
 30
0.0
 10
16.058531572
 20
11.6882171928
 30
0.0
 10
16.0601329424
 20
11.6885074066
 30
0.0
 10
16.0617314718
 20
11.6888836814
 30
0.0
 10
16.0633264832
 20
11.6893458071
 30
0.0
 10
16.0654635649
 20
11.6900816112
 30
0.0
 10
16.0681285658
 20
11.6912226777
 30
0.0
 10
16.0712743295
 20
11.6929206387
 30
0.0
 10
16.0743875997
 20
11.6949543119
 30
0.0
 10
16.0774630389
 20
11.6973195624
 30
0.0
 10
16.0804957711
 20
11.7000119856
 30
0.0
 10
16.0834806958
 20
11.7030266383
 30
0.0
 10
16.0853914874
 20
11.7051975832
 30
0.0
 10
16.0863385773
 20
11.706332252
 30
0.0
  0
SPLINE
  5
35F
100
AcDbEntity
  8
LAYER_FEATURE
100
AcDbSpline
 62
7
  6
CONTINUOUS
 70
0
 71
3
 72
80
 73
76
 74
0
 42
0.0000001
 43
0.0000001
 44
0.0000000001
 40
0.0
 40
0.0
 40
0.0
 40
0.0
 40
0.017178625
 40
0.0345301896
 40
0.0520439856
 40
0.0697095611
 40
0.0875157513
 40
0.105451206
 40
0.1235042502
 40
0.1416629551
 40
0.159915164
 40
0.1782485184
 40
0.1966504877
 40
0.2151083967
 40
0.2336094524
 40
0.2521407721
 40
0.2706894106
 40
0.2892423869
 40
0.3077867108
 40
0.3263094099
 40
0.3447975567
 40
0.3632382956
 40
0.3816188701
 40
0.3999266497
 40
0.4181491573
 40
0.4362740982
 40
0.4542893881
 40
0.4721831821
 40
0.4899439035
 40
0.5075602738
 40
0.5250213437
 40
0.5423165259
 40
0.5594356272
 40
0.5763688815
 40
0.5931069843
 40
0.6096411291
 40
0.6259630453
 40
0.6420650388
 40
0.6579400309
 40
0.673581601
 40
0.6889840307
 40
0.7041423508
 40
0.7190523912
 40
0.7337108317
 40
0.7481152531
 40
0.7622641923
 40
0.7761571984
 40
0.7897948916
 40
0.8031790229
 40
0.8163125314
 40
0.8291996012
 40
0.8418457167
 40
0.8542577138
 40
0.8603787793
 40
0.8664445248
 40
0.8784144197
 40
0.8901792221
 40
0.8959889949
 40
0.9017523402
 40
0.9131461931
 40
0.9243770779
 40
0.9299370835
 40
0.935462781
 40
0.9409564793
 40
0.9464205592
 40
0.9518574755
 40
0.9572697442
 40
0.9626599452
 40
0.9680307112
 40
0.9733847242
 40
0.9787247102
 40
0.9840534294
 40
0.9893736733
 40
0.9946882542
 40
1.0
 40
1.0
 40
1.0
 40
1.0
 10
15.1315570012
 20
13.9865016728
 30
0.0
 10
15.1464992188
 20
13.9865016728
 30
0.0
 10
15.1765350386
 20
13.9861728886
 30
0.0
 10
15.2217832661
 20
13.9847120135
 30
0.0
 10
15.2674141173
 20
13.9822823184
 30
0.0
 10
15.3133796327
 20
13.9788864241
 30
0.0
 10
15.3596322135
 20
13.9745278067
 30
0.0
 10
15.4061236355
 20
13.9692110289
 30
0.0
 10
15.4528055368
 20
13.9629416146
 30
0.0
 10
15.4996293241
 20
13.9557260978
 30
0.0
 10
15.5465462605
 20
13.9475719914
 30
0.0
 10
15.593507511
 20
13.9384877826
 30
0.0
 10
15.6404641924
 20
13.9284829258
 30
0.0
 10
15.6873674241
 20
13.9175678303
 30
0.0
 10
15.7341683817
 20
13.9057538614
 30
0.0
 10
15.7808183468
 20
13.8930533208
 30
0.0
 10
15.8272687579
 20
13.8794794304
 30
0.0
 10
15.8734712602
 20
13.8650463198
 30
0.0
 10
15.919377756
 20
13.8497690105
 30
0.0
 10
15.9649404555
 20
13.8336634028
 30
0.0
 10
16.0101119301
 20
13.8167462676
 30
0.0
 10
16.0548451582
 20
13.799035217
 30
0.0
 10
16.099093575
 20
13.7805486879
 30
0.0
 10
16.1428111196
 20
13.7613059221
 30
0.0
 10
16.185952283
 20
13.7413269454
 30
0.0
 10
16.2284721598
 20
13.7206325535
 30
0.0
 10
16.2703264949
 20
13.6992442898
 30
0.0
 10
16.3114717267
 20
13.6771844153
 30
0.0
 10
16.3518650314
 20
13.6544758872
 30
0.0
 10
16.391464368
 20
13.6311423345
 30
0.0
 10
16.430228522
 20
13.6072080322
 30
0.0
 10
16.4681171554
 20
13.5826978858
 30
0.0
 10
16.505090844
 20
13.5576373956
 30
0.0
 10
16.5411111155
 20
13.5320526289
 30
0.0
 10
16.5761404897
 20
13.5059701936
 30
0.0
 10
16.6101425162
 20
13.4794172087
 30
0.0
 10
16.6430818165
 20
13.4524212781
 30
0.0
 10
16.6749241251
 20
13.4250104668
 30
0.0
 10
16.7056363163
 20
13.3972132606
 30
0.0
 10
16.7351864378
 20
13.3690585388
 30
0.0
 10
16.7635437423
 20
13.3405755435
 30
0.0
 10
16.790678718
 20
13.3117938459
 30
0.0
 10
16.8165631274
 20
13.2827433231
 30
0.0
 10
16.8411700314
 20
13.2534541216
 30
0.0
 10
16.8644738092
 20
13.2239566222
 30
0.0
 10
16.886450182
 20
13.1942814106
 30
0.0
 10
16.9070762355
 20
13.1644592444
 30
0.0
 10
16.9263304402
 20
13.1345210246
 30
0.0
 10
16.9441926881
 20
13.1044977595
 30
0.0
 10
16.9606442783
 20
13.0744205717
 30
0.0
 10
16.9756679946
 20
13.0443205061
 30
0.0
 10
16.9892478908
 20
13.0142291037
 30
0.0
 10
16.9993960811
 20
12.9890701686
 30
0.0
 10
17.0067678099
 20
12.9689822406
 30
0.0
 10
17.0135829522
 20
12.9491048617
 30
0.0
 10
17.0211896241
 20
12.9243158901
 30
0.0
 10
17.0276133991
 20
12.8994234714
 30
0.0
 10
17.0319913372
 20
12.8795997829
 30
0.0
 10
17.0358351928
 20
12.8599944171
 30
0.0
 10
17.0397110156
 20
12.8355976108
 30
0.0
 10
17.0423498604
 20
12.8112132889
 30
0.0
 10
17.0436946447
 20
12.7918468117
 30
0.0
 10
17.0443209838
 20
12.7774377198
 30
0.0
 10
17.0445681867
 20
12.7631006416
 30
0.0
 10
17.0444361344
 20
12.7488392186
 30
0.0
 10
17.0439249265
 20
12.7346572036
 30
0.0
 10
17.0430346092
 20
12.7205582966
 30
0.0
 10
17.0417654582
 20
12.7065461841
 30
0.0
 10
17.0401177861
 20
12.6926245284
 30
0.0
 10
17.0380919815
 20
12.6787969774
 30
0.0
 10
17.0356886355
 20
12.6650671357
 30
0.0
 10
17.0329082913
 20
12.6514386201
 30
0.0
 10
17.0297517321
 20
12.6379149472
 30
0.0
 10
17.0262197862
 20
12.6244998016
 30
0.0
 10
17.0236151693
 20
12.6156299338
 30
0.0
 10
17.0222510594
 20
12.6112156657
 30
0.0
  0
SPLINE
  5
360
100
AcDbEntity
  8
LAYER_CHAMFER_FEAT
100
AcDbSpline
 62
7
  6
CONTINUOUS
 70
0
 71
3
 72
68
 73
64
 74
0
 42
0.0000001
 43
0.0000001
 44
0.0000000001
 40
0.0
 40
0.0
 40
0.0
 40
0.0
 40
0.0357307004
 40
0.0531875429
 40
0.0703685974
 40
0.0872731289
 40
0.1039012743
 40
0.1202541582
 40
0.1363338727
 40
0.1676830474
 40
0.1829665885
 40
0.1979962681
 40
0.2127798423
 40
0.2273262866
 40
0.241645846
 40
0.2557500247
 40
0.2696516039
 40
0.283364617
 40
0.2969043282
 40
0.3102871828
 40
0.3235307418
 40
0.3366535995
 40
0.3496752714
 40
0.3626160765
 40
0.3754969834
 40
0.3883394604
 40
0.4011652925
 40
0.413996409
 40
0.4268546917
 40
0.4397617955
 40
0.4527389696
 40
0.465806887
 40
0.4789854998
 40
0.4922938897
 40
0.5057501714
 40
0.5193713701
 40
0.5331733788
 40
0.5471708623
 40
0.5613772663
 40
0.575804743
 40
0.6053599335
 40
0.6205109994
 40
0.6359192102
 40
0.6515905628
 40
0.6675298537
 40
0.6837408198
 40
0.7002260765
 40
0.7169872727
 40
0.7340250224
 40
0.7513390672
 40
0.7689282005
 40
0.7867904349
 40
0.8049229238
 40
0.8233221251
 40
0.8419837017
 40
0.8609027061
 40
0.8800735355
 40
0.8994900225
 40
0.9191451776
 40
0.9390316294
 40
0.9591421509
 40
0.9794686822
 40
1.0
 40
1.0
 40
1.0
 40
1.0
 10
15.4601031639
 20
11.5910919387
 30
0.0
 10
15.4645715199
 20
11.5862020794
 30
0.0
 10
15.4710441766
 20
11.5787559132
 30
0.0
 10
15.4791977416
 20
11.5685710806
 30
0.0
 10
15.4849615919
 20
11.5609483369
 30
0.0
 10
15.4904162645
 20
11.5532892646
 30
0.0
 10
15.4955572108
 20
11.5456001376
 30
0.0
 10
15.5003802658
 20
11.5378872098
 30
0.0
 10
15.5063306817
 20
11.5276677503
 30
0.0
 10
15.5116913839
 20
11.5173394471
 30
0.0
 10
15.516415391
 20
11.5069277443
 30
0.0
 10
15.5195932027
 20
11.4991928103
 30
0.0
 10
15.5224327869
 20
11.4914728708
 30
0.0
 10
15.5249317581
 20
11.4837742014
 30
0.0
 10
15.5270879938
 20
11.4761032529
 30
0.0
 10
15.5288996168
 20
11.4684663978
 30
0.0
 10
15.5303650748
 20
11.4608700134
 30
0.0
 10
15.5314830618
 20
11.4533204401
 30
0.0
 10
15.532252591
 20
11.4458239975
 30
0.0
 10
15.5326729429
 20
11.4383869693
 30
0.0
 10
15.5327437067
 20
11.4310156039
 30
0.0
 10
15.5324647626
 20
11.4237161077
 30
0.0
 10
15.5318362879
 20
11.4164946391
 30
0.0
 10
15.5308587756
 20
11.4093573014
 30
0.0
 10
15.5295330011
 20
11.4023101383
 30
0.0
 10
15.5278600788
 20
11.3953591183
 30
0.0
 10
15.5258413878
 20
11.3885101402
 30
0.0
 10
15.5234786633
 20
11.3817690016
 30
0.0
 10
15.520773885
 20
11.3751414238
 30
0.0
 10
15.517729399
 20
11.3686329979
 30
0.0
 10
15.5143477728
 20
11.3622492367
 30
0.0
 10
15.5106319437
 20
11.3559954937
 30
0.0
 10
15.5065850479
 20
11.3498770489
 30
0.0
 10
15.5022105892
 20
11.3438989956
 30
0.0
 10
15.4975122496
 20
11.3380663629
 30
0.0
 10
15.4924940757
 20
11.3323839711
 30
0.0
 10
15.4871602665
 20
11.326856581
 30
0.0
 10
15.4815154193
 20
11.3214887541
 30
0.0
 10
15.4755641109
 20
11.3162848864
 30
0.0
 10
15.467160773
 20
11.3095171523
 30
0.0
 10
15.4582197951
 20
11.3031520319
 30
0.0
 10
15.4488000065
 20
11.2971937572
 30
0.0
 10
15.4413969901
 20
11.2928715335
 30
0.0
 10
15.4337214253
 20
11.2887371081
 30
0.0
 10
15.4257795371
 20
11.2847936617
 30
0.0
 10
15.4175779763
 20
11.2810445729
 30
0.0
 10
15.4091235979
 20
11.2774928436
 30
0.0
 10
15.4004234233
 20
11.274141497
 30
0.0
 10
15.3914847294
 20
11.2709932161
 30
0.0
 10
15.3823149391
 20
11.268050694
 30
0.0
 10
15.3729217153
 20
11.2653162761
 30
0.0
 10
15.3633128629
 20
11.2627923172
 30
0.0
 10
15.3534964042
 20
11.2604808171
 30
0.0
 10
15.3434805031
 20
11.2583837844
 30
0.0
 10
15.333273521
 20
11.2565028643
 30
0.0
 10
15.322883947
 20
11.2548397075
 30
0.0
 10
15.3123204357
 20
11.2533956045
 30
0.0
 10
15.3015918017
 20
11.2521718524
 30
0.0
 10
15.2907070319
 20
11.2511693631
 30
0.0
 10
15.2796751248
 20
11.2503890494
 30
0.0
 10
15.2685051132
 20
11.2498314978
 30
0.0
 10
15.2572066577
 20
11.2494972687
 30
0.0
 10
15.2496319703
 20
11.2494237724
 30
0.0
 10
15.2458257545
 20
11.2494237724
 30
0.0
  0
SPLINE
  5
361
100
AcDbEntity
  8
LAYER_FEATURE
100
AcDbSpline
 62
7
  6
CONTINUOUS
 70
0
 71
3
 72
50
 73
46
 74
0
 42
0.0000001
 43
0.0000001
 44
0.0000000001
 40
0.0
 40
0.0
 40
0.0
 40
0.0
 40
0.0396641793
 40
0.0788606661
 40
0.1175661307
 40
0.1557597858
 40
0.1934216622
 40
0.2305336657
 40
0.2670793388
 40
0.3030440904
 40
0.3384152998
 40
0.3731824522
 40
0.4073372782
 40
0.4408738985
 40
0.4737889752
 40
0.5060818677
 40
0.5377547925
 40
0.5688129867
 40
0.5992648666
 40
0.6291221833
 40
0.6584001714
 40
0.6728285106
 40
0.6871194029
 40
0.7152990215
 40
0.7429671481
 40
0.7566197094
 40
0.7701560775
 40
0.7835806402
 40
0.7968980187
 40
0.8101130807
 40
0.8232309096
 40
0.8362568292
 40
0.8491963692
 40
0.8620552768
 40
0.874839498
 40
0.8875551653
 40
0.9002085963
 40
0.9128062638
 40
0.9253547993
 40
0.9378609614
 40
0.9503316297
 40
0.9627737816
 40
0.9751944743
 40
0.9876008274
 40
1.0
 40
1.0
 40
1.0
 40
1.0
 10
14.8723039688
 20
13.1475585526
 30
0.0
 10
14.8569087493
 20
13.1475585526
 30
0.0
 10
14.8262986198
 20
13.1472133375
 30
0.0
 10
14.7806897343
 20
13.1456398745
 30
0.0
 10
14.7357005638
 20
13.1430154266
 30
0.0
 10
14.6913823342
 20
13.1393430163
 30
0.0
 10
14.6477848411
 20
13.1346267066
 30
0.0
 10
14.604957349
 20
13.1288718186
 30
0.0
 10
14.5629481458
 20
13.1220847925
 30
0.0
 10
14.5218046222
 20
13.1142732406
 30
0.0
 10
14.4815731778
 20
13.1054459197
 30
0.0
 10
14.4422991805
 20
13.0956127196
 30
0.0
 10
14.4040269164
 20
13.0847846483
 30
0.0
 10
14.3667995421
 20
13.0729738176
 30
0.0
 10
14.3306590388
 20
13.060193427
 30
0.0
 10
14.2956461712
 20
13.0464577485
 30
0.0
 10
14.2618004332
 20
13.0317821013
 30
0.0
 10
14.2291600501
 20
13.0161828692
 30
0.0
 10
14.1977617821
 20
12.9996773669
 30
0.0
 10
14.1676414826
 20
12.9822842135
 30
0.0
 10
14.1435177694
 20
12.9669922427
 30
0.0
 10
14.1249034958
 20
12.9543303173
 30
0.0
 10
14.1069179994
 20
12.9415115068
 30
0.0
 10
14.085279589
 20
12.9249756073
 30
0.0
 10
14.064618965
 20
12.9076143197
 30
0.0
 10
14.0488225309
 20
12.893334794
 30
0.0
 10
14.0373890385
 20
12.8824802488
 30
0.0
 10
14.0263207805
 20
12.8714370004
 30
0.0
 10
14.0156208592
 20
12.8602080657
 30
0.0
 10
14.0052922788
 20
12.8487966806
 30
0.0
 10
13.9953380315
 20
12.8372059999
 30
0.0
 10
13.985760888
 20
12.8254393516
 30
0.0
 10
13.9765636152
 20
12.8135000189
 30
0.0
 10
13.9677488123
 20
12.801391392
 30
0.0
 10
13.9593189754
 20
12.7891169012
 30
0.0
 10
13.9512765487
 20
12.7766799891
 30
0.0
 10
13.9436237574
 20
12.7640842187
 30
0.0
 10
13.9363628596
 20
12.7513331081
 30
0.0
 10
13.929495853
 20
12.7384303128
 30
0.0
 10
13.9230247467
 20
12.725379461
 30
0.0
 10
13.9169513646
 20
12.7121842631
 30
0.0
 10
13.911277425
 20
12.6988484796
 30
0.0
 10
13.9060045823
 20
12.6853758333
 30
0.0
 10
13.9011343111
 20
12.6717703347
 30
0.0
 10
13.8981564172
 20
12.6626127175
 30
0.0
 10
13.8967355105
 20
12.6580146548
 30
0.0
  0
SPLINE
  5
362
100
AcDbEntity
  8
LAYER_FEATURE
100
AcDbSpline
 62
7
  6
CONTINUOUS
 70
0
 71
3
 72
50
 73
46
 74
0
 42
0.0000001
 43
0.0000001
 44
0.0000000001
 40
0.0
 40
0.0
 40
0.0
 40
0.0
 40
0.0396641793
 40
0.0788606661
 40
0.1175661307
 40
0.1557597858
 40
0.1934216622
 40
0.2305336657
 40
0.2670793388
 40
0.3030440904
 40
0.3384152998
 40
0.3731824522
 40
0.4073372782
 40
0.4408738985
 40
0.4737889752
 40
0.5060818677
 40
0.5377547925
 40
0.5688129867
 40
0.5992648666
 40
0.6291221833
 40
0.6584001714
 40
0.6728285106
 40
0.6871194029
 40
0.7152990215
 40
0.7429671481
 40
0.7566197094
 40
0.7701560775
 40
0.7835806402
 40
0.7968980187
 40
0.8101130807
 40
0.8232309096
 40
0.8362568292
 40
0.8491963692
 40
0.8620552768
 40
0.874839498
 40
0.8875551653
 40
0.9002085963
 40
0.9128062638
 40
0.9253547993
 40
0.9378609614
 40
0.9503316297
 40
0.9627737816
 40
0.9751944743
 40
0.9876008274
 40
1.0
 40
1.0
 40
1.0
 40
1.0
 10
15.1315570012
 20
13.9865016728
 30
0.0
 10
15.1161617816
 20
13.9865016728
 30
0.0
 10
15.0855516522
 20
13.9861564577
 30
0.0
 10
15.0399427667
 20
13.9845829947
 30
0.0
 10
14.9949535962
 20
13.9819585468
 30
0.0
 10
14.9506353666
 20
13.9782861365
 30
0.0
 10
14.9070378735
 20
13.9735698269
 30
0.0
 10
14.8642103814
 20
13.9678149388
 30
0.0
 10
14.8222011781
 20
13.9610279127
 30
0.0
 10
14.7810576545
 20
13.9532163608
 30
0.0
 10
14.7408262101
 20
13.9443890399
 30
0.0
 10
14.7015522129
 20
13.9345558398
 30
0.0
 10
14.6632799488
 20
13.9237277685
 30
0.0
 10
14.6260525745
 20
13.9119169378
 30
0.0
 10
14.5899120711
 20
13.8991365472
 30
0.0
 10
14.5548992036
 20
13.8854008688
 30
0.0
 10
14.5210534656
 20
13.8707252215
 30
0.0
 10
14.4884130825
 20
13.8551259894
 30
0.0
 10
14.4570148144
 20
13.8386204871
 30
0.0
 10
14.426894515
 20
13.8212273337
 30
0.0
 10
14.4027708018
 20
13.8059353629
 30
0.0
 10
14.3841565282
 20
13.7932734376
 30
0.0
 10
14.3661710317
 20
13.780454627
 30
0.0
 10
14.3445326213
 20
13.7639187275
 30
0.0
 10
14.3238719974
 20
13.7465574399
 30
0.0
 10
14.3080755632
 20
13.7322779143
 30
0.0
 10
14.2966420708
 20
13.721423369
 30
0.0
 10
14.2855738129
 20
13.7103801206
 30
0.0
 10
14.2748738915
 20
13.699151186
 30
0.0
 10
14.2645453112
 20
13.6877398008
 30
0.0
 10
14.2545910638
 20
13.6761491201
 30
0.0
 10
14.2450139204
 20
13.6643824718
 30
0.0
 10
14.2358166476
 20
13.6524431392
 30
0.0
 10
14.2270018446
 20
13.6403345122
 30
0.0
 10
14.2185720078
 20
13.6280600214
 30
0.0
 10
14.2105295811
 20
13.6156231094
 30
0.0
 10
14.2028767898
 20
13.6030273389
 30
0.0
 10
14.195615892
 20
13.5902762283
 30
0.0
 10
14.1887488854
 20
13.577373433
 30
0.0
 10
14.1822777791
 20
13.5643225812
 30
0.0
 10
14.176204397
 20
13.5511273833
 30
0.0
 10
14.1705304574
 20
13.5377915998
 30
0.0
 10
14.1652576147
 20
13.5243189535
 30
0.0
 10
14.1603873435
 20
13.5107134549
 30
0.0
 10
14.1574094495
 20
13.5015558378
 30
0.0
 10
14.1559885429
 20
13.4969577751
 30
0.0
  0
SPLINE
  5
363
100
AcDbEntity
  8
LAYER_FEATURE
100
AcDbSpline
 62
7
  6
CONTINUOUS
 70
0
 71
3
 72
114
 73
110
 74
0
 42
0.0000001
 43
0.0000001
 44
0.0000000001
 40
0.0
 40
0.0
 40
0.0
 40
0.0
 40
0.0090931033
 40
0.0182519453
 40
0.0274733501
 40
0.0367547308
 40
0.0554859414
 40
0.0744228872
 40
0.0935415656
 40
0.1128171496
 40
0.1322241489
 40
0.1517365175
 40
0.1713277712
 40
0.1909711002
 40
0.2106394817
 40
0.2303057907
 40
0.2499429106
 40
0.2695238441
 40
0.289021824
 40
0.3084104255
 40
0.3276636797
 40
0.3467561897
 40
0.3656632482
 40
0.3843609595
 40
0.4028263641
 40
0.4119653226
 40
0.4210380903
 40
0.4300421201
 40
0.4389749496
 40
0.4478342017
 40
0.4566175978
 40
0.4653229508
 40
0.473948184
 40
0.4824913222
 40
0.4909505088
 40
0.4993240038
 40
0.5076101914
 40
0.5158075897
 40
0.5239148472
 40
0.5319307631
 40
0.539854277
 40
0.5476844921
 40
0.5554206681
 40
0.563062237
 40
0.5706088077
 40
0.5780601689
 40
0.5854163074
 40
0.5926773995
 40
0.5998438373
 40
0.6069162182
 40
0.6138953669
 40
0.6207823337
 40
0.6275784044
 40
0.6409028967
 40
0.6474364617
 40
0.6538867638
 40
0.6602563639
 40
0.6665480842
 40
0.6727650189
 40
0.6789105314
 40
0.68498825
 40
0.6910020717
 40
0.6969561466
 40
0.702854881
 40
0.7087029165
 40
0.7145051251
 40
0.7202665887
 40
0.7259925818
 40
0.7316885524
 40
0.7373600949
 40
0.7430129289
 40
0.7486528676
 40
0.7542857918
 40
0.7599176182
 40
0.7655542694
 40
0.7712016428
 40
0.7768655807
 40
0.7825518397
 40
0.788266065
 40
0.7940137602
 40
0.7998002681
 40
0.8056307433
 40
0.8115101375
 40
0.8174431805
 40
0.823434365
 40
0.8294879401
 40
0.8356078937
 40
0.841797958
 40
0.8480615918
 40
0.8544019907
 40
0.8673230485
 40
0.8739102153
 40
0.8805842442
 40
0.8873470116
 40
0.8942001341
 40
0.9011449913
 40
0.9081827181
 40
0.9153142219
 40
0.9225401854
 40
0.9298610722
 40
0.9372771426
 40
0.9447884474
 40
0.9523948528
 40
0.9600960297
 40
0.9678914769
 40
0.9757805169
 40
0.9837623083
 40
0.9918358541
 40
1.0
 40
1.0
 40
1.0
 40
1.0
 10
14.9353443588
 20
13.0861175705
 30
0.0
 10
14.9446638277
 20
13.0861175705
 30
0.0
 10
14.9633704435
 20
13.0859740346
 30
0.0
 10
14.9915214281
 20
13.0853339373
 30
0.0
 10
15.0198527299
 20
13.0842684667
 30
0.0
 10
15.0579626793
 20
13.0822754784
 30
0.0
 10
15.1059564173
 20
13.0787165918
 30
0.0
 10
15.1638600579
 20
13.0727730722
 30
0.0
 10
15.2221301674
 20
13.0651559748
 30
0.0
 10
15.2806470311
 20
13.0558809346
 30
0.0
 10
15.3392908217
 20
13.0449669558
 30
0.0
 10
15.3979413309
 20
13.0324364067
 30
0.0
 10
15.4564783591
 20
13.0183149671
 30
0.0
 10
15.5147819258
 20
13.0026315825
 30
0.0
 10
15.572732528
 20
12.9854183998
 30
0.0
 10
15.6302113839
 20
12.9667107015
 30
0.0
 10
15.687100679
 20
12.9465468333
 30
0.0
 10
15.7432838089
 20
12.9249681244
 30
0.0
 10
15.7986456203
 20
12.902018802
 30
0.0
 10
15.8530726462
 20
12.8777459006
 30
0.0
 10
15.9064533496
 20
12.8521991578
 30
0.0
 10
15.958678319
 20
12.8254309363
 30
0.0
 10
16.0096406276
 20
12.7974960297
 30
0.0
 10
16.0592355549
 20
12.7684518424
 30
0.0
 10
16.0994777359
 20
12.7432877431
 30
0.0
 10
16.1308952892
 20
12.7226468204
 30
0.0
 10
16.1539740439
 20
12.7069793878
 30
0.0
 10
16.1766365134
 20
12.691080751
 30
0.0
 10
16.198871139
 20
12.6749590276
 30
0.0
 10
16.2206664832
 20
12.6586224684
 30
0.0
 10
16.2420113994
 20
12.6420794881
 30
0.0
 10
16.2628949049
 20
12.6253385195
 30
0.0
 10
16.2833063248
 20
12.6084081945
 30
0.0
 10
16.3032351602
 20
12.5912971503
 30
0.0
 10
16.322671211
 20
12.5740141855
 30
0.0
 10
16.3416045019
 20
12.5565681485
 30
0.0
 10
16.3600253145
 20
12.5389679709
 30
0.0
 10
16.3779242242
 20
12.5212226987
 30
0.0
 10
16.3952920147
 20
12.5033413838
 30
0.0
 10
16.4121198216
 20
12.4853332352
 30
0.0
 10
16.428398968
 20
12.4672074305
 30
0.0
 10
16.4441211421
 20
12.448973294
 30
0.0
 10
16.4592782513
 20
12.4306401379
 30
0.0
 10
16.4738625274
 20
12.4122173598
 30
0.0
 10
16.4878664964
 20
12.3937144012
 30
0.0
 10
16.5012829394
 20
12.3751407099
 30
0.0
 10
16.514105014
 20
12.3565058315
 30
0.0
 10
16.5263260779
 20
12.3378192585
 30
0.0
 10
16.5379399071
 20
12.3190906045
 30
0.0
 10
16.5489404906
 20
12.3003293936
 30
0.0
 10
16.5593221643
 20
12.2815453385
 30
0.0
 10
16.5690797153
 20
12.2627477182
 30
0.0
 10
16.5811701521
 20
12.237845393
 30
0.0
 10
16.5920907422
 20
12.2127864449
 30
0.0
 10
16.6017713058
 20
12.1876175804
 30
0.0
 10
16.6083386131
 20
12.1688977153
 30
0.0
 10
16.6142562913
 20
12.1502223921
 30
0.0
 10
16.6195213104
 20
12.1316009317
 30
0.0
 10
16.624130907
 20
12.1130429461
 30
0.0
 10
16.6280826828
 20
12.0945579402
 30
0.0
 10
16.6313745033
 20
12.0761553951
 30
0.0
 10
16.6340046899
 20
12.0578447758
 30
0.0
 10
16.6359717442
 20
12.0396354812
 30
0.0
 10
16.6372746823
 20
12.0215368934
 30
0.0
 10
16.6379126996
 20
12.0035583263
 30
0.0
 10
16.6378854615
 20
11.9857090544
 30
0.0
 10
16.6371929099
 20
11.9679982884
 30
0.0
 10
16.6358353362
 20
11.9504351809
 30
0.0
 10
16.6338134479
 20
11.9330288097
 30
0.0
 10
16.6311281761
 20
11.9157881924
 30
0.0
 10
16.6277809709
 20
11.8987222437
 30
0.0
 10
16.6237734509
 20
11.8818398224
 30
0.0
 10
16.6191077554
 20
11.8651496602
 30
0.0
 10
16.6137862434
 20
11.8486604189
 30
0.0
 10
16.6078116948
 20
11.8323806366
 30
0.0
 10
16.6011872302
 20
11.8163187356
 30
0.0
 10
16.5939162537
 20
11.8004830478
 30
0.0
 10
16.5860026243
 20
11.7848817255
 30
0.0
 10
16.577450387
 20
11.7695228677
 30
0.0
 10
16.5682640816
 20
11.7544143496
 30
0.0
 10
16.5584484285
 20
11.7395639937
 30
0.0
 10
16.5480085837
 20
11.7249794096
 30
0.0
 10
16.5369499607
 20
11.7106680997
 30
0.0
 10
16.5252782955
 20
11.6966374163
 30
0.0
 10
16.5129996785
 20
11.6828945156
 30
0.0
 10
16.5001204254
 20
11.6694464846
 30
0.0
 10
16.4866472474
 20
11.6563001261
 30
0.0
 10
16.4725871098
 20
11.6434622623
 30
0.0
 10
16.4579470985
 20
11.6309392291
 30
0.0
 10
16.4375374596
 20
11.614568659
 30
0.0
 10
16.4161076647
 20
11.5989605926
 30
0.0
 10
16.3937459681
 20
11.5841228432
 30
0.0
 10
16.3763262758
 20
11.5732671447
 30
0.0
 10
16.3583766342
 20
11.5627624309
 30
0.0
 10
16.3399059852
 20
11.5526137578
 30
0.0
 10
16.3209238662
 20
11.5428264195
 30
0.0
 10
16.3014400142
 20
11.5334053475
 30
0.0
 10
16.2814644236
 20
11.5243553656
 30
0.0
 10
16.2610073352
 20
11.5156810985
 30
0.0
 10
16.2400792525
 20
11.5073869351
 30
0.0
 10
16.2186908884
 20
11.499477163
 30
0.0
 10
16.1968532296
 20
11.4919557517
 30
0.0
 10
16.1745774525
 20
11.4848266083
 30
0.0
 10
16.151874993
 20
11.478093315
 30
0.0
 10
16.1287574779
 20
11.4717593495
 30
0.0
 10
16.1052367698
 20
11.4658279332
 30
0.0
 10
16.081324899
 20
11.4603020814
 30
0.0
 10
16.057034229
 20
11.4551846721
 30
0.0
 10
16.0406862931
 20
11.4520642646
 30
0.0
 10
16.0324531175
 20
11.4505716279
 30
0.0
  0
SPLINE
  5
364
100
AcDbEntity
  8
LAYER_FEATURE
100
AcDbSpline
 62
7
  6
CONTINUOUS
 70
0
 71
3
 72
83
 73
79
 74
0
 42
0.0000001
 43
0.0000001
 44
0.0000000001
 40
0.0
 40
0.0
 40
0.0
 40
0.0
 40
0.0204121416
 40
0.0406122513
 40
0.0605903074
 40
0.0803379957
 40
0.0998469301
 40
0.119109423
 40
0.1381183956
 40
0.1568673721
 40
0.1753505618
 40
0.1935628904
 40
0.2115000371
 40
0.2291584789
 40
0.2465355414
 40
0.2636294495
 40
0.2804393684
 40
0.2969654541
 40
0.3132089116
 40
0.3291720453
 40
0.3448583046
 40
0.3602723336
 40
0.3754200266
 40
0.3903085691
 40
0.4049464709
 40
0.4193435999
 40
0.4335112101
 40
0.4474619476
 40
0.4612098438
 40
0.4747702964
 40
0.4881600344
 40
0.5013970519
 40
0.5145005227
 40
0.5210089752
 40
0.527491718
 40
0.5339514272
 40
0.5403908274
 40
0.5468126905
 40
0.5532198234
 40
0.5596150675
 40
0.5660012906
 40
0.5723813795
 40
0.5787582362
 40
0.5851347691
 40
0.5915138879
 40
0.5978984958
 40
0.6042914842
 40
0.610695726
 40
0.6171140675
 40
0.6235493259
 40
0.6300042798
 40
0.6364816644
 40
0.6429841699
 40
0.6495144289
 40
0.6560750188
 40
0.6692962131
 40
0.6826680534
 40
0.6962086673
 40
0.7099349263
 40
0.7238623828
 40
0.7380052215
 40
0.7523762396
 40
0.7669868449
 40
0.7743855276
 40
0.7818477475
 40
0.7969662383
 40
0.8123503279
 40
0.8280060522
 40
0.8439381981
 40
0.8601503429
 40
0.8766449117
 40
0.8934232309
 40
0.9104855758
 40
0.927831216
 40
0.9454584746
 40
0.963364778
 40
0.981546699
 40
1.0
 40
1.0
 40
1.0
 40
1.0
 10
14.9353443588
 20
13.0861175705
 30
0.0
 10
14.9231758945
 20
13.0861175705
 30
0.0
 10
14.8989646122
 20
13.0858750512
 30
0.0
 10
14.8628587855
 20
13.0847713042
 30
0.0
 10
14.8271794248
 20
13.0829303056
 30
0.0
 10
14.7919586964
 20
13.0803537747
 30
0.0
 10
14.7572276699
 20
13.0770439271
 30
0.0
 10
14.7230173004
 20
13.0730037207
 30
0.0
 10
14.6893579878
 20
13.068236739
 30
0.0
 10
14.6562796507
 20
13.0627471853
 30
0.0
 10
14.6238116962
 20
13.056539911
 30
0.0
 10
14.591982976
 20
13.0496204211
 30
0.0
 10
14.5608217756
 20
13.0419948344
 30
0.0
 10
14.5303557922
 20
13.033669877
 30
0.0
 10
14.5006121019
 20
13.0246528984
 30
0.0
 10
14.4716171315
 20
13.0149518729
 30
0.0
 10
14.4433966491
 20
13.0045753595
 30
0.0
 10
14.4159757463
 20
12.9935324925
 30
0.0
 10
14.389378802
 20
12.9818330053
 30
0.0
 10
14.3636294623
 20
12.9694872147
 30
0.0
 10
14.3387506379
 20
12.9565059873
 30
0.0
 10
14.3147644894
 20
12.9429007288
 30
0.0
 10
14.2916923857
 20
12.9286834145
 30
0.0
 10
14.2695548984
 20
12.9138665584
 30
0.0
 10
14.248371801
 20
12.8984631904
 30
0.0
 10
14.2281620582
 20
12.8824868467
 30
0.0
 10
14.208943775
 20
12.8659516052
 30
0.0
 10
14.1907342083
 20
12.8488720474
 30
0.0
 10
14.1735497571
 20
12.8312632359
 30
0.0
 10
14.1574059716
 20
12.8131407527
 30
0.0
 10
14.1423174044
 20
12.7945205768
 30
0.0
 10
14.1282979511
 20
12.7754196048
 30
0.0
 10
14.1174919023
 20
12.7590780637
 30
0.0
 10
14.1094027819
 20
12.7457890345
 30
0.0
 10
14.1036236629
 20
12.7357348996
 30
0.0
 10
14.0981204297
 20
12.7255739979
 30
0.0
 10
14.0928942992
 20
12.7153085068
 30
0.0
 10
14.0879464014
 20
12.704940765
 30
0.0
 10
14.0832778818
 20
12.6944730611
 30
0.0
 10
14.0788897871
 20
12.6839077364
 30
0.0
 10
14.0747830589
 20
12.6732471663
 30
0.0
 10
14.0709586763
 20
12.6624937098
 30
0.0
 10
14.0674174547
 20
12.651649786
 30
0.0
 10
14.06416018
 20
12.6407178184
 30
0.0
 10
14.06118763
 20
12.6297002369
 30
0.0
 10
14.0585004064
 20
12.6185995213
 30
0.0
 10
14.0560991424
 20
12.6074181431
 30
0.0
 10
14.0539843853
 20
12.5961586006
 30
0.0
 10
14.0521565529
 20
12.5848234191
 30
0.0
 10
14.0506161093
 20
12.5734151215
 30
0.0
 10
14.0493633638
 20
12.5619362641
 30
0.0
 10
14.0483985723
 20
12.5503894052
 30
0.0
 10
14.0477220016
 20
12.5387771429
 30
0.0
 10
14.0473337436
 20
12.5271019886
 30
0.0
 10
14.0472002523
 20
12.5114156154
 30
0.0
 10
14.0477604769
 20
12.4916509051
 30
0.0
 10
14.0495852587
 20
12.4677866313
 30
0.0
 10
14.0525623164
 20
12.4437351793
 30
0.0
 10
14.056688774
 20
12.4195184347
 30
0.0
 10
14.0619607267
 20
12.3951579078
 30
0.0
 10
14.0683732609
 20
12.3706752599
 30
0.0
 10
14.0759203644
 20
12.3460924609
 30
0.0
 10
14.0831189963
 20
12.3256277832
 30
0.0
 10
14.0894299003
 20
12.3092302883
 30
0.0
 10
14.0961684152
 20
12.2926764159
 30
0.0
 10
14.1052957535
 20
12.2719600286
 30
0.0
 10
14.1173025197
 20
12.247194662
 30
0.0
 10
14.1303997188
 20
12.2224382744
 30
0.0
 10
14.1445755226
 20
12.1977130438
 30
0.0
 10
14.1598172627
 20
12.1730407991
 30
0.0
 10
14.1761113123
 20
12.1484434145
 30
0.0
 10
14.1934431451
 20
12.123942684
 30
0.0
 10
14.2117973226
 20
12.099560334
 30
0.0
 10
14.2311574837
 20
12.0753179678
 30
0.0
 10
14.2515063773
 20
12.0512370952
 30
0.0
 10
14.27282595
 20
12.0273390359
 30
0.0
 10
14.2950970606
 20
12.0036451815
 30
0.0
 10
14.310453705
 20
11.988112617
 30
0.0
 10
14.3182826202
 20
11.9803844857
 30
0.0
  0
SPLINE
  5
365
100
AcDbEntity
  8
LAYER_FEATURE
100
AcDbSpline
 62
7
  6
CONTINUOUS
 70
0
 71
3
 72
80
 73
76
 74
0
 42
0.0000001
 43
0.0000001
 44
0.0000000001
 40
0.0
 40
0.0
 40
0.0
 40
0.0
 40
0.017178625
 40
0.0345301896
 40
0.0520439856
 40
0.0697095611
 40
0.0875157513
 40
0.105451206
 40
0.1235042502
 40
0.1416629551
 40
0.159915164
 40
0.1782485184
 40
0.1966504877
 40
0.2151083967
 40
0.2336094524
 40
0.2521407721
 40
0.2706894106
 40
0.2892423869
 40
0.3077867108
 40
0.3263094099
 40
0.3447975567
 40
0.3632382956
 40
0.3816188701
 40
0.3999266497
 40
0.4181491573
 40
0.4362740982
 40
0.4542893881
 40
0.4721831821
 40
0.4899439035
 40
0.5075602738
 40
0.5250213437
 40
0.5423165259
 40
0.5594356272
 40
0.5763688815
 40
0.5931069843
 40
0.6096411291
 40
0.6259630453
 40
0.6420650388
 40
0.6579400309
 40
0.673581601
 40
0.6889840307
 40
0.7041423508
 40
0.7190523912
 40
0.7337108317
 40
0.7481152531
 40
0.7622641923
 40
0.7761571984
 40
0.7897948916
 40
0.8031790229
 40
0.8163125314
 40
0.8291996012
 40
0.8418457167
 40
0.8542577138
 40
0.8603787793
 40
0.8664445248
 40
0.8784144197
 40
0.8901792221
 40
0.8959889949
 40
0.9017523402
 40
0.9131461931
 40
0.9243770779
 40
0.9299370835
 40
0.935462781
 40
0.9409564793
 40
0.9464205592
 40
0.9518574755
 40
0.9572697442
 40
0.9626599452
 40
0.9680307112
 40
0.9733847242
 40
0.9787247102
 40
0.9840534294
 40
0.9893736733
 40
0.9946882542
 40
1.0
 40
1.0
 40
1.0
 40
1.0
 10
14.8723039688
 20
13.1475585526
 30
0.0
 10
14.8872461865
 20
13.1475585526
 30
0.0
 10
14.9172820062
 20
13.1472297684
 30
0.0
 10
14.9625302337
 20
13.1457688933
 30
0.0
 10
15.0081610849
 20
13.1433391982
 30
0.0
 10
15.0541266004
 20
13.1399433039
 30
0.0
 10
15.1003791812
 20
13.1355846865
 30
0.0
 10
15.1468706032
 20
13.1302679087
 30
0.0
 10
15.1935525045
 20
13.1239984944
 30
0.0
 10
15.2403762917
 20
13.1167829776
 30
0.0
 10
15.2872932281
 20
13.1086288712
 30
0.0
 10
15.3342544786
 20
13.0995446623
 30
0.0
 10
15.38121116
 20
13.0895398056
 30
0.0
 10
15.4281143917
 20
13.0786247101
 30
0.0
 10
15.4749153493
 20
13.0668107412
 30
0.0
 10
15.5215653145
 20
13.0541102005
 30
0.0
 10
15.5680157255
 20
13.0405363102
 30
0.0
 10
15.6142182278
 20
13.0261031996
 30
0.0
 10
15.6601247237
 20
13.0108258903
 30
0.0
 10
15.7056874232
 20
12.9947202826
 30
0.0
 10
15.7508588977
 20
12.9778031473
 30
0.0
 10
15.7955921259
 20
12.9600920968
 30
0.0
 10
15.8398405426
 20
12.9416055676
 30
0.0
 10
15.8835580872
 20
12.9223628019
 30
0.0
 10
15.9266992506
 20
12.9023838251
 30
0.0
 10
15.9692191274
 20
12.8816894333
 30
0.0
 10
16.0110734626
 20
12.8603011696
 30
0.0
 10
16.0522186943
 20
12.8382412951
 30
0.0
 10
16.0926119991
 20
12.815532767
 30
0.0
 10
16.1322113357
 20
12.7921992143
 30
0.0
 10
16.1709754896
 20
12.768264912
 30
0.0
 10
16.2088641231
 20
12.7437547656
 30
0.0
 10
16.2458378116
 20
12.7186942754
 30
0.0
 10
16.2818580831
 20
12.6931095087
 30
0.0
 10
16.3168874573
 20
12.6670270734
 30
0.0
 10
16.3508894838
 20
12.6404740885
 30
0.0
 10
16.3838287841
 20
12.6134781579
 30
0.0
 10
16.4156710927
 20
12.5860673466
 30
0.0
 10
16.4463832839
 20
12.5582701404
 30
0.0
 10
16.4759334054
 20
12.5301154186
 30
0.0
 10
16.50429071
 20
12.5016324233
 30
0.0
 10
16.5314256856
 20
12.4728507257
 30
0.0
 10
16.557310095
 20
12.4438002029
 30
0.0
 10
16.581916999
 20
12.4145110014
 30
0.0
 10
16.6052207768
 20
12.3850135019
 30
0.0
 10
16.6271971496
 20
12.3553382904
 30
0.0
 10
16.6478232031
 20
12.3255161242
 30
0.0
 10
16.6670774079
 20
12.2955779044
 30
0.0
 10
16.6849396558
 20
12.2655546393
 30
0.0
 10
16.701391246
 20
12.2354774515
 30
0.0
 10
16.7164149623
 20
12.2053773859
 30
0.0
 10
16.7299948584
 20
12.1752859835
 30
0.0
 10
16.7401430487
 20
12.1501270484
 30
0.0
 10
16.7475147775
 20
12.1300391204
 30
0.0
 10
16.7543299198
 20
12.1101617414
 30
0.0
 10
16.7619365918
 20
12.0853727699
 30
0.0
 10
16.7683603667
 20
12.0604803511
 30
0.0
 10
16.7727383048
 20
12.0406566627
 30
0.0
 10
16.7765821605
 20
12.0210512969
 30
0.0
 10
16.7804579833
 20
11.9966544906
 30
0.0
 10
16.7830968281
 20
11.9722701687
 30
0.0
 10
16.7844416123
 20
11.9529036915
 30
0.0
 10
16.7850679514
 20
11.9384945996
 30
0.0
 10
16.7853151543
 20
11.9241575214
 30
0.0
 10
16.7851831021
 20
11.9098960984
 30
0.0
 10
16.7846718941
 20
11.8957140834
 30
0.0
 10
16.7837815768
 20
11.8816151763
 30
0.0
 10
16.7825124259
 20
11.8676030639
 30
0.0
 10
16.7808647537
 20
11.8536814082
 30
0.0
 10
16.7788389491
 20
11.8398538572
 30
0.0
 10
16.7764356032
 20
11.8261240155
 30
0.0
 10
16.773655259
 20
11.8124954999
 30
0.0
 10
16.7704986997
 20
11.798971827
 30
0.0
 10
16.7669667538
 20
11.7855566814
 30
0.0
 10
16.7643621369
 20
11.7766868136
 30
0.0
 10
16.762998027
 20
11.7722725454
 30
0.0
  0
SPLINE
  5
366
100
AcDbEntity
  8
LAYER_FEATURE
100
AcDbSpline
 62
7
  6
CONTINUOUS
 70
0
 71
3
 72
89
 73
85
 74
0
 42
0.0000001
 43
0.0000001
 44
0.0000000001
 40
0.0
 40
0.0
 40
0.0
 40
0.0
 40
0.0053540537
 40
0.0107127968
 40
0.0160808978
 40
0.0214629861
 40
0.0268636296
 40
0.03228732
 40
0.0377384501
 40
0.0432213038
 40
0.0487400329
 40
0.0542986535
 40
0.0599010222
 40
0.0655508392
 40
0.0712516246
 40
0.0770067271
 40
0.0828193015
 40
0.0886923221
 40
0.0946285615
 40
0.1006306075
 40
0.1128402928
 40
0.1190533051
 40
0.1253405187
 40
0.1317035524
 40
0.1381438481
 40
0.1446626596
 40
0.1512610706
 40
0.1646992676
 40
0.1784646668
 40
0.1925600205
 40
0.206985714
 40
0.2217399238
 40
0.2368187728
 40
0.2522164791
 40
0.2679254982
 40
0.2839366585
 40
0.3002392885
 40
0.3168213382
 40
0.3336694927
 40
0.3507692804
 40
0.3681051755
 40
0.3856606954
 40
0.4034184941
 40
0.4213604514
 40
0.4394677586
 40
0.457721002
 40
0.4761002435
 40
0.494585099
 40
0.5131548157
 40
0.5317883473
 40
0.5504644287
 40
0.56916165
 40
0.5878585291
 40
0.6065335852
 40
0.6251654119
 40
0.6437327498
 40
0.662214561
 40
0.6805901031
 40
0.6988390051
 40
0.7169413443
 40
0.734877725
 40
0.7526293593
 40
0.7701781502
 40
0.7875067777
 40
0.8045987884
 40
0.8214386885
 40
0.8380120415
 40
0.8543055712
 40
0.8703072696
 40
0.8860065112
 40
0.901394174
 40
0.9089690626
 40
0.9164633937
 40
0.9238765056
 40
0.9312078632
 40
0.9384570467
 40
0.9456237715
 40
0.9527078804
 40
0.959709372
 40
0.9666283674
 40
0.9734651169
 40
0.980220047
 40
0.9868938665
 40
1.0
 40
1.0
 40
1.0
 40
1.0
 10
14.3723453901
 20
12.5560919666
 30
0.0
 10
14.3735286442
 20
12.5599209893
 30
0.0
 10
14.3760348295
 20
12.5675403343
 30
0.0
 10
14.3802069696
 20
12.5788338701
 30
0.0
 10
14.3847908942
 20
12.5899894816
 30
0.0
 10
14.3897846202
 20
12.6010021428
 30
0.0
 10
14.3951859337
 20
12.6118672013
 30
0.0
 10
14.4009925616
 20
12.622579936
 30
0.0
 10
14.4072019154
 20
12.6331357922
 30
0.0
 10
14.4138113808
 20
12.6435301941
 30
0.0
 10
14.4208180205
 20
12.6537587381
 30
0.0
 10
14.4282188795
 20
12.66381699
 30
0.0
 10
14.4360106833
 20
12.6737007069
 30
0.0
 10
14.444190141
 20
12.6834056038
 30
0.0
 10
14.4527536521
 20
12.6929276027
 30
0.0
 10
14.4616975927
 20
12.7022625741
 30
0.0
 10
14.4710180547
 20
12.7114066137
 30
0.0
 10
14.4807110558
 20
12.7203557334
 30
0.0
 10
14.4907725057
 20
12.7291062878
 30
0.0
 10
14.5047517518
 20
12.7405682416
 30
0.0
 10
14.5193823512
 20
12.7515507604
 30
0.0
 10
14.5346128844
 20
12.7620481837
 30
0.0
 10
14.5464483934
 20
12.7697512753
 30
0.0
 10
14.5586239431
 20
12.7772346074
 30
0.0
 10
14.5711345077
 20
12.7844950773
 30
0.0
 10
14.5839747412
 20
12.7915296481
 30
0.0
 10
14.6016337191
 20
12.8006588364
 30
0.0
 10
14.6245160596
 20
12.8114791195
 30
0.0
 10
14.6530343915
 20
12.8234349966
 30
0.0
 10
14.6827293994
 20
12.8344208103
 30
0.0
 10
14.7135500154
 20
12.8444179047
 30
0.0
 10
14.745443842
 20
12.8534095387
 30
0.0
 10
14.7783565003
 20
12.8613805603
 30
0.0
 10
14.8122319175
 20
12.8683175391
 30
0.0
 10
14.8470123607
 20
12.8742087678
 30
0.0
 10
14.8826385471
 20
12.8790442956
 30
0.0
 10
14.9190497387
 20
12.8828159487
 30
0.0
 10
14.956183846
 20
12.8855173496
 30
0.0
 10
14.9939775331
 20
12.8871439318
 30
0.0
 10
15.0323663258
 20
12.8876929515
 30
0.0
 10
15.0712847224
 20
12.8871634949
 30
0.0
 10
15.1106663064
 20
12.8855564822
 30
0.0
 10
15.1504438602
 20
12.8828746684
 30
0.0
 10
15.1905494814
 20
12.8791226398
 30
0.0
 10
15.2309146993
 20
12.8743068075
 30
0.0
 10
15.2714705932
 20
12.8684353978
 30
0.0
 10
15.312147911
 20
12.8615184386
 30
0.0
 10
15.352877188
 20
12.853567743
 30
0.0
 10
15.3935888671
 20
12.8445968897
 30
0.0
 10
15.4342134179
 20
12.8346211998
 30
0.0
 10
15.4746814567
 20
12.8236577108
 30
0.0
 10
15.5149238656
 20
12.8117251481
 30
0.0
 10
15.5548719114
 20
12.7988438921
 30
0.0
 10
15.5944573637
 20
12.7850359437
 30
0.0
 10
15.6336126121
 20
12.7703248865
 30
0.0
 10
15.6722707824
 20
12.754735846
 30
0.0
 10
15.7103658516
 20
12.7382954461
 30
0.0
 10
15.7478327609
 20
12.7210317633
 30
0.0
 10
15.7846075278
 20
12.7029742777
 30
0.0
 10
15.8206273556
 20
12.6841538221
 30
0.0
 10
15.8558307411
 20
12.6646025279
 30
0.0
 10
15.8901575803
 20
12.6443537695
 30
0.0
 10
15.9235492709
 20
12.6234421056
 30
0.0
 10
15.9559488124
 20
12.6019032186
 30
0.0
 10
15.9873009042
 20
12.5797738515
 30
0.0
 10
16.017552037
 20
12.5570917447
 30
0.0
 10
16.0466505915
 20
12.5338955621
 30
0.0
 10
16.0745468965
 20
12.5102248498
 30
0.0
 10
16.1011934158
 20
12.4861198641
 30
0.0
 10
16.1265444488
 20
12.4616218683
 30
0.0
 10
16.1466588568
 20
12.4408063385
 30
0.0
 10
16.1620549952
 20
12.4239910716
 30
0.0
 10
16.1731919624
 20
12.411373308
 30
0.0
 10
16.183973908
 20
12.3986892025
 30
0.0
 10
16.1943962898
 20
12.3859441488
 30
0.0
 10
16.2044546069
 20
12.3731435676
 30
0.0
 10
16.2141446013
 20
12.3602929548
 30
0.0
 10
16.2234620884
 20
12.3473977514
 30
0.0
 10
16.2324031288
 20
12.3344634948
 30
0.0
 10
16.2409638424
 20
12.3214956624
 30
0.0
 10
16.2491405892
 20
12.3084999099
 30
0.0
 10
16.2569299565
 20
12.29548148
 30
0.0
 10
16.2667347373
 20
12.2782067294
 30
0.0
 10
16.2735908071
 20
12.2650753345
 30
0.0
 10
16.2779126902
 20
12.2562682629
 30
0.0
  0
SPLINE
  5
367
100
AcDbEntity
  8
LAYER_FEATURE
100
AcDbSpline
 62
7
  6
CONTINUOUS
 70
0
 71
3
 72
15
 73
11
 74
0
 42
0.0000001
 43
0.0000001
 44
0.0000000001
 40
0.0
 40
0.0
 40
0.0
 40
0.0
 40
0.1393348855
 40
0.2752663311
 40
0.4073424578
 40
0.5352201174
 40
0.6585967087
 40
0.777249811
 40
0.891067037
 40
1.0
 40
1.0
 40
1.0
 40
1.0
 10
14.4728495648
 20
13.3724862991
 30
0.0
 10
14.4722056413
 20
13.3725231749
 30
0.0
 10
14.4709315048
 20
13.372565197
 30
0.0
 10
14.4690454065
 20
13.372530722
 30
0.0
 10
14.4672167044
 20
13.3723981494
 30
0.0
 10
14.4654561738
 20
13.3721682936
 30
0.0
 10
14.4637740038
 20
13.3718423958
 30
0.0
 10
14.4621798823
 20
13.3714223166
 30
0.0
 10
14.4606832766
 20
13.3709104091
 30
0.0
 10
14.4597354968
 20
13.3705008389
 30
0.0
 10
14.4592818191
 20
13.3702807405
 30
0.0
  0
SPLINE
  5
368
100
AcDbEntity
  8
LAYER_FEATURE
100
AcDbSpline
 62
7
  6
CONTINUOUS
 70
0
 71
3
 72
15
 73
11
 74
0
 42
0.0000001
 43
0.0000001
 44
0.0000000001
 40
0.0
 40
0.0
 40
0.0
 40
0.0
 40
0.1350195828
 40
0.2680666142
 40
0.3986249544
 40
0.5262606691
 40
0.6505538031
 40
0.7711334494
 40
0.8877053833
 40
1.0
 40
1.0
 40
1.0
 40
1.0
 10
14.5380795875
 20
13.4876476764
 30
0.0
 10
14.5374149234
 20
13.4877668406
 30
0.0
 10
14.5360897825
 20
13.4879738244
 30
0.0
 10
14.5341072305
 20
13.4881900746
 30
0.0
 10
14.5321533737
 20
13.4883088945
 30
0.0
 10
14.5302397542
 20
13.4883296321
 30
0.0
 10
14.5283774763
 20
13.4882521094
 30
0.0
 10
14.526577324
 20
13.4880768038
 30
0.0
 10
14.5248499507
 20
13.4878046724
 30
0.0
 10
14.5237318978
 20
13.4875549285
 30
0.0
 10
14.5231884199
 20
13.4874133769
 30
0.0
  0
SPLINE
  5
369
100
AcDbEntity
  8
LAYER_FEATURE
100
AcDbSpline
 62
7
  6
CONTINUOUS
 70
0
 71
3
 72
15
 73
11
 74
0
 42
0.0000001
 43
0.0000001
 44
0.0000000001
 40
0.0
 40
0.0
 40
0.0
 40
0.0
 40
0.130534334
 40
0.2604688112
 40
0.3892668969
 40
0.5164541718
 40
0.6415515311
 40
0.764107086
 40
0.883723301
 40
1.0
 40
1.0
 40
1.0
 40
1.0
 10
14.6432121162
 20
13.5845671515
 30
0.0
 10
14.6425521743
 20
13.5847648362
 30
0.0
 10
14.6412264949
 20
13.5851304964
 30
0.0
 10
14.6392232848
 20
13.5855891828
 30
0.0
 10
14.6372189132
 20
13.5859548108
 30
0.0
 10
14.6352252396
 20
13.5862252711
 30
0.0
 10
14.6332538513
 20
13.5863989436
 30
0.0
 10
14.6313162069
 20
13.5864748615
 30
0.0
 10
14.6294237652
 20
13.5864525161
 30
0.0
 10
14.6281807176
 20
13.5863709962
 30
0.0
 10
14.6275697861
 20
13.5863131152
 30
0.0
  0
SPLINE
  5
36A
100
AcDbEntity
  8
LAYER_FEATURE
100
AcDbSpline
 62
7
  6
CONTINUOUS
 70
0
 71
3
 72
11
 73
7
 74
0
 42
0.0000001
 43
0.0000001
 44
0.0000000001
 40
0.0
 40
0.0
 40
0.0
 40
0.0
 40
0.2471517939
 40
0.4967900773
 40
0.748037634
 40
1.0
 40
1.0
 40
1.0
 40
1.0
 10
14.6642157357
 20
13.5763008158
 30
0.0
 10
14.6625484742
 20
13.5771290282
 30
0.0
 10
14.6591599118
 20
13.5787198363
 30
0.0
 10
14.6539599434
 20
13.5808938296
 30
0.0
 10
14.648638868
 20
13.5828589253
 30
0.0
 10
14.6450301747
 20
13.5840225545
 30
0.0
 10
14.6432121162
 20
13.5845671515
 30
0.0
  0
SPLINE
  5
36B
100
AcDbEntity
  8
LAYER_FEATURE
100
AcDbSpline
 62
7
  6
CONTINUOUS
 70
0
 71
3
 72
15
 73
11
 74
0
 42
0.0000001
 43
0.0000001
 44
0.0000000001
 40
0.0
 40
0.0
 40
0.0
 40
0.0
 40
0.124247706
 40
0.2498381061
 40
0.3762126582
 40
0.5028026772
 40
0.6290363408
 40
0.7543467056
 40
0.8781792853
 40
1.0
 40
1.0
 40
1.0
 40
1.0
 10
14.6642157357
 20
13.5763008158
 30
0.0
 10
14.6659454785
 20
13.5754415657
 30
0.0
 10
14.6694671802
 20
13.573799995
 30
0.0
 10
14.6748823231
 20
13.5715860583
 30
0.0
 10
14.68043045
 20
13.5696182674
 30
0.0
 10
14.6860742581
 20
13.5679098753
 30
0.0
 10
14.6917760052
 20
13.5664722957
 30
0.0
 10
14.6974975747
 20
13.5653151512
 30
0.0
 10
14.7032004823
 20
13.5644461982
 30
0.0
 10
14.7070013989
 20
13.5640591644
 30
0.0
 10
14.7088896945
 20
13.5639165052
 30
0.0
  0
SPLINE
  5
36C
100
AcDbEntity
  8
LAYER_FEATURE
100
AcDbSpline
 62
7
  6
CONTINUOUS
 70
0
 71
3
 72
15
 73
11
 74
0
 42
0.0000001
 43
0.0000001
 44
0.0000000001
 40
0.0
 40
0.0
 40
0.0
 40
0.0
 40
0.1260777671
 40
0.2528519864
 40
0.3797953563
 40
0.5064254598
 40
0.6322402192
 40
0.7567475691
 40
0.8794932451
 40
1.0
 40
1.0
 40
1.0
 40
1.0
 10
14.784206967
 20
13.6595201634
 30
0.0
 10
14.7835773019
 20
13.6597895265
 30
0.0
 10
14.7823021599
 20
13.660301388
 30
0.0
 10
14.78035496
 20
13.6609849542
 30
0.0
 10
14.7783767594
 20
13.6615833946
 30
0.0
 10
14.7763792741
 20
13.66209322
 30
0.0
 10
14.7743741194
 20
13.6625114191
 30
0.0
 10
14.7723729728
 20
13.6628356026
 30
0.0
 10
14.770387664
 20
13.6630638
 30
0.0
 10
14.7690686308
 20
13.6631520191
 30
0.0
 10
14.7684146003
 20
13.6631792939
 30
0.0
  0
SPLINE
  5
36D
100
AcDbEntity
  8
LAYER_FEATURE
100
AcDbSpline
 62
7
  6
CONTINUOUS
 70
0
 71
3
 72
11
 73
7
 74
0
 42
0.0000001
 43
0.0000001
 44
0.0000000001
 40
0.0
 40
0.0
 40
0.0
 40
0.0
 40
0.2435784783
 40
0.491982218
 40
0.7444063181
 40
1.0
 40
1.0
 40
1.0
 40
1.0
 10
14.8035124103
 20
13.6491813501
 30
0.0
 10
14.8020280474
 20
13.6501643475
 30
0.0
 10
14.7989807584
 20
13.6520765295
 30
0.0
 10
14.7942410712
 20
13.6547521402
 30
0.0
 10
14.7893079071
 20
13.6572522351
 30
0.0
 10
14.785924566
 20
13.6587853955
 30
0.0
 10
14.784206967
 20
13.6595201634
 30
0.0
  0
SPLINE
  5
36E
100
AcDbEntity
  8
LAYER_FEATURE
100
AcDbSpline
 62
7
  6
CONTINUOUS
 70
0
 71
3
 72
23
 73
19
 74
0
 42
0.0000001
 43
0.0000001
 44
0.0000000001
 40
0.0
 40
0.0
 40
0.0
 40
0.0
 40
0.0607157807
 40
0.1225841545
 40
0.1854206313
 40
0.2490395294
 40
0.3132423168
 40
0.3778266938
 40
0.4425861141
 40
0.5073124756
 40
0.5717979948
 40
0.6358371874
 40
0.6992288821
 40
0.7617782553
 40
0.823298946
 40
0.8836152918
 40
0.9425646758
 40
1.0
 40
1.0
 40
1.0
 40
1.0
 10
14.8035124103
 20
13.6491813501
 30
0.0
 10
14.8048097969
 20
13.648322175
 30
0.0
 10
14.8074698627
 20
13.6466481655
 30
0.0
 10
14.8116008164
 20
13.6442962705
 30
0.0
 10
14.8158944991
 20
13.6420886134
 30
0.0
 10
14.8203302355
 20
13.6400357626
 30
0.0
 10
14.8248869915
 20
13.6381474924
 30
0.0
 10
14.8295429976
 20
13.6364328048
 30
0.0
 10
14.8342760663
 20
13.6348998831
 30
0.0
 10
14.8390636203
 20
13.6335560347
 30
0.0
 10
14.8438828279
 20
13.6324076661
 30
0.0
 10
14.8487107091
 20
13.6314602521
 30
0.0
 10
14.8535242463
 20
13.6307183102
 30
0.0
 10
14.8583005005
 20
13.6301853798
 30
0.0
 10
14.8630167031
 20
13.6298640068
 30
0.0
 10
14.8676504415
 20
13.6297557321
 30
0.0
 10
14.8721795009
 20
13.6298610686
 30
0.0
 10
14.8751560462
 20
13.6300763727
 30
0.0
 10
14.8766209272
 20
13.6302210503
 30
0.0
  0
SPLINE
  5
36F
100
AcDbEntity
  8
LAYER_FEATURE
100
AcDbSpline
 62
7
  6
CONTINUOUS
 70
0
 71
3
 72
11
 73
7
 74
0
 42
0.0000001
 43
0.0000001
 44
0.0000000001
 40
0.0
 40
0.0
 40
0.0
 40
0.0
 40
0.2554595464
 40
0.5063288483
 40
0.7539786362
 40
1.0
 40
1.0
 40
1.0
 40
1.0
 10
14.9007459383
 20
13.7060536017
 30
0.0
 10
14.9005535655
 20
13.7058176062
 30
0.0
 10
14.9001928918
 20
13.7053325391
 30
0.0
 10
14.8997259665
 20
13.7045631871
 30
0.0
 10
14.8993406379
 20
13.703762315
 30
0.0
 10
14.8991387689
 20
13.7032084339
 30
0.0
 10
14.8990522015
 20
13.702928284
 30
0.0
  0
SPLINE
  5
370
100
AcDbEntity
  8
LAYER_FEATURE
100
AcDbSpline
 62
7
  6
CONTINUOUS
 70
0
 71
3
 72
15
 73
11
 74
0
 42
0.0000001
 43
0.0000001
 44
0.0000000001
 40
0.0
 40
0.0
 40
0.0
 40
0.0
 40
0.1217017897
 40
0.2453192934
 40
0.3703604524
 40
0.4963611552
 40
0.6228235506
 40
0.7492441569
 40
0.8751430397
 40
1.0
 40
1.0
 40
1.0
 40
1.0
 10
14.9556457867
 20
13.7096263099
 30
0.0
 10
14.9550710478
 20
13.7099576665
 30
0.0
 10
14.953896087
 20
13.7105974843
 30
0.0
 10
14.9520794331
 20
13.711479765
 30
0.0
 10
14.9502031244
 20
13.7122881102
 30
0.0
 10
14.9482782815
 20
13.7130177867
 30
0.0
 10
14.9463160915
 20
13.7136645053
 30
0.0
 10
14.9443279904
 20
13.7142245444
 30
0.0
 10
14.9423257241
 20
13.7146945403
 30
0.0
 10
14.9409818548
 20
13.7149474469
 30
0.0
 10
14.9403102753
 20
13.7150579888
 30
0.0
  0
SPLINE
  5
371
100
AcDbEntity
  8
LAYER_FEATURE
100
AcDbSpline
 62
7
  6
CONTINUOUS
 70
0
 71
3
 72
11
 73
7
 74
0
 42
0.0000001
 43
0.0000001
 44
0.0000000001
 40
0.0
 40
0.0
 40
0.0
 40
0.0
 40
0.2400992471
 40
0.4872518884
 40
0.7407992707
 40
1.0
 40
1.0
 40
1.0
 40
1.0
 10
14.9725111565
 20
13.6976123339
 30
0.0
 10
14.9712690559
 20
13.6987134001
 30
0.0
 10
14.9686839677
 20
13.70087616
 30
0.0
 10
14.9645858418
 20
13.7039511345
 30
0.0
 10
14.9602293487
 20
13.7068906136
 30
0.0
 10
14.9571981842
 20
13.7087312998
 30
0.0
 10
14.9556457867
 20
13.7096263099
 30
0.0
  0
SPLINE
  5
372
100
AcDbEntity
  8
LAYER_FEATURE
100
AcDbSpline
 62
7
  6
CONTINUOUS
 70
0
 71
3
 72
15
 73
11
 74
0
 42
0.0000001
 43
0.0000001
 44
0.0000000001
 40
0.0
 40
0.0
 40
0.0
 40
0.0
 40
0.1090506486
 40
0.2229707835
 40
0.3417003981
 40
0.4651174094
 40
0.5929913774
 40
0.725013231
 40
0.8608346824
 40
1.0
 40
1.0
 40
1.0
 40
1.0
 10
16.7017826337
 20
12.6829998322
 30
0.0
 10
16.7015270763
 20
12.6834372798
 30
0.0
 10
16.7009655205
 20
12.6843093563
 30
0.0
 10
16.7000043604
 20
12.6855744872
 30
0.0
 10
16.6989115131
 20
12.6868180509
 30
0.0
 10
16.6976935444
 20
12.6880327778
 30
0.0
 10
16.6963574782
 20
12.6892116817
 30
0.0
 10
16.694911097
 20
12.6903480105
 30
0.0
 10
16.6933629049
 20
12.6914350396
 30
0.0
 10
16.6922807817
 20
12.6921152467
 30
0.0
 10
16.6917252634
 20
12.6924460086
 30
0.0
  0
SPLINE
  5
373
100
AcDbEntity
  8
LAYER_FEATURE
100
AcDbSpline
 62
7
  6
CONTINUOUS
 70
0
 71
3
 72
31
 73
27
 74
0
 42
0.0000001
 43
0.0000001
 44
0.0000000001
 40
0.0
 40
0.0
 40
0.0
 40
0.0
 40
0.0291346681
 40
0.0588635956
 40
0.0891468047
 40
0.1199500045
 40
0.1829495848
 40
0.2475231568
 40
0.3132915365
 40
0.3798513778
 40
0.4467841126
 40
0.5136640959
 40
0.5800666873
 40
0.6455763281
 40
0.6778745458
 40
0.7098021741
 40
0.7413135109
 40
0.7723651949
 40
0.8029162442
 40
0.8329285484
 40
0.8623672006
 40
0.8912006698
 40
0.9194015307
 40
0.9469464634
 40
0.9738170358
 40
1.0
 40
1.0
 40
1.0
 40
1.0
 10
14.9725111565
 20
13.6976123339
 30
0.0
 10
14.9732718077
 20
13.6969380509
 30
0.0
 10
14.9748346568
 20
13.6956048229
 30
0.0
 10
14.9772725622
 20
13.6936724262
 30
0.0
 10
14.9798229261
 20
13.6917911984
 30
0.0
 10
14.9833915545
 20
13.6893390042
 30
0.0
 10
14.9880966087
 20
13.6864338864
 30
0.0
 10
14.9940455444
 20
13.6832456194
 30
0.0
 10
15.0002836917
 20
13.6803591031
 30
0.0
 10
15.0067521894
 20
13.6778015957
 30
0.0
 10
15.0133901807
 20
13.6755971459
 30
0.0
 10
15.0201351907
 20
13.6737665052
 30
0.0
 10
15.0269235401
 20
13.6723269461
 30
0.0
 10
15.0325904029
 20
13.6714603352
 30
0.0
 10
15.0370914023
 20
13.6709763192
 30
0.0
 10
15.0404222926
 20
13.6707198811
 30
0.0
 10
15.0437160876
 20
13.6705689669
 30
0.0
 10
15.0469650289
 20
13.6705238902
 30
0.0
 10
15.0501614294
 20
13.6705847934
 30
0.0
 10
15.0532977364
 20
13.6707515266
 30
0.0
 10
15.05636654
 20
13.6710236833
 30
0.0
 10
15.0593605918
 20
13.6714006707
 30
0.0
 10
15.0622728211
 20
13.6718815545
 30
0.0
 10
15.0650963715
 20
13.6724652687
 30
0.0
 10
15.0678245061
 20
13.6731503991
 30
0.0
 10
15.0695987153
 20
13.6736806953
 30
0.0
 10
15.0704675128
 20
13.6739629764
 30
0.0
  0
SPLINE
  5
374
100
AcDbEntity
  8
LAYER_FEATURE
100
AcDbSpline
 62
7
  6
CONTINUOUS
 70
0
 71
3
 72
14
 73
10
 74
0
 42
0.0000001
 43
0.0000001
 44
0.0000000001
 40
0.0
 40
0.0
 40
0.0
 40
0.0
 40
0.2666129701
 40
0.3946032928
 40
0.5195464256
 40
0.6419642629
 40
0.7624273341
 40
0.8815540533
 40
1.0
 40
1.0
 40
1.0
 40
1.0
 10
15.0924021296
 20
13.7369151214
 30
0.0
 10
15.0918959855
 20
13.7365660887
 30
0.0
 10
15.0911795211
 20
13.735998096
 30
0.0
 10
15.0903335116
 20
13.7351483784
 30
0.0
 10
15.0897738407
 20
13.7344867031
 30
0.0
 10
15.0892824045
 20
13.7337940736
 30
0.0
 10
15.0888605503
 20
13.733072385
 30
0.0
 10
15.088509692
 20
13.7323237851
 30
0.0
 10
15.0883235226
 20
13.7318075505
 30
0.0
 10
15.0882428787
 20
13.731546585
 30
0.0
  0
SPLINE
  5
375
100
AcDbEntity
  8
LAYER_FEATURE
100
AcDbSpline
 62
7
  6
CONTINUOUS
 70
0
 71
3
 72
15
 73
11
 74
0
 42
0.0000001
 43
0.0000001
 44
0.0000000001
 40
0.0
 40
0.0
 40
0.0
 40
0.0
 40
0.1124507588
 40
0.2291449737
 40
0.3498061729
 40
0.4741345953
 40
0.6017548964
 40
0.7322437315
 40
0.8651646691
 40
1.0
 40
1.0
 40
1.0
 40
1.0
 10
16.7132923324
 20
12.8161910539
 30
0.0
 10
16.7129188743
 20
12.8166135801
 30
0.0
 10
16.7121277539
 20
12.8174483502
 30
0.0
 10
16.7108425614
 20
12.8186437731
 30
0.0
 10
16.7094434781
 20
12.8197995869
 30
0.0
 10
16.7079388278
 20
12.8209090169
 30
0.0
 10
16.7063373085
 20
12.821965613
 30
0.0
 10
16.7046482468
 20
12.8229632908
 30
0.0
 10
16.7028815928
 20
12.8238961145
 30
0.0
 10
16.7016660565
 20
12.8244678512
 30
0.0
 10
16.7010478979
 20
12.8247418636
 30
0.0
  0
SPLINE
  5
376
100
AcDbEntity
  8
LAYER_FEATURE
100
AcDbSpline
 62
7
  6
CONTINUOUS
 70
0
 71
3
 72
15
 73
11
 74
0
 42
0.0000001
 43
0.0000001
 44
0.0000000001
 40
0.0
 40
0.0
 40
0.0
 40
0.0
 40
0.117431718
 40
0.2379103157
 40
0.3610100117
 40
0.4863137974
 40
0.6133552967
 40
0.7416459931
 40
0.8707064364
 40
1.0
 40
1.0
 40
1.0
 40
1.0
 10
15.1509402778
 20
13.7329600399
 30
0.0
 10
15.1504432844
 20
13.7333411755
 30
0.0
 10
15.1494148196
 20
13.7340855607
 30
0.0
 10
15.1477982052
 20
13.7351328169
 30
0.0
 10
15.1460955834
 20
13.7361201415
 30
0.0
 10
15.1443170541
 20
13.7370417436
 30
0.0
 10
15.1424729372
 20
13.7378922263
 30
0.0
 10
15.1405739801
 20
13.7386666844
 30
0.0
 10
15.1386313913
 20
13.7393604889
 30
0.0
 10
15.1373142003
 20
13.7397667899
 30
0.0
 10
15.1366509566
 20
13.7399555308
 30
0.0
  0
SPLINE
  5
377
100
AcDbEntity
  8
LAYER_FEATURE
100
AcDbSpline
 62
7
  6
CONTINUOUS
 70
0
 71
3
 72
11
 73
7
 74
0
 42
0.0000001
 43
0.0000001
 44
0.0000000001
 40
0.0
 40
0.0
 40
0.0
 40
0.0
 40
0.2369409488
 40
0.4828700106
 40
0.7373981177
 40
1.0
 40
1.0
 40
1.0
 40
1.0
 10
15.1647174473
 20
13.7197325915
 30
0.0
 10
15.1637685082
 20
13.720909426
 30
0.0
 10
15.1617504574
 20
13.7232408667
 30
0.0
 10
15.1584504334
 20
13.7265981593
 30
0.0
 10
15.1548370966
 20
13.7298649455
 30
0.0
 10
15.1522698166
 20
13.7319404397
 30
0.0
 10
15.1509402778
 20
13.7329600399
 30
0.0
  0
SPLINE
  5
378
100
AcDbEntity
  8
LAYER_FEATURE
100
AcDbSpline
 62
7
  6
CONTINUOUS
 70
0
 71
3
 72
39
 73
35
 74
0
 42
0.0000001
 43
0.0000001
 44
0.0000000001
 40
0.0
 40
0.0
 40
0.0
 40
0.0
 40
0.0277966736
 40
0.0565160917
 40
0.0861227275
 40
0.1165763129
 40
0.1478238883
 40
0.1798049715
 40
0.2124517174
 40
0.2456899525
 40
0.279440221
 40
0.3136185639
 40
0.3481373957
 40
0.3829063432
 40
0.4178330061
 40
0.4528237035
 40
0.4877842427
 40
0.5226206873
 40
0.55724009
 40
0.5915512356
 40
0.6254654497
 40
0.6588974018
 40
0.6917659038
 40
0.7239947587
 40
0.7555137187
 40
0.7862594887
 40
0.8161767305
 40
0.845219189
 40
0.8733509679
 40
0.9005479502
 40
0.9267992007
 40
0.9521085133
 40
0.976496047
 40
1.0
 40
1.0
 40
1.0
 40
1.0
 10
15.1647174473
 20
13.7197325915
 30
0.0
 10
15.1654748804
 20
13.7187932547
 30
0.0
 10
15.1670728571
 20
13.7169295099
 30
0.0
 10
15.1696611177
 20
13.7142293244
 30
0.0
 10
15.1724704735
 20
13.7115885673
 30
0.0
 10
15.1754894847
 20
13.7090178405
 30
0.0
 10
15.1787062446
 20
13.7065273037
 30
0.0
 10
15.1821078826
 20
13.7041268718
 30
0.0
 10
15.1856808349
 20
13.7018260906
 30
0.0
 10
15.1894108486
 20
13.6996341316
 30
0.0
 10
15.1932830402
 20
13.6975597429
 30
0.0
 10
15.1972819518
 20
13.6956112058
 30
0.0
 10
15.2013916088
 20
13.6937962918
 30
0.0
 10
15.2055955965
 20
13.6921222487
 30
0.0
 10
15.2098771229
 20
13.6905957681
 30
0.0
 10
15.2142190843
 20
13.6892229564
 30
0.0
 10
15.2186041296
 20
13.6880092893
 30
0.0
 10
15.2230147388
 20
13.6869596129
 30
0.0
 10
15.2274332922
 20
13.6860781225
 30
0.0
 10
15.2318421414
 20
13.6853683495
 30
0.0
 10
15.2362236777
 20
13.6848331233
 30
0.0
 10
15.2405604083
 20
13.6844745769
 30
0.0
 10
15.244835026
 20
13.6842941453
 30
0.0
 10
15.2490304782
 20
13.6842925647
 30
0.0
 10
15.2531300372
 20
13.6844698536
 30
0.0
 10
15.2571173711
 20
13.6848253148
 30
0.0
 10
15.2609766066
 20
13.6853575607
 30
0.0
 10
15.2646923897
 20
13.6860645229
 30
0.0
 10
15.2682499442
 20
13.6869434609
 30
0.0
 10
15.2716351438
 20
13.6879909654
 30
0.0
 10
15.2748345203
 20
13.6892029866
 30
0.0
 10
15.2778354127
 20
13.6905749375
 30
0.0
 10
15.2806255962
 20
13.6921014261
 30
0.0
 10
15.2823691194
 20
13.6932387403
 30
0.0
 10
15.2831993278
 20
13.693831878
 30
0.0
  0
SPLINE
  5
379
100
AcDbEntity
  8
LAYER_FEATURE
100
AcDbSpline
 62
7
  6
CONTINUOUS
 70
0
 71
3
 72
15
 73
11
 74
0
 42
0.0000001
 43
0.0000001
 44
0.0000000001
 40
0.0
 40
0.0
 40
0.0
 40
0.0
 40
0.116448084
 40
0.2361927091
 40
0.3588296368
 40
0.4839582156
 40
0.6111242099
 40
0.7398469456
 40
0.8696511039
 40
1.0
 40
1.0
 40
1.0
 40
1.0
 10
16.6811123313
 20
12.9569440748
 30
0.0
 10
16.6806367042
 20
12.9573349163
 30
0.0
 10
16.6796489834
 20
12.9581000399
 30
0.0
 10
16.6780888287
 20
12.9591805502
 30
0.0
 10
16.6764369055
 20
12.9602047782
 30
0.0
 10
16.6747030163
 20
12.9611667158
 30
0.0
 10
16.672897216
 20
12.9620607359
 30
0.0
 10
16.6710300277
 20
12.9628816817
 30
0.0
 10
16.669112469
 20
12.9636246508
 30
0.0
 10
16.6678089356
 20
12.9640648125
 30
0.0
 10
16.6671513794
 20
12.9642709152
 30
0.0
  0
SPLINE
  5
37A
100
AcDbEntity
  8
LAYER_FEATURE
100
AcDbSpline
 62
7
  6
CONTINUOUS
 70
0
 71
3
 72
11
 73
7
 74
0
 42
0.0000001
 43
0.0000001
 44
0.0000000001
 40
0.0
 40
0.0
 40
0.0
 40
0.0
 40
0.2521121685
 40
0.5034089548
 40
0.7529966775
 40
1.0
 40
1.0
 40
1.0
 40
1.0
 10
16.6671513794
 20
12.9642709152
 30
0.0
 10
16.6653406326
 20
12.9648384708
 30
0.0
 10
16.6617008783
 20
12.9658963878
 30
0.0
 10
16.6561954063
 20
12.967249458
 30
0.0
 10
16.6506753305
 20
12.9683609892
 30
0.0
 10
16.6469813865
 20
12.9689407484
 30
0.0
 10
16.6451387687
 20
12.9691881795
 30
0.0
  0
SPLINE
  5
37B
100
AcDbEntity
  8
LAYER_FEATURE
100
AcDbSpline
 62
7
  6
CONTINUOUS
 70
0
 71
3
 72
15
 73
11
 74
0
 42
0.0000001
 43
0.0000001
 44
0.0000000001
 40
0.0
 40
0.0
 40
0.0
 40
0.0
 40
0.1430138623
 40
0.2797698676
 40
0.410551519
 40
0.5358902275
 40
0.6564958404
 40
0.7732845254
 40
0.8873776416
 40
1.0
 40
1.0
 40
1.0
 40
1.0
 10
15.3026585225
 20
13.7399555308
 30
0.0
 10
15.3021912248
 20
13.7397710166
 30
0.0
 10
15.3012904918
 20
13.7393745323
 30
0.0
 10
15.300023771
 20
13.7386810013
 30
0.0
 10
15.2988792259
 20
13.737905675
 30
0.0
 10
15.2978638401
 20
13.7370528917
 30
0.0
 10
15.2969839052
 20
13.7361272498
 30
0.0
 10
15.2962450154
 20
13.7351339301
 30
0.0
 10
15.295652347
 20
13.7340790361
 30
0.0
 10
15.2953564215
 20
13.7333365819
 30
0.0
 10
15.2952349781
 20
13.7329600399
 30
0.0
  0
SPLINE
  5
37C
100
AcDbEntity
  8
LAYER_FEATURE
100
AcDbSpline
 62
7
  6
CONTINUOUS
 70
0
 71
3
 72
15
 73
11
 74
0
 42
0.0000001
 43
0.0000001
 44
0.0000000001
 40
0.0
 40
0.0
 40
0.0
 40
0.0
 40
0.1206846069
 40
0.2435603272
 40
0.3681475472
 40
0.49399039
 40
0.6205957931
 40
0.7474613421
 40
0.8741048661
 40
1.0
 40
1.0
 40
1.0
 40
1.0
 10
16.6064792899
 20
13.0998498355
 30
0.0
 10
16.6059208996
 20
13.1001941072
 30
0.0
 10
16.6047764447
 20
13.1008608443
 30
0.0
 10
16.6030009093
 20
13.1017852879
 30
0.0
 10
16.6011592632
 20
13.1026388613
 30
0.0
 10
16.5992624235
 20
13.1034165637
 30
0.0
 10
16.5973214113
 20
13.1041138274
 30
0.0
 10
16.59534754
 20
13.1047266366
 30
0.0
 10
16.5933524691
 20
13.1052513159
 30
0.0
 10
16.592010272
 20
13.1055416036
 30
0.0
 10
16.5913383321
 20
13.1056711401
 30
0.0
  0
SPLINE
  5
37D
100
AcDbEntity
  8
LAYER_FEATURE
100
AcDbSpline
 62
7
  6
CONTINUOUS
 70
0
 71
3
 72
11
 73
7
 74
0
 42
0.0000001
 43
0.0000001
 44
0.0000000001
 40
0.0
 40
0.0
 40
0.0
 40
0.0
 40
0.2557438757
 40
0.5082157975
 40
0.7565680223
 40
1.0
 40
1.0
 40
1.0
 40
1.0
 10
16.5913383321
 20
13.1056711401
 30
0.0
 10
16.5895061639
 20
13.1060243451
 30
0.0
 10
16.5858498214
 20
13.1066488361
 30
0.0
 10
16.5803715476
 20
13.1073396819
 30
0.0
 10
16.574957216
 20
13.1077761162
 30
0.0
 10
16.5713695946
 20
13.1078972383
 30
0.0
 10
16.5695935923
 20
13.1079133733
 30
0.0
  0
SPLINE
  5
37E
100
AcDbEntity
  8
LAYER_FEATURE
100
AcDbSpline
 62
7
  6
CONTINUOUS
 70
0
 71
3
 72
15
 73
11
 74
0
 42
0.0000001
 43
0.0000001
 44
0.0000000001
 40
0.0
 40
0.0
 40
0.0
 40
0.0
 40
0.1133578277
 40
0.230756603
 40
0.3518834543
 40
0.4764094213
 40
0.6039358911
 40
0.7340219438
 40
0.8662184246
 40
1.0
 40
1.0
 40
1.0
 40
1.0
 10
15.3625853823
 20
13.7286246512
 30
0.0
 10
15.3621862848
 20
13.7290411549
 30
0.0
 10
15.3613455951
 20
13.7298623028
 30
0.0
 10
15.3599907795
 20
13.7310346029
 30
0.0
 10
15.3585269209
 20
13.7321632141
 30
0.0
 10
15.3569627206
 20
13.7332415187
 30
0.0
 10
15.3553072283
 20
13.7342632364
 30
0.0
 10
15.3535700863
 20
13.7352224797
 30
0.0
 10
15.3517615326
 20
13.7361135359
 30
0.0
 10
15.3505209974
 20
13.73665619
 30
0.0
 10
15.3498913821
 20
13.7369151214
 30
0.0
  0
SPLINE
  5
37F
100
AcDbEntity
  8
LAYER_FEATURE
100
AcDbSpline
 62
7
  6
CONTINUOUS
 70
0
 71
3
 72
11
 73
7
 74
0
 42
0.0000001
 43
0.0000001
 44
0.0000000001
 40
0.0
 40
0.0
 40
0.0
 40
0.0
 40
0.2347045641
 40
0.4795796381
 40
0.7347190845
 40
1.0
 40
1.0
 40
1.0
 40
1.0
 10
15.3727449027
 20
13.7146920539
 30
0.0
 10
15.3721292478
 20
13.7158974133
 30
0.0
 10
15.3707628915
 20
13.7183062115
 30
0.0
 10
15.368387162
 20
13.721819006
 30
0.0
 10
15.3656550113
 20
13.7252893184
 30
0.0
 10
15.3636437956
 20
13.7275200765
 30
0.0
 10
15.3625853823
 20
13.7286246512
 30
0.0
  0
SPLINE
  5
380
100
AcDbEntity
  8
LAYER_FEATURE
100
AcDbSpline
 62
7
  6
CONTINUOUS
 70
0
 71
3
 72
44
 73
40
 74
0
 42
0.0000001
 43
0.0000001
 44
0.0000000001
 40
0.0
 40
0.0
 40
0.0
 40
0.0
 40
0.0262891236
 40
0.0398948692
 40
0.0538082959
 40
0.0680304439
 40
0.0825595926
 40
0.1125184913
 40
0.1436433154
 40
0.1758655988
 40
0.2090978632
 40
0.2432366114
 40
0.2781648981
 40
0.313754724
 40
0.3498692396
 40
0.3863648219
 40
0.4230930548
 40
0.4599026453
 40
0.4966413028
 40
0.5331576062
 40
0.5693028812
 40
0.6049331134
 40
0.6399109239
 40
0.6741076367
 40
0.7074054764
 40
0.7396999372
 40
0.7709023741
 40
0.8009428649
 40
0.8297733937
 40
0.8573713803
 40
0.8837435247
 40
0.9089298297
 40
0.9330074596
 40
0.9446701746
 40
0.9561032548
 40
0.9673279277
 40
0.9783678305
 40
0.9892491241
 40
1.0
 40
1.0
 40
1.0
 40
1.0
 10
15.3727449027
 20
13.7146920539
 30
0.0
 10
15.3733567287
 20
13.7134941907
 30
0.0
 10
15.3743714683
 20
13.7117190956
 30
0.0
 10
15.3758842132
 20
13.7094183615
 30
0.0
 10
15.3771286408
 20
13.707681949
 30
0.0
 10
15.3784678283
 20
13.7059574404
 30
0.0
 10
15.3803966628
 20
13.7036539019
 30
0.0
 10
15.3830374703
 20
13.7008222366
 30
0.0
 10
15.3865157776
 20
13.697547987
 30
0.0
 10
15.3903142495
 20
13.6943829462
 30
0.0
 10
15.3944095395
 20
13.6913464723
 30
0.0
 10
15.398776644
 20
13.6884570288
 30
0.0
 10
15.4033888335
 20
13.6857322696
 30
0.0
 10
15.4082178725
 20
13.6831888564
 30
0.0
 10
15.4132341771
 20
13.6808423635
 30
0.0
 10
15.4184070023
 20
13.6787071697
 30
0.0
 10
15.423704633
 20
13.6767963658
 30
0.0
 10
15.4290945819
 20
13.6751216696
 30
0.0
 10
15.4345437932
 20
13.6736933519
 30
0.0
 10
15.4400188498
 20
13.6725201718
 30
0.0
 10
15.445486183
 20
13.6716093227
 30
0.0
 10
15.4509122838
 20
13.6709663895
 30
0.0
 10
15.456263914
 20
13.6705953172
 30
0.0
 10
15.461508316
 20
13.6704983916
 30
0.0
 10
15.4666134201
 20
13.6706762339
 30
0.0
 10
15.4715480459
 20
13.6711278084
 30
0.0
 10
15.4762820972
 20
13.6718504472
 30
0.0
 10
15.4807867421
 20
13.6728398889
 30
0.0
 10
15.4850345869
 20
13.674090346
 30
0.0
 10
15.4889997793
 20
13.6755945442
 30
0.0
 10
15.4926582354
 20
13.6773439261
 30
0.0
 10
15.4959872513
 20
13.6793283012
 30
0.0
 10
15.4984965509
 20
13.681188565
 30
0.0
 10
15.5003102991
 20
13.6827826515
 30
0.0
 10
15.5015616319
 20
13.6840160434
 30
0.0
 10
15.5027162723
 20
13.6852978313
 30
0.0
 10
15.5037723781
 20
13.6866261725
 30
0.0
 10
15.5047282775
 20
13.6879988776
 30
0.0
 10
15.5053007029
 20
13.6889472637
 30
0.0
 10
15.5055690383
 20
13.6894274352
 30
0.0
  0
SPLINE
  5
381
100
AcDbEntity
  8
LAYER_FEATURE
100
AcDbSpline
 62
7
  6
CONTINUOUS
 70
0
 71
3
 72
15
 73
11
 74
0
 42
0.0000001
 43
0.0000001
 44
0.0000000001
 40
0.0
 40
0.0
 40
0.0
 40
0.0
 40
0.1250387702
 40
0.2510682682
 40
0.3775671103
 40
0.5040548675
 40
0.6300281412
 40
0.7549898122
 40
0.8784770985
 40
1.0
 40
1.0
 40
1.0
 40
1.0
 10
16.492261314
 20
13.2394165475
 30
0.0
 10
16.4916424239
 20
13.2397014884
 30
0.0
 10
16.4903865089
 20
13.2402453429
 30
0.0
 10
16.4884634957
 20
13.240978385
 30
0.0
 10
16.4865025813
 20
13.2416286587
 30
0.0
 10
16.4845153815
 20
13.2421923676
 30
0.0
 10
16.4825134512
 20
13.2426661869
 30
0.0
 10
16.4805084525
 20
13.2430474029
 30
0.0
 10
16.4785122364
 20
13.2433337084
 30
0.0
 10
16.4771827018
 20
13.2434614223
 30
0.0
 10
16.4765222088
 20
13.2435086069
 30
0.0
  0
SPLINE
  5
382
100
AcDbEntity
  8
LAYER_FEATURE
100
AcDbSpline
 62
7
  6
CONTINUOUS
 70
0
 71
3
 72
11
 73
7
 74
0
 42
0.0000001
 43
0.0000001
 44
0.0000000001
 40
0.0
 40
0.0
 40
0.0
 40
0.0
 40
0.2593474652
 40
0.5129391752
 40
0.7600401597
 40
1.0
 40
1.0
 40
1.0
 40
1.0
 10
16.4765222088
 20
13.2435086069
 30
0.0
 10
16.4747389079
 20
13.2436360032
 30
0.0
 10
16.4712055225
 20
13.2438074278
 30
0.0
 10
16.4659640264
 20
13.243809574
 30
0.0
 10
16.4608624621
 20
13.2435541474
 30
0.0
 10
16.4575207503
 20
13.2432076013
 30
0.0
 10
16.4558809781
 20
13.2429896414
 30
0.0
  0
SPLINE
  5
383
100
AcDbEntity
  8
LAYER_FEATURE
100
AcDbSpline
 62
7
  6
CONTINUOUS
 70
0
 71
3
 72
11
 73
7
 74
0
 42
0.0000001
 43
0.0000001
 44
0.0000000001
 40
0.0
 40
0.0
 40
0.0
 40
0.0
 40
0.2544281195
 40
0.50510819
 40
0.7532028071
 40
1.0
 40
1.0
 40
1.0
 40
1.0
 10
15.5134305322
 20
13.7096263099
 30
0.0
 10
15.5129608949
 20
13.7090026591
 30
0.0
 10
15.5120784104
 20
13.7077259498
 30
0.0
 10
15.5109288996
 20
13.7057177189
 30
0.0
 10
15.5099682893
 20
13.7036382764
 30
0.0
 10
15.5094550635
 20
13.7022065723
 30
0.0
 10
15.5092314737
 20
13.701483043
 30
0.0
  0
SPLINE
  5
384
100
AcDbEntity
  8
LAYER_FEATURE
100
AcDbSpline
 62
7
  6
CONTINUOUS
 70
0
 71
3
 72
15
 73
11
 74
0
 42
0.0000001
 43
0.0000001
 44
0.0000000001
 40
0.0
 40
0.0
 40
0.0
 40
0.0
 40
0.1443891649
 40
0.2830678618
 40
0.4159125325
 40
0.5429871493
 40
0.6644796894
 40
0.7807488041
 40
0.8923534404
 40
1.0
 40
1.0
 40
1.0
 40
1.0
 10
15.523435082
 20
13.7150579888
 30
0.0
 10
15.5228857534
 20
13.7149501479
 30
0.0
 10
15.52181506
 20
13.7147048507
 30
0.0
 10
15.5202705695
 20
13.7142367052
 30
0.0
 10
15.518827953
 20
13.7136780546
 30
0.0
 10
15.5174957154
 20
13.713032073
 30
0.0
 10
15.5162816367
 20
13.712302205
 30
0.0
 10
15.5151928249
 20
13.7114923822
 30
0.0
 10
15.514236149
 20
13.7106071746
 30
0.0
 10
15.5136815965
 20
13.7099597087
 30
0.0
 10
15.5134305322
 20
13.7096263099
 30
0.0
  0
SPLINE
  5
385
100
AcDbEntity
  8
LAYER_FEATURE
100
AcDbSpline
 62
7
  6
CONTINUOUS
 70
0
 71
3
 72
15
 73
11
 74
0
 42
0.0000001
 43
0.0000001
 44
0.0000000001
 40
0.0
 40
0.0
 40
0.0
 40
0.0
 40
0.1294785107
 40
0.2586695381
 40
0.3870363349
 40
0.5141000563
 40
0.6393734301
 40
0.7623920633
 40
0.8827416506
 40
1.0
 40
1.0
 40
1.0
 40
1.0
 10
16.3428477364
 20
13.3702807405
 30
0.0
 10
16.3421926446
 20
13.3704960395
 30
0.0
 10
16.3408742936
 20
13.3708974924
 30
0.0
 10
16.3388774065
 20
13.3714110769
 30
0.0
 10
16.336872282
 20
13.37183316
 30
0.0
 10
16.3348707875
 20
13.3721612982
 30
0.0
 10
16.3328845581
 20
13.3723935366
 30
0.0
 10
16.3309251456
 20
13.3725285685
 30
0.0
 10
16.3290041363
 20
13.3725655378
 30
0.0
 10
16.3277386657
 20
13.3725241218
 30
0.0
 10
16.3271153288
 20
13.3724862991
 30
0.0
  0
SPLINE
  5
386
100
AcDbEntity
  8
LAYER_FEATURE
100
AcDbSpline
 62
7
  6
CONTINUOUS
 70
0
 71
3
 72
11
 73
7
 74
0
 42
0.0000001
 43
0.0000001
 44
0.0000000001
 40
0.0
 40
0.0
 40
0.0
 40
0.0
 40
0.2627322962
 40
0.5172952662
 40
0.7631758704
 40
1.0
 40
1.0
 40
1.0
 40
1.0
 10
16.3271153288
 20
13.3724862991
 30
0.0
 10
16.3254484433
 20
13.3723851561
 30
0.0
 10
16.3221708799
 20
13.3721012452
 30
0.0
 10
16.317366303
 20
13.3714143847
 30
0.0
 10
16.3127721218
 20
13.3704764924
 30
0.0
 10
16.3098086968
 20
13.3696715219
 30
0.0
 10
16.3083708382
 20
13.3692260784
 30
0.0
  0
SPLINE
  5
387
100
AcDbEntity
  8
LAYER_FEATURE
100
AcDbSpline
 62
7
  6
CONTINUOUS
 70
0
 71
3
 72
15
 73
11
 74
0
 42
0.0000001
 43
0.0000001
 44
0.0000000001
 40
0.0
 40
0.0
 40
0.0
 40
0.0
 40
0.1097639753
 40
0.2242932166
 40
0.3434660338
 40
0.4671091285
 40
0.5949498652
 40
0.7266453264
 40
0.8618205232
 40
1.0
 40
1.0
 40
1.0
 40
1.0
 10
15.5824476977
 20
13.6967867504
 30
0.0
 10
15.5821631744
 20
13.6972222857
 30
0.0
 10
15.5815449825
 20
13.6980886586
 30
0.0
 10
15.580503677
 20
13.6993415792
 30
0.0
 10
15.5793344563
 20
13.7005685993
 30
0.0
 10
15.5780443196
 20
13.7017625408
 30
0.0
 10
15.5766407078
 20
13.7029165158
 30
0.0
 10
15.5751317942
 20
13.7040239039
 30
0.0
 10
15.5735264541
 20
13.7050781416
 30
0.0
 10
15.5724090836
 20
13.70573509
 30
0.0
 10
15.5718368417
 20
13.7060536017
 30
0.0
  0
SPLINE
  5
388
100
AcDbEntity
  8
LAYER_FEATURE
100
AcDbSpline
 62
7
  6
CONTINUOUS
 70
0
 71
3
 72
11
 73
7
 74
0
 42
0.0000001
 43
0.0000001
 44
0.0000000001
 40
0.0
 40
0.0
 40
0.0
 40
0.0
 40
0.2346818148
 40
0.4790283436
 40
0.7339402419
 40
1.0
 40
1.0
 40
1.0
 40
1.0
 10
15.5885991442
 20
13.682684426
 30
0.0
 10
15.5883428458
 20
13.6838667992
 30
0.0
 10
15.5876877875
 20
13.6862532163
 30
0.0
 10
15.5863288193
 20
13.6897900987
 30
0.0
 10
15.5845831218
 20
13.6933337048
 30
0.0
 10
15.5831978396
 20
13.6956384678
 30
0.0
 10
15.5824476977
 20
13.6967867504
 30
0.0
  0
SPLINE
  5
389
100
AcDbEntity
  8
LAYER_FEATURE
100
AcDbSpline
 62
7
  6
CONTINUOUS
 70
0
 71
3
 72
20
 73
16
 74
0
 42
0.0000001
 43
0.0000001
 44
0.0000000001
 40
0.0
 40
0.0
 40
0.0
 40
0.0
 40
0.0560448977
 40
0.1123402822
 40
0.1690351509
 40
0.2262802339
 40
0.2842286658
 40
0.3430253879
 40
0.4636236085
 40
0.5256983047
 40
0.5890665093
 40
0.6538072782
 40
0.7199893632
 40
0.8568665557
 40
1.0
 40
1.0
 40
1.0
 40
1.0
 10
16.2072149823
 20
13.4534567097
 30
0.0
 10
16.2072683236
 20
13.4536470262
 30
0.0
 10
16.2073624699
 20
13.4540322208
 30
0.0
 10
16.2074652442
 20
13.4546198413
 30
0.0
 10
16.2075295847
 20
13.4552171805
 30
0.0
 10
16.2075553427
 20
13.4558232311
 30
0.0
 10
16.2075425458
 20
13.4564371178
 30
0.0
 10
16.2074735391
 20
13.457271713
 30
0.0
 10
16.2073266422
 20
13.4581128271
 30
0.0
 10
16.2071072276
 20
13.4589526226
 30
0.0
 10
16.2069032558
 20
13.4595919138
 30
0.0
 10
16.20666178
 20
13.4602334531
 30
0.0
 10
16.2062860812
 20
13.4611003009
 30
0.0
 10
16.2057215462
 20
13.4621848142
 30
0.0
 10
16.2051918212
 20
13.4630196689
 30
0.0
 10
16.204905285
 20
13.4634352413
 30
0.0
  0
SPLINE
  5
38A
100
AcDbEntity
  8
LAYER_FEATURE
100
AcDbSpline
 62
7
  6
CONTINUOUS
 70
0
 71
3
 72
15
 73
11
 74
0
 42
0.0000001
 43
0.0000001
 44
0.0000000001
 40
0.0
 40
0.0
 40
0.0
 40
0.0
 40
0.1339668222
 40
0.266291049
 40
0.3964485281
 40
0.5239921581
 40
0.6484838969
 40
0.7695289757
 40
0.8868032793
 40
1.0
 40
1.0
 40
1.0
 40
1.0
 10
16.1639804372
 20
13.4874133769
 30
0.0
 10
16.1633145726
 20
13.4875514976
 30
0.0
 10
16.1619847034
 20
13.4877966672
 30
0.0
 10
16.159990377
 20
13.4880711353
 30
0.0
 10
16.1580177722
 20
13.488248872
 30
0.0
 10
16.1560785471
 20
13.4883288785
 30
0.0
 10
16.1541839601
 20
13.4883106362
 30
0.0
 10
16.1523449939
 20
13.4881942841
 30
0.0
 10
16.1505725288
 20
13.4879804377
 30
0.0
 10
16.1494207858
 20
13.4877698347
 30
0.0
 10
16.1488593148
 20
13.4876476764
 30
0.0
  0
SPLINE
  5
38B
100
AcDbEntity
  8
LAYER_FEATURE
100
AcDbSpline
 62
7
  6
CONTINUOUS
 70
0
 71
3
 72
11
 73
7
 74
0
 42
0.0000001
 43
0.0000001
 44
0.0000000001
 40
0.0
 40
0.0
 40
0.0
 40
0.0
 40
0.2653619491
 40
0.5205128622
 40
0.7653521566
 40
1.0
 40
1.0
 40
1.0
 40
1.0
 10
16.1488593148
 20
13.4876476764
 30
0.0
 10
16.1473707572
 20
13.4873238132
 30
0.0
 10
16.1444693734
 20
13.4865988855
 30
0.0
 10
16.1402846629
 20
13.4852483785
 30
0.0
 10
16.1363726537
 20
13.4836625308
 30
0.0
 10
16.133908376
 20
13.4824276003
 30
0.0
 10
16.1327319044
 20
13.4817714888
 30
0.0
  0
SPLINE
  5
38C
100
AcDbEntity
  8
LAYER_FEATURE
100
AcDbSpline
 62
7
  6
CONTINUOUS
 70
0
 71
3
 72
54
 73
50
 74
0
 42
0.0000001
 43
0.0000001
 44
0.0000000001
 40
0.0
 40
0.0
 40
0.0
 40
0.0
 40
0.0239577291
 40
0.0363702363
 40
0.0490898059
 40
0.0621297584
 40
0.0754992776
 40
0.0892046883
 40
0.1032495752
 40
0.1176350464
 40
0.1323595737
 40
0.147419484
 40
0.1628089043
 40
0.1785201136
 40
0.1945435178
 40
0.2274765618
 40
0.2615055299
 40
0.2965031391
 40
0.3323254933
 40
0.3688153504
 40
0.4058051462
 40
0.4431198415
 40
0.4805796492
 40
0.5180026885
 40
0.5552076076
 40
0.5920162141
 40
0.6282561538
 40
0.6637636799
 40
0.698386564
 40
0.7319872098
 40
0.7644460401
 40
0.7802180733
 40
0.7956700428
 40
0.8107938203
 40
0.8255832082
 40
0.8400340464
 40
0.854144463
 40
0.8679149313
 40
0.8813485981
 40
0.8944512844
 40
0.9072318467
 40
0.9197021231
 40
0.9318773599
 40
0.9437760144
 40
0.9554198598
 40
0.9668339489
 40
0.9780474861
 40
0.9890922968
 40
1.0
 40
1.0
 40
1.0
 40
1.0
 10
15.5885991442
 20
13.682684426
 30
0.0
 10
15.5888755847
 20
13.6814091323
 30
0.0
 10
15.5894191307
 20
13.6794977833
 30
0.0
 10
15.590364686
 20
13.6769959549
 30
0.0
 10
15.5912042735
 20
13.675092694
 30
0.0
 10
15.5921641789
 20
13.6731888862
 30
0.0
 10
15.5932426466
 20
13.671287682
 30
0.0
 10
15.594437754
 20
13.6693925976
 30
0.0
 10
15.5957472721
 20
13.667506976
 30
0.0
 10
15.5971688697
 20
13.6656342302
 30
0.0
 10
15.5986999372
 20
13.6637776847
 30
0.0
 10
15.6003377403
 20
13.6619407018
 30
0.0
 10
15.6020792902
 20
13.6601265601
 30
0.0
 10
15.6039214795
 20
13.6583385199
 30
0.0
 10
15.6065311502
 20
13.6559720985
 30
0.0
 10
15.6100278021
 20
13.6531026663
 30
0.0
 10
15.6145293033
 20
13.6498450944
 30
0.0
 10
15.6193420948
 20
13.6467653706
 30
0.0
 10
15.6244314825
 20
13.643885664
 30
0.0
 10
15.6297609481
 20
13.6412266114
 30
0.0
 10
15.635292169
 20
13.6388073283
 30
0.0
 10
15.6409853661
 20
13.6366452106
 30
0.0
 10
15.6467995777
 20
13.6347558148
 30
0.0
 10
15.6526929662
 20
13.6331527365
 30
0.0
 10
15.6586231256
 20
13.6318475106
 30
0.0
 10
15.6645473944
 20
13.630849527
 30
0.0
 10
15.6704231774
 20
13.6301659655
 30
0.0
 10
15.6762082388
 20
13.629801747
 30
0.0
 10
15.6818611047
 20
13.6297595134
 30
0.0
 10
15.6873410533
 20
13.6300396036
 30
0.0
 10
15.6917729524
 20
13.6305447831
 30
0.0
 10
15.695195383
 20
13.6311126264
 30
0.0
 10
15.6976703067
 20
13.6316129622
 30
0.0
 10
15.700073271
 20
13.6321908819
 30
0.0
 10
15.7023999735
 20
13.6328453627
 30
0.0
 10
15.7046462128
 20
13.6335752485
 30
0.0
 10
15.7068079478
 20
13.6343792261
 30
0.0
 10
15.7088812736
 20
13.6352558948
 30
0.0
 10
15.7108624617
 20
13.6362036717
 30
0.0
 10
15.7127479173
 20
13.6372209207
 30
0.0
 10
15.7145342494
 20
13.6383058005
 30
0.0
 10
15.7162181908
 20
13.6394564464
 30
0.0
 10
15.7177967092
 20
13.6406707789
 30
0.0
 10
15.719266865
 20
13.6419467113
 30
0.0
 10
15.7206259995
 20
13.6432819043
 30
0.0
 10
15.7218715514
 20
13.6446740439
 30
0.0
 10
15.7230012707
 20
13.6461206703
 30
0.0
 10
15.7240128353
 20
13.6476190441
 30
0.0
 10
15.724610428
 20
13.6486561002
 30
0.0
 10
15.7248880647
 20
13.6491813501
 30
0.0
  0
SPLINE
  5
38D
100
AcDbEntity
  8
LAYER_FEATURE
100
AcDbSpline
 62
7
  6
CONTINUOUS
 70
0
 71
3
 72
13
 73
9
 74
0
 42
0.0000001
 43
0.0000001
 44
0.0000000001
 40
0.0
 40
0.0
 40
0.0
 40
0.0
 40
0.2626942602
 40
0.5157213188
 40
0.6391642542
 40
0.7608513882
 40
0.8810440797
 40
1.0
 40
1.0
 40
1.0
 40
1.0
 10
15.7340464027
 20
13.6595201634
 30
0.0
 10
15.7330650173
 20
13.6587965079
 30
0.0
 10
15.7312045818
 20
13.6572828137
 30
0.0
 10
15.7291086681
 20
13.655174146
 30
0.0
 10
15.7276238467
 20
13.6534001258
 30
0.0
 10
15.7266123979
 20
13.6520378135
 30
0.0
 10
15.7256957233
 20
13.6506348985
 30
0.0
 10
15.725146094
 20
13.6496695058
 30
0.0
 10
15.7248880647
 20
13.6491813501
 30
0.0
  0
SPLINE
  5
38E
100
AcDbEntity
  8
LAYER_FEATURE
100
AcDbSpline
 62
7
  6
CONTINUOUS
 70
0
 71
3
 72
15
 73
11
 74
0
 42
0.0000001
 43
0.0000001
 44
0.0000000001
 40
0.0
 40
0.0
 40
0.0
 40
0.0
 40
0.1075531331
 40
0.2191328913
 40
0.3354228633
 40
0.4569600517
 40
0.584083096
 40
0.7169623637
 40
0.8556467361
 40
1.0
 40
1.0
 40
1.0
 40
1.0
 10
16.0130361338
 20
13.5565073503
 30
0.0
 10
16.0130114121
 20
13.5569254428
 30
0.0
 10
16.0129076971
 20
13.5577748638
 30
0.0
 10
16.0126010493
 20
13.5590471038
 30
0.0
 10
16.0121430509
 20
13.5603308641
 30
0.0
 10
16.0115368771
 20
13.561618505
 30
0.0
 10
16.0107862556
 20
13.562902772
 30
0.0
 10
16.0098957438
 20
13.5641764349
 30
0.0
 10
16.0088706528
 20
13.5654320809
 30
0.0
 10
16.0081161873
 20
13.5662368396
 30
0.0
 10
16.0077191495
 20
13.5666347679
 30
0.0
  0
SPLINE
  5
38F
100
AcDbEntity
  8
LAYER_FEATURE
100
AcDbSpline
 62
7
  6
CONTINUOUS
 70
0
 71
3
 72
15
 73
11
 74
0
 42
0.0000001
 43
0.0000001
 44
0.0000000001
 40
0.0
 40
0.0
 40
0.0
 40
0.0
 40
0.1383546027
 40
0.2736453748
 40
0.4054000585
 40
0.5332480445
 40
0.6568519973
 40
0.7759462707
 40
0.8903660742
 40
1.0
 40
1.0
 40
1.0
 40
1.0
 10
15.9625331862
 20
13.5863131152
 30
0.0
 10
15.9618821259
 20
13.5863695504
 30
0.0
 10
15.9605915377
 20
13.5864506699
 30
0.0
 10
15.9586760448
 20
13.5864755114
 30
0.0
 10
15.9568113508
 20
13.5864020777
 30
0.0
 10
15.9550084506
 20
13.5862308413
 30
0.0
 10
15.9532777854
 20
13.5859627153
 30
0.0
 10
15.9516293358
 20
13.5855992449
 30
0.0
 10
15.9500728776
 20
13.5851424646
 30
0.0
 10
15.9490811545
 20
13.5847694127
 30
0.0
 10
15.9486044453
 20
13.5845671515
 30
0.0
  0
SPLINE
  5
390
100
AcDbEntity
  8
LAYER_FEATURE
100
AcDbSpline
 62
7
  6
CONTINUOUS
 70
0
 71
3
 72
11
 73
7
 74
0
 42
0.0000001
 43
0.0000001
 44
0.0000000001
 40
0.0
 40
0.0
 40
0.0
 40
0.0
 40
0.2660239441
 40
0.5208985451
 40
0.7652433812
 40
1.0
 40
1.0
 40
1.0
 40
1.0
 10
15.9486044453
 20
13.5845671515
 30
0.0
 10
15.947347775
 20
13.5840339634
 30
0.0
 10
15.9449252987
 20
13.5828961771
 30
0.0
 10
15.9415197699
 20
13.5809310888
 30
0.0
 10
15.9384392979
 20
13.578754507
 30
0.0
 10
15.9365788584
 20
13.5771392739
 30
0.0
 10
15.9357138825
 20
13.5763008158
 30
0.0
  0
SPLINE
  5
391
100
AcDbEntity
  8
LAYER_FEATURE
100
AcDbSpline
 62
7
  6
CONTINUOUS
 70
0
 71
3
 72
54
 73
50
 74
0
 42
0.0000001
 43
0.0000001
 44
0.0000000001
 40
0.0
 40
0.0
 40
0.0
 40
0.0
 40
0.0109290188
 40
0.0220018536
 40
0.0332496265
 40
0.0447035974
 40
0.0563923602
 40
0.068340326
 40
0.0805686184
 40
0.0930950486
 40
0.1059342344
 40
0.1190974087
 40
0.1325928528
 40
0.1464258447
 40
0.1605990231
 40
0.1751123871
 40
0.189963625
 40
0.205148169
 40
0.2206594458
 40
0.2364889807
 40
0.2690561974
 40
0.3027545162
 40
0.3374625046
 40
0.3730410506
 40
0.4093367205
 40
0.446184849
 40
0.4834124345
 40
0.5208408971
 40
0.5582887501
 40
0.5955742279
 40
0.6325179097
 40
0.6689453781
 40
0.704689955
 40
0.739595563
 40
0.7735197683
 40
0.8063370753
 40
0.8222991753
 40
0.837947175
 40
0.8532718118
 40
0.8682657246
 40
0.8829234299
 40
0.8972416755
 40
0.9112193867
 40
0.9248581579
 40
0.9381620943
 40
0.9511380745
 40
0.9637958676
 40
0.9761494011
 40
1.0
 40
1.0
 40
1.0
 40
1.0
 10
15.8039850145
 20
13.6249397431
 30
0.0
 10
15.8039259591
 20
13.6243473113
 30
0.0
 10
15.8038504711
 20
13.6231499043
 30
0.0
 10
15.8038645278
 20
13.621337263
 30
0.0
 10
15.8040052996
 20
13.6195013285
 30
0.0
 10
15.8042723671
 20
13.6176456748
 30
0.0
 10
15.8046652179
 20
13.615773605
 30
0.0
 10
15.8051830013
 20
13.6138884761
 30
0.0
 10
15.8058247998
 20
13.6119937218
 30
0.0
 10
15.8065893236
 20
13.6100927239
 30
0.0
 10
15.8074752013
 20
13.6081889112
 30
0.0
 10
15.8084807484
 20
13.6062856662
 30
0.0
 10
15.8096041641
 20
13.6043864218
 30
0.0
 10
15.8108433645
 20
13.6024945552
 30
0.0
 10
15.8121961256
 20
13.6006134743
 30
0.0
 10
15.8136599757
 20
13.5987465348
 30
0.0
 10
15.8152322819
 20
13.5968970963
 30
0.0
 10
15.8169101908
 20
13.5950684774
 30
0.0
 10
15.8186906916
 20
13.5932639433
 30
0.0
 10
15.8212210107
 20
13.5908718697
 30
0.0
 10
15.8246245391
 20
13.5879654588
 30
0.0
 10
15.8290234402
 20
13.5846576591
 30
0.0
 10
15.8337438425
 20
13.5815206422
 30
0.0
 10
15.8387517215
 20
13.578576981
 30
0.0
 10
15.8440111539
 20
13.5758477579
 30
0.0
 10
15.8494843278
 20
13.573352587
 30
0.0
 10
15.8551318872
 20
13.571109406
 30
0.0
 10
15.8609132022
 20
13.569134353
 30
0.0
 10
15.8667866729
 20
13.5674416397
 30
0.0
 10
15.8727100355
 20
13.5660434464
 30
0.0
 10
15.8786406732
 20
13.5649498324
 30
0.0
 10
15.8845359379
 20
13.5641686649
 30
0.0
 10
15.8903534442
 20
13.5637055656
 30
0.0
 10
15.8960514689
 20
13.5635638803
 30
0.0
 10
15.9015889567
 20
13.5637446588
 30
0.0
 10
15.9060778443
 20
13.5641668447
 30
0.0
 10
15.9095520729
 20
13.5646688382
 30
0.0
 10
15.9120691558
 20
13.5651208512
 30
0.0
 10
15.9145170143
 20
13.565651028
 30
0.0
 10
15.9168912681
 20
13.5662584039
 30
0.0
 10
15.9191876254
 20
13.5669419322
 30
0.0
 10
15.9214019595
 20
13.567700354
 30
0.0
 10
15.9235302682
 20
13.568532372
 30
0.0
 10
15.9255687314
 20
13.5694364591
 30
0.0
 10
15.9275136526
 20
13.5704110892
 30
0.0
 10
15.9293614935
 20
13.5714544197
 30
0.0
 10
15.9311090581
 20
13.5725648212
 30
0.0
 10
15.9332750585
 20
13.5741132849
 30
0.0
 10
15.9347809621
 20
13.575396496
 30
0.0
 10
15.9357138825
 20
13.5763008158
 30
0.0
  0
SPLINE
  5
392
100
AcDbEntity
  8
LAYER_FEATURE
100
AcDbSpline
 62
7
  6
CONTINUOUS
 70
0
 71
3
 72
13
 73
9
 74
0
 42
0.0000001
 43
0.0000001
 44
0.0000000001
 40
0.0
 40
0.0
 40
0.0
 40
0.0
 40
0.1187850231
 40
0.238865928
 40
0.3604956817
 40
0.4839303995
 40
0.7370675344
 40
1.0
 40
1.0
 40
1.0
 40
1.0
 10
15.8039850145
 20
13.6249397431
 30
0.0
 10
15.804039897
 20
13.6254903121
 30
0.0
 10
15.8041157147
 20
13.6266011935
 30
0.0
 10
15.8041278587
 20
13.6282812858
 30
0.0
 10
15.8040388596
 20
13.6299808146
 30
0.0
 10
15.8037835758
 20
13.6322884577
 30
0.0
 10
15.803205045
 20
13.6352168895
 30
0.0
 10
15.8024942662
 20
13.6375180146
 30
0.0
 10
15.8020780385
 20
13.6386698501
 30
0.0
  0
SPLINE
  5
393
100
AcDbEntity
  8
LAYER_FEATURE
100
AcDbSpline
 62
7
  6
CONTINUOUS
 70
0
 71
3
 72
14
 73
10
 74
0
 42
0.0000001
 43
0.0000001
 44
0.0000000001
 40
0.0
 40
0.0
 40
0.0
 40
0.0
 40
0.2194551573
 40
0.3368929623
 40
0.4595559419
 40
0.5873974334
 40
0.72025889
 40
0.8579136179
 40
1.0
 40
1.0
 40
1.0
 40
1.0
 10
15.8020780385
 20
13.6386698501
 30
0.0
 10
15.8017556903
 20
13.6395618907
 30
0.0
 10
15.8011152577
 20
13.640881676
 30
0.0
 10
15.8000336893
 20
13.6425486943
 30
0.0
 10
15.7990667418
 20
13.6438133811
 30
0.0
 10
15.7979686174
 20
13.6450557662
 30
0.0
 10
15.7967455278
 20
13.6462691996
 30
0.0
 10
15.7954047261
 20
13.6474464277
 30
0.0
 10
15.7944517006
 20
13.6481916154
 30
0.0
 10
15.7939580959
 20
13.6485569627
 30
0.0
  0
SPLINE
  5
394
100
AcDbEntity
  8
LAYER_FEATURE
100
AcDbSpline
 62
7
  6
CONTINUOUS
 70
0
 71
3
 72
14
 73
10
 74
0
 42
0.0000001
 43
0.0000001
 44
0.0000000001
 40
0.0
 40
0.0
 40
0.0
 40
0.0
 40
0.1422234972
 40
0.2799583058
 40
0.4128495029
 40
0.5406788214
 40
0.6632979929
 40
0.7806727176
 40
1.0
 40
1.0
 40
1.0
 40
1.0
 10
15.7462474885
 20
13.6631792939
 30
0.0
 10
15.7456359217
 20
13.6631527016
 30
0.0
 10
15.7444331797
 20
13.6630683102
 30
0.0
 10
15.7426696396
 20
13.6628425044
 30
0.0
 10
15.7409839277
 20
13.662520555
 30
0.0
 10
15.7393860737
 20
13.6621044181
 30
0.0
 10
15.7378848991
 20
13.6615961232
 30
0.0
 10
15.7360665577
 20
13.6608178401
 30
0.0
 10
15.7348061854
 20
13.6600804132
 30
0.0
 10
15.7340464027
 20
13.6595201634
 30
0.0
  0
ENDSEC
  0
SECTION
  2
OBJECTS
  0
DICTIONARY
  5
C
100
AcDbDictionary
280
0
281
1
  3
ACAD_GROUP
350
D
  3
ACAD_MLINESTYLE
350
17
  3
ACAD_LAYOUT
350
1A
  3
ACAD_PLOTSETTINGS
350
19
  3
ACAD_PLOTSTYLENAME
350
E
  0
DICTIONARY
  5
D
102
{ACAD_REACTORS
330
C
102
}
100
AcDbDictionary
280
0
281
1
  0
ACDBDICTIONARYWDFLT
  5
E
102
{ACAD_REACTORS
330
C
102
}
100
AcDbDictionary
281
1
  3
Normal
350
F
100
AcDbDictionaryWithDefault
340
F
  0
DICTIONARY
  5
17
102
{ACAD_REACTORS
330
C
102
}
100
AcDbDictionary
280
0
281
1
  3
Standard
350
18
  0
DICTIONARY
  5
19
102
{ACAD_REACTORS
330
C
102
}
100
AcDbDictionary
281
1
  0
DICTIONARY
  5
1A
102
{ACAD_REACTORS
330
C
102
}
100
AcDbDictionary
281
1
  3
Model
350
395
  3
Layout1
350
396
  0
ACDBPLACEHOLDER
  5
F
102
{ACAD_REACTORS
330
E
102
}
  0
MLINESTYLE
  5
18
102
{ACAD_REACTORS
330
17
102
}
100
AcDbMlineStyle
  2
STANDARD
 70
0
  3

 62
256
 51
90.0
 52
90.0
 71
2
 49
0.5
 62
256
  6
BYLAYER
 49
-0.5
 62
256
  6
BYLAYER
  0
LAYOUT
  5
395
102
{ACAD_REACTORS
330
1A
102
}
100
AcDbPlotSettings
  1

  2
none_device
  4
ANSI_C_(22.00_x_17.00_Inches)
  6

 40
0.0
 41
0.0
 42
0.0
 43
0.0
 44
558.8
 45
431.8
 46
0.0
 47
0.0
 48
0.0
 49
0.0
140
0.0
141
0.0
142
1.0
143
1.0
 70
1024
 72
0
 73
0
 74
0
  7

 75
0
147
1.0
148
0.0
149
0.0
100
AcDbLayout
  1
Model
 70
0
 71
0
 10
0.0
 20
0.0
 11
22.0
 21
17.0
 12
0.0
 22
0.0
 32
0.0
 14
0.0
 24
0.0
 34
0.0
 15
0.0
 25
0.0
 35
0.0
146
0.0
 13
0.0
 23
0.0
 33
0.0
 16
1.0
 26
0.0
 36
0.0
 17
0.0
 27
1.0
 37
0.0
 76
0
330
222
345
0
346
0
  0
LAYOUT
  5
396
102
{ACAD_REACTORS
330
1A
102
}
100
AcDbPlotSettings
  1

  2
none_device
  4
ANSI_C_(22.00_x_17.00_Inches)
  6

 40
0.0
 41
0.0
 42
0.0
 43
0.0
 44
558.8
 45
431.8
 46
0.0
 47
0.0
 48
0.0
 49
0.0
140
0.0
141
0.0
142
1.0
143
1.0
 70
0
 72
0
 73
0
 74
0
  7

 75
0
147
1.0
148
0.0
149
0.0
100
AcDbLayout
  1
Layout1
 70
0
 71
1
 10
0.0
 20
0.0
 11
22.0
 21
17.0
 12
0.0
 22
0.0
 32
0.0
 14
0.0
 24
0.0
 34
0.0
 15
0.0
 25
0.0
 35
0.0
146
0.0
 13
0.0
 23
0.0
 33
0.0
 16
1.0
 26
0.0
 36
0.0
 17
0.0
 27
1.0
 37
0.0
 76
0
330
223
345
0
346
0
  0
ENDSEC
  0
EOF