999
DXF file: _cgs_temp_output.dxf
999
Pro/ENGINEER 2016360 by Parametric Technology Corporation
  0
SECTION
  2
HEADER
  9
$ACADVER
  1
AC1021
  9
$DWGCODEPAGE
  3
ANSI_1252
  9
$EXTMAX
 10
22.0
 20
17.0
 30
0.0
  9
$EXTMIN
 10
0.0
 20
0.0
 30
0.0
  9
$LIMMIN
 10
0.0
 20
0.0
  9
$LIMMAX
 10
22.0
 20
17.0
  9
$VIEWCTR
 10
11.0
 20
8.5
  9
$VIEWSIZE
 40
17.0
  9
$CLAYER
  8
0
  9
$LTSCALE
 40
1.21
  9
$CELTYPE
  6
BYLAYER
  9
$DIMSCALE
 40
1.0
  9
$DIMASZ
 40
0.1875
  9
$DIMEXO
 40
0.0625
  9
$DIMDLI
 40
0.836
  9
$DIMEXE
 40
0.125
  9
$DIMCEN
 40
0.198
  9
$DIMLFAC
 40
1.0
  9
$DIMBLK
  1
_CLOSED
  9
$DIMALT
 70
0
  9
$DIMALTF
 40
25.4
  9
$DIMTXT
 40
0.15625
  9
$DIMTOL
 70
0
  9
$DIMLIM
 70
0
  9
$DIMTFAC
 40
1.0
  9
$DIMGAP
 40
0.09
  9
$DIMDSEP
 70
46
  9
$AUNITS
 70
0
  9
$PDMODE
 70
3
  9
$PDSIZE
 40
0.3125
  9
$HANDSEED
  5
391
  9
$TILEMODE
 70
1
  9
$MEASUREMENT
 70
0
  9
$INSUNITS
 70
1
  0
ENDSEC
  0
SECTION
  2
CLASSES
  0
CLASS
  1
ACDBDICTIONARYWDFLT
  2
AcDbDictionaryWithDefault
  3
AutoCAD 2000
 90
0
 91
1
280
0
281
0
  0
CLASS
  1
ACDBPLACEHOLDER
  2
AcDbPlaceHolder
  3
AutoCAD 2000
 90
0
 91
1
280
0
281
0
  0
CLASS
  1
LAYOUT
  2
AcDbLayout
  3
AutoCAD 2000
 90
0
 91
0
280
0
281
0
  0
ENDSEC
  0
SECTION
  2
TABLES
  0
TABLE
  2
VPORT
  5
8
100
AcDbSymbolTable
 70
2
  0
VPORT
  5
1F4
100
AcDbSymbolTableRecord
100
AcDbViewportTableRecord
  2
*ACTIVE
 70
0
 10
0.0
 20
0.0
 11
1.0
 21
1.0
 12
11.0
 22
8.5
 13
0.0
 23
0.0
 14
1.0
 24
1.0
 15
0.0
 25
0.0
 16
0.0
 26
0.0
 36
1.0
 17
0.0
 27
0.0
 37
0.0
 40
17.0
 41
1.2941176471
 42
50.0
 43
0.0
 44
0.0
 50
0.0
 51
0.0
 71
0
 72
100
 73
1
 74
1
 75
0
 76
0
 77
0
 78
0
  0
ENDTAB
  0
TABLE
  2
LTYPE
  5
5
100
AcDbSymbolTable
 70
6
  0
LTYPE
  5
14
100
AcDbSymbolTableRecord
100
AcDbLinetypeTableRecord
  2
BYBLOCK
 70
0
  3

 72
65
 73
0
 40
0.0
  0
LTYPE
  5
15
100
AcDbSymbolTableRecord
100
AcDbLinetypeTableRecord
  2
BYLAYER
 70
0
  3

 72
65
 73
0
 40
0.0
  0
LTYPE
  5
16
100
AcDbSymbolTableRecord
100
AcDbLinetypeTableRecord
  2
CONTINUOUS
 70
64
  3
Solid line
 72
65
 73
0
 40
0.0
  0
LTYPE
  5
1F5
100
AcDbSymbolTableRecord
100
AcDbLinetypeTableRecord
  2
CENTER
 70
64
  3
____ _ ____ _ ____ _ ____ _ ____ _ ____ _ ____
 72
65
 73
4
 40
0.6
 49
0.375
 74
0
 49
-0.075
 74
0
 49
0.075
 74
0
 49
-0.075
 74
0
  0
LTYPE
  5
1F6
100
AcDbSymbolTableRecord
100
AcDbLinetypeTableRecord
  2
HIDDEN
 70
64
  3
- - - - - - - - - - - - - - - - - - - -
 72
65
 73
2
 40
0.2
 49
0.1
 74
0
 49
-0.1
 74
0
  0
LTYPE
  5
1F7
100
AcDbSymbolTableRecord
100
AcDbLinetypeTableRecord
  2
PHANTOM
 70
64
  3
_____ _ _ _____ _ _ _____ _ _ _____
 72
65
 73
6
 40
0.8
 49
0.45
 74
0
 49
-0.05
 74
0
 49
0.1
 74
0
 49
-0.05
 74
0
 49
0.1
 74
0
 49
-0.05
 74
0
  0
LTYPE
  5
1F8
100
AcDbSymbolTableRecord
100
AcDbLinetypeTableRecord
  2
DOT
 70
64
  3
. . . . . . . . . . . . . . . . . . . .
 72
65
 73
2
 40
0.2
 49
0.1
 74
0
 49
-0.1
 74
0
  0
LTYPE
  5
1F9
100
AcDbSymbolTableRecord
100
AcDbLinetypeTableRecord
  2
DASHED
 70
64
  3
- - - - - - - - - - - - - - - - - - - -
 72
65
 73
2
 40
0.2
 49
0.1
 74
0
 49
-0.1
 74
0
  0
ENDTAB
  0
TABLE
  2
LAYER
  5
2
100
AcDbSymbolTable
 70
36
  0
LAYER
  5
10
100
AcDbSymbolTableRecord
100
AcDbLayerTableRecord
  2
0
 70
0
 62
7
  6
CONTINUOUS
370
-3
390
F
  0
LAYER
  5
1FA
100
AcDbSymbolTableRecord
100
AcDbLayerTableRecord
  2
DEFAULT_1
 70
0
 62
7
  6
CENTER
370
-3
390
F
  0
LAYER
  5
1FB
100
AcDbSymbolTableRecord
100
AcDbLayerTableRecord
  2
DEFAULT_2
 70
0
 62
8
  6
HIDDEN
370
-3
390
F
  0
LAYER
  5
1FC
100
AcDbSymbolTableRecord
100
AcDbLayerTableRecord
  2
DEFAULT_3
 70
0
 62
7
  6
PHANTOM
370
-3
390
F
  0
LAYER
  5
1FD
100
AcDbSymbolTableRecord
100
AcDbLayerTableRecord
  2
01_ALL_DTM_PLN
 70
0
 62
7
  6
CONTINUOUS
370
-3
390
F
  0
LAYER
  5
1FE
100
AcDbSymbolTableRecord
100
AcDbLayerTableRecord
  2
01__ASM_ALL_DTM_PLN
 70
0
 62
7
  6
CONTINUOUS
370
-3
390
F
  0
LAYER
  5
1FF
100
AcDbSymbolTableRecord
100
AcDbLayerTableRecord
  2
01__ASM_DEF_DTM_PLN
 70
0
 62
7
  6
CONTINUOUS
370
-3
390
F
  0
LAYER
  5
200
100
AcDbSymbolTableRecord
100
AcDbLayerTableRecord
  2
01___PRT_ALL_DTM_PLN
 70
0
 62
7
  6
CONTINUOUS
370
-3
390
F
  0
LAYER
  5
201
100
AcDbSymbolTableRecord
100
AcDbLayerTableRecord
  2
01___PRT_DEF_DTM_PLN
 70
0
 62
7
  6
CONTINUOUS
370
-3
390
F
  0
LAYER
  5
202
100
AcDbSymbolTableRecord
100
AcDbLayerTableRecord
  2
02_ALL_AXES
 70
0
 62
7
  6
CONTINUOUS
370
-3
390
F
  0
LAYER
  5
203
100
AcDbSymbolTableRecord
100
AcDbLayerTableRecord
  2
02__ASM_ALL_AXES
 70
0
 62
7
  6
CONTINUOUS
370
-3
390
F
  0
LAYER
  5
204
100
AcDbSymbolTableRecord
100
AcDbLayerTableRecord
  2
02___PRT_ALL_AXES
 70
0
 62
7
  6
CONTINUOUS
370
-3
390
F
  0
LAYER
  5
205
100
AcDbSymbolTableRecord
100
AcDbLayerTableRecord
  2
03_ALL_CURVES
 70
0
 62
7
  6
CONTINUOUS
370
-3
390
F
  0
LAYER
  5
206
100
AcDbSymbolTableRecord
100
AcDbLayerTableRecord
  2
03__ASM_ALL_CURVES
 70
0
 62
7
  6
CONTINUOUS
370
-3
390
F
  0
LAYER
  5
207
100
AcDbSymbolTableRecord
100
AcDbLayerTableRecord
  2
03___PRT_ALL_CURVES
 70
0
 62
7
  6
CONTINUOUS
370
-3
390
F
  0
LAYER
  5
208
100
AcDbSymbolTableRecord
100
AcDbLayerTableRecord
  2
04_ALL_DTM_PNT
 70
0
 62
7
  6
CONTINUOUS
370
-3
390
F
  0
LAYER
  5
209
100
AcDbSymbolTableRecord
100
AcDbLayerTableRecord
  2
04__ASM_ALL_DTM_PNT
 70
0
 62
7
  6
CONTINUOUS
370
-3
390
F
  0
LAYER
  5
20A
100
AcDbSymbolTableRecord
100
AcDbLayerTableRecord
  2
04___PRT_ALL_DTM_PNT
 70
0
 62
7
  6
CONTINUOUS
370
-3
390
F
  0
LAYER
  5
20B
100
AcDbSymbolTableRecord
100
AcDbLayerTableRecord
  2
05_ALL_DTM_CSYS
 70
0
 62
7
  6
CONTINUOUS
370
-3
390
F
  0
LAYER
  5
20C
100
AcDbSymbolTableRecord
100
AcDbLayerTableRecord
  2
05__ASM_ALL_DTM_CSYS
 70
0
 62
7
  6
CONTINUOUS
370
-3
390
F
  0
LAYER
  5
20D
100
AcDbSymbolTableRecord
100
AcDbLayerTableRecord
  2
05__ASM_DEF_DTM_CSYS
 70
0
 62
7
  6
CONTINUOUS
370
-3
390
F
  0
LAYER
  5
20E
100
AcDbSymbolTableRecord
100
AcDbLayerTableRecord
  2
05___PRT_ALL_DTM_CSYS
 70
0
 62
7
  6
CONTINUOUS
370
-3
390
F
  0
LAYER
  5
20F
100
AcDbSymbolTableRecord
100
AcDbLayerTableRecord
  2
05___PRT_DEF_DTM_CSYS
 70
0
 62
7
  6
CONTINUOUS
370
-3
390
F
  0
LAYER
  5
210
100
AcDbSymbolTableRecord
100
AcDbLayerTableRecord
  2
06_ALL_SURFS
 70
0
 62
7
  6
CONTINUOUS
370
-3
390
F
  0
LAYER
  5
211
100
AcDbSymbolTableRecord
100
AcDbLayerTableRecord
  2
06__ASM_ALL_SURFS
 70
0
 62
7
  6
CONTINUOUS
370
-3
390
F
  0
LAYER
  5
212
100
AcDbSymbolTableRecord
100
AcDbLayerTableRecord
  2
06___PRT_ALL_SURFS
 70
0
 62
7
  6
CONTINUOUS
370
-3
390
F
  0
LAYER
  5
213
100
AcDbSymbolTableRecord
100
AcDbLayerTableRecord
  2
07__ASM_ALL_SKELETONS
 70
0
 62
7
  6
CONTINUOUS
370
-3
390
F
  0
LAYER
  5
214
100
AcDbSymbolTableRecord
100
AcDbLayerTableRecord
  2
LAYER_AXIS
 70
0
 62
7
  6
CONTINUOUS
370
-3
390
F
  0
LAYER
  5
215
100
AcDbSymbolTableRecord
100
AcDbLayerTableRecord
  2
LAYER_CHAMFER_FEAT
 70
0
 62
7
  6
CONTINUOUS
370
-3
390
F
  0
LAYER
  5
216
100
AcDbSymbolTableRecord
100
AcDbLayerTableRecord
  2
LAYER_CUT_FEAT
 70
0
 62
7
  6
CONTINUOUS
370
-3
390
F
  0
LAYER
  5
217
100
AcDbSymbolTableRecord
100
AcDbLayerTableRecord
  2
LAYER_DATUM
 70
0
 62
7
  6
CONTINUOUS
370
-3
390
F
  0
LAYER
  5
218
100
AcDbSymbolTableRecord
100
AcDbLayerTableRecord
  2
LAYER_DIM
 70
0
 62
7
  6
CONTINUOUS
370
-3
390
F
  0
LAYER
  5
219
100
AcDbSymbolTableRecord
100
AcDbLayerTableRecord
  2
LAYER_FEATURE
 70
0
 62
7
  6
CONTINUOUS
370
-3
390
F
  0
LAYER
  5
21A
100
AcDbSymbolTableRecord
100
AcDbLayerTableRecord
  2
LAYER_GEOM_FEAT
 70
0
 62
7
  6
CONTINUOUS
370
-3
390
F
  0
LAYER
  5
21B
100
AcDbSymbolTableRecord
100
AcDbLayerTableRecord
  2
LAYER_NOGEOM_FEAT
 70
0
 62
7
  6
CONTINUOUS
370
-3
390
F
  0
LAYER
  5
21C
100
AcDbSymbolTableRecord
100
AcDbLayerTableRecord
  2
LAYER_PARAMETER_DIM
 70
0
 62
7
  6
CONTINUOUS
370
-3
390
F
  0
LAYER
  5
21D
100
AcDbSymbolTableRecord
100
AcDbLayerTableRecord
  2
LAYER_PROTRUSION_FEAT
 70
0
 62
7
  6
CONTINUOUS
370
-3
390
F
  0
LAYER
  5
21E
100
AcDbSymbolTableRecord
100
AcDbLayerTableRecord
  2
LAYER_QUILT
 70
0
 62
7
  6
CONTINUOUS
370
-3
390
F
  0
LAYER
  5
21F
100
AcDbSymbolTableRecord
100
AcDbLayerTableRecord
  2
LAYER_ROUND_FEAT
 70
0
 62
7
  6
CONTINUOUS
370
-3
390
F
  0
ENDTAB
  0
TABLE
  2
STYLE
  5
3
100
AcDbSymbolTable
 70
1
  0
STYLE
  5
11
100
AcDbSymbolTableRecord
100
AcDbTextStyleTableRecord
  2
STANDARD
 70
0
 40
0.0
 41
0.8
 50
0.0
 71
0
 42
0.2
  3
txt
  4

  0
STYLE
  5
220
100
AcDbSymbolTableRecord
100
AcDbTextStyleTableRecord
  2
TEXTSTYLE_1
 70
0
 40
0.0
 41
0.8
 50
0.0
 71
0
 42
0.2
  3
gdt
  4

  0
ENDTAB
  0
TABLE
  2
VIEW
  5
6
100
AcDbSymbolTable
 70
0
  0
ENDTAB
  0
TABLE
  2
UCS
  5
7
100
AcDbSymbolTable
 70
0
  0
ENDTAB
  0
TABLE
  2
APPID
  5
9
100
AcDbSymbolTable
 70
1
  0
APPID
  5
221
100
AcDbSymbolTableRecord
100
AcDbRegAppTableRecord
  2
ACAD
 70
0
  0
ENDTAB
  0
TABLE
  2
BLOCK_RECORD
  5
1
100
AcDbSymbolTable
 70
0
  0
BLOCK_RECORD
  5
222
100
AcDbSymbolTableRecord
100
AcDbBlockTableRecord
  2
*Model_Space
  0
BLOCK_RECORD
  5
223
100
AcDbSymbolTableRecord
100
AcDbBlockTableRecord
  2
*Paper_Space
  0
ENDTAB
  0
TABLE
  2
DIMSTYLE
  5
A
100
AcDbSymbolTable
 70
1
100
AcDbDimStyleTable
 71
0
  0
DIMSTYLE
105
224
100
AcDbSymbolTableRecord
100
AcDbDimStyleTableRecord
  2
STANDARD
 70
0
  3

  4

 40
1.0
 41
0.1875
 42
0.0625
 43
0.38
 44
0.125
 45
0.0
 46
0.0
 47
0.0001
 48
0.0001
140
0.15625
141
0.09
142
0.0
143
25.4
144
1.0
145
0.0
146
1.0
147
0.09
 71
0.0
 72
0.0
 73
1
 74
1
 75
0
 76
0
 77
0
 78
4
 79
1
170
0
171
3
172
0
173
0
174
0
175
0
176
0
177
0
178
0
270
2
179
4
271
4
272
4
273
2
274
2
275
0
280
0
281
0
282
0
283
1
284
4
285
0
286
0
287
3
288
0
340
11
278
46
  0
ENDTAB
  0
ENDSEC
  0
SECTION
  2
BLOCKS
  0
BLOCK
  5
20
100
AcDbEntity
  8
0
100
AcDbBlockBegin
  2
*Model_Space
 70
0
 10
0.0
 20
0.0
 30
0.0
  3
*Model_Space
  1

  0
ENDBLK
  5
21
100
AcDbEntity
  8
0
100
AcDbBlockEnd
  0
BLOCK
  5
1C
100
AcDbEntity
  8
0
100
AcDbBlockBegin
  2
*Paper_Space
 70
0
 10
0.0
 20
0.0
 30
0.0
  3
*Paper_Space
  1

  0
ENDBLK
  5
1D
100
AcDbEntity
  8
0
100
AcDbBlockEnd
  0
ENDSEC
  0
SECTION
  2
ENTITIES
  0
MTEXT
  5
225
100
AcDbEntity
  8
0
100
AcDbMText
 62
7
  6
CONTINUOUS
  7
STANDARD
 71
1
 72
1
 10
15.9560215477
 20
0.9479130325
 30
0.0
 11
1.0
 21
0.0
 31
0.0
 44
0.9
  1
SCALE: 1:3.000
 40
0.3
 41
3.36
  0
LINE
  5
226
100
AcDbEntity
  8
0
100
AcDbLine
 62
7
  6
CONTINUOUS
 10
0.0
 20
0.0
 11
0.0
 21
17.0
  0
LINE
  5
227
100
AcDbEntity
  8
0
100
AcDbLine
 62
7
  6
CONTINUOUS
 10
0.0
 20
0.0
 11
22.0
 21
0.0
  0
LINE
  5
228
100
AcDbEntity
  8
0
100
AcDbLine
 62
7
  6
CONTINUOUS
 10
0.0
 20
17.0
 11
22.0
 21
17.0
  0
LINE
  5
229
100
AcDbEntity
  8
0
100
AcDbLine
 62
7
  6
CONTINUOUS
 10
22.0
 20
0.0
 11
22.0
 21
17.0
  0
LINE
  5
22A
100
AcDbEntity
  8
LAYER_FEATURE
100
AcDbLine
 62
7
  6
CONTINUOUS
 10
5.9335672762
 20
6.3391198968
 11
5.9006380751
 21
6.3061906957
  0
LINE
  5
22B
100
AcDbEntity
  8
LAYER_FEATURE
100
AcDbLine
 62
7
  6
CONTINUOUS
 10
6.9493672762
 20
5.7169198968
 11
6.9493672762
 21
5.3233198968
  0
LINE
  5
22C
100
AcDbEntity
  8
LAYER_FEATURE
100
AcDbLine
 62
7
  6
CONTINUOUS
 10
6.9493672762
 20
5.3233198968
 11
6.9164380751
 21
5.2903906957
  0
LINE
  5
22D
100
AcDbEntity
  8
LAYER_FEATURE
100
AcDbLine
 62
7
  6
CONTINUOUS
 10
5.9335672762
 20
6.3391198968
 11
6.3271672762
 21
6.3391198968
  0
LINE
  5
22E
100
AcDbEntity
  8
LAYER_FEATURE
100
AcDbLine
 62
7
  6
CONTINUOUS
 10
6.3271672762
 20
6.3391198968
 11
6.3600964772
 21
6.3061906957
  0
LINE
  5
22F
100
AcDbEntity
  8
LAYER_FEATURE
100
AcDbLine
 62
7
  6
CONTINUOUS
 10
6.9493672762
 20
5.7169198968
 11
6.9164380751
 21
5.7498490978
  0
LINE
  5
230
100
AcDbEntity
  8
LAYER_FEATURE
100
AcDbLine
 62
7
  6
CONTINUOUS
 10
4.6533720839
 20
12.4618602814
 11
4.6533720839
 21
12.5578602814
  0
LINE
  5
231
100
AcDbEntity
  8
LAYER_FEATURE
100
AcDbLine
 62
7
  6
CONTINUOUS
 10
4.6533720839
 20
13.5328602814
 11
4.6533720839
 21
13.6288602814
  0
LINE
  5
232
100
AcDbEntity
  8
02___PRT_ALL_AXES
100
AcDbLine
 62
7
  6
CONTINUOUS
 10
4.9728720839
 20
12.6103602814
 11
4.9728720839
 21
13.4803602814
  0
LINE
  5
233
100
AcDbEntity
  8
LAYER_FEATURE
100
AcDbLine
 62
7
  6
CONTINUOUS
 10
4.9731606156
 20
12.6103602814
 11
4.9731606156
 21
13.4803602814
  0
LINE
  5
234
100
AcDbEntity
  8
LAYER_FEATURE
100
AcDbLine
 62
7
  6
CONTINUOUS
 10
4.991915093
 20
12.6103602814
 11
4.991915093
 21
13.4803602814
  0
LINE
  5
235
100
AcDbEntity
  8
LAYER_FEATURE
100
AcDbLine
 62
7
  6
CONTINUOUS
 10
5.0023813968
 20
12.6103602814
 11
5.0023813968
 21
13.4803602814
  0
LINE
  5
236
100
AcDbEntity
  8
LAYER_FEATURE
100
AcDbLine
 62
7
  6
CONTINUOUS
 10
5.0578251683
 20
12.6103602814
 11
5.0578251683
 21
13.4803602814
  0
LINE
  5
237
100
AcDbEntity
  8
LAYER_FEATURE
100
AcDbLine
 62
7
  6
CONTINUOUS
 10
5.0783003482
 20
12.6103602814
 11
5.0783003482
 21
13.4803602814
  0
LINE
  5
238
100
AcDbEntity
  8
02___PRT_ALL_AXES
100
AcDbLine
 62
7
  6
CONTINUOUS
 10
5.2518720839
 20
11.5712352814
 11
6.8898720839
 21
11.5712352814
  0
LINE
  5
239
100
AcDbEntity
  8
LAYER_CUT_FEAT
100
AcDbLine
 62
7
  6
CONTINUOUS
 10
5.1679751288
 20
13.4803602814
 11
5.1679751288
 21
12.6103602814
  0
LINE
  5
23A
100
AcDbEntity
  8
LAYER_FEATURE
100
AcDbLine
 62
7
  6
CONTINUOUS
 10
5.1680102549
 20
12.6103602814
 11
5.1680102549
 21
13.4803602814
  0
LINE
  5
23B
100
AcDbEntity
  8
LAYER_FEATURE
100
AcDbLine
 62
7
  6
CONTINUOUS
 10
5.1975994473
 20
12.6103602814
 11
5.1975994473
 21
13.4803602814
  0
LINE
  5
23C
100
AcDbEntity
  8
02___PRT_ALL_AXES
100
AcDbLine
 62
7
  6
CONTINUOUS
 10
5.2518720839
 20
11.5712352814
 11
5.2518720839
 21
12.4618602814
  0
LINE
  5
23D
100
AcDbEntity
  8
0
100
AcDbLine
 62
7
  6
CONTINUOUS
 10
5.3167441098
 20
13.4803602814
 11
5.3167441098
 21
12.6103602814
  0
LINE
  5
23E
100
AcDbEntity
  8
LAYER_FEATURE
100
AcDbLine
 62
7
  6
CONTINUOUS
 10
5.3176547359
 20
12.6103602814
 11
5.3176547359
 21
13.4803602814
  0
LINE
  5
23F
100
AcDbEntity
  8
LAYER_FEATURE
100
AcDbLine
 62
7
  6
CONTINUOUS
 10
5.3550647511
 20
12.6103602814
 11
5.3550647511
 21
13.4803602814
  0
LINE
  5
240
100
AcDbEntity
  8
0
100
AcDbLine
 62
7
  6
CONTINUOUS
 10
5.4972920724
 20
13.4803602814
 11
5.4972920724
 21
12.6103602814
  0
LINE
  5
241
100
AcDbEntity
  8
LAYER_FEATURE
100
AcDbLine
 62
7
  6
CONTINUOUS
 10
5.5002184293
 20
12.6103602814
 11
5.5002184293
 21
13.4803602814
  0
LINE
  5
242
100
AcDbEntity
  8
LAYER_CUT_FEAT
100
AcDbLine
 62
7
  6
CONTINUOUS
 10
5.9998580007
 20
11.9169852814
 11
6.141886167
 21
11.9169852814
  0
LINE
  5
243
100
AcDbEntity
  8
LAYER_FEATURE
100
AcDbLine
 62
7
  6
CONTINUOUS
 10
5.5438142701
 20
12.6103602814
 11
5.5438142701
 21
13.4803602814
  0
LINE
  5
244
100
AcDbEntity
  8
0
100
AcDbLine
 62
7
  6
CONTINUOUS
 10
5.7015522898
 20
13.4803602814
 11
5.7015522898
 21
12.6103602814
  0
LINE
  5
245
100
AcDbEntity
  8
LAYER_FEATURE
100
AcDbLine
 62
7
  6
CONTINUOUS
 10
5.7077224257
 20
12.6103602814
 11
5.7077224257
 21
13.4803602814
  0
LINE
  5
246
100
AcDbEntity
  8
LAYER_FEATURE
100
AcDbLine
 62
7
  6
CONTINUOUS
 10
7.3677046467
 20
13.4926378023
 11
7.4883720839
 21
13.5328602814
  0
LINE
  5
247
100
AcDbEntity
  8
LAYER_FEATURE
100
AcDbLine
 62
7
  6
CONTINUOUS
 10
4.6533720839
 20
12.5578602814
 11
4.774039521
 21
12.5980827604
  0
LINE
  5
248
100
AcDbEntity
  8
LAYER_CUT_FEAT
100
AcDbLine
 62
7
  6
CONTINUOUS
 10
6.141886167
 20
12.1629852814
 11
5.9998580007
 21
12.1629852814
  0
LINE
  5
249
100
AcDbEntity
  8
LAYER_CUT_FEAT
100
AcDbLine
 62
7
  6
CONTINUOUS
 10
5.9288439176
 20
12.0399852814
 11
5.9998580007
 21
11.9169852814
  0
LINE
  5
24A
100
AcDbEntity
  8
LAYER_FEATURE
100
AcDbLine
 62
7
  6
CONTINUOUS
 10
5.7555987447
 20
12.6103602814
 11
5.7555987447
 21
13.4803602814
  0
LINE
  5
24B
100
AcDbEntity
  8
LAYER_FEATURE
100
AcDbLine
 62
7
  6
CONTINUOUS
 10
5.9189511862
 20
12.6103602814
 11
5.9189511862
 21
13.4803602814
  0
LINE
  5
24C
100
AcDbEntity
  8
LAYER_FEATURE
100
AcDbLine
 62
7
  6
CONTINUOUS
 10
5.9310978048
 20
12.6103602814
 11
5.9310978048
 21
13.4803602814
  0
LINE
  5
24D
100
AcDbEntity
  8
LAYER_FEATURE
100
AcDbLine
 62
7
  6
CONTINUOUS
 10
4.6533720839
 20
12.4618602814
 11
7.4883720839
 21
12.4618602814
  0
LINE
  5
24E
100
AcDbEntity
  8
LAYER_CUT_FEAT
100
AcDbLine
 62
7
  6
CONTINUOUS
 10
6.2129002501
 20
12.0399852814
 11
6.141886167
 21
12.1629852814
  0
LINE
  5
24F
100
AcDbEntity
  8
LAYER_FEATURE
100
AcDbLine
 62
7
  6
CONTINUOUS
 10
5.9811621771
 20
12.6103602814
 11
5.9811621771
 21
13.4803602814
  0
LINE
  5
250
100
AcDbEntity
  8
LAYER_FEATURE
100
AcDbLine
 62
7
  6
CONTINUOUS
 10
4.6533720839
 20
12.5578602814
 11
7.4883720839
 21
12.5578602814
  0
LINE
  5
251
100
AcDbEntity
  8
LAYER_FEATURE
100
AcDbLine
 62
7
  6
CONTINUOUS
 10
7.2920470657
 20
12.6103602814
 11
4.849697102
 21
12.6103602814
  0
LINE
  5
252
100
AcDbEntity
  8
LAYER_FEATURE
100
AcDbLine
 62
7
  6
CONTINUOUS
 10
6.1605819906
 20
12.6103602814
 11
6.1605819906
 21
13.4803602814
  0
LINE
  5
253
100
AcDbEntity
  8
LAYER_FEATURE
100
AcDbLine
 62
7
  6
CONTINUOUS
 10
6.2106463629
 20
12.6103602814
 11
6.2106463629
 21
13.4803602814
  0
LINE
  5
254
100
AcDbEntity
  8
LAYER_FEATURE
100
AcDbLine
 62
7
  6
CONTINUOUS
 10
6.2227929816
 20
12.6103602814
 11
6.2227929816
 21
13.4803602814
  0
LINE
  5
255
100
AcDbEntity
  8
LAYER_CUT_FEAT
100
AcDbLine
 62
7
  6
CONTINUOUS
 10
5.9998580007
 20
12.1629852814
 11
5.9288439176
 21
12.0399852814
  0
LINE
  5
256
100
AcDbEntity
  8
LAYER_FEATURE
100
AcDbLine
 62
7
  6
CONTINUOUS
 10
6.386145423
 20
12.6103602814
 11
6.386145423
 21
13.4803602814
  0
LINE
  5
257
100
AcDbEntity
  8
LAYER_FEATURE
100
AcDbLine
 62
7
  6
CONTINUOUS
 10
6.434021742
 20
12.6103602814
 11
6.434021742
 21
13.4803602814
  0
LINE
  5
258
100
AcDbEntity
  8
LAYER_FEATURE
100
AcDbLine
 62
7
  6
CONTINUOUS
 10
6.879154725
 20
12.2475026402
 11
6.8898720839
 21
12.2367852814
  0
LINE
  5
259
100
AcDbEntity
  8
LAYER_CUT_FEAT
100
AcDbLine
 62
7
  6
CONTINUOUS
 10
6.4401918779
 20
13.4803602814
 11
6.4401918779
 21
12.6103602814
  0
LINE
  5
25A
100
AcDbEntity
  8
LAYER_CUT_FEAT
100
AcDbLine
 62
7
  6
CONTINUOUS
 10
6.141886167
 20
11.9169852814
 11
6.2129002501
 21
12.0399852814
  0
LINE
  5
25B
100
AcDbEntity
  8
LAYER_FEATURE
100
AcDbLine
 62
7
  6
CONTINUOUS
 10
7.4883720839
 20
12.5578602814
 11
7.3677046467
 21
12.5980827604
  0
LINE
  5
25C
100
AcDbEntity
  8
LAYER_FEATURE
100
AcDbLine
 62
7
  6
CONTINUOUS
 10
4.774039521
 20
13.4926378023
 11
4.6533720839
 21
13.5328602814
  0
LINE
  5
25D
100
AcDbEntity
  8
LAYER_FEATURE
100
AcDbLine
 62
7
  6
CONTINUOUS
 10
6.5979298976
 20
12.6103602814
 11
6.5979298976
 21
13.4803602814
  0
LINE
  5
25E
100
AcDbEntity
  8
LAYER_FEATURE
100
AcDbLine
 62
7
  6
CONTINUOUS
 10
6.6415257384
 20
12.6103602814
 11
6.6415257384
 21
13.4803602814
  0
LINE
  5
25F
100
AcDbEntity
  8
LAYER_CUT_FEAT
100
AcDbLine
 62
7
  6
CONTINUOUS
 10
6.6444520953
 20
13.4803602814
 11
6.6444520953
 21
12.6103602814
  0
LINE
  5
260
100
AcDbEntity
  8
LAYER_FEATURE
100
AcDbLine
 62
7
  6
CONTINUOUS
 10
6.7866794166
 20
12.6103602814
 11
6.7866794166
 21
13.4803602814
  0
LINE
  5
261
100
AcDbEntity
  8
LAYER_FEATURE
100
AcDbLine
 62
7
  6
CONTINUOUS
 10
6.8240894318
 20
12.6103602814
 11
6.8240894318
 21
13.4803602814
  0
LINE
  5
262
100
AcDbEntity
  8
LAYER_CUT_FEAT
100
AcDbLine
 62
7
  6
CONTINUOUS
 10
6.8250000579
 20
13.4803602814
 11
6.8250000579
 21
12.6103602814
  0
LINE
  5
263
100
AcDbEntity
  8
02___PRT_ALL_AXES
100
AcDbLine
 62
7
  6
CONTINUOUS
 10
6.8898720839
 20
11.5712352814
 11
6.8898720839
 21
11.7939852814
  0
LINE
  5
264
100
AcDbEntity
  8
LAYER_FEATURE
100
AcDbLine
 62
7
  6
CONTINUOUS
 10
6.8898720839
 20
11.8431852814
 11
6.8898720839
 21
12.2367852814
  0
LINE
  5
265
100
AcDbEntity
  8
02___PRT_ALL_AXES
100
AcDbLine
 62
7
  6
CONTINUOUS
 10
6.8898720839
 20
12.2859852814
 11
6.8898720839
 21
12.4618602814
  0
LINE
  5
266
100
AcDbEntity
  8
LAYER_FEATURE
100
AcDbLine
 62
7
  6
CONTINUOUS
 10
6.9441447204
 20
12.6103602814
 11
6.9441447204
 21
13.4803602814
  0
LINE
  5
267
100
AcDbEntity
  8
LAYER_FEATURE
100
AcDbLine
 62
7
  6
CONTINUOUS
 10
6.9737339128
 20
12.6103602814
 11
6.9737339128
 21
13.4803602814
  0
LINE
  5
268
100
AcDbEntity
  8
LAYER_CUT_FEAT
100
AcDbLine
 62
7
  6
CONTINUOUS
 10
6.9737690389
 20
13.4803602814
 11
6.9737690389
 21
12.6103602814
  0
LINE
  5
269
100
AcDbEntity
  8
LAYER_FEATURE
100
AcDbLine
 62
7
  6
CONTINUOUS
 10
7.2920470657
 20
13.4803602814
 11
4.849697102
 21
13.4803602814
  0
LINE
  5
26A
100
AcDbEntity
  8
LAYER_FEATURE
100
AcDbLine
 62
7
  6
CONTINUOUS
 10
4.6533720839
 20
13.5328602814
 11
7.4883720839
 21
13.5328602814
  0
LINE
  5
26B
100
AcDbEntity
  8
LAYER_FEATURE
100
AcDbLine
 62
7
  6
CONTINUOUS
 10
7.0634438195
 20
12.6103602814
 11
7.0634438195
 21
13.4803602814
  0
LINE
  5
26C
100
AcDbEntity
  8
LAYER_FEATURE
100
AcDbLine
 62
7
  6
CONTINUOUS
 10
7.0839189994
 20
12.6103602814
 11
7.0839189994
 21
13.4803602814
  0
LINE
  5
26D
100
AcDbEntity
  8
LAYER_FEATURE
100
AcDbLine
 62
7
  6
CONTINUOUS
 10
4.6533720839
 20
13.6288602814
 11
7.4883720839
 21
13.6288602814
  0
LINE
  5
26E
100
AcDbEntity
  8
LAYER_FEATURE
100
AcDbLine
 62
7
  6
CONTINUOUS
 10
7.1393627709
 20
12.6103602814
 11
7.1393627709
 21
13.4803602814
  0
LINE
  5
26F
100
AcDbEntity
  8
LAYER_FEATURE
100
AcDbLine
 62
7
  6
CONTINUOUS
 10
7.1498290747
 20
12.6103602814
 11
7.1498290747
 21
13.4803602814
  0
LINE
  5
270
100
AcDbEntity
  8
LAYER_FEATURE
100
AcDbLine
 62
7
  6
CONTINUOUS
 10
7.1685835521
 20
12.6103602814
 11
7.1685835521
 21
13.4803602814
  0
LINE
  5
271
100
AcDbEntity
  8
02___PRT_ALL_AXES
100
AcDbLine
 62
7
  6
CONTINUOUS
 10
7.1688720839
 20
12.6103602814
 11
7.1688720839
 21
13.4803602814
  0
LINE
  5
272
100
AcDbEntity
  8
LAYER_FEATURE
100
AcDbLine
 62
7
  6
CONTINUOUS
 10
6.8791547238
 20
11.8324679213
 11
6.8898720839
 21
11.8431852814
  0
LINE
  5
273
100
AcDbEntity
  8
LAYER_FEATURE
100
AcDbLine
 62
7
  6
CONTINUOUS
 10
7.4883720839
 20
12.4618602814
 11
7.4883720839
 21
12.5578602814
  0
LINE
  5
274
100
AcDbEntity
  8
LAYER_FEATURE
100
AcDbLine
 62
7
  6
CONTINUOUS
 10
7.4883720839
 20
13.5328602814
 11
7.4883720839
 21
13.6288602814
  0
LINE
  5
275
100
AcDbEntity
  8
LAYER_FEATURE
100
AcDbLine
 62
7
  6
CONTINUOUS
 10
16.5891677569
 20
4.0431247044
 11
16.4931677569
 21
4.0431247044
  0
LINE
  5
276
100
AcDbEntity
  8
LAYER_FEATURE
100
AcDbLine
 62
7
  6
CONTINUOUS
 10
15.5181677569
 20
4.0431247044
 11
15.4221677569
 21
4.0431247044
  0
LINE
  5
277
100
AcDbEntity
  8
LAYER_FEATURE
100
AcDbLine
 62
7
  6
CONTINUOUS
 10
14.7927760015
 20
6.268907949
 11
14.8034927569
 21
6.2796247044
  0
LINE
  5
278
100
AcDbEntity
  8
LAYER_FEATURE
100
AcDbLine
 62
7
  6
CONTINUOUS
 10
15.5706677569
 20
4.3662956257
 11
16.4406677569
 21
4.3662956257
  0
LINE
  5
279
100
AcDbEntity
  8
LAYER_FEATURE
100
AcDbLine
 62
7
  6
CONTINUOUS
 10
15.5706677569
 20
4.3715576032
 11
16.4406677569
 21
4.3715576032
  0
LINE
  5
27A
100
AcDbEntity
  8
LAYER_FEATURE
100
AcDbLine
 62
7
  6
CONTINUOUS
 10
15.5706677569
 20
4.40886108
 11
16.4406677569
 21
4.40886108
  0
LINE
  5
27B
100
AcDbEntity
  8
LAYER_FEATURE
100
AcDbLine
 62
7
  6
CONTINUOUS
 10
15.5706677569
 20
4.4244170391
 11
16.4406677569
 21
4.4244170391
  0
LINE
  5
27C
100
AcDbEntity
  8
02___PRT_ALL_AXES
100
AcDbLine
 62
7
  6
CONTINUOUS
 10
14.5315427569
 20
6.2796247044
 11
14.5315427569
 21
4.6416247044
  0
LINE
  5
27D
100
AcDbEntity
  8
LAYER_FEATURE
100
AcDbLine
 62
7
  6
CONTINUOUS
 10
15.5706677569
 20
4.4973936517
 11
16.4406677569
 21
4.4973936517
  0
LINE
  5
27E
100
AcDbEntity
  8
LAYER_FEATURE
100
AcDbLine
 62
7
  6
CONTINUOUS
 10
15.5706677569
 20
4.5225637221
 11
16.4406677569
 21
4.5225637221
  0
LINE
  5
27F
100
AcDbEntity
  8
LAYER_CUT_FEAT
100
AcDbLine
 62
7
  6
CONTINUOUS
 10
16.4406677569
 20
4.6276972851
 11
15.5706677569
 21
4.6276972851
  0
LINE
  5
280
100
AcDbEntity
  8
LAYER_FEATURE
100
AcDbLine
 62
7
  6
CONTINUOUS
 10
15.5706677569
 20
4.6280240424
 11
16.4406677569
 21
4.6280240424
  0
LINE
  5
281
100
AcDbEntity
  8
02___PRT_ALL_AXES
100
AcDbLine
 62
7
  6
CONTINUOUS
 10
15.4221677569
 20
4.6416247044
 11
14.5315427569
 21
4.6416247044
  0
LINE
  5
282
100
AcDbEntity
  8
LAYER_FEATURE
100
AcDbLine
 62
7
  6
CONTINUOUS
 10
15.5706677569
 20
4.6617081714
 11
16.4406677569
 21
4.6617081714
  0
LINE
  5
283
100
AcDbEntity
  8
LAYER_CUT_FEAT
100
AcDbLine
 62
7
  6
CONTINUOUS
 10
14.8772927569
 20
5.5316387876
 11
14.8772927569
 21
5.3896106213
  0
LINE
  5
284
100
AcDbEntity
  8
LAYER_CUT_FEAT
100
AcDbLine
 62
7
  6
CONTINUOUS
 10
16.4406677569
 20
4.7932627418
 11
15.5706677569
 21
4.7932627418
  0
LINE
  5
285
100
AcDbEntity
  8
LAYER_FEATURE
100
AcDbLine
 62
7
  6
CONTINUOUS
 10
15.5706677569
 20
4.7950430774
 11
16.4406677569
 21
4.7950430774
  0
LINE
  5
286
100
AcDbEntity
  8
LAYER_FEATURE
100
AcDbLine
 62
7
  6
CONTINUOUS
 10
15.5706677569
 20
4.8357691069
 11
16.4406677569
 21
4.8357691069
  0
LINE
  5
287
100
AcDbEntity
  8
LAYER_CUT_FEAT
100
AcDbLine
 62
7
  6
CONTINUOUS
 10
16.4406677569
 20
4.9868150891
 11
15.5706677569
 21
4.9868150891
  0
LINE
  5
288
100
AcDbEntity
  8
LAYER_FEATURE
100
AcDbLine
 62
7
  6
CONTINUOUS
 10
15.5706677569
 20
4.9911512233
 11
16.4406677569
 21
4.9911512233
  0
LINE
  5
289
100
AcDbEntity
  8
LAYER_CUT_FEAT
100
AcDbLine
 62
7
  6
CONTINUOUS
 10
15.1232927569
 20
5.3896106213
 11
15.1232927569
 21
5.5316387876
  0
LINE
  5
28A
100
AcDbEntity
  8
LAYER_CUT_FEAT
100
AcDbLine
 62
7
  6
CONTINUOUS
 10
15.0002927569
 20
5.6026528707
 11
14.8772927569
 21
5.5316387876
  0
LINE
  5
28B
100
AcDbEntity
  8
LAYER_FEATURE
100
AcDbLine
 62
7
  6
CONTINUOUS
 10
15.5706677569
 20
5.0371392303
 11
16.4406677569
 21
5.0371392303
  0
LINE
  5
28C
100
AcDbEntity
  8
LAYER_CUT_FEAT
100
AcDbLine
 62
7
  6
CONTINUOUS
 10
14.8772927569
 20
5.3896106213
 11
15.0002927569
 21
5.3185965382
  0
LINE
  5
28D
100
AcDbEntity
  8
LAYER_CUT_FEAT
100
AcDbLine
 62
7
  6
CONTINUOUS
 10
16.4406677569
 20
5.198998431
 11
15.5706677569
 21
5.198998431
  0
LINE
  5
28E
100
AcDbEntity
  8
LAYER_FEATURE
100
AcDbLine
 62
7
  6
CONTINUOUS
 10
15.5706677569
 20
5.207777613
 11
16.4406677569
 21
5.207777613
  0
LINE
  5
28F
100
AcDbEntity
  8
LAYER_FEATURE
100
AcDbLine
 62
7
  6
CONTINUOUS
 10
15.4221677569
 20
6.8781247044
 11
15.4221677569
 21
4.0431247044
  0
LINE
  5
290
100
AcDbEntity
  8
LAYER_CUT_FEAT
100
AcDbLine
 62
7
  6
CONTINUOUS
 10
15.0002927569
 20
5.3185965382
 11
15.1232927569
 21
5.3896106213
  0
LINE
  5
291
100
AcDbEntity
  8
LAYER_FEATURE
100
AcDbLine
 62
7
  6
CONTINUOUS
 10
15.5706677569
 20
5.2570177011
 11
16.4406677569
 21
5.2570177011
  0
LINE
  5
292
100
AcDbEntity
  8
LAYER_CUT_FEAT
100
AcDbLine
 62
7
  6
CONTINUOUS
 10
15.1232927569
 20
5.5316387876
 11
15.0002927569
 21
5.6026528707
  0
LINE
  5
293
100
AcDbEntity
  8
LAYER_FEATURE
100
AcDbLine
 62
7
  6
CONTINUOUS
 10
15.5181677569
 20
6.8781247044
 11
15.5181677569
 21
4.0431247044
  0
LINE
  5
294
100
AcDbEntity
  8
LAYER_FEATURE
100
AcDbLine
 62
7
  6
CONTINUOUS
 10
15.5706677569
 20
4.2394496346
 11
15.5706677569
 21
6.6817997742
  0
LINE
  5
295
100
AcDbEntity
  8
LAYER_FEATURE
100
AcDbLine
 62
7
  6
CONTINUOUS
 10
15.5706677569
 20
5.435454634
 11
16.4406677569
 21
5.435454634
  0
LINE
  5
296
100
AcDbEntity
  8
LAYER_FEATURE
100
AcDbLine
 62
7
  6
CONTINUOUS
 10
15.5706677569
 20
5.4857947749
 11
16.4406677569
 21
5.4857947749
  0
LINE
  5
297
100
AcDbEntity
  8
LAYER_FEATURE
100
AcDbLine
 62
7
  6
CONTINUOUS
 10
15.5706677569
 20
5.6642317078
 11
16.4406677569
 21
5.6642317078
  0
LINE
  5
298
100
AcDbEntity
  8
LAYER_FEATURE
100
AcDbLine
 62
7
  6
CONTINUOUS
 10
15.5706677569
 20
5.7134717958
 11
16.4406677569
 21
5.7134717958
  0
LINE
  5
299
100
AcDbEntity
  8
LAYER_CUT_FEAT
100
AcDbLine
 62
7
  6
CONTINUOUS
 10
16.4406677569
 20
5.7222509779
 11
15.5706677569
 21
5.7222509779
  0
LINE
  5
29A
100
AcDbEntity
  8
LAYER_FEATURE
100
AcDbLine
 62
7
  6
CONTINUOUS
 10
15.2078095124
 20
6.268907949
 11
15.1970927569
 21
6.2796247044
  0
LINE
  5
29B
100
AcDbEntity
  8
LAYER_FEATURE
100
AcDbLine
 62
7
  6
CONTINUOUS
 10
15.558390236
 20
4.1637921416
 11
15.5181677569
 21
4.0431247044
  0
LINE
  5
29C
100
AcDbEntity
  8
LAYER_FEATURE
100
AcDbLine
 62
7
  6
CONTINUOUS
 10
16.4931677569
 20
6.8781247044
 11
16.4529452779
 21
6.7574572673
  0
LINE
  5
29D
100
AcDbEntity
  8
LAYER_FEATURE
100
AcDbLine
 62
7
  6
CONTINUOUS
 10
15.5706677569
 20
5.8841101786
 11
16.4406677569
 21
5.8841101786
  0
LINE
  5
29E
100
AcDbEntity
  8
LAYER_FEATURE
100
AcDbLine
 62
7
  6
CONTINUOUS
 10
15.5706677569
 20
5.9300981856
 11
16.4406677569
 21
5.9300981856
  0
LINE
  5
29F
100
AcDbEntity
  8
LAYER_CUT_FEAT
100
AcDbLine
 62
7
  6
CONTINUOUS
 10
16.4406677569
 20
5.9344343198
 11
15.5706677569
 21
5.9344343198
  0
LINE
  5
2A0
100
AcDbEntity
  8
LAYER_FEATURE
100
AcDbLine
 62
7
  6
CONTINUOUS
 10
15.558390236
 20
6.7574572673
 11
15.5181677569
 21
6.8781247044
  0
LINE
  5
2A1
100
AcDbEntity
  8
LAYER_FEATURE
100
AcDbLine
 62
7
  6
CONTINUOUS
 10
16.4931677569
 20
4.0431247044
 11
16.4529452779
 21
4.1637921416
  0
LINE
  5
2A2
100
AcDbEntity
  8
LAYER_FEATURE
100
AcDbLine
 62
7
  6
CONTINUOUS
 10
15.5706677569
 20
6.085480302
 11
16.4406677569
 21
6.085480302
  0
LINE
  5
2A3
100
AcDbEntity
  8
LAYER_FEATURE
100
AcDbLine
 62
7
  6
CONTINUOUS
 10
15.5706677569
 20
6.1262063315
 11
16.4406677569
 21
6.1262063315
  0
LINE
  5
2A4
100
AcDbEntity
  8
LAYER_CUT_FEAT
100
AcDbLine
 62
7
  6
CONTINUOUS
 10
16.4406677569
 20
6.1279866671
 11
15.5706677569
 21
6.1279866671
  0
LINE
  5
2A5
100
AcDbEntity
  8
LAYER_FEATURE
100
AcDbLine
 62
7
  6
CONTINUOUS
 10
15.5706677569
 20
6.2595412375
 11
16.4406677569
 21
6.2595412375
  0
LINE
  5
2A6
100
AcDbEntity
  8
02___PRT_ALL_AXES
100
AcDbLine
 62
7
  6
CONTINUOUS
 10
15.4221677569
 20
6.2796247044
 11
15.2462927569
 21
6.2796247044
  0
LINE
  5
2A7
100
AcDbEntity
  8
02___PRT_ALL_AXES
100
AcDbLine
 62
7
  6
CONTINUOUS
 10
14.7542927569
 20
6.2796247044
 11
14.5315427569
 21
6.2796247044
  0
LINE
  5
2A8
100
AcDbEntity
  8
LAYER_FEATURE
100
AcDbLine
 62
7
  6
CONTINUOUS
 10
14.8034928348
 20
6.2796247044
 11
15.197092679
 21
6.2796247044
  0
LINE
  5
2A9
100
AcDbEntity
  8
LAYER_FEATURE
100
AcDbLine
 62
7
  6
CONTINUOUS
 10
15.5706677569
 20
6.2932253664
 11
16.4406677569
 21
6.2932253664
  0
LINE
  5
2AA
100
AcDbEntity
  8
LAYER_CUT_FEAT
100
AcDbLine
 62
7
  6
CONTINUOUS
 10
16.4406677569
 20
6.2935521238
 11
15.5706677569
 21
6.2935521238
  0
LINE
  5
2AB
100
AcDbEntity
  8
LAYER_FEATURE
100
AcDbLine
 62
7
  6
CONTINUOUS
 10
16.4406677569
 20
4.2394496346
 11
16.4406677569
 21
6.6817997742
  0
LINE
  5
2AC
100
AcDbEntity
  8
LAYER_FEATURE
100
AcDbLine
 62
7
  6
CONTINUOUS
 10
16.4931677569
 20
6.8781247044
 11
16.4931677569
 21
4.0431247044
  0
LINE
  5
2AD
100
AcDbEntity
  8
LAYER_FEATURE
100
AcDbLine
 62
7
  6
CONTINUOUS
 10
15.5706677569
 20
6.3986856868
 11
16.4406677569
 21
6.3986856868
  0
LINE
  5
2AE
100
AcDbEntity
  8
LAYER_FEATURE
100
AcDbLine
 62
7
  6
CONTINUOUS
 10
16.5891677569
 20
6.8781247044
 11
16.5891677569
 21
4.0431247044
  0
LINE
  5
2AF
100
AcDbEntity
  8
LAYER_FEATURE
100
AcDbLine
 62
7
  6
CONTINUOUS
 10
15.5706677569
 20
6.4238557572
 11
16.4406677569
 21
6.4238557572
  0
LINE
  5
2B0
100
AcDbEntity
  8
LAYER_FEATURE
100
AcDbLine
 62
7
  6
CONTINUOUS
 10
15.5706677569
 20
6.4968323698
 11
16.4406677569
 21
6.4968323698
  0
LINE
  5
2B1
100
AcDbEntity
  8
LAYER_FEATURE
100
AcDbLine
 62
7
  6
CONTINUOUS
 10
15.5706677569
 20
6.5123883289
 11
16.4406677569
 21
6.5123883289
  0
LINE
  5
2B2
100
AcDbEntity
  8
LAYER_FEATURE
100
AcDbLine
 62
7
  6
CONTINUOUS
 10
15.5706677569
 20
6.5496918056
 11
16.4406677569
 21
6.5496918056
  0
LINE
  5
2B3
100
AcDbEntity
  8
LAYER_FEATURE
100
AcDbLine
 62
7
  6
CONTINUOUS
 10
15.5706677569
 20
6.5549537832
 11
16.4406677569
 21
6.5549537832
  0
LINE
  5
2B4
100
AcDbEntity
  8
LAYER_FEATURE
100
AcDbLine
 62
7
  6
CONTINUOUS
 10
16.5891677569
 20
6.8781247044
 11
16.4931677569
 21
6.8781247044
  0
LINE
  5
2B5
100
AcDbEntity
  8
LAYER_FEATURE
100
AcDbLine
 62
7
  6
CONTINUOUS
 10
15.5181677569
 20
6.8781247044
 11
15.4221677569
 21
6.8781247044
  0
LINE
  5
2B6
100
AcDbEntity
  8
LAYER_FEATURE
100
AcDbLine
 62
7
  6
CONTINUOUS
 10
13.975557722
 20
12.6350553716
 11
13.9987960891
 21
12.710254755
  0
LINE
  5
2B7
100
AcDbEntity
  8
LAYER_FEATURE
100
AcDbLine
 62
7
  6
CONTINUOUS
 10
14.2348107544
 20
13.4739984919
 11
14.2580491215
 21
13.5491978752
  0
LINE
  5
2B8
100
AcDbEntity
  8
LAYER_FEATURE
100
AcDbLine
 62
7
  6
CONTINUOUS
 10
14.4573759975
 20
13.106829281
 11
14.5189831426
 21
13.3061900758
  0
LINE
  5
2B9
100
AcDbEntity
  8
LAYER_FEATURE
100
AcDbLine
 62
7
  6
CONTINUOUS
 10
14.4633156177
 20
13.1086318567
 11
14.5542133877
 21
13.4027771482
  0
LINE
  5
2BA
100
AcDbEntity
  8
LAYER_FEATURE
100
AcDbLine
 62
7
  6
CONTINUOUS
 10
14.471047944
 20
13.1109784888
 11
14.5690436946
 21
13.4280928541
  0
LINE
  5
2BB
100
AcDbEntity
  8
LAYER_FEATURE
100
AcDbLine
 62
7
  6
CONTINUOUS
 10
14.5196039887
 20
13.1247738848
 11
14.6389492094
 21
13.5109751608
  0
LINE
  5
2BC
100
AcDbEntity
  8
LAYER_FEATURE
100
AcDbLine
 62
7
  6
CONTINUOUS
 10
14.538885419
 20
13.1298545559
 11
14.6631310456
 21
13.5319135511
  0
LINE
  5
2BD
100
AcDbEntity
  8
LAYER_FEATURE
100
AcDbLine
 62
7
  6
CONTINUOUS
 10
14.6258002473
 20
13.1481293385
 11
14.7646566238
 21
13.5974687375
  0
LINE
  5
2BE
100
AcDbEntity
  8
LAYER_CUT_FEAT
100
AcDbLine
 62
7
  6
CONTINUOUS
 10
14.432726596
 20
12.4937795044
 11
14.445435078
 21
12.5349041671
  0
LINE
  5
2BF
100
AcDbEntity
  8
LAYER_FEATURE
100
AcDbLine
 62
7
  6
CONTINUOUS
 10
14.6548987651
 20
13.1528441402
 11
14.797133127
 21
13.6131147042
  0
LINE
  5
2C0
100
AcDbEntity
  8
02___PRT_ALL_AXES
100
AcDbLine
 62
7
  6
CONTINUOUS
 10
14.331786778
 20
11.7606992909
 11
14.5473770973
 21
12.4583498198
  0
LINE
  5
2C1
100
AcDbEntity
  8
0
100
AcDbLine
 62
7
  6
CONTINUOUS
 10
14.9245674042
 20
13.6559047485
 11
14.7734807784
 21
13.1669882481
  0
LINE
  5
2C2
100
AcDbEntity
  8
LAYER_FEATURE
100
AcDbLine
 62
7
  6
CONTINUOUS
 10
14.7739702813
 20
13.1670218826
 11
14.9258416136
 21
13.658477694
  0
LINE
  5
2C3
100
AcDbEntity
  8
LAYER_FEATURE
100
AcDbLine
 62
7
  6
CONTINUOUS
 10
14.8111227746
 20
13.1695746913
 11
14.9651934048
 21
13.6681474332
  0
LINE
  5
2C4
100
AcDbEntity
  8
LAYER_CUT_FEAT
100
AcDbLine
 62
7
  6
CONTINUOUS
 10
16.0254185296
 20
11.7977900587
 11
15.948363047
 21
11.7977900587
  0
LINE
  5
2C5
100
AcDbEntity
  8
0
100
AcDbLine
 62
7
  6
CONTINUOUS
 10
15.1117332858
 20
13.6862783397
 11
14.9529480789
 21
13.1724492218
  0
LINE
  5
2C6
100
AcDbEntity
  8
LAYER_FEATURE
100
AcDbLine
 62
7
  6
CONTINUOUS
 10
14.9551028208
 20
13.1724208495
 11
15.1154596213
 21
13.6913356463
  0
LINE
  5
2C7
100
AcDbEntity
  8
LAYER_FEATURE
100
AcDbLine
 62
7
  6
CONTINUOUS
 10
14.9982166275
 20
13.1711826698
 11
15.1599668384
 21
13.694606544
  0
LINE
  5
2C8
100
AcDbEntity
  8
LAYER_CUT_FEAT
100
AcDbLine
 62
7
  6
CONTINUOUS
 10
16.0335304189
 20
11.9382823305
 11
15.9366862324
 21
11.9382823305
  0
LINE
  5
2C9
100
AcDbEntity
  8
LAYER_CUT_FEAT
100
AcDbLine
 62
7
  6
CONTINUOUS
 10
14.8470991459
 20
12.3951747466
 11
14.8943804707
 21
12.2988255367
  0
LINE
  5
2CA
100
AcDbEntity
  8
LAYER_CUT_FEAT
100
AcDbLine
 62
7
  6
CONTINUOUS
 10
14.8470991459
 20
12.3951747466
 11
14.8827332901
 21
12.2988255367
  0
LINE
  5
2CB
100
AcDbEntity
  8
0
100
AcDbLine
 62
7
  6
CONTINUOUS
 10
15.3180186061
 20
13.6874385993
 11
15.1547915397
 21
13.1592356189
  0
LINE
  5
2CC
100
AcDbEntity
  8
LAYER_FEATURE
100
AcDbLine
 62
7
  6
CONTINUOUS
 10
15.1596118036
 20
13.1586871241
 11
15.3252234301
 21
13.694606544
  0
LINE
  5
2CD
100
AcDbEntity
  8
LAYER_FEATURE
100
AcDbLine
 62
7
  6
CONTINUOUS
 10
15.2065197686
 20
13.1527966866
 11
15.3729408941
 21
13.6913356463
  0
LINE
  5
2CE
100
AcDbEntity
  8
LAYER_FEATURE
100
AcDbLine
 62
7
  6
CONTINUOUS
 10
15.3181131181
 20
13.6877379147
 11
15.3180186457
 21
13.6874385871
  0
LINE
  5
2CF
100
AcDbEntity
  8
LAYER_CUT_FEAT
100
AcDbLine
 62
7
  6
CONTINUOUS
 10
14.9422816056
 20
12.4915239565
 11
15.0173219048
 21
12.3386079043
  0
LINE
  5
2D0
100
AcDbEntity
  8
LAYER_CUT_FEAT
100
AcDbLine
 62
7
  6
CONTINUOUS
 10
15.5316015725
 20
13.6542728501
 11
15.3680377699
 21
13.1249801908
  0
LINE
  5
2D1
100
AcDbEntity
  8
LAYER_FEATURE
100
AcDbLine
 62
7
  6
CONTINUOUS
 10
15.3775001519
 20
13.1229938362
 11
15.545965355
 21
13.6681474332
  0
LINE
  5
2D2
100
AcDbEntity
  8
LAYER_CUT_FEAT
100
AcDbLine
 62
7
  6
CONTINUOUS
 10
14.9422816056
 20
12.4915239565
 11
14.8470991459
 21
12.3951747466
  0
LINE
  5
2D3
100
AcDbEntity
  8
LAYER_CUT_FEAT
100
AcDbLine
 62
7
  6
CONTINUOUS
 10
15.1087323538
 20
12.3951747466
 11
15.0730982096
 21
12.4915239565
  0
LINE
  5
2D4
100
AcDbEntity
  8
LAYER_FEATURE
100
AcDbLine
 62
7
  6
CONTINUOUS
 10
15.4259880906
 20
13.112177614
 11
15.5948075838
 21
13.658477694
  0
LINE
  5
2D5
100
AcDbEntity
  8
LAYER_CUT_FEAT
100
AcDbLine
 62
7
  6
CONTINUOUS
 10
15.0173219048
 20
12.3386079043
 11
14.9780212857
 21
12.2988255367
  0
LINE
  5
2D6
100
AcDbEntity
  8
LAYER_CUT_FEAT
100
AcDbLine
 62
7
  6
CONTINUOUS
 10
15.013549894
 20
12.2988255367
 11
15.1087323538
 21
12.3951747466
  0
LINE
  5
2D7
100
AcDbEntity
  8
LAYER_CUT_FEAT
100
AcDbLine
 62
7
  6
CONTINUOUS
 10
14.8827332901
 20
12.2988255367
 11
15.013549894
 21
12.2988255367
  0
LINE
  5
2D8
100
AcDbEntity
  8
LAYER_CUT_FEAT
100
AcDbLine
 62
7
  6
CONTINUOUS
 10
15.0528505131
 20
12.3386079043
 11
15.0173219048
 21
12.3386079043
  0
LINE
  5
2D9
100
AcDbEntity
  8
LAYER_FEATURE
100
AcDbLine
 62
7
  6
CONTINUOUS
 10
15.5987035419
 20
13.0651484732
 11
15.7680379146
 21
13.6131147042
  0
LINE
  5
2DA
100
AcDbEntity
  8
LAYER_FEATURE
100
AcDbLine
 62
7
  6
CONTINUOUS
 10
15.6465849257
 20
13.0496611679
 11
15.8158702684
 21
13.5974687375
  0
LINE
  5
2DB
100
AcDbEntity
  8
LAYER_CUT_FEAT
100
AcDbLine
 62
7
  6
CONTINUOUS
 10
15.0730982096
 20
12.4915239565
 11
14.9422816056
 21
12.4915239565
  0
LINE
  5
2DC
100
AcDbEntity
  8
LAYER_FEATURE
100
AcDbLine
 62
7
  6
CONTINUOUS
 10
15.9772800766
 20
12.1090078235
 11
16.0144958206
 21
12.0644214953
  0
LINE
  5
2DD
100
AcDbEntity
  8
LAYER_CUT_FEAT
100
AcDbLine
 62
7
  6
CONTINUOUS
 10
15.9306575664
 20
11.8338700346
 11
15.9739821034
 21
11.7455839107
  0
LINE
  5
2DE
100
AcDbEntity
  8
LAYER_FEATURE
100
AcDbLine
 62
7
  6
CONTINUOUS
 10
15.8133924397
 20
12.9871552974
 11
15.9817354725
 21
13.5319135511
  0
LINE
  5
2DF
100
AcDbEntity
  8
LAYER_FEATURE
100
AcDbLine
 62
7
  6
CONTINUOUS
 10
15.8585835569
 20
12.9677026907
 11
16.0264674479
 21
13.5109751608
  0
LINE
  5
2E0
100
AcDbEntity
  8
LAYER_CUT_FEAT
100
AcDbLine
 62
7
  6
CONTINUOUS
 10
16.029604407
 20
13.4940703382
 11
15.865952763
 21
12.9644934242
  0
LINE
  5
2E1
100
AcDbEntity
  8
LAYER_CUT_FEAT
100
AcDbLine
 62
7
  6
CONTINUOUS
 10
16.0335304189
 20
11.9382823305
 11
15.990205882
 21
12.0265684544
  0
LINE
  5
2E2
100
AcDbEntity
  8
LAYER_FEATURE
100
AcDbLine
 62
7
  6
CONTINUOUS
 10
16.0123541106
 20
12.8929737531
 11
16.1777184199
 21
13.4280928541
  0
LINE
  5
2E3
100
AcDbEntity
  8
LAYER_CUT_FEAT
100
AcDbLine
 62
7
  6
CONTINUOUS
 10
15.9387694557
 20
11.9743623065
 11
15.9306575664
 21
11.8338700346
  0
LINE
  5
2E4
100
AcDbEntity
  8
LAYER_FEATURE
100
AcDbLine
 62
7
  6
CONTINUOUS
 10
16.0529675806
 20
12.8706897758
 11
16.2173950149
 21
13.4027771482
  0
LINE
  5
2E5
100
AcDbEntity
  8
LAYER_CUT_FEAT
100
AcDbLine
 62
7
  6
CONTINUOUS
 10
16.2187750658
 20
13.3939496367
 11
16.0564757361
 21
12.8687488134
  0
LINE
  5
2E6
100
AcDbEntity
  8
LAYER_CUT_FEAT
100
AcDbLine
 62
7
  6
CONTINUOUS
 10
16.0254185296
 20
11.7977900587
 11
16.0335304189
 21
11.9382823305
  0
LINE
  5
2E7
100
AcDbEntity
  8
LAYER_FEATURE
100
AcDbLine
 62
7
  6
CONTINUOUS
 10
16.1874420967
 20
12.7884969848
 11
16.3474213616
 21
13.3061900758
  0
LINE
  5
2E8
100
AcDbEntity
  8
LAYER_FEATURE
100
AcDbLine
 62
7
  6
CONTINUOUS
 10
16.2218961058
 20
12.7649807164
 11
16.3803085187
 21
13.2776034722
  0
LINE
  5
2E9
100
AcDbEntity
  8
LAYER_CUT_FEAT
100
AcDbLine
 62
7
  6
CONTINUOUS
 10
16.3802483082
 20
13.2722796024
 11
16.2232009339
 21
12.7640741128
  0
LINE
  5
2EA
100
AcDbEntity
  8
LAYER_CUT_FEAT
100
AcDbLine
 62
7
  6
CONTINUOUS
 10
15.990205882
 20
12.0265684544
 11
15.9387694557
 21
11.9743623065
  0
LINE
  5
2EB
100
AcDbEntity
  8
02___PRT_ALL_AXES
100
AcDbLine
 62
7
  6
CONTINUOUS
 10
15.8967661209
 20
11.2770840965
 11
16.1123564402
 21
11.9747346253
  0
LINE
  5
2EC
100
AcDbEntity
  8
LAYER_FEATURE
100
AcDbLine
 62
7
  6
CONTINUOUS
 10
16.3321025294
 20
12.6818452821
 11
16.4834274647
 21
13.1715329525
  0
LINE
  5
2ED
100
AcDbEntity
  8
LAYER_FEATURE
100
AcDbLine
 62
7
  6
CONTINUOUS
 10
16.3592588969
 20
12.6593141305
 11
16.5080878573
 21
13.140924823
  0
LINE
  5
2EE
100
AcDbEntity
  8
LAYER_CUT_FEAT
100
AcDbLine
 62
7
  6
CONTINUOUS
 10
16.5077174419
 20
13.1389888729
 11
16.3594381072
 21
12.6591567701
  0
LINE
  5
2EF
100
AcDbEntity
  8
LAYER_CUT_FEAT
100
AcDbLine
 62
7
  6
CONTINUOUS
 10
16.2270069415
 20
11.9393049408
 11
16.2397154235
 21
11.9804296035
  0
LINE
  5
2F0
100
AcDbEntity
  8
LAYER_FEATURE
100
AcDbLine
 62
7
  6
CONTINUOUS
 10
16.441768453
 20
12.5833603109
 11
16.57979261
 21
13.0300066467
  0
LINE
  5
2F1
100
AcDbEntity
  8
LAYER_FEATURE
100
AcDbLine
 62
7
  6
CONTINUOUS
 10
16.4609068233
 20
12.5643086162
 11
16.5951484605
 21
12.9987147134
  0
LINE
  5
2F2
100
AcDbEntity
  8
LAYER_FEATURE
100
AcDbLine
 62
7
  6
CONTINUOUS
 10
16.5142848366
 20
12.5058825722
 11
16.632305178
 21
12.8877965371
  0
LINE
  5
2F3
100
AcDbEntity
  8
LAYER_FEATURE
100
AcDbLine
 62
7
  6
CONTINUOUS
 10
16.5251898826
 20
12.4931529021
 11
16.6376853622
 21
12.8571884076
  0
LINE
  5
2F4
100
AcDbEntity
  8
LAYER_FEATURE
100
AcDbLine
 62
7
  6
CONTINUOUS
 10
15.9772800766
 20
11.6631445416
 11
16.0144958206
 21
11.7077308698
  0
LINE
  5
2F5
100
AcDbEntity
  8
LAYER_CUT_FEAT
100
AcDbLine
 62
7
  6
CONTINUOUS
 10
15.9739821034
 20
11.7455839107
 11
16.0254185296
 21
11.7977900587
  0
LINE
  5
2F6
100
AcDbEntity
  8
LAYER_FEATURE
100
AcDbLine
 62
7
  6
CONTINUOUS
 10
16.5496685705
 20
12.4631087754
 11
16.6386701177
 21
12.7511178879
  0
LINE
  5
2F7
100
AcDbEntity
  8
LAYER_FEATURE
100
AcDbLine
 62
7
  6
CONTINUOUS
 10
16.552509564
 20
12.4593475288
 11
16.6338394957
 21
12.7225312843
  0
LINE
  5
2F8
100
AcDbEntity
  8
LAYER_FEATURE
100
AcDbLine
 62
7
  6
CONTINUOUS
 10
16.6841758155
 20
11.7980290735
 11
16.7074141825
 21
11.8732284568
  0
LINE
  5
2F9
100
AcDbEntity
  8
LAYER_FEATURE
100
AcDbLine
 62
7
  6
CONTINUOUS
 10
16.9434288479
 20
12.6369721937
 11
16.9666672149
 21
12.712171577
  0
CIRCLE
  5
2FA
100
AcDbEntity
  8
LAYER_FEATURE
100
AcDbCircle
 62
7
  6
CONTINUOUS
 10
6.1303672762
 20
5.5201198968
 40
1.4175
  0
CIRCLE
  5
2FB
100
AcDbEntity
  8
LAYER_FEATURE
100
AcDbCircle
 62
7
  6
CONTINUOUS
 10
6.1303672762
 20
5.5201198968
 40
1.26
  0
CIRCLE
  5
2FC
100
AcDbEntity
  8
LAYER_CUT_FEAT
100
AcDbCircle
 62
7
  6
CONTINUOUS
 10
6.1303672762
 20
5.5201198968
 40
0.939
  0
CIRCLE
  5
2FD
100
AcDbEntity
  8
02___PRT_ALL_AXES
100
AcDbCircle
 62
7
  6
CONTINUOUS
 10
6.1303672762
 20
5.5201198968
 40
0.819
  0
CIRCLE
  5
2FE
100
AcDbEntity
  8
LAYER_CHAMFER_FEAT
100
AcDbCircle
 62
7
  6
CONTINUOUS
 10
6.1303672762
 20
5.5201198968
 40
0.43125
  0
CIRCLE
  5
2FF
100
AcDbEntity
  8
LAYER_CHAMFER_FEAT
100
AcDbCircle
 62
7
  6
CONTINUOUS
 10
6.1303672762
 20
5.5201198968
 40
0.375
  0
CIRCLE
  5
300
100
AcDbEntity
  8
02___PRT_ALL_AXES
100
AcDbCircle
 62
7
  6
CONTINUOUS
 10
6.0708720839
 20
12.0399852814
 40
0.246
  0
ARC
  5
301
100
AcDbEntity
  8
LAYER_FEATURE
100
AcDbCircle
 62
7
  6
CONTINUOUS
 10
7.2920471537
 20
12.3711102814
 40
0.23925
100
AcDbArc
 50
71.5650511771
 51
90.0
  0
ARC
  5
302
100
AcDbEntity
  8
LAYER_FEATURE
100
AcDbCircle
 62
7
  6
CONTINUOUS
 10
4.8496970141
 20
12.3711102814
 40
0.23925
100
AcDbArc
 50
90.0
 51
108.4349488229
  0
ARC
  5
303
100
AcDbEntity
  8
LAYER_FEATURE
100
AcDbCircle
 62
7
  6
CONTINUOUS
 10
7.2920471537
 20
13.7196102814
 40
0.23925
100
AcDbArc
 50
270.0
 51
288.4349488229
  0
ARC
  5
304
100
AcDbEntity
  8
LAYER_FEATURE
100
AcDbCircle
 62
7
  6
CONTINUOUS
 10
4.8496970141
 20
13.7196102814
 40
0.23925
100
AcDbArc
 50
251.5650511771
 51
270.0
  0
CIRCLE
  5
305
100
AcDbEntity
  8
LAYER_FEATURE
100
AcDbCircle
 62
7
  6
CONTINUOUS
 10
6.0708720839
 20
12.0399852814
 40
0.1968
  0
CIRCLE
  5
306
100
AcDbEntity
  8
02___PRT_ALL_AXES
100
AcDbCircle
 62
7
  6
CONTINUOUS
 10
15.0002927569
 20
5.4606247044
 40
0.246
  0
ARC
  5
307
100
AcDbEntity
  8
LAYER_FEATURE
100
AcDbCircle
 62
7
  6
CONTINUOUS
 10
15.3314177569
 20
4.2394496346
 40
0.23925
100
AcDbArc
 50
341.5650511771
 51
360.0
  0
ARC
  5
308
100
AcDbEntity
  8
LAYER_FEATURE
100
AcDbCircle
 62
7
  6
CONTINUOUS
 10
15.3314177569
 20
6.6817997742
 40
0.23925
100
AcDbArc
 50
0.0
 51
18.4349488229
  0
ARC
  5
309
100
AcDbEntity
  8
LAYER_FEATURE
100
AcDbCircle
 62
7
  6
CONTINUOUS
 10
16.6799177569
 20
4.2394496346
 40
0.23925
100
AcDbArc
 50
180.0
 51
198.4349488229
  0
ARC
  5
30A
100
AcDbEntity
  8
LAYER_FEATURE
100
AcDbCircle
 62
7
  6
CONTINUOUS
 10
16.6799177569
 20
6.6817997742
 40
0.23925
100
AcDbArc
 50
161.5650511771
 51
180.0
  0
CIRCLE
  5
30B
100
AcDbEntity
  8
LAYER_FEATURE
100
AcDbCircle
 62
7
  6
CONTINUOUS
 10
15.0002927569
 20
5.4606247044
 40
0.1968
  0
ARC
  5
30C
100
AcDbEntity
  8
LAYER_FEATURE
100
AcDbCircle
 62
7
  6
CONTINUOUS
 10
15.1962138018
 20
11.7840133776
 40
1.9164014399
100
AcDbArc
 50
71.1347370422
 51
72.6394134106
  0
ARC
  5
30D
100
AcDbEntity
  8
LAYER_FEATURE
100
AcDbCircle
 62
7
  6
CONTINUOUS
 10
15.2105824635
 20
11.8459285368
 40
1.8528257853
100
AcDbArc
 50
78.0315815239
 51
79.571313969
  0
ARC
  5
30E
100
AcDbEntity
  8
LAYER_FEATURE
100
AcDbCircle
 62
7
  6
CONTINUOUS
 10
15.234999439
 20
11.8783642484
 40
1.8143428563
100
AcDbArc
 50
64.1365108565
 51
65.6962614154
  0
ARC
  5
30F
100
AcDbEntity
  8
LAYER_FEATURE
100
AcDbCircle
 62
7
  6
CONTINUOUS
 10
15.2369539624
 20
12.0571897873
 40
1.6397942353
100
AcDbArc
 50
85.2430399429
 51
86.9142996834
  0
ARC
  5
310
100
AcDbEntity
  8
LAYER_FEATURE
100
AcDbCircle
 62
7
  6
CONTINUOUS
 10
15.3518115246
 20
12.0899223073
 40
1.5725211007
100
AcDbArc
 50
56.6025788059
 51
58.3174863549
  0
ARC
  5
311
100
AcDbEntity
  8
LAYER_FEATURE
100
AcDbCircle
 62
7
  6
CONTINUOUS
 10
15.2351746342
 20
12.3668104302
 40
1.3299243333
100
AcDbArc
 50
93.2418305314
 51
95.1645510956
  0
ARC
  5
312
100
AcDbEntity
  8
LAYER_FEATURE
100
AcDbCircle
 62
7
  6
CONTINUOUS
 10
15.5440080703
 20
12.3487010716
 40
1.2499032402
100
AcDbArc
 50
48.0029647487
 51
50.0005400398
  0
ARC
  5
313
100
AcDbEntity
  8
LAYER_FEATURE
100
AcDbCircle
 62
7
  6
CONTINUOUS
 10
15.1827406152
 20
12.6979138137
 40
0.9943239237
100
AcDbArc
 50
102.6379194391
 51
104.9730990085
  0
ARC
  5
314
100
AcDbEntity
  8
LAYER_FEATURE
100
AcDbCircle
 62
7
  6
CONTINUOUS
 10
15.780607536
 20
12.5800459234
 40
0.9185928139
100
AcDbArc
 50
37.6318069152
 51
40.0836683469
  0
ARC
  5
315
100
AcDbEntity
  8
LAYER_FEATURE
100
AcDbCircle
 62
7
  6
CONTINUOUS
 10
15.0844067842
 20
12.9752887506
 40
0.699534203
100
AcDbArc
 50
114.2465659413
 51
117.1994959368
  0
ARC
  5
316
100
AcDbEntity
  8
LAYER_FEATURE
100
AcDbCircle
 62
7
  6
CONTINUOUS
 10
16.0122682863
 20
12.7320924143
 40
0.640965481
100
AcDbArc
 50
24.5804058495
 51
27.6966205997
  0
ARC
  5
317
100
AcDbEntity
  8
LAYER_CUT_FEAT
100
AcDbCircle
 62
7
  6
CONTINUOUS
 10
14.9617356705
 20
12.4603500284
 40
0.5533516198
100
AcDbArc
 50
206.1422945785
 51
207.2101878884
  0
ARC
  5
318
100
AcDbEntity
  8
LAYER_FEATURE
100
AcDbCircle
 62
7
  6
CONTINUOUS
 10
14.9729684844
 20
13.1496479252
 40
0.4920632553
100
AcDbArc
 50
129.0257752591
 51
132.7510101576
  0
ARC
  5
319
100
AcDbEntity
  8
LAYER_FEATURE
100
AcDbCircle
 62
7
  6
CONTINUOUS
 10
16.1907941671
 20
12.79441244
 40
0.4512788078
100
AcDbArc
 50
7.9961660626
 51
11.9426291185
  0
ARC
  5
31A
100
AcDbEntity
  8
LAYER_FEATURE
100
AcDbCircle
 62
7
  6
CONTINUOUS
 10
14.889069862
 20
13.2236151361
 40
0.3797734654
100
AcDbArc
 50
147.4238380667
 51
151.8513832345
  0
ARC
  5
31B
100
AcDbEntity
  8
LAYER_FEATURE
100
AcDbCircle
 62
7
  6
CONTINUOUS
 10
16.2752280635
 20
12.7978316149
 40
0.3664318478
100
AcDbArc
 50
348.1414558106
 51
352.6758478298
  0
ARC
  5
31C
100
AcDbEntity
  8
LAYER_FEATURE
100
AcDbCircle
 62
7
  6
CONTINUOUS
 10
16.5712192329
 20
12.7688402553
 40
0.1355864974
100
AcDbArc
 50
69.1513649023
 51
78.7522157049
  0
ARC
  5
31D
100
AcDbEntity
  8
LAYER_FEATURE
100
AcDbCircle
 62
7
  6
CONTINUOUS
 10
14.6426322165
 20
13.4007168066
 40
0.1346030013
100
AcDbArc
 50
64.9955492578
 51
74.6432210952
  0
ARC
  5
31E
100
AcDbEntity
  8
LAYER_FEATURE
100
AcDbCircle
 62
7
  6
CONTINUOUS
 10
14.5636068754
 20
13.2963494715
 40
0.1338608418
100
AcDbArc
 50
71.8584323422
 51
81.5418158689
  0
ARC
  5
31F
100
AcDbEntity
  8
LAYER_FEATURE
100
AcDbCircle
 62
7
  6
CONTINUOUS
 10
14.8878347182
 20
12.3129620371
 40
0.1289150129
100
AcDbArc
 50
198.9071286226
 51
201.8982412957
  0
ARC
  5
320
100
AcDbEntity
  8
LAYER_FEATURE
100
AcDbCircle
 62
7
  6
CONTINUOUS
 10
15.0981396337
 20
12.4161761539
 40
0.1288204649
100
AcDbArc
 50
29.3054069882
 51
33.3610112693
  0
ARC
  5
321
100
AcDbEntity
  8
LAYER_FEATURE
100
AcDbCircle
 62
7
  6
CONTINUOUS
 10
14.6443441325
 20
13.5430636053
 40
0.1257273132
100
AcDbArc
 50
251.9015260682
 51
254.7971061403
  0
ARC
  5
322
100
AcDbEntity
  8
LAYER_FEATURE
100
AcDbCircle
 62
7
  6
CONTINUOUS
 10
16.4991348866
 20
13.1416344237
 40
0.0089810477
100
AcDbArc
 50
342.8682189665
 51
355.4682847919
  0
SPLINE
  5
323
100
AcDbEntity
  8
02___PRT_ALL_AXES
100
AcDbSpline
 62
7
  6
CONTINUOUS
 70
0
 71
3
 72
31
 73
27
 74
0
 42
0.0000001
 43
0.0000001
 44
0.0000000001
 40
0.0
 40
0.0
 40
0.0
 40
0.0
 40
0.0099771968
 40
0.0393203262
 40
0.086430458
 40
0.1490667388
 40
0.1854155389
 40
0.224668435
 40
0.2664723692
 40
0.3104568973
 40
0.3562300496
 40
0.4033752881
 40
0.4514520123
 40
0.5000000004
 40
0.5485479885
 40
0.5966247127
 40
0.6437699512
 40
0.6895431034
 40
0.7335276315
 40
0.7753315657
 40
0.8145844618
 40
0.8509332618
 40
0.9135695425
 40
0.9606796738
 40
0.9900228033
 40
1.0
 40
1.0
 40
1.0
 40
1.0
 10
6.8898720839
 20
11.7939852814
 30
0.0
 10
6.8893941457
 20
11.7955764589
 30
0.0
 10
6.8875258299
 20
11.8018519227
 30
0.0
 10
6.8835526168
 20
11.815685632
 30
0.0
 10
6.8775900348
 20
11.8380684722
 30
0.0
 10
6.8720097327
 20
11.8617530881
 30
0.0
 10
6.8673479081
 20
11.8842969813
 30
0.0
 10
6.863801862
 20
11.9035249238
 30
0.0
 10
6.8605116852
 20
11.9240874418
 30
0.0
 10
6.8576072161
 20
11.945804408
 30
0.0
 10
6.8552072497
 20
11.9684779579
 30
0.0
 10
6.8534133249
 20
11.9918913748
 30
0.0
 10
6.8523038061
 20
12.0158100551
 30
0.0
 10
6.8519283277
 20
12.0399852816
 30
0.0
 10
6.8523038061
 20
12.064160508
 30
0.0
 10
6.853413325
 20
12.0880791883
 30
0.0
 10
6.8552072497
 20
12.1114926052
 30
0.0
 10
6.8576072161
 20
12.1341661551
 30
0.0
 10
6.8605116853
 20
12.1558831213
 30
0.0
 10
6.8638018621
 20
12.1764456393
 30
0.0
 10
6.8673479082
 20
12.1956735818
 30
0.0
 10
6.8720097328
 20
12.2182174749
 30
0.0
 10
6.8775900349
 20
12.2419020908
 30
0.0
 10
6.8835526168
 20
12.2642849308
 30
0.0
 10
6.8875258299
 20
12.2781186401
 30
0.0
 10
6.8893941457
 20
12.2843941038
 30
0.0
 10
6.8898720839
 20
12.2859852814
 30
0.0
  0
SPLINE
  5
324
100
AcDbEntity
  8
02___PRT_ALL_AXES
100
AcDbSpline
 62
7
  6
CONTINUOUS
 70
0
 71
3
 72
31
 73
27
 74
0
 42
0.0000001
 43
0.0000001
 44
0.0000000001
 40
0.0
 40
0.0
 40
0.0
 40
0.0
 40
0.0099771974
 40
0.0393203104
 40
0.0864304241
 40
0.1490667375
 40
0.1854155451
 40
0.2246684606
 40
0.2664723838
 40
0.3104569362
 40
0.356230079
 40
0.4033753072
 40
0.4514520264
 40
0.5
 40
0.5485479735
 40
0.5966246926
 40
0.643769921
 40
0.6895430637
 40
0.7335276162
 40
0.7753315393
 40
0.8145844548
 40
0.8509332624
 40
0.913569576
 40
0.9606796897
 40
0.9900228026
 40
1.0
 40
1.0
 40
1.0
 40
1.0
 10
15.2462927569
 20
6.2796247044
 30
0.0
 10
15.2447015795
 20
6.2791467655
 30
0.0
 10
15.2384261187
 20
6.277278449
 30
0.0
 10
15.2245924129
 20
6.2733052441
 30
0.0
 10
15.2022095739
 20
6.2673426594
 30
0.0
 10
15.1785249543
 20
6.2617623569
 30
0.0
 10
15.1559810527
 20
6.2571005235
 30
0.0
 10
15.1367531055
 20
6.2535544888
 30
0.0
 10
15.1161905849
 20
6.2502642933
 30
0.0
 10
15.0944736156
 20
6.2473598423
 30
0.0
 10
15.0718000659
 20
6.2449598687
 30
0.0
 10
15.0483866534
 20
6.2431659367
 30
0.0
 10
15.0244679775
 20
6.2420564325
 30
0.0
 10
15.000292757
 20
6.2416809427
 30
0.0
 10
14.9761175364
 20
6.2420564325
 30
0.0
 10
14.9521988605
 20
6.2431659367
 30
0.0
 10
14.928785448
 20
6.2449598687
 30
0.0
 10
14.9061118983
 20
6.2473598423
 30
0.0
 10
14.884394929
 20
6.2502642933
 30
0.0
 10
14.8638324084
 20
6.2535544888
 30
0.0
 10
14.8446044612
 20
6.2571005235
 30
0.0
 10
14.8220605596
 20
6.2617623569
 30
0.0
 10
14.79837594
 20
6.2673426594
 30
0.0
 10
14.7759931009
 20
6.2733052441
 30
0.0
 10
14.7621593952
 20
6.2772784491
 30
0.0
 10
14.7558839344
 20
6.2791467655
 30
0.0
 10
14.7542927569
 20
6.2796247044
 30
0.0
  0
SPLINE
  5
325
100
AcDbEntity
  8
02___PRT_ALL_AXES
100
AcDbSpline
 62
7
  6
CONTINUOUS
 70
0
 71
3
 72
70
 73
66
 74
0
 42
0.0000001
 43
0.0000001
 44
0.0000000001
 40
0.0
 40
0.0
 40
0.0
 40
0.0
 40
0.0135104257
 40
0.0275369849
 40
0.0420576764
 40
0.0570514276
 40
0.0724950769
 40
0.0883642717
 40
0.1046339307
 40
0.1212782378
 40
0.1382708858
 40
0.1555852043
 40
0.1731943495
 40
0.1910714164
 40
0.2091895603
 40
0.2275221148
 40
0.2460426657
 40
0.2647251438
 40
0.2835438488
 40
0.3024735023
 40
0.3214892791
 40
0.3405668334
 40
0.3596822955
 40
0.3788122819
 40
0.3979339133
 40
0.4170247924
 40
0.4360630336
 40
0.4550272324
 40
0.4738965198
 40
0.4926505634
 40
0.5112695679
 40
0.5297343668
 40
0.5480264213
 40
0.5661279052
 40
0.5840217639
 40
0.6016917805
 40
0.6191226927
 40
0.6363002369
 40
0.6532112696
 40
0.6698438522
 40
0.6861873274
 40
0.7022324167
 40
0.7179712504
 40
0.7333974755
 40
0.7632886563
 40
0.7777543089
 40
0.7918974101
 40
0.8057193514
 40
0.8192230923
 40
0.8324130543
 40
0.8452951373
 40
0.8578766921
 40
0.8701664413
 40
0.8821745418
 40
0.893912527
 40
0.9053933023
 40
0.9166312218
 40
0.9276420523
 40
0.938443037
 40
0.9490529359
 40
0.9594920221
 40
0.9697821451
 40
0.9799466859
 40
0.9900105259
 40
1.0
 40
1.0
 40
1.0
 40
1.0
 10
15.9225456771
 20
11.6933777628
 30
0.0
 10
15.9215547156
 20
11.6953971301
 30
0.0
 10
15.9195717925
 20
11.699531183
 30
0.0
 10
15.9166464856
 20
11.7058935364
 30
0.0
 10
15.9137186636
 20
11.7125256257
 30
0.0
 10
15.9107941984
 20
11.7194162309
 30
0.0
 10
15.907879262
 20
11.7265539873
 30
0.0
 10
15.9049803975
 20
11.7339270233
 30
0.0
 10
15.9021044491
 20
11.7415231591
 30
0.0
 10
15.8992585446
 20
11.7493299924
 30
0.0
 10
15.8964500282
 20
11.7573349146
 30
0.0
 10
15.8936864795
 20
11.7655251944
 30
0.0
 10
15.8909756545
 20
11.7738880113
 30
0.0
 10
15.888325449
 20
11.7824104986
 30
0.0
 10
15.8857439167
 20
11.7910797915
 30
0.0
 10
15.8832391927
 20
11.7998830387
 30
0.0
 10
15.8808195052
 20
11.8088074375
 30
0.0
 10
15.8784931487
 20
11.81784024
 30
0.0
 10
15.8762684465
 20
11.8269687535
 30
0.0
 10
15.8741537593
 20
11.8361803419
 30
0.0
 10
15.8721574335
 20
11.8454624126
 30
0.0
 10
15.8702878097
 20
11.8548024072
 30
0.0
 10
15.8685531677
 20
11.8641877746
 30
0.0
 10
15.8669617285
 20
11.8736059549
 30
0.0
 10
15.8655216151
 20
11.8830443507
 30
0.0
 10
15.8642407898
 20
11.8924902999
 30
0.0
 10
15.8631270965
 20
11.9019310554
 30
0.0
 10
15.8621881042
 20
11.911353751
 30
0.0
 10
15.8614311589
 20
11.9207453917
 30
0.0
 10
15.8608633077
 20
11.9300928315
 30
0.0
 10
15.8604911511
 20
11.9393827614
 30
0.0
 10
15.8603209667
 20
11.9486017116
 30
0.0
 10
15.8603584442
 20
11.9577360529
 30
0.0
 10
15.8606087127
 20
11.9667720143
 30
0.0
 10
15.8610763614
 20
11.9756957001
 30
0.0
 10
15.8617651196
 20
11.9844931379
 30
0.0
 10
15.8626780594
 20
11.9931503092
 30
0.0
 10
15.8638174192
 20
12.0016532031
 30
0.0
 10
15.8651844213
 20
12.0099879024
 30
0.0
 10
15.8667795189
 20
12.0181406013
 30
0.0
 10
15.8686020972
 20
12.0260977472
 30
0.0
 10
15.8706504654
 20
12.033846002
 30
0.0
 10
15.8729222055
 20
12.0413726696
 30
0.0
 10
15.8762090886
 20
12.0509937366
 30
0.0
 10
15.8799503195
 20
12.0602305066
 30
0.0
 10
15.8841541892
 20
12.069018979
 30
0.0
 10
15.8874685366
 20
12.0752602719
 30
0.0
 10
15.8909703313
 20
12.081213254
 30
0.0
 10
15.8946506718
 20
12.0868692878
 30
0.0
 10
15.8985000676
 20
12.0922201556
 30
0.0
 10
15.9025083937
 20
12.0972583979
 30
0.0
 10
15.9066649768
 20
12.1019772335
 30
0.0
 10
15.91095882
 20
12.1063704183
 30
0.0
 10
15.9153784491
 20
12.1104323975
 30
0.0
 10
15.9199121417
 20
12.1141581301
 30
0.0
 10
15.9245479497
 20
12.1175430575
 30
0.0
 10
15.9292736653
 20
12.120583185
 30
0.0
 10
15.9340769965
 20
12.1232748671
 30
0.0
 10
15.9389454996
 20
12.1256149121
 30
0.0
 10
15.9438666437
 20
12.1276005155
 30
0.0
 10
15.9488278742
 20
12.1292291626
 30
0.0
 10
15.9538165322
 20
12.1304987589
 30
0.0
 10
15.9588200825
 20
12.1314074881
 30
0.0
 10
15.963825531
 20
12.1319538676
 30
0.0
 10
15.9671655307
 20
12.1320761849
 30
0.0
 10
15.9688287227
 20
12.1320761819
 30
0.0
  0
SPLINE
  5
326
100
AcDbEntity
  8
02___PRT_ALL_AXES
100
AcDbSpline
 62
7
  6
CONTINUOUS
 70
0
 71
3
 72
37
 73
33
 74
0
 42
0.0000001
 43
0.0000001
 44
0.0000000001
 40
0.0
 40
0.0
 40
0.0
 40
0.0
 40
0.0390161751
 40
0.0775767608
 40
0.1156539513
 40
0.1532280354
 40
0.1902814007
 40
0.226797212
 40
0.2627606647
 40
0.2981599353
 40
0.3329855686
 40
0.3672308397
 40
0.4008917742
 40
0.4339674006
 40
0.4664598099
 40
0.4983742346
 40
0.5297192247
 40
0.5605065901
 40
0.6204636178
 40
0.6784177888
 40
0.7067162332
 40
0.7346010903
 40
0.7621084397
 40
0.7892774642
 40
0.8161504101
 40
0.8427722066
 40
0.8691902357
 40
0.8954539113
 40
0.9216142624
 40
0.9477234937
 40
0.9738344104
 40
1.0
 40
1.0
 40
1.0
 40
1.0
 10
14.9183674342
 20
12.2024763268
 30
0.0
 10
14.9160672423
 20
12.2024763268
 30
0.0
 10
14.9114935784
 20
12.2025214413
 30
0.0
 10
14.9046778615
 20
12.2027270272
 30
0.0
 10
14.8979527619
 20
12.2030701234
 30
0.0
 10
14.8913251485
 20
12.2035505368
 30
0.0
 10
14.8848013318
 20
12.2041680584
 30
0.0
 10
14.8783874894
 20
12.2049224016
 30
0.0
 10
14.872089623
 20
12.2058132674
 30
0.0
 10
14.8659134742
 20
12.2068402544
 30
0.0
 10
14.859864512
 20
12.2080029556
 30
0.0
 10
14.8539479581
 20
12.2093008982
 30
0.0
 10
14.848168776
 20
12.2107335931
 30
0.0
 10
14.8425316706
 20
12.2123005058
 30
0.0
 10
14.8370410795
 20
12.214001085
 30
0.0
 10
14.8317012192
 20
12.2158347485
 30
0.0
 10
14.8265159419
 20
12.2178009306
 30
0.0
 10
14.8198725349
 20
12.2205736896
 30
0.0
 10
14.8119579281
 20
12.2243612426
 30
0.0
 10
14.8044715356
 20
12.2286524354
 30
0.0
 10
14.7988445596
 20
12.2323453635
 30
0.0
 10
14.7948336093
 20
12.235221306
 30
0.0
 10
14.7910012341
 20
12.2382244696
 30
0.0
 10
14.7873495881
 20
12.2413541668
 30
0.0
 10
14.7838807334
 20
12.2446095779
 30
0.0
 10
14.7805966229
 20
12.2479898947
 30
0.0
 10
14.777499048
 20
12.2514941966
 30
0.0
 10
14.7745897327
 20
12.2551215442
 30
0.0
 10
14.7718702375
 20
12.2588708567
 30
0.0
 10
14.7693420533
 20
12.2627410492
 30
0.0
 10
14.7670065751
 20
12.2667307256
 30
0.0
 10
14.765581206
 20
12.2694649016
 30
0.0
 10
14.7649016319
 20
12.2708497324
 30
0.0
  0
SPLINE
  5
327
100
AcDbEntity
  8
LAYER_CUT_FEAT
100
AcDbSpline
 62
7
  6
CONTINUOUS
 70
0
 71
3
 72
28
 73
24
 74
0
 42
0.0000001
 43
0.0000001
 44
0.0000000001
 40
0.0
 40
0.0
 40
0.0
 40
0.0
 40
0.0696894171
 40
0.1381380473
 40
0.2053812452
 40
0.2714663202
 40
0.3364452313
 40
0.4003773948
 40
0.4633294358
 40
0.5253748187
 40
0.5865938857
 40
0.6470734889
 40
0.7069065559
 40
0.7366137012
 40
0.7661965789
 40
0.7956682558
 40
0.8250420417
 40
0.8543314943
 40
0.8835503566
 40
0.9127125388
 40
0.9418320957
 40
0.9709231754
 40
1.0
 40
1.0
 40
1.0
 40
1.0
 10
14.4649904954
 20
12.2165422226
 30
0.0
 10
14.4620638057
 20
12.2225061891
 30
0.0
 10
14.456478268
 20
12.2344354165
 30
0.0
 10
14.4488590825
 20
12.2524758431
 30
0.0
 10
14.4420825541
 20
12.2704833185
 30
0.0
 10
14.4361554334
 20
12.2884401865
 30
0.0
 10
14.4310835005
 20
12.3063295467
 30
0.0
 10
14.4268717809
 20
12.3241342551
 30
0.0
 10
14.4235244825
 20
12.3418372998
 30
0.0
 10
14.4210450384
 20
12.3594217087
 30
0.0
 10
14.419436015
 20
12.3768706796
 30
0.0
 10
14.4186991199
 20
12.3941671085
 30
0.0
 10
14.418812932
 20
12.4084745964
 30
0.0
 10
14.4193431181
 20
12.4198190686
 30
0.0
 10
14.4199577218
 20
12.4282592253
 30
0.0
 10
14.4207900673
 20
12.43664872
 30
0.0
 10
14.4218400073
 20
12.4449856016
 30
0.0
 10
14.423107247
 20
12.4532678538
 30
0.0
 10
14.4245914933
 20
12.4614934941
 30
0.0
 10
14.4262924273
 20
12.4696605315
 30
0.0
 10
14.4282095963
 20
12.4777670351
 30
0.0
 10
14.4303425478
 20
12.4858109748
 30
0.0
 10
14.4319082243
 20
12.4911312243
 30
0.0
 10
14.432726604
 20
12.4937795019
 30
0.0
  0
SPLINE
  5
328
100
AcDbEntity
  8
LAYER_CHAMFER_FEAT
100
AcDbSpline
 62
7
  6
CONTINUOUS
 70
0
 71
3
 72
28
 73
24
 74
0
 42
0.0000001
 43
0.0000001
 44
0.0000000001
 40
0.0
 40
0.0
 40
0.0
 40
0.0
 40
0.0739466903
 40
0.1460971176
 40
0.2164555449
 40
0.2850408898
 40
0.3518876606
 40
0.4170469197
 40
0.4805872163
 40
0.5425953953
 40
0.6031770258
 40
0.6624565598
 40
0.7205770933
 40
0.7492568168
 40
0.7777085641
 40
0.8059550324
 40
0.83401974
 40
0.8619270675
 40
0.8897021046
 40
0.9173705276
 40
0.9449585564
 40
0.9724927654
 40
1.0
 40
1.0
 40
1.0
 40
1.0
 10
14.8947481645
 20
11.7797994977
 30
0.0
 10
14.8907225871
 20
11.778566909
 30
0.0
 10
14.8828177235
 20
11.7759692176
 30
0.0
 10
14.8712839867
 20
11.7716172613
 30
0.0
 10
14.860240103
 20
11.7668654708
 30
0.0
 10
14.8497074162
 20
11.7617228326
 30
0.0
 10
14.8397060005
 20
11.7561989353
 30
0.0
 10
14.8302550521
 20
11.7503040846
 30
0.0
 10
14.8213727509
 20
11.7440492509
 30
0.0
 10
14.81307626
 20
11.7374461456
 30
0.0
 10
14.8053816415
 20
11.7305070351
 30
0.0
 10
14.7983041573
 20
11.7232452234
 30
0.0
 10
14.7929078013
 20
11.7169073712
 30
0.0
 10
14.7889213882
 20
11.7116939695
 30
0.0
 10
14.7861068608
 20
11.7077295017
 30
0.0
 10
14.7834560196
 20
11.7036956373
 30
0.0
 10
14.7809701591
 20
11.6995942241
 30
0.0
 10
14.778650481
 20
11.6954272603
 30
0.0
 10
14.7764980752
 20
11.6911967605
 30
0.0
 10
14.7745140604
 20
11.6869047338
 30
0.0
 10
14.7726993266
 20
11.6825532582
 30
0.0
 10
14.7710548038
 20
11.678144506
 30
0.0
 10
14.7700722571
 20
11.6751678652
 30
0.0
 10
14.7696098743
 20
11.6736715934
 30
0.0
  0
SPLINE
  5
329
100
AcDbEntity
  8
LAYER_CHAMFER_FEAT
100
AcDbSpline
 62
7
  6
CONTINUOUS
 70
0
 71
3
 72
28
 73
24
 74
0
 42
0.0000001
 43
0.0000001
 44
0.0000000001
 40
0.0
 40
0.0
 40
0.0
 40
0.0
 40
0.0739369536
 40
0.1460786831
 40
0.2164295894
 40
0.2850087126
 40
0.351850667
 40
0.4170065947
 40
0.4805450881
 40
0.5425530043
 40
0.6031358931
 40
0.6624181475
 40
0.7205427587
 40
0.7492249798
 40
0.7776795088
 40
0.8059290162
 40
0.8339969927
 40
0.8619077932
 40
0.889686474
 40
0.9173586806
 40
0.9449505992
 40
0.9724887688
 40
1.0
 40
1.0
 40
1.0
 40
1.0
 10
15.4428224255
 20
11.6103430323
 30
0.0
 10
15.44544652
 20
11.6070562784
 30
0.0
 10
15.4504993941
 20
11.6004559947
 30
0.0
 10
15.4575551893
 20
11.5903625379
 30
0.0
 10
15.4639817506
 20
11.5802155934
 30
0.0
 10
15.4697665647
 20
11.5700345814
 30
0.0
 10
15.4748985038
 20
11.5598387027
 30
0.0
 10
15.4793675669
 20
11.5496472545
 30
0.0
 10
15.48316496
 20
11.5394795079
 30
0.0
 10
15.4862831441
 20
11.5293547726
 30
0.0
 10
15.4887158017
 20
11.5192921962
 30
0.0
 10
15.4904578577
 20
11.5093113302
 30
0.0
 10
15.4913347448
 20
11.501040506
 30
0.0
 10
15.4916830122
 20
11.4944921672
 30
0.0
 10
15.4917690556
 20
11.4896347962
 30
0.0
 10
15.491681056
 20
11.4848124366
 30
0.0
 10
15.4914189838
 20
11.4800273393
 30
0.0
 10
15.4909829819
 20
11.4752818265
 30
0.0
 10
15.49037328
 20
11.4705781718
 30
0.0
 10
15.4895900901
 20
11.4659186599
 30
0.0
 10
15.4886338519
 20
11.461305503
 30
0.0
 10
15.4875050157
 20
11.4567410156
 30
0.0
 10
15.486637528
 20
11.4537312401
 30
0.0
 10
15.4861754861
 20
11.4522360714
 30
0.0
  0
SPLINE
  5
32A
100
AcDbEntity
  8
LAYER_FEATURE
100
AcDbSpline
 62
7
  6
CONTINUOUS
 70
0
 71
3
 72
45
 73
41
 74
0
 42
0.0000001
 43
0.0000001
 44
0.0000000001
 40
0.0
 40
0.0
 40
0.0
 40
0.0
 40
0.009989956
 40
0.020281742
 40
0.0308783909
 40
0.0417818591
 40
0.0529929634
 40
0.064511484
 40
0.0763363783
 40
0.0884656062
 40
0.1008964791
 40
0.1136254816
 40
0.1266484485
 40
0.1399606356
 40
0.1674293164
 40
0.1959835247
 40
0.2255662847
 40
0.2561139311
 40
0.2875569131
 40
0.3198205372
 40
0.3528256194
 40
0.3864890737
 40
0.4207244586
 40
0.4554424882
 40
0.4905515263
 40
0.5259580764
 40
0.5615672437
 40
0.597283188
 40
0.6330095695
 40
0.6686499971
 40
0.7041084819
 40
0.7392898877
 40
0.7741003772
 40
0.8084478794
 40
0.8422425524
 40
0.875397261
 40
0.9078283042
 40
0.939455082
 40
0.9702031904
 40
1.0
 40
1.0
 40
1.0
 40
1.0
 10
16.0144958188
 20
12.0644214856
 30
0.0
 10
16.0151586401
 20
12.0636273943
 30
0.0
 10
16.01647481
 20
12.0619903871
 30
0.0
 10
16.0183924059
 20
12.0594314408
 30
0.0
 10
16.0202811191
 20
12.0567347809
 30
0.0
 10
16.0221393973
 20
12.0539025622
 30
0.0
 10
16.023965798
 20
12.0509370188
 30
0.0
 10
16.0257589042
 20
12.0478405104
 30
0.0
 10
16.0275172556
 20
12.0446154656
 30
0.0
 10
16.029239519
 20
12.0412644627
 30
0.0
 10
16.0309242848
 20
12.0377901353
 30
0.0
 10
16.0325702438
 20
12.0341952508
 30
0.0
 10
16.0341761035
 20
12.0304826472
 30
0.0
 10
16.0362840227
 20
12.0253256214
 30
0.0
 10
16.0388050826
 20
12.0186018912
 30
0.0
 10
16.041619863
 20
12.0101952783
 30
0.0
 10
16.0442460417
 20
12.0013947228
 30
0.0
 10
16.0466752495
 20
11.9922281617
 30
0.0
 10
16.0488997675
 20
11.9827245918
 30
0.0
 10
16.0509125113
 20
11.9729141413
 30
0.0
 10
16.0527070675
 20
11.9628279193
 30
0.0
 10
16.0542777135
 20
11.9524979272
 30
0.0
 10
16.0556194372
 20
11.9419569522
 30
0.0
 10
16.0567279561
 20
11.9312384632
 30
0.0
 10
16.0575997378
 20
11.9203765017
 30
0.0
 10
16.0582320019
 20
11.9094055699
 30
0.0
 10
16.0586227312
 20
11.8983605194
 30
0.0
 10
16.0587706778
 20
11.8872764396
 30
0.0
 10
16.0586753657
 20
11.8761885461
 30
0.0
 10
16.0583370992
 20
11.8651320675
 30
0.0
 10
16.0577569614
 20
11.8541421303
 30
0.0
 10
16.0569368045
 20
11.8432536472
 30
0.0
 10
16.0558792456
 20
11.8325012042
 30
0.0
 10
16.0545876573
 20
11.8219189511
 30
0.0
 10
16.0530661547
 20
11.8115404952
 30
0.0
 10
16.0513195972
 20
11.8013987644
 30
0.0
 10
16.0493535475
 20
11.7915259939
 30
0.0
 10
16.0471742834
 20
11.7819533536
 30
0.0
 10
16.044788746
 20
11.7727114481
 30
0.0
 10
16.0430371232
 20
11.7666909856
 30
0.0
 10
16.042126232
 20
11.7637433408
 30
0.0
  0
SPLINE
  5
32B
100
AcDbEntity
  8
LAYER_FEATURE
100
AcDbSpline
 62
7
  6
CONTINUOUS
 70
0
 71
3
 72
23
 73
19
 74
0
 42
0.0000001
 43
0.0000001
 44
0.0000000001
 40
0.0
 40
0.0
 40
0.0
 40
0.0
 40
0.0507377155
 40
0.1030493762
 40
0.1569516586
 40
0.2124540277
 40
0.2695607267
 40
0.3282698489
 40
0.3885747904
 40
0.4504644232
 40
0.5139231573
 40
0.5789318532
 40
0.6454662965
 40
0.7134996618
 40
0.7830037887
 40
0.8539489856
 40
0.9262973792
 40
1.0
 40
1.0
 40
1.0
 40
1.0
 10
16.0144958197
 20
11.7077308744
 30
0.0
 10
16.0151768454
 20
11.7085467828
 30
0.0
 10
16.0165288678
 20
11.7102301406
 30
0.0
 10
16.0184971457
 20
11.7128641613
 30
0.0
 10
16.020434814
 20
11.7156433495
 30
0.0
 10
16.0223402923
 20
11.718565306
 30
0.0
 10
16.0242119549
 20
11.7216276382
 30
0.0
 10
16.026048288
 20
11.7248277625
 30
0.0
 10
16.0278477474
 20
11.7281630179
 30
0.0
 10
16.0296088259
 20
11.7316306259
 30
0.0
 10
16.0313300889
 20
11.7352276842
 30
0.0
 10
16.0330100429
 20
11.7389511959
 30
0.0
 10
16.0346473361
 20
11.7427980014
 30
0.0
 10
16.0362405584
 20
11.7467649066
 30
0.0
 10
16.0377884251
 20
11.750848666
 30
0.0
 10
16.0392896366
 20
11.7550459121
 30
0.0
 10
16.0407428561
 20
11.7593529052
 30
0.0
 10
16.0416704243
 20
11.7622683465
 30
0.0
 10
16.042126232
 20
11.7637433408
 30
0.0
  0
SPLINE
  5
32C
100
AcDbEntity
  8
02___PRT_ALL_AXES
100
AcDbSpline
 62
7
  6
CONTINUOUS
 70
0
 71
3
 72
37
 73
33
 74
0
 42
0.0000001
 43
0.0000001
 44
0.0000000001
 40
0.0
 40
0.0
 40
0.0
 40
0.0
 40
0.0177204758
 40
0.0356711482
 40
0.0539712924
 40
0.0727333387
 40
0.0920609474
 40
0.1120487691
 40
0.1327817535
 40
0.1543347493
 40
0.1767738523
 40
0.2001565366
 40
0.2245318169
 40
0.2499421276
 40
0.2764233975
 40
0.3040051855
 40
0.3327125747
 40
0.3625658741
 40
0.3935806763
 40
0.4257696154
 40
0.4591416389
 40
0.4937021263
 40
0.5294544891
 40
0.5663991428
 40
0.6045338393
 40
0.6438549578
 40
0.6843559815
 40
0.7260281982
 40
0.7688619883
 40
0.8128461693
 40
0.9042140029
 40
1.0
 40
1.0
 40
1.0
 40
1.0
 10
15.9688287226
 20
11.6400761833
 30
0.0
 10
15.9683960324
 20
11.6400761849
 30
0.0
 10
15.9675246243
 20
11.6401123973
 30
0.0
 10
15.9662153783
 20
11.6402739943
 30
0.0
 10
15.9648979405
 20
11.6405430134
 30
0.0
 10
15.9635721907
 20
11.640919314
 30
0.0
 10
15.962237812
 20
11.6414026717
 30
0.0
 10
15.9608945201
 20
11.6419928849
 30
0.0
 10
15.9595420171
 20
11.64268973
 30
0.0
 10
15.9581799982
 20
11.643492941
 30
0.0
 10
15.9568081963
 20
11.644402272
 30
0.0
 10
15.9554263736
 20
11.6454174475
 30
0.0
 10
15.9540343125
 20
11.6465381464
 30
0.0
 10
15.9526318531
 20
11.647764038
 30
0.0
 10
15.951218874
 20
11.649094744
 30
0.0
 10
15.9497952853
 20
11.6505298326
 30
0.0
 10
15.9483610563
 20
11.6520688383
 30
0.0
 10
15.9469161942
 20
11.6537112373
 30
0.0
 10
15.9454607445
 20
11.6554564498
 30
0.0
 10
15.9439948071
 20
11.6573038458
 30
0.0
 10
15.9425185206
 20
11.659252732
 30
0.0
 10
15.9410320673
 20
11.6613023573
 30
0.0
 10
15.9395356772
 20
11.6634519104
 30
0.0
 10
15.9380296209
 20
11.6657005201
 30
0.0
 10
15.9365142152
 20
11.6680472587
 30
0.0
 10
15.934989821
 20
11.6704911273
 30
0.0
 10
15.9334568473
 20
11.6730310592
 30
0.0
 10
15.9319157551
 20
11.6756659228
 30
0.0
 10
15.9303670227
 20
11.6783945345
 30
0.0
 10
15.9282658799
 20
11.6822045169
 30
0.0
 10
15.925627526
 20
11.687194239
 30
0.0
 10
15.9235760437
 20
11.6912780965
 30
0.0
 10
15.9225456771
 20
11.6933777628
 30
0.0
  0
SPLINE
  5
32D
100
AcDbEntity
  8
LAYER_FEATURE
100
AcDbSpline
 62
7
  6
CONTINUOUS
 70
0
 71
3
 72
46
 73
42
 74
0
 42
0.0000001
 43
0.0000001
 44
0.0000000001
 40
0.0
 40
0.0
 40
0.0
 40
0.0
 40
0.012804138
 40
0.025614115
 40
0.038435758
 40
0.0512748655
 40
0.0641371999
 40
0.0770284692
 40
0.0899543176
 40
0.1029203173
 40
0.1159319465
 40
0.1289945922
 40
0.1421135309
 40
0.1552939181
 40
0.1818571014
 40
0.2087247625
 40
0.2359331573
 40
0.2635160122
 40
0.2915043969
 40
0.3199266337
 40
0.3488082622
 40
0.3781720316
 40
0.393041766
 40
0.4080392884
 40
0.4384245313
 40
0.4693436976
 40
0.500808767
 40
0.5328292176
 40
0.5654121099
 40
0.5985621928
 40
0.6322820127
 40
0.6665720163
 40
0.7014306429
 40
0.7368544278
 40
0.77283811
 40
0.8093747275
 40
0.8464557018
 40
0.884070925
 40
0.9222088563
 40
0.9608566043
 40
1.0
 40
1.0
 40
1.0
 40
1.0
 10
13.9755577297
 20
12.6350553693
 30
0.0
 10
13.9743662349
 20
12.6311996846
 30
0.0
 10
13.9720830815
 20
12.6234551239
 30
0.0
 10
13.9689609702
 20
12.6117488933
 30
0.0
 10
13.9661418082
 20
12.5999546198
 30
0.0
 10
13.963626204
 20
12.5880750531
 30
0.0
 10
13.9614147712
 20
12.5761128067
 30
0.0
 10
13.9595079624
 20
12.5640705694
 30
0.0
 10
13.9579061931
 20
12.5519510279
 30
0.0
 10
13.9566098657
 20
12.5397568866
 30
0.0
 10
13.9556192002
 20
12.5274908682
 30
0.0
 10
13.9549344548
 20
12.515155731
 30
0.0
 10
13.9545557811
 20
12.5027541399
 30
0.0
 10
13.9544587433
 20
12.486091907
 30
0.0
 10
13.9551092954
 20
12.4650985656
 30
0.0
 10
13.9571129642
 20
12.4397526582
 30
0.0
 10
13.9603395536
 20
12.4142093091
 30
0.0
 10
13.9647859507
 20
12.3884917504
 30
0.0
 10
13.9704479477
 20
12.3626228148
 30
0.0
 10
13.9773202669
 20
12.3366254936
 30
0.0
 10
13.9853964805
 20
12.3105231067
 30
0.0
 10
13.9930912853
 20
12.288794549
 30
0.0
 10
13.9998328009
 20
12.2713849312
 30
0.0
 10
14.0070284413
 20
12.2538095959
 30
0.0
 10
14.0167700931
 20
12.2318157352
 30
0.0
 10
14.0295778973
 20
12.2055244997
 30
0.0
 10
14.04354248
 20
12.1792440198
 30
0.0
 10
14.0586512331
 20
12.1529978273
 30
0.0
 10
14.0748906708
 20
12.1268090913
 30
0.0
 10
14.0922462768
 20
12.1007010213
 30
0.0
 10
14.1107025777
 20
12.074696739
 30
0.0
 10
14.1302431399
 20
12.048819293
 30
0.0
 10
14.1508505629
 20
12.023091617
 30
0.0
 10
14.1725064968
 20
11.9975365138
 30
0.0
 10
14.1951916765
 20
11.9721766446
 30
0.0
 10
14.2188859339
 20
11.9470345107
 30
0.0
 10
14.2435682047
 20
11.9221324199
 30
0.0
 10
14.2692165205
 20
11.8974924748
 30
0.0
 10
14.2958081254
 20
11.8731365107
 30
0.0
 10
14.3233192036
 20
11.8490862997
 30
0.0
 10
14.3421396287
 20
11.8333686186
 30
0.0
 10
14.3516948241
 20
11.8255645465
 30
0.0
  0
SPLINE
  5
32E
100
AcDbEntity
  8
LAYER_FEATURE
100
AcDbSpline
 62
7
  6
CONTINUOUS
 70
0
 71
3
 72
30
 73
26
 74
0
 42
0.0000001
 43
0.0000001
 44
0.0000000001
 40
0.0
 40
0.0
 40
0.0
 40
0.0
 40
0.0289281316
 40
0.0578716185
 40
0.0868457772
 40
0.1158658401
 40
0.1449469273
 40
0.1741039908
 40
0.2033517979
 40
0.2327048791
 40
0.2621774996
 40
0.2917836397
 40
0.3215369346
 40
0.3514506903
 40
0.3815378154
 40
0.411810827
 40
0.4729576313
 40
0.5349875883
 40
0.5979847234
 40
0.6620253453
 40
0.7271778841
 40
0.7935028452
 40
0.8610528592
 40
0.9298728037
 40
1.0
 40
1.0
 40
1.0
 40
1.0
 10
14.2348107621
 20
13.4739984895
 30
0.0
 10
14.2335252306
 20
13.4698385015
 30
0.0
 10
14.2310703314
 20
13.4614796896
 30
0.0
 10
14.227740383
 20
13.4488377578
 30
0.0
 10
14.2247632178
 20
13.4360938142
 30
0.0
 10
14.2221396115
 20
13.4232513119
 30
0.0
 10
14.2198703003
 20
13.4103135462
 30
0.0
 10
14.217955794
 20
13.3972839066
 30
0.0
 10
14.2163966467
 20
13.3841657709
 30
0.0
 10
14.2151932275
 20
13.3709625573
 30
0.0
 10
14.2143458273
 20
13.3576776978
 30
0.0
 10
14.2138547103
 20
13.3443146469
 30
0.0
 10
14.2137199207
 20
13.3308768712
 30
0.0
 10
14.2139415528
 20
13.3173678894
 30
0.0
 10
14.2145195042
 20
13.3037911057
 30
0.0
 10
14.2157690206
 20
13.285543661
 30
0.0
 10
14.2182311429
 20
13.2625681612
 30
0.0
 10
14.2225975168
 20
13.2348776618
 30
0.0
 10
14.2283806291
 20
13.2070031648
 30
0.0
 10
14.2355741032
 20
13.1789740694
 30
0.0
 10
14.244170163
 20
13.1508192206
 30
0.0
 10
14.2541595881
 20
13.122567768
 30
0.0
 10
14.2655318457
 20
13.0942487159
 30
0.0
 10
14.2782746696
 20
13.0658917591
 30
0.0
 10
14.2875863909
 20
13.0471589792
 30
0.0
 10
14.2924595738
 20
13.0377961397
 30
0.0
  0
SPLINE
  5
32F
100
AcDbEntity
  8
LAYER_FEATURE
100
AcDbSpline
 62
7
  6
CONTINUOUS
 70
0
 71
3
 72
47
 73
43
 74
0
 42
0.0000001
 43
0.0000001
 44
0.0000000001
 40
0.0
 40
0.0
 40
0.0
 40
0.0
 40
0.01280387
 40
0.0256135803
 40
0.0384349573
 40
0.0512738015
 40
0.0641358758
 40
0.0770268874
 40
0.0899524846
 40
0.1029182361
 40
0.1159296232
 40
0.1289920348
 40
0.1421107433
 40
0.1552909105
 40
0.1818536742
 40
0.208720954
 40
0.2359290071
 40
0.2635115601
 40
0.291499684
 40
0.3056556024
 40
0.3199232976
 40
0.3488047617
 40
0.378168411
 40
0.3930381008
 40
0.4080355902
 40
0.4384208045
 40
0.4693399889
 40
0.5008051174
 40
0.5328256632
 40
0.565408692
 40
0.5985589503
 40
0.6322789773
 40
0.6665692128
 40
0.7014280988
 40
0.7368521695
 40
0.7728361554
 40
0.8093730871
 40
0.8464543857
 40
0.8840699424
 40
0.9222082131
 40
0.9608562851
 40
1.0
 40
1.0
 40
1.0
 40
1.0
 10
16.6841758078
 20
11.7980290759
 30
0.0
 10
16.6829842244
 20
11.7941731047
 30
0.0
 10
16.6804998849
 20
11.7864900864
 30
0.0
 10
16.6764730125
 20
11.7750625076
 30
0.0
 10
16.6721463314
 20
11.7637331509
 30
0.0
 10
16.6675208218
 20
11.7525046565
 30
0.0
 10
16.6625974869
 20
11.7413795162
 30
0.0
 10
16.6573774855
 20
11.7303601969
 30
0.0
 10
16.6518619322
 20
11.7194491812
 30
0.0
 10
16.646052091
 20
11.708648894
 30
0.0
 10
16.6399492751
 20
11.6979617287
 30
0.0
 10
16.6335548183
 20
11.6873901168
 30
0.0
 10
16.6268701503
 20
11.6769363113
 30
0.0
 10
16.6175488798
 20
11.6631233793
 30
0.0
 10
16.6051665398
 20
11.6461560012
 30
0.0
 10
16.5892109533
 20
11.6263581921
 30
0.0
 10
16.5721340621
 20
11.6070873473
 30
0.0
 10
16.5539517646
 20
11.5883610869
 30
0.0
 10
16.5379529685
 20
11.5732806258
 30
0.0
 10
16.524628109
 20
11.561504892
 30
0.0
 10
16.5108422878
 20
11.5498315072
 30
0.0
 10
16.4929393821
 20
11.5356108996
 30
0.0
 10
16.4743253851
 20
11.5220113503
 30
0.0
 10
16.4589353372
 20
11.5114399649
 30
0.0
 10
16.4430767938
 20
11.5009880047
 30
0.0
 10
16.4226227439
 20
11.488324227
 30
0.0
 10
16.3972120546
 20
11.4738421839
 30
0.0
 10
16.3708522197
 20
11.460021754
 30
0.0
 10
16.3435669372
 20
11.4468752457
 30
0.0
 10
16.3153804079
 20
11.4344142015
 30
0.0
 10
16.2863177184
 20
11.4226495951
 30
0.0
 10
16.2564047014
 20
11.4115917821
 30
0.0
 10
16.2256679399
 20
11.4012505121
 30
0.0
 10
16.1941347396
 20
11.3916349191
 30
0.0
 10
16.1618331209
 20
11.3827534836
 30
0.0
 10
16.1287917872
 20
11.3746140393
 30
0.0
 10
16.095040096
 20
11.3672237776
 30
0.0
 10
16.0606080291
 20
11.3605892416
 30
0.0
 10
16.025526198
 20
11.3547162969
 30
0.0
 10
15.9898257241
 20
11.3496101259
 30
0.0
 10
15.9535385637
 20
11.3452752591
 30
0.0
 10
15.929129221
 20
11.3429167892
 30
0.0
 10
15.9168357404
 20
11.3418645959
 30
0.0
  0
SPLINE
  5
330
100
AcDbEntity
  8
LAYER_FEATURE
100
AcDbSpline
 62
7
  6
CONTINUOUS
 70
0
 71
3
 72
31
 73
27
 74
0
 42
0.0000001
 43
0.0000001
 44
0.0000000001
 40
0.0
 40
0.0
 40
0.0
 40
0.0
 40
0.0289275037
 40
0.0578703673
 40
0.0868439082
 40
0.1158633661
 40
0.1449438603
 40
0.1741003487
 40
0.2033476036
 40
0.2327001522
 40
0.2621722732
 40
0.2917779374
 40
0.321530793
 40
0.3514441448
 40
0.3815308987
 40
0.4118035884
 40
0.4422743014
 40
0.4729547028
 40
0.5349843106
 40
0.5979812946
 40
0.6620219706
 40
0.7271747711
 40
0.7935002008
 40
0.8610508878
 40
0.929871714
 40
1.0
 40
1.0
 40
1.0
 40
1.0
 10
16.9434288402
 20
12.6369721961
 30
0.0
 10
16.9421431451
 20
12.6328116787
 30
0.0
 10
16.9394538991
 20
12.624524124
 30
0.0
 10
16.9350704438
 20
12.6122060121
 30
0.0
 10
16.9303381105
 20
12.6000027175
 30
0.0
 10
16.9252581211
 20
12.5879175646
 30
0.0
 10
16.919831809
 20
12.5759536569
 30
0.0
 10
16.9140606159
 20
12.5641141027
 30
0.0
 10
16.9079459936
 20
12.5524020059
 30
0.0
 10
16.9014896081
 20
12.5408203732
 30
0.0
 10
16.8946930844
 20
12.5293722467
 30
0.0
 10
16.8875582333
 20
12.5180605784
 30
0.0
 10
16.8800869168
 20
12.5068883009
 30
0.0
 10
16.8722810523
 20
12.4958583385
 30
0.0
 10
16.8641427268
 20
12.4849735036
 30
0.0
 10
16.8556740214
 20
12.4742366814
 30
0.0
 10
16.8468771191
 20
12.4636505461
 30
0.0
 10
16.8346696892
 20
12.4496903031
 30
0.0
 10
16.8185848447
 20
12.4326265157
 30
0.0
 10
16.7980800913
 20
12.4128729614
 30
0.0
 10
16.7763230378
 20
12.3937872607
 30
0.0
 10
16.7533367873
 20
12.375389337
 30
0.0
 10
16.7291453035
 20
12.3576979257
 30
0.0
 10
16.7037736895
 20
12.3407310709
 30
0.0
 10
16.6772488251
 20
12.3245063686
 30
0.0
 10
16.6589882815
 20
12.3142926247
 30
0.0
 10
16.6496805476
 20
12.3093113174
 30
0.0
  0
SPLINE
  5
331
100
AcDbEntity
  8
LAYER_CUT_FEAT
100
AcDbSpline
 62
7
  6
CONTINUOUS
 70
0
 71
3
 72
28
 73
24
 74
0
 42
0.0000001
 43
0.0000001
 44
0.0000000001
 40
0.0
 40
0.0
 40
0.0
 40
0.0
 40
0.0289602886
 40
0.0579356952
 40
0.0869412994
 40
0.115992099
 40
0.1451029856
 40
0.1742886859
 40
0.2035637439
 40
0.2329424871
 40
0.2624389681
 40
0.2920669738
 40
0.3517659161
 40
0.4121480732
 40
0.4733107004
 40
0.5353442741
 40
0.5983320608
 40
0.662349803
 40
0.7274655383
 40
0.7937395771
 40
0.8612245471
 40
0.9299654823
 40
1.0
 40
1.0
 40
1.0
 40
1.0
 10
16.2270069335
 20
11.9393049432
 30
0.0
 10
16.2261624442
 20
11.936572175
 30
0.0
 10
16.2243967181
 20
11.9311284568
 30
0.0
 10
16.2215204466
 20
11.923036589
 30
0.0
 10
16.2184169235
 20
11.9150194732
 30
0.0
 10
16.2150869935
 20
11.9070792334
 30
0.0
 10
16.2115314516
 20
11.8992179003
 30
0.0
 10
16.2077512615
 20
11.8914374698
 30
0.0
 10
16.2037473761
 20
11.8837399292
 30
0.0
 10
16.199520809
 20
11.8761272772
 30
0.0
 10
16.1950726474
 20
11.8686013706
 30
0.0
 10
16.1888325955
 20
11.8586608267
 30
0.0
 10
16.1804742485
 20
11.8464548148
 30
0.0
 10
16.1696027469
 20
11.8322239835
 30
0.0
 10
16.1578753559
 20
11.8183861711
 30
0.0
 10
16.1453044514
 20
11.8049557218
 30
0.0
 10
16.1319030134
 20
11.7919461525
 30
0.0
 10
16.1176849018
 20
11.7793706258
 30
0.0
 10
16.1026647695
 20
11.767241789
 30
0.0
 10
16.0868580693
 20
11.7555718581
 30
0.0
 10
16.0702809055
 20
11.7443725282
 30
0.0
 10
16.0529505545
 20
11.7336552343
 30
0.0
 10
16.0410188087
 20
11.726902372
 30
0.0
 10
16.0349369512
 20
11.7236075571
 30
0.0
  0
SPLINE
  5
332
100
AcDbEntity
  8
02___PRT_ALL_AXES
100
AcDbSpline
 62
7
  6
CONTINUOUS
 70
0
 71
3
 72
60
 73
56
 74
0
 42
0.0000001
 43
0.0000001
 44
0.0000000001
 40
0.0
 40
0.0
 40
0.0
 40
0.0
 40
0.014083976
 40
0.0281350362
 40
0.0421563988
 40
0.056151611
 40
0.0701245584
 40
0.0840795174
 40
0.098021159
 40
0.1119545792
 40
0.1258852838
 40
0.1398192134
 40
0.1537627083
 40
0.1677225021
 40
0.1817056797
 40
0.1957196187
 40
0.2097719716
 40
0.2238705439
 40
0.2380232745
 40
0.2522381023
 40
0.2665229204
 40
0.280885474
 40
0.2953332334
 40
0.3098733885
 40
0.3245126719
 40
0.3392573612
 40
0.3541131584
 40
0.369085146
 40
0.384177766
 40
0.3993947072
 40
0.414738966
 40
0.4302127299
 40
0.4615496531
 40
0.4774173748
 40
0.4934155865
 40
0.5257924236
 40
0.5421685768
 40
0.558663642
 40
0.591987852
 40
0.62572078
 40
0.6598036403
 40
0.6941664912
 40
0.7287286851
 40
0.7633995259
 40
0.7980791438
 40
0.8326596732
 40
0.8670269643
 40
0.8840945887
 40
0.901064337
 40
0.9179212517
 40
0.9346504014
 40
0.9512368675
 40
0.9676665376
 40
0.9839260786
 40
1.0
 40
1.0
 40
1.0
 40
1.0
 10
15.2065855963
 20
12.4875967402
 30
0.0
 10
15.2075845433
 20
12.4855610953
 30
0.0
 10
15.2094969966
 20
12.4814531544
 30
0.0
 10
15.2121055956
 20
12.4751852164
 30
0.0
 10
15.2144463309
 20
12.4688274758
 30
0.0
 10
15.2165147558
 20
12.4623892163
 30
0.0
 10
15.2183068853
 20
12.4558797001
 30
0.0
 10
15.2198189027
 20
12.4493083034
 30
0.0
 10
15.2210473496
 20
12.4426844896
 30
0.0
 10
15.2219891415
 20
12.436017801
 30
0.0
 10
15.2226414691
 20
12.4293178206
 30
0.0
 10
15.2230021032
 20
12.4225941832
 30
0.0
 10
15.2230690637
 20
12.4158565151
 30
0.0
 10
15.2228410373
 20
12.4091144303
 30
0.0
 10
15.2223170947
 20
12.402377485
 30
0.0
 10
15.2214968706
 20
12.39565515
 30
0.0
 10
15.2203806427
 20
12.388956754
 30
0.0
 10
15.2189690785
 20
12.3822914872
 30
0.0
 10
15.2172636703
 20
12.3756682898
 30
0.0
 10
15.2152662706
 20
12.3690959022
 30
0.0
 10
15.2129794694
 20
12.3625827455
 30
0.0
 10
15.210406396
 20
12.3561369251
 30
0.0
 10
15.2075506487
 20
12.349766234
 30
0.0
 10
15.2044165459
 20
12.3434780086
 30
0.0
 10
15.2010086856
 20
12.3372792874
 30
0.0
 10
15.1973323505
 20
12.3311765919
 30
0.0
 10
15.1933931217
 20
12.3251760875
 30
0.0
 10
15.1891970247
 20
12.3192834922
 30
0.0
 10
15.184750494
 20
12.3135040451
 30
0.0
 10
15.1800601877
 20
12.3078426854
 30
0.0
 10
15.1751331015
 20
12.3023037102
 30
0.0
 10
15.1682293073
 20
12.2950574185
 30
0.0
 10
15.1609054054
 20
12.2881029376
 30
0.0
 10
15.1532054215
 20
12.2814485714
 30
0.0
 10
15.1451764135
 20
12.2749259441
 30
0.0
 10
15.1367951739
 20
12.2687148225
 30
0.0
 10
15.1281016843
 20
12.2628157322
 30
0.0
 10
15.119123353
 20
12.2570713249
 30
0.0
 10
15.1075092599
 20
12.2502711845
 30
0.0
 10
15.0930611613
 20
12.2427471578
 30
0.0
 10
15.0781237899
 20
12.2358406955
 30
0.0
 10
15.0627687663
 20
12.229560364
 30
0.0
 10
15.0470692345
 20
12.2239139173
 30
0.0
 10
15.0311004981
 20
12.2189087731
 30
0.0
 10
15.0149399325
 20
12.214552022
 30
0.0
 10
14.9986672236
 20
12.2108504813
 30
0.0
 10
14.9850494255
 20
12.208311219
 30
0.0
 10
14.9741671825
 20
12.206613707
 30
0.0
 10
14.9660470542
 20
12.2055112768
 30
0.0
 10
14.957960718
 20
12.2045772483
 30
0.0
 10
14.9499186215
 20
12.2038121452
 30
0.0
 10
14.9419311824
 20
12.2032163624
 30
0.0
 10
14.9340085874
 20
12.2027902506
 30
0.0
 10
14.9261612656
 20
12.2025340931
 30
0.0
 10
14.9209553602
 20
12.2024763268
 30
0.0
 10
14.9183674342
 20
12.2024763268
 30
0.0
  0
SPLINE
  5
333
100
AcDbEntity
  8
02___PRT_ALL_AXES
100
AcDbSpline
 62
7
  6
CONTINUOUS
 70
0
 71
3
 72
78
 73
74
 74
0
 42
0.0000001
 43
0.0000001
 44
0.0000000001
 40
0.0
 40
0.0
 40
0.0
 40
0.0
 40
0.005311755
 40
0.0106263453
 40
0.0159465983
 40
0.0212753272
 40
0.0266153221
 40
0.0319693448
 40
0.0373401199
 40
0.0427303303
 40
0.0481426086
 40
0.0535795341
 40
0.0590436239
 40
0.0645373315
 40
0.075622126
 40
0.0868530306
 40
0.0982469029
 40
0.1098192246
 40
0.1215840475
 40
0.1335539638
 40
0.1396197193
 40
0.1457407967
 40
0.1581528153
 40
0.1707989522
 40
0.183686044
 40
0.1968195755
 40
0.2102037309
 40
0.2238414484
 40
0.2377344783
 40
0.2518834414
 40
0.2662878877
 40
0.2809463542
 40
0.2958564214
 40
0.311014768
 40
0.3264172239
 40
0.3420588207
 40
0.3579338405
 40
0.3740358627
 40
0.3903578079
 40
0.4068919813
 40
0.4236301127
 40
0.4405633962
 40
0.4576825277
 40
0.4749777406
 40
0.4924388412
 40
0.5100552418
 40
0.5278159938
 40
0.545709819
 40
0.5637251407
 40
0.5818501134
 40
0.6000726528
 40
0.618380464
 40
0.6367610705
 40
0.6552018418
 40
0.673690021
 40
0.6922127524
 40
0.7107571086
 40
0.7293101172
 40
0.7478587882
 40
0.7663901403
 40
0.7848912282
 40
0.8033491692
 40
0.8217511708
 40
0.8400845574
 40
0.8583367982
 40
0.8764955349
 40
0.89454861
 40
0.9124840954
 40
0.9302903221
 40
0.9479559085
 40
0.9654697951
 40
0.9828212662
 40
1.0
 40
1.0
 40
1.0
 40
1.0
 10
14.3317867801
 20
11.7606992903
 30
0.0
 10
14.3310419747
 20
11.7582891003
 30
0.0
 10
14.3296198556
 20
11.7534461519
 30
0.0
 10
14.3276914176
 20
11.7461214814
 30
0.0
 10
14.3259679251
 20
11.7387375583
 30
0.0
 10
14.3244498737
 20
11.7312963857
 30
0.0
 10
14.3231376287
 20
11.7237998951
 30
0.0
 10
14.3220315551
 20
11.7162500501
 30
0.0
 10
14.3211319153
 20
11.7086488272
 30
0.0
 10
14.3204389629
 20
11.7009982139
 30
0.0
 10
14.3199528524
 20
11.693300208
 30
0.0
 10
14.3196737254
 20
11.6855568379
 30
0.0
 10
14.3196016365
 20
11.6777700635
 30
0.0
 10
14.3197820986
 20
11.6673021866
 30
0.0
 10
14.3205304187
 20
11.6541097319
 30
0.0
 10
14.3222536681
 20
11.6381868232
 30
0.0
 10
14.3248027894
 20
11.622140682
 30
0.0
 10
14.3281749281
 20
11.6059883275
 30
0.0
 10
14.3323662978
 20
11.5897466848
 30
0.0
 10
14.3365195733
 20
11.576211775
 30
0.0
 10
14.3402406313
 20
11.5653587411
 30
0.0
 10
14.3442656054
 20
11.5543907311
 30
0.0
 10
14.3498065128
 20
11.540653953
 30
0.0
 10
14.3572211347
 20
11.5242240465
 30
0.0
 10
14.3654240817
 20
11.5077894104
 30
0.0
 10
14.3744066507
 20
11.4913672658
 30
0.0
 10
14.3841594403
 20
11.4749745636
 30
0.0
 10
14.394672238
 20
11.4586282964
 30
0.0
 10
14.4059340616
 20
11.442345393
 30
0.0
 10
14.4179331588
 20
11.4261427267
 30
0.0
 10
14.4306570208
 20
11.4100370917
 30
0.0
 10
14.4440923916
 20
11.394045188
 30
0.0
 10
14.4582252813
 20
11.3781836036
 30
0.0
 10
14.4730409785
 20
11.3624687971
 30
0.0
 10
14.4885240648
 20
11.3469170805
 30
0.0
 10
14.5046584296
 20
11.3315446016
 30
0.0
 10
14.5214272861
 20
11.3163673269
 30
0.0
 10
14.5388131881
 20
11.3014010247
 30
0.0
 10
14.5567980477
 20
11.2866612479
 30
0.0
 10
14.5753631536
 20
11.2721633176
 30
0.0
 10
14.5944891902
 20
11.2579223066
 30
0.0
 10
14.6141562576
 20
11.2439530233
 30
0.0
 10
14.6343438922
 20
11.230269996
 30
0.0
 10
14.6550310875
 20
11.2168874573
 30
0.0
 10
14.6761963164
 20
11.2038193293
 30
0.0
 10
14.6978175531
 20
11.1910792082
 30
0.0
 10
14.7198722964
 20
11.1786803505
 30
0.0
 10
14.7423375928
 20
11.1666356586
 30
0.0
 10
14.7651900606
 20
11.1549576675
 30
0.0
 10
14.7884059144
 20
11.1436585312
 30
0.0
 10
14.8119609897
 20
11.1327500099
 30
0.0
 10
14.8358307681
 20
11.1222434581
 30
0.0
 10
14.8599904031
 20
11.1121498121
 30
0.0
 10
14.8844147459
 20
11.1024795786
 30
0.0
 10
14.9090783717
 20
11.0932428241
 30
0.0
 10
14.9339556063
 20
11.0844491639
 30
0.0
 10
14.9590205527
 20
11.076107752
 30
0.0
 10
14.9842471185
 20
11.0682272718
 30
0.0
 10
15.0096090428
 20
11.0608159269
 30
0.0
 10
15.0350799241
 20
11.0538814325
 30
0.0
 10
15.0606332474
 20
11.0474310073
 30
0.0
 10
15.0862424121
 20
11.041471366
 30
0.0
 10
15.1118807599
 20
11.0360087124
 30
0.0
 10
15.1375216027
 20
11.0310487328
 30
0.0
 10
15.1631382501
 20
11.0265965905
 30
0.0
 10
15.188704038
 20
11.0226569197
 30
0.0
 10
15.2141923559
 20
11.0192338216
 30
0.0
 10
15.2395766742
 20
11.0163308595
 30
0.0
 10
15.2648305763
 20
11.0139510558
 30
0.0
 10
15.2899277688
 20
11.0120968883
 30
0.0
 10
15.3148421746
 20
11.0107702887
 30
0.0
 10
15.3395477136
 20
11.0099726393
 30
0.0
 10
15.35594725
 20
11.0097931297
 30
0.0
 10
15.3641057383
 20
11.0097931297
 30
0.0
  0
SPLINE
  5
334
100
AcDbEntity
  8
02___PRT_ALL_AXES
100
AcDbSpline
 62
7
  6
CONTINUOUS
 70
0
 71
3
 72
46
 73
42
 74
0
 42
0.0000001
 43
0.0000001
 44
0.0000000001
 40
0.0
 40
0.0
 40
0.0
 40
0.0
 40
0.0123992807
 40
0.0248057419
 40
0.0372265429
 40
0.0496688033
 40
0.06213958
 40
0.0746458517
 40
0.0871944956
 40
0.0997922744
 40
0.112445814
 40
0.1251615936
 40
0.1379459252
 40
0.1508049452
 40
0.1767683028
 40
0.2030991914
 40
0.2298392356
 40
0.2570263758
 40
0.2846947442
 40
0.3128746077
 40
0.3271656244
 40
0.3415940884
 40
0.3708723309
 40
0.4007299081
 40
0.4311820545
 40
0.4622405211
 40
0.4939137229
 40
0.5262068961
 40
0.5591222584
 40
0.59265917
 40
0.6268142937
 40
0.6615817502
 40
0.6969532691
 40
0.7329183347
 40
0.7694643258
 40
0.8065766479
 40
0.8442388651
 40
0.8824328081
 40
0.9211387331
 40
0.9603353174
 40
1.0
 40
1.0
 40
1.0
 40
1.0
 10
15.8967661188
 20
11.2770840971
 30
0.0
 10
15.8959903023
 20
11.2745735553
 30
0.0
 10
15.8943643698
 20
11.2695734972
 30
0.0
 10
15.8917052076
 20
11.2621448928
 30
0.0
 10
15.888826231
 20
11.2547888296
 30
0.0
 10
15.8857282613
 20
11.2475074914
 30
0.0
 10
15.882412198
 20
11.2403029115
 30
0.0
 10
15.8788789658
 20
11.2331771508
 30
0.0
 10
15.875129592
 20
11.2261322177
 30
0.0
 10
15.8711651279
 20
11.2191701205
 30
0.0
 10
15.866986716
 20
11.2122928185
 30
0.0
 10
15.8625955472
 20
11.2055022812
 30
0.0
 10
15.857992834
 20
11.1988003708
 30
0.0
 10
15.85155551
 20
11.189957579
 30
0.0
 10
15.8429758285
 20
11.1791301093
 30
0.0
 10
15.8318897506
 20
11.1665651358
 30
0.0
 10
15.8199925825
 20
11.1543999085
 30
0.0
 10
15.8072981627
 20
11.1426483099
 30
0.0
 10
15.7938211531
 20
11.1313235145
 30
0.0
 10
15.7820064652
 20
11.1222948039
 30
0.0
 10
15.7721864001
 20
11.115295748
 30
0.0
 10
15.7620230044
 20
11.1083823314
 30
0.0
 10
15.7488514595
 20
11.1000329168
 30
0.0
 10
15.7324057752
 20
11.0905362544
 30
0.0
 10
15.7152623197
 20
11.0815242513
 30
0.0
 10
15.6974406687
 20
11.0730070722
 30
0.0
 10
15.6789608948
 20
11.0649941701
 30
0.0
 10
15.6598438696
 20
11.0574944889
 30
0.0
 10
15.6401111559
 20
11.0505163942
 30
0.0
 10
15.6197850103
 20
11.0440676797
 30
0.0
 10
15.5988883541
 20
11.0381555526
 30
0.0
 10
15.5774447508
 20
11.0327866263
 30
0.0
 10
15.5554783812
 20
11.0279669106
 30
0.0
 10
15.5330140169
 20
11.0237018041
 30
0.0
 10
15.510076993
 20
11.0199960872
 30
0.0
 10
15.4866931812
 20
11.0168539149
 30
0.0
 10
15.4628889576
 20
11.0142788128
 30
0.0
 10
15.4386911855
 20
11.0122736679
 30
0.0
 10
15.4141271328
 20
11.0108407337
 30
0.0
 10
15.3892246741
 20
11.0099816112
 30
0.0
 10
15.3725115615
 20
11.0097931297
 30
0.0
 10
15.3641057383
 20
11.0097931297
 30
0.0
  0
SPLINE
  5
335
100
AcDbEntity
  8
LAYER_CHAMFER_FEAT
100
AcDbSpline
 62
7
  6
CONTINUOUS
 70
0
 71
3
 72
15
 73
11
 74
0
 42
0.0000001
 43
0.0000001
 44
0.0000000001
 40
0.0
 40
0.0
 40
0.0
 40
0.0
 40
0.131764132
 40
0.2617725002
 40
0.3899186346
 40
0.5161210923
 40
0.6402989349
 40
0.7623789461
 40
0.8822975414
 40
1.0
 40
1.0
 40
1.0
 40
1.0
 10
14.9827271445
 20
11.7869609925
 30
0.0
 10
14.9777478735
 20
11.7869609925
 30
0.0
 10
14.9678551769
 20
11.7868354686
 30
0.0
 10
14.9531299209
 20
11.7862625507
 30
0.0
 10
14.9386349891
 20
11.7853069063
 30
0.0
 10
14.9243914665
 20
11.7839699547
 30
0.0
 10
14.9104195081
 20
11.7822535941
 30
0.0
 10
14.8967390731
 20
11.7801602433
 30
0.0
 10
14.8833699202
 20
11.7776928943
 30
0.0
 10
14.874593973
 20
11.7757828531
 30
0.0
 10
14.8702642087
 20
11.7747645845
 30
0.0
  0
SPLINE
  5
336
100
AcDbEntity
  8
LAYER_CHAMFER_FEAT
100
AcDbSpline
 62
7
  6
CONTINUOUS
 70
0
 71
3
 72
39
 73
35
 74
0
 42
0.0000001
 43
0.0000001
 44
0.0000000001
 40
0.0
 40
0.0
 40
0.0
 40
0.0
 40
0.0305398826
 40
0.0614592002
 40
0.0927264534
 40
0.1243126363
 40
0.1561858736
 40
0.1883135647
 40
0.2206623617
 40
0.2531980702
 40
0.2858858929
 40
0.3186905349
 40
0.3515763178
 40
0.384507296
 40
0.4174473773
 40
0.4503604439
 40
0.4832104612
 40
0.5159615996
 40
0.5485783577
 40
0.5810256721
 40
0.6132690359
 40
0.6452746387
 40
0.677009479
 40
0.7084414818
 40
0.7395396478
 40
0.7702741945
 40
0.8006166737
 40
0.8305401194
 40
0.8600192318
 40
0.8890305139
 40
0.9175524231
 40
0.9455655735
 40
0.9730529359
 40
1.0
 40
1.0
 40
1.0
 40
1.0
 10
14.9827271445
 20
11.7869609925
 30
0.0
 10
14.9881104004
 20
11.7869609925
 30
0.0
 10
14.9989443272
 20
11.7868123844
 30
0.0
 10
15.015277715
 20
11.7861543041
 30
0.0
 10
15.0317726295
 20
11.7850605713
 30
0.0
 10
15.0484018147
 20
11.7835330647
 30
0.0
 10
15.0651383988
 20
11.7815742181
 30
0.0
 10
15.081955048
 20
11.7791872507
 30
0.0
 10
15.0988243648
 20
11.7763760584
 30
0.0
 10
15.1157188625
 20
11.7731451951
 30
0.0
 10
15.1326110073
 20
11.7694999441
 30
0.0
 10
15.149473272
 20
11.7654462549
 30
0.0
 10
15.1662781724
 20
11.7609907215
 30
0.0
 10
15.182998316
 20
11.7561405965
 30
0.0
 10
15.1996064572
 20
11.7509038042
 30
0.0
 10
15.2160755274
 20
11.7452888797
 30
0.0
 10
15.232378678
 20
11.7393049556
 30
0.0
 10
15.2484893407
 20
11.7329617937
 30
0.0
 10
15.264381264
 20
11.7262697434
 30
0.0
 10
15.2800285452
 20
11.7192397028
 30
0.0
 10
15.2954056778
 20
11.7118831138
 30
0.0
 10
15.310487613
 20
11.7042119822
 30
0.0
 10
15.3252497778
 20
11.6962388092
 30
0.0
 10
15.33966811
 20
11.6879765675
 30
0.0
 10
15.3537191202
 20
11.6794387176
 30
0.0
 10
15.3673799282
 20
11.6706391774
 30
0.0
 10
15.3806282789
 20
11.6615922697
 30
0.0
 10
15.3934425814
 20
11.652312704
 30
0.0
 10
15.4058019772
 20
11.6428155978
 30
0.0
 10
15.4176863485
 20
11.6331164012
 30
0.0
 10
15.4290763186
 20
11.6232308867
 30
0.0
 10
15.4399533822
 20
11.6131750694
 30
0.0
 10
15.450299677
 20
11.6029654774
 30
0.0
 10
15.4568989828
 20
11.5959970148
 30
0.0
 10
15.460103172
 20
11.5924905629
 30
0.0
  0
SPLINE
  5
337
100
AcDbEntity
  8
LAYER_FEATURE
100
AcDbSpline
 62
7
  6
CONTINUOUS
 70
0
 71
3
 72
80
 73
76
 74
0
 42
0.0000001
 43
0.0000001
 44
0.0000000001
 40
0.0
 40
0.0
 40
0.0
 40
0.0
 40
0.017178625
 40
0.0345301896
 40
0.0520439856
 40
0.0697095611
 40
0.0875157513
 40
0.105451206
 40
0.1235042502
 40
0.1416629551
 40
0.159915164
 40
0.1782485184
 40
0.1966504877
 40
0.2151083967
 40
0.2336094524
 40
0.2521407721
 40
0.2706894106
 40
0.2892423869
 40
0.3077867108
 40
0.3263094099
 40
0.3447975567
 40
0.3632382956
 40
0.3816188701
 40
0.3999266497
 40
0.4181491573
 40
0.4362740982
 40
0.4542893881
 40
0.4721831821
 40
0.4899439035
 40
0.5075602738
 40
0.5250213437
 40
0.5423165259
 40
0.5594356272
 40
0.5763688815
 40
0.5931069843
 40
0.6096411291
 40
0.6259630453
 40
0.6420650388
 40
0.6579400309
 40
0.673581601
 40
0.6889840307
 40
0.7041423508
 40
0.7190523912
 40
0.7337108317
 40
0.7481152531
 40
0.7622641923
 40
0.7761571984
 40
0.7897948916
 40
0.8031790229
 40
0.8163125314
 40
0.8291996012
 40
0.8418457167
 40
0.8542577138
 40
0.8603787793
 40
0.8664445248
 40
0.8784144197
 40
0.8901792221
 40
0.8959889949
 40
0.9017523402
 40
0.9131461931
 40
0.9243770779
 40
0.9299370835
 40
0.935462781
 40
0.9409564793
 40
0.9464205592
 40
0.9518574755
 40
0.9572697442
 40
0.9626599452
 40
0.9680307112
 40
0.9733847242
 40
0.9787247102
 40
0.9840534294
 40
0.9893736733
 40
0.9946882542
 40
1.0
 40
1.0
 40
1.0
 40
1.0
 10
15.1799613222
 20
14.0118168561
 30
0.0
 10
15.1940817179
 20
14.0118168561
 30
0.0
 10
15.2224655676
 20
14.0115061551
 30
0.0
 10
15.2652251425
 20
14.0101256281
 30
0.0
 10
15.308346297
 20
14.0078295663
 30
0.0
 10
15.351783709
 20
14.0046204461
 30
0.0
 10
15.3954923979
 20
14.0005015527
 30
0.0
 10
15.4394267917
 20
13.9954771977
 30
0.0
 10
15.4835411884
 20
13.9895526012
 30
0.0
 10
15.5277896673
 20
13.9827339378
 30
0.0
 10
15.5721261722
 20
13.9750283072
 30
0.0
 10
15.616504554
 20
13.9664437299
 30
0.0
 10
15.6608786179
 20
13.9569891402
 30
0.0
 10
15.7052021719
 20
13.946674375
 30
0.0
 10
15.7494290768
 20
13.9355101744
 30
0.0
 10
15.7935132939
 20
13.9235081635
 30
0.0
 10
15.8374089323
 20
13.9106808371
 30
0.0
 10
15.881070297
 20
13.8970415476
 30
0.0
 10
15.9244519356
 20
13.8826044903
 30
0.0
 10
15.9675086866
 20
13.867384691
 30
0.0
 10
16.01019573
 20
13.8513979982
 30
0.0
 10
16.0524686306
 20
13.8346610554
 30
0.0
 10
16.0942833845
 20
13.8171912854
 30
0.0
 10
16.1355964641
 20
13.7990068718
 30
0.0
 10
16.1763648635
 20
13.7801267387
 30
0.0
 10
16.2165461471
 20
13.7605705384
 30
0.0
 10
16.2560984938
 20
13.7403586292
 30
0.0
 10
16.2949807378
 20
13.7195120479
 30
0.0
 10
16.3331524108
 20
13.6980524888
 30
0.0
 10
16.3705737839
 20
13.6760022815
 30
0.0
 10
16.4072059094
 20
13.6533843658
 30
0.0
 10
16.443010668
 20
13.6302222775
 30
0.0
 10
16.4779508037
 20
13.6065401142
 30
0.0
 10
16.5119899603
 20
13.5823625097
 30
0.0
 10
16.5450927188
 20
13.5577146084
 30
0.0
 10
16.5772246339
 20
13.5326220376
 30
0.0
 10
16.6083522727
 20
13.5071108832
 30
0.0
 10
16.6384432543
 20
13.4812076665
 30
0.0
 10
16.667466275
 20
13.4549393066
 30
0.0
 10
16.6953911398
 20
13.4283330945
 30
0.0
 10
16.7221887926
 20
13.401416664
 30
0.0
 10
16.7478313446
 20
13.3742179598
 30
0.0
 10
16.7722921115
 20
13.3467652157
 30
0.0
 10
16.7955456358
 20
13.3190869203
 30
0.0
 10
16.8175677058
 20
13.2912117833
 30
0.0
 10
16.8383353781
 20
13.2631687084
 30
0.0
 10
16.8578269986
 20
13.2349867614
 30
0.0
 10
16.8760222221
 20
13.2066951436
 30
0.0
 10
16.8929020464
 20
13.1783231581
 30
0.0
 10
16.9084487991
 20
13.1499002157
 30
0.0
 10
16.922646211
 20
13.1214556536
 30
0.0
 10
16.9354792129
 20
13.0930192784
 30
0.0
 10
16.9450692527
 20
13.0692440847
 30
0.0
 10
16.9520355365
 20
13.0502609927
 30
0.0
 10
16.9584758459
 20
13.0314768696
 30
0.0
 10
16.9656641509
 20
13.0080512915
 30
0.0
 10
16.9717346182
 20
12.9845279558
 30
0.0
 10
16.9758717698
 20
12.9657945702
 30
0.0
 10
16.9795042133
 20
12.9472674996
 30
0.0
 10
16.9831668659
 20
12.9242125176
 30
0.0
 10
16.9856605742
 20
12.9011693334
 30
0.0
 10
16.9869313954
 20
12.8828680124
 30
0.0
 10
16.9875232858
 20
12.8692514206
 30
0.0
 10
16.9877568925
 20
12.8557028817
 30
0.0
 10
16.9876321032
 20
12.8422258369
 30
0.0
 10
16.9871490116
 20
12.8288238328
 30
0.0
 10
16.9863076618
 20
12.8155003656
 30
0.0
 10
16.9851083141
 20
12.8022589193
 30
0.0
 10
16.983551264
 20
12.7891029547
 30
0.0
 10
16.9816368786
 20
12.776035919
 30
0.0
 10
16.9793657167
 20
12.7630612186
 30
0.0
 10
16.9767382914
 20
12.7501822714
 30
0.0
 10
16.9737553429
 20
12.7374024005
 30
0.0
 10
16.9704176541
 20
12.7247250879
 30
0.0
 10
16.9679562911
 20
12.7163430628
 30
0.0
 10
16.9666672072
 20
12.7121715794
 30
0.0
  0
SPLINE
  5
338
100
AcDbEntity
  8
LAYER_FEATURE
100
AcDbSpline
 62
7
  6
CONTINUOUS
 70
0
 71
3
 72
50
 73
46
 74
0
 42
0.0000001
 43
0.0000001
 44
0.0000000001
 40
0.0
 40
0.0
 40
0.0
 40
0.0
 40
0.0396641793
 40
0.0788606661
 40
0.1175661307
 40
0.1557597858
 40
0.1934216622
 40
0.2305336657
 40
0.2670793388
 40
0.3030440904
 40
0.3384152998
 40
0.3731824522
 40
0.4073372782
 40
0.4408738985
 40
0.4737889752
 40
0.5060818677
 40
0.5377547925
 40
0.5688129867
 40
0.5992648666
 40
0.6291221833
 40
0.6584001714
 40
0.6728285106
 40
0.6871194029
 40
0.7152990215
 40
0.7429671481
 40
0.7566197094
 40
0.7701560775
 40
0.7835806402
 40
0.7968980187
 40
0.8101130807
 40
0.8232309096
 40
0.8362568292
 40
0.8491963692
 40
0.8620552768
 40
0.874839498
 40
0.8875551653
 40
0.9002085963
 40
0.9128062638
 40
0.9253547993
 40
0.9378609614
 40
0.9503316297
 40
0.9627737816
 40
0.9751944743
 40
0.9876008274
 40
1.0
 40
1.0
 40
1.0
 40
1.0
 10
14.9207082899
 20
13.1728737359
 30
0.0
 10
14.9061598074
 20
13.1728737359
 30
0.0
 10
14.877233235
 20
13.1725475077
 30
0.0
 10
14.8341328382
 20
13.1710605851
 30
0.0
 10
14.7916180721
 20
13.1685804819
 30
0.0
 10
14.7497373451
 20
13.1651100541
 30
0.0
 10
14.7085377142
 20
13.1606531415
 30
0.0
 10
14.6680657342
 20
13.1552147723
 30
0.0
 10
14.6283670371
 20
13.1488010327
 30
0.0
 10
14.5894864073
 20
13.1414191161
 30
0.0
 10
14.5514676923
 20
13.1330772979
 30
0.0
 10
14.5143537649
 20
13.1237849238
 30
0.0
 10
14.4781864753
 20
13.1135523964
 30
0.0
 10
14.4430066066
 20
13.1023911614
 30
0.0
 10
14.408853831
 20
13.0903136923
 30
0.0
 10
14.3757666711
 20
13.0773334761
 30
0.0
 10
14.3437824487
 20
13.0634649894
 30
0.0
 10
14.3129372867
 20
13.0487237152
 30
0.0
 10
14.2832659234
 20
13.0331260155
 30
0.0
 10
14.2548022404
 20
13.0166894855
 30
0.0
 10
14.2320053315
 20
13.0022385731
 30
0.0
 10
14.2144148429
 20
12.9902730537
 30
0.0
 10
14.1974185487
 20
12.9781592777
 30
0.0
 10
14.1769702509
 20
12.9625328527
 30
0.0
 10
14.1574459613
 20
12.9461264358
 30
0.0
 10
14.142518331
 20
12.9326322841
 30
0.0
 10
14.1317136807
 20
12.9223747388
 30
0.0
 10
14.1212541769
 20
12.9119388691
 30
0.0
 10
14.1111427512
 20
12.9013275259
 30
0.0
 10
14.1013822428
 20
12.8905437669
 30
0.0
 10
14.0919754791
 20
12.8795905737
 30
0.0
 10
14.0829250785
 20
12.868471091
 30
0.0
 10
14.0742336557
 20
12.8571884217
 30
0.0
 10
14.0659036669
 20
12.8457457692
 30
0.0
 10
14.0579374711
 20
12.8341463754
 30
0.0
 10
14.0503373778
 20
12.8223934935
 30
0.0
 10
14.0431054901
 20
12.8104904904
 30
0.0
 10
14.0362439417
 20
12.7984406909
 30
0.0
 10
14.0297546204
 20
12.7862475494
 30
0.0
 10
14.023639425
 20
12.7739144944
 30
0.0
 10
14.0179000789
 20
12.7614450324
 30
0.0
 10
14.012538206
 20
12.748842717
 30
0.0
 10
14.0075553696
 20
12.7361110662
 30
0.0
 10
14.0029529633
 20
12.7232538701
 30
0.0
 10
14.0001388536
 20
12.7145999218
 30
0.0
 10
13.9987960968
 20
12.7102547526
 30
0.0
  0
SPLINE
  5
339
100
AcDbEntity
  8
LAYER_FEATURE
100
AcDbSpline
 62
7
  6
CONTINUOUS
 70
0
 71
3
 72
50
 73
46
 74
0
 42
0.0000001
 43
0.0000001
 44
0.0000000001
 40
0.0
 40
0.0
 40
0.0
 40
0.0
 40
0.0396641793
 40
0.0788606661
 40
0.1175661307
 40
0.1557597858
 40
0.1934216622
 40
0.2305336657
 40
0.2670793388
 40
0.3030440904
 40
0.3384152998
 40
0.3731824522
 40
0.4073372782
 40
0.4408738985
 40
0.4737889752
 40
0.5060818677
 40
0.5377547925
 40
0.5688129867
 40
0.5992648666
 40
0.6291221833
 40
0.6584001714
 40
0.6728285106
 40
0.6871194029
 40
0.7152990215
 40
0.7429671481
 40
0.7566197094
 40
0.7701560775
 40
0.7835806402
 40
0.7968980187
 40
0.8101130807
 40
0.8232309096
 40
0.8362568292
 40
0.8491963692
 40
0.8620552768
 40
0.874839498
 40
0.8875551653
 40
0.9002085963
 40
0.9128062638
 40
0.9253547993
 40
0.9378609614
 40
0.9503316297
 40
0.9627737816
 40
0.9751944743
 40
0.9876008274
 40
1.0
 40
1.0
 40
1.0
 40
1.0
 10
15.1799613222
 20
14.0118168561
 30
0.0
 10
15.1654128398
 20
14.0118168561
 30
0.0
 10
15.1364862674
 20
14.0114906279
 30
0.0
 10
15.0933858706
 20
14.0100037053
 30
0.0
 10
15.0508711045
 20
14.0075236021
 30
0.0
 10
15.0089903775
 20
14.0040531743
 30
0.0
 10
14.9677907466
 20
13.9995962618
 30
0.0
 10
14.9273187665
 20
13.9941578925
 30
0.0
 10
14.8876200694
 20
13.9877441529
 30
0.0
 10
14.8487394396
 20
13.9803622363
 30
0.0
 10
14.8107207247
 20
13.9720204181
 30
0.0
 10
14.7736067973
 20
13.962728044
 30
0.0
 10
14.7374395077
 20
13.9524955166
 30
0.0
 10
14.702259639
 20
13.9413342816
 30
0.0
 10
14.6681068633
 20
13.9292568125
 30
0.0
 10
14.6350197035
 20
13.9162765963
 30
0.0
 10
14.6030354811
 20
13.9024081097
 30
0.0
 10
14.5721903191
 20
13.8876668354
 30
0.0
 10
14.5425189557
 20
13.8720691357
 30
0.0
 10
14.5140552728
 20
13.8556326058
 30
0.0
 10
14.4912583638
 20
13.8411816933
 30
0.0
 10
14.4736678752
 20
13.8292161739
 30
0.0
 10
14.4566715811
 20
13.8171023979
 30
0.0
 10
14.4362232833
 20
13.8014759729
 30
0.0
 10
14.4166989937
 20
13.785069556
 30
0.0
 10
14.4017713634
 20
13.7715754043
 30
0.0
 10
14.390966713
 20
13.7613178591
 30
0.0
 10
14.3805072093
 20
13.7508819893
 30
0.0
 10
14.3703957836
 20
13.7402706461
 30
0.0
 10
14.3606352752
 20
13.7294868871
 30
0.0
 10
14.3512285114
 20
13.7185336939
 30
0.0
 10
14.3421781109
 20
13.7074142112
 30
0.0
 10
14.3334866881
 20
13.6961315419
 30
0.0
 10
14.3251566993
 20
13.6846888894
 30
0.0
 10
14.3171905034
 20
13.6730894956
 30
0.0
 10
14.3095904102
 20
13.6613366137
 30
0.0
 10
14.3023585225
 20
13.6494336107
 30
0.0
 10
14.295496974
 20
13.6373838112
 30
0.0
 10
14.2890076528
 20
13.6251906696
 30
0.0
 10
14.2828924574
 20
13.6128576146
 30
0.0
 10
14.2771531113
 20
13.6003881526
 30
0.0
 10
14.2717912383
 20
13.5877858372
 30
0.0
 10
14.266808402
 20
13.5750541864
 30
0.0
 10
14.2622059957
 20
13.5621969903
 30
0.0
 10
14.2593918859
 20
13.5535430421
 30
0.0
 10
14.2580491291
 20
13.5491978728
 30
0.0
  0
SPLINE
  5
33A
100
AcDbEntity
  8
LAYER_FEATURE
100
AcDbSpline
 62
7
  6
CONTINUOUS
 70
0
 71
3
 72
80
 73
76
 74
0
 42
0.0000001
 43
0.0000001
 44
0.0000000001
 40
0.0
 40
0.0
 40
0.0
 40
0.0
 40
0.017178625
 40
0.0345301896
 40
0.0520439856
 40
0.0697095611
 40
0.0875157513
 40
0.105451206
 40
0.1235042502
 40
0.1416629551
 40
0.159915164
 40
0.1782485184
 40
0.1966504877
 40
0.2151083967
 40
0.2336094524
 40
0.2521407721
 40
0.2706894106
 40
0.2892423869
 40
0.3077867108
 40
0.3263094099
 40
0.3447975567
 40
0.3632382956
 40
0.3816188701
 40
0.3999266497
 40
0.4181491573
 40
0.4362740982
 40
0.4542893881
 40
0.4721831821
 40
0.4899439035
 40
0.5075602738
 40
0.5250213437
 40
0.5423165259
 40
0.5594356272
 40
0.5763688815
 40
0.5931069843
 40
0.6096411291
 40
0.6259630453
 40
0.6420650388
 40
0.6579400309
 40
0.673581601
 40
0.6889840307
 40
0.7041423508
 40
0.7190523912
 40
0.7337108317
 40
0.7481152531
 40
0.7622641923
 40
0.7761571984
 40
0.7897948916
 40
0.8031790229
 40
0.8163125314
 40
0.8291996012
 40
0.8418457167
 40
0.8542577138
 40
0.8603787793
 40
0.8664445248
 40
0.8784144197
 40
0.8901792221
 40
0.8959889949
 40
0.9017523402
 40
0.9131461931
 40
0.9243770779
 40
0.9299370835
 40
0.935462781
 40
0.9409564793
 40
0.9464205592
 40
0.9518574755
 40
0.9572697442
 40
0.9626599452
 40
0.9680307112
 40
0.9733847242
 40
0.9787247102
 40
0.9840534294
 40
0.9893736733
 40
0.9946882542
 40
1.0
 40
1.0
 40
1.0
 40
1.0
 10
14.9207082899
 20
13.1728737359
 30
0.0
 10
14.9348286855
 20
13.1728737359
 30
0.0
 10
14.9632125352
 20
13.1725630349
 30
0.0
 10
15.0059721102
 20
13.1711825079
 30
0.0
 10
15.0490932646
 20
13.1688864461
 30
0.0
 10
15.0925306767
 20
13.1656773259
 30
0.0
 10
15.1362393655
 20
13.1615584325
 30
0.0
 10
15.1801737593
 20
13.1565340775
 30
0.0
 10
15.2242881561
 20
13.150609481
 30
0.0
 10
15.268536635
 20
13.1437908176
 30
0.0
 10
15.3128731399
 20
13.136085187
 30
0.0
 10
15.3572515216
 20
13.1275006097
 30
0.0
 10
15.4016255855
 20
13.11804602
 30
0.0
 10
15.4459491395
 20
13.1077312548
 30
0.0
 10
15.4901760444
 20
13.0965670541
 30
0.0
 10
15.5342602615
 20
13.0845650433
 30
0.0
 10
15.5781558999
 20
13.0717377169
 30
0.0
 10
15.6218172646
 20
13.0580984273
 30
0.0
 10
15.6651989032
 20
13.0436613701
 30
0.0
 10
15.7082556542
 20
13.0284415708
 30
0.0
 10
15.7509426976
 20
13.012454878
 30
0.0
 10
15.7932155983
 20
12.9957179352
 30
0.0
 10
15.8350303521
 20
12.9782481652
 30
0.0
 10
15.8763434317
 20
12.9600637516
 30
0.0
 10
15.9171118312
 20
12.9411836185
 30
0.0
 10
15.9572931147
 20
12.9216274182
 30
0.0
 10
15.9968454615
 20
12.901415509
 30
0.0
 10
16.0357277055
 20
12.8805689276
 30
0.0
 10
16.0738993784
 20
12.8591093686
 30
0.0
 10
16.1113207515
 20
12.8370591613
 30
0.0
 10
16.147952877
 20
12.8144412456
 30
0.0
 10
16.1837576356
 20
12.7912791573
 30
0.0
 10
16.2186977713
 20
12.767596994
 30
0.0
 10
16.2527369279
 20
12.7434193895
 30
0.0
 10
16.2858396865
 20
12.7187714882
 30
0.0
 10
16.3179716015
 20
12.6936789173
 30
0.0
 10
16.3490992403
 20
12.668167763
 30
0.0
 10
16.3791902219
 20
12.6422645463
 30
0.0
 10
16.4082132426
 20
12.6159961864
 30
0.0
 10
16.4361381074
 20
12.5893899743
 30
0.0
 10
16.4629357603
 20
12.5624735438
 30
0.0
 10
16.4885783122
 20
12.5352748396
 30
0.0
 10
16.5130390791
 20
12.5078220955
 30
0.0
 10
16.5362926034
 20
12.4801438001
 30
0.0
 10
16.5583146734
 20
12.4522686631
 30
0.0
 10
16.5790823457
 20
12.4242255882
 30
0.0
 10
16.5985739662
 20
12.3960436412
 30
0.0
 10
16.6167691898
 20
12.3677520234
 30
0.0
 10
16.633649014
 20
12.3393800379
 30
0.0
 10
16.6491957668
 20
12.3109570955
 30
0.0
 10
16.6633931787
 20
12.2825125334
 30
0.0
 10
16.6762261805
 20
12.2540761582
 30
0.0
 10
16.6858162204
 20
12.2303009645
 30
0.0
 10
16.6927825041
 20
12.2113178725
 30
0.0
 10
16.6992228135
 20
12.1925337494
 30
0.0
 10
16.7064111185
 20
12.1691081713
 30
0.0
 10
16.7124815859
 20
12.1455848356
 30
0.0
 10
16.7166187374
 20
12.12685145
 30
0.0
 10
16.720251181
 20
12.1083243793
 30
0.0
 10
16.7239138335
 20
12.0852693974
 30
0.0
 10
16.7264075419
 20
12.0622262132
 30
0.0
 10
16.727678363
 20
12.0439248922
 30
0.0
 10
16.7282702534
 20
12.0303083004
 30
0.0
 10
16.7285038602
 20
12.0167597615
 30
0.0
 10
16.7283790708
 20
12.0032827167
 30
0.0
 10
16.7278959793
 20
11.9898807126
 30
0.0
 10
16.7270546294
 20
11.9765572454
 30
0.0
 10
16.7258552818
 20
11.9633157991
 30
0.0
 10
16.7242982316
 20
11.9501598345
 30
0.0
 10
16.7223838462
 20
11.9370927988
 30
0.0
 10
16.7201126843
 20
11.9241180984
 30
0.0
 10
16.717485259
 20
11.9112391512
 30
0.0
 10
16.7145023106
 20
11.8984592803
 30
0.0
 10
16.7111646217
 20
11.8857819677
 30
0.0
 10
16.7087032587
 20
11.8773999426
 30
0.0
 10
16.7074141749
 20
11.8732284592
 30
0.0
  0
SPLINE
  5
33B
100
AcDbEntity
  8
LAYER_FEATURE
100
AcDbSpline
 62
7
  6
CONTINUOUS
 70
0
 71
3
 72
85
 73
81
 74
0
 42
0.0000001
 43
0.0000001
 44
0.0000000001
 40
0.0
 40
0.0
 40
0.0
 40
0.0
 40
0.0053540729
 40
0.0107128352
 40
0.0160809554
 40
0.021463063
 40
0.0268637259
 40
0.0322874357
 40
0.0377385855
 40
0.0432214585
 40
0.0487402078
 40
0.0542988477
 40
0.0599012373
 40
0.0655510736
 40
0.0712518805
 40
0.0770070023
 40
0.082819599
 40
0.088692639
 40
0.1006297076
 40
0.1128394366
 40
0.1190524734
 40
0.1253397071
 40
0.1381420615
 40
0.1446608988
 40
0.151259331
 40
0.1579382732
 40
0.1646984592
 40
0.1715404733
 40
0.1784647293
 40
0.1854714999
 40
0.1925608988
 40
0.1997329068
 40
0.2069873578
 40
0.2217416208
 40
0.2368205242
 40
0.2522182859
 40
0.2679273615
 40
0.2839385792
 40
0.3002412677
 40
0.3168233768
 40
0.3336715915
 40
0.3507714403
 40
0.3681073972
 40
0.3856629798
 40
0.4034208419
 40
0.4213628632
 40
0.439470235
 40
0.4577235436
 40
0.4761028508
 40
0.4945877724
 40
0.5131575556
 40
0.531791154
 40
0.5504673024
 40
0.5691645908
 40
0.587861537
 40
0.6065366602
 40
0.6251685538
 40
0.6437359583
 40
0.6622178358
 40
0.6805934437
 40
0.6988424111
 40
0.7169448151
 40
0.73488126
 40
0.7526329577
 40
0.7701818114
 40
0.7875105009
 40
0.8046025727
 40
0.8214425329
 40
0.8380159452
 40
0.8543095332
 40
0.8703112889
 40
0.8860105867
 40
0.9013983046
 40
0.9164669521
 40
0.9312108063
 40
0.9456260507
 40
0.9597109365
 40
0.9734659041
 40
0.9868938238
 40
1.0
 40
1.0
 40
1.0
 40
1.0
 10
14.445435086
 20
12.5349041647
 30
0.0
 10
14.4465292057
 20
12.5384447372
 30
0.0
 10
14.4488465832
 20
12.5454901028
 30
0.0
 10
14.4527044367
 20
12.5559328662
 30
0.0
 10
14.4569430363
 20
12.5662481021
 30
0.0
 10
14.4615605779
 20
12.5764311517
 30
0.0
 10
14.4665549959
 20
12.5864777206
 30
0.0
 10
14.4719241963
 20
12.5963834403
 30
0.0
 10
14.4776657882
 20
12.606144097
 30
0.0
 10
14.4837773415
 20
12.615755468
 30
0.0
 10
14.4902561626
 20
12.6252134658
 30
0.0
 10
14.4970994874
 20
12.634514014
 30
0.0
 10
14.5043043287
 20
12.6436531572
 30
0.0
 10
14.5118675939
 20
12.6526269732
 30
0.0
 10
14.5197860142
 20
12.6614316454
 30
0.0
 10
14.5280561578
 20
12.6700633981
 30
0.0
 10
14.5366745521
 20
12.6785186162
 30
0.0
 10
14.5486892071
 20
12.6896112871
 30
0.0
 10
14.564580804
 20
12.7030167649
 30
0.0
 10
14.581395223
 20
12.7156384593
 30
0.0
 10
14.595478676
 20
12.7253452638
 30
0.0
 10
14.6101580441
 20
12.7348993037
 30
0.0
 10
14.6253871122
 20
12.7439854385
 30
0.0
 10
14.6411217945
 20
12.7526056992
 30
0.0
 10
14.6532945137
 20
12.758898689
 30
0.0
 10
14.6657616419
 20
12.7649772097
 30
0.0
 10
14.6785179765
 20
12.7708388354
 30
0.0
 10
14.6915580516
 20
12.776480979
 30
0.0
 10
14.7048762808
 20
12.7819013147
 30
0.0
 10
14.7184669969
 20
12.7870974727
 30
0.0
 10
14.7323243604
 20
12.7920672948
 30
0.0
 10
14.7464425251
 20
12.7968086374
 30
0.0
 10
14.7657139801
 20
12.8028568841
 30
0.0
 10
14.7904273131
 20
12.8098241465
 30
0.0
 10
14.8208603812
 20
12.8171946398
 30
0.0
 10
14.8521839406
 20
12.823609053
 30
0.0
 10
14.8843442763
 20
12.8290564768
 30
0.0
 10
14.9172866631
 20
12.8335277332
 30
0.0
 10
14.9509549131
 20
12.8370152579
 30
0.0
 10
14.9852916212
 20
12.8395131555
 30
0.0
 10
15.0202382208
 20
12.8410172032
 30
0.0
 10
15.0557350952
 20
12.841524864
 30
0.0
 10
15.0917216772
 20
12.8410352928
 30
0.0
 10
15.1281365535
 20
12.8395493406
 30
0.0
 10
15.1649175702
 20
12.8370695547
 30
0.0
 10
15.2020019403
 20
12.833600176
 30
0.0
 10
15.2393263512
 20
12.8291471326
 30
0.0
 10
15.2768270741
 20
12.8237180309
 30
0.0
 10
15.3144400739
 20
12.8173221435
 30
0.0
 10
15.3521011188
 20
12.8099703935
 30
0.0
 10
15.3897458916
 20
12.8016753365
 30
0.0
 10
15.4273100999
 20
12.7924511395
 30
0.0
 10
15.4647295866
 20
12.7823135566
 30
0.0
 10
15.5019404407
 20
12.7712799022
 30
0.0
 10
15.5388791068
 20
12.7593690216
 30
0.0
 10
15.5754824943
 20
12.7466012583
 30
0.0
 10
15.611688086
 20
12.7329984193
 30
0.0
 10
15.6474340457
 20
12.7185837375
 30
0.0
 10
15.6826593238
 20
12.7033818311
 30
0.0
 10
15.7173037626
 20
12.6874186615
 30
0.0
 10
15.7513081997
 20
12.6707214882
 30
0.0
 10
15.7846145689
 20
12.6533188212
 30
0.0
 10
15.8171660003
 20
12.6352403715
 30
0.0
 10
15.8489069176
 20
12.6165169992
 30
0.0
 10
15.8797831332
 20
12.5971806598
 30
0.0
 10
15.9097419407
 20
12.5772643474
 30
0.0
 10
15.9387322052
 20
12.5568020375
 30
0.0
 10
15.9667044495
 20
12.5358286263
 30
0.0
 10
15.9936109385
 20
12.5143798693
 30
0.0
 10
16.0194057591
 20
12.4924923176
 30
0.0
 10
16.044044897
 20
12.4702032526
 30
0.0
 10
16.0674863093
 20
12.4475506199
 30
0.0
 10
16.0896899921
 20
12.4245729612
 30
0.0
 10
16.1106180469
 20
12.4013093444
 30
0.0
 10
16.1302347305
 20
12.3777993015
 30
0.0
 10
16.1485065342
 20
12.3540827306
 30
0.0
 10
16.1654021542
 20
12.3301999338
 30
0.0
 10
16.1808927705
 20
12.3061911628
 30
0.0
 10
16.1949513363
 20
12.2820979283
 30
0.0
 10
16.20345522
 20
12.2658104969
 30
0.0
 10
16.2074515241
 20
12.2576668853
 30
0.0
  0
SPLINE
  5
33C
100
AcDbEntity
  8
LAYER_CUT_FEAT
100
AcDbSpline
 62
7
  6
CONTINUOUS
 70
0
 71
3
 72
85
 73
81
 74
0
 42
0.0000001
 43
0.0000001
 44
0.0000000001
 40
0.0
 40
0.0
 40
0.0
 40
0.0
 40
0.0053540729
 40
0.0107128352
 40
0.0160809554
 40
0.021463063
 40
0.0268637259
 40
0.0322874357
 40
0.0377385855
 40
0.0432214585
 40
0.0487402078
 40
0.0542988477
 40
0.0599012373
 40
0.0655510736
 40
0.0712518805
 40
0.0770070023
 40
0.082819599
 40
0.088692639
 40
0.1006297076
 40
0.1128394366
 40
0.1190524734
 40
0.1253397071
 40
0.1381420615
 40
0.1446608988
 40
0.151259331
 40
0.1579382732
 40
0.1646984592
 40
0.1715404733
 40
0.1784647293
 40
0.1854714999
 40
0.1925608988
 40
0.1997329068
 40
0.2069873578
 40
0.2217416208
 40
0.2368205242
 40
0.2522182859
 40
0.2679273615
 40
0.2839385792
 40
0.3002412677
 40
0.3168233768
 40
0.3336715915
 40
0.3507714403
 40
0.3681073972
 40
0.3856629798
 40
0.4034208419
 40
0.4213628631
 40
0.439470235
 40
0.4577235436
 40
0.4761028507
 40
0.4945877724
 40
0.5131575556
 40
0.531791154
 40
0.5504673024
 40
0.5691645907
 40
0.587861537
 40
0.6065366602
 40
0.6251685537
 40
0.6437359583
 40
0.6622178358
 40
0.6805934437
 40
0.6988424111
 40
0.716944815
 40
0.7348812599
 40
0.7526329577
 40
0.7701818114
 40
0.7875105009
 40
0.8046025726
 40
0.8214425329
 40
0.8380159452
 40
0.8543095332
 40
0.8703112889
 40
0.8860105867
 40
0.9013983046
 40
0.9164669521
 40
0.9312108063
 40
0.9456260507
 40
0.9597109365
 40
0.9734659041
 40
0.9868938238
 40
1.0
 40
1.0
 40
1.0
 40
1.0
 10
14.432726604
 20
12.4937795019
 30
0.0
 10
14.4338207237
 20
12.4973200745
 30
0.0
 10
14.4361381012
 20
12.50436544
 30
0.0
 10
14.4399959547
 20
12.5148082035
 30
0.0
 10
14.4442345544
 20
12.5251234393
 30
0.0
 10
14.4488520959
 20
12.5353064889
 30
0.0
 10
14.453846514
 20
12.5453530578
 30
0.0
 10
14.4592157143
 20
12.5552587776
 30
0.0
 10
14.4649573062
 20
12.5650194342
 30
0.0
 10
14.4710688596
 20
12.5746308053
 30
0.0
 10
14.4775476807
 20
12.584088803
 30
0.0
 10
14.4843910054
 20
12.5933893512
 30
0.0
 10
14.4915958467
 20
12.6025284944
 30
0.0
 10
14.4991591119
 20
12.6115023104
 30
0.0
 10
14.5070775322
 20
12.6203069827
 30
0.0
 10
14.5153476758
 20
12.6289387353
 30
0.0
 10
14.5239660701
 20
12.6373939535
 30
0.0
 10
14.5359807251
 20
12.6484866243
 30
0.0
 10
14.551872322
 20
12.6618921022
 30
0.0
 10
14.568686741
 20
12.6745137965
 30
0.0
 10
14.582770194
 20
12.684220601
 30
0.0
 10
14.5974495622
 20
12.6937746409
 30
0.0
 10
14.6126786302
 20
12.7028607758
 30
0.0
 10
14.6284133125
 20
12.7114810364
 30
0.0
 10
14.6405860317
 20
12.7177740262
 30
0.0
 10
14.6530531599
 20
12.7238525469
 30
0.0
 10
14.6658094945
 20
12.7297141726
 30
0.0
 10
14.6788495696
 20
12.7353563162
 30
0.0
 10
14.6921677989
 20
12.740776652
 30
0.0
 10
14.7057585149
 20
12.7459728099
 30
0.0
 10
14.7196158785
 20
12.7509426321
 30
0.0
 10
14.7337340431
 20
12.7556839746
 30
0.0
 10
14.7530054981
 20
12.7617322214
 30
0.0
 10
14.7777188311
 20
12.7686994838
 30
0.0
 10
14.8081518992
 20
12.776069977
 30
0.0
 10
14.8394754586
 20
12.7824843902
 30
0.0
 10
14.8716357944
 20
12.787931814
 30
0.0
 10
14.9045781811
 20
12.7924030704
 30
0.0
 10
14.9382464311
 20
12.7958905951
 30
0.0
 10
14.9725831392
 20
12.7983884927
 30
0.0
 10
15.0075297388
 20
12.7998925405
 30
0.0
 10
15.0430266132
 20
12.8004002012
 30
0.0
 10
15.0790131952
 20
12.79991063
 30
0.0
 10
15.1154280715
 20
12.7984246778
 30
0.0
 10
15.1522090882
 20
12.795944892
 30
0.0
 10
15.1892934583
 20
12.7924755133
 30
0.0
 10
15.2266178692
 20
12.7880224698
 30
0.0
 10
15.2641185921
 20
12.7825933682
 30
0.0
 10
15.3017315919
 20
12.7761974807
 30
0.0
 10
15.3393926368
 20
12.7688457307
 30
0.0
 10
15.3770374096
 20
12.7605506738
 30
0.0
 10
15.4146016178
 20
12.7513264767
 30
0.0
 10
15.4520211046
 20
12.7411888938
 30
0.0
 10
15.4892319587
 20
12.7301552395
 30
0.0
 10
15.5261706247
 20
12.7182443588
 30
0.0
 10
15.5627740122
 20
12.7054765955
 30
0.0
 10
15.598979604
 20
12.6918737566
 30
0.0
 10
15.6347255636
 20
12.6774590747
 30
0.0
 10
15.6699508417
 20
12.6622571683
 30
0.0
 10
15.7045952806
 20
12.6462939988
 30
0.0
 10
15.7385997177
 20
12.6295968255
 30
0.0
 10
15.7719060869
 20
12.6121941584
 30
0.0
 10
15.8044575183
 20
12.5941157087
 30
0.0
 10
15.8361984356
 20
12.5753923365
 30
0.0
 10
15.8670746511
 20
12.556055997
 30
0.0
 10
15.8970334587
 20
12.5361396847
 30
0.0
 10
15.9260237232
 20
12.5156773748
 30
0.0
 10
15.9539959675
 20
12.4947039636
 30
0.0
 10
15.9809024565
 20
12.4732552066
 30
0.0
 10
16.0066972771
 20
12.4513676549
 30
0.0
 10
16.031336415
 20
12.4290785899
 30
0.0
 10
16.0547778273
 20
12.4064259571
 30
0.0
 10
16.0769815101
 20
12.3834482984
 30
0.0
 10
16.0979095649
 20
12.3601846817
 30
0.0
 10
16.1175262485
 20
12.3366746388
 30
0.0
 10
16.1357980522
 20
12.3129580679
 30
0.0
 10
16.1526936722
 20
12.2890752711
 30
0.0
 10
16.1681842886
 20
12.2650665001
 30
0.0
 10
16.1822428543
 20
12.2409732655
 30
0.0
 10
16.190746738
 20
12.2246858341
 30
0.0
 10
16.1947430421
 20
12.2165422226
 30
0.0
  0
SPLINE
  5
33D
100
AcDbEntity
  8
LAYER_FEATURE
100
AcDbSpline
 62
7
  6
CONTINUOUS
 70
0
 71
3
 72
21
 73
17
 74
0
 42
0.0000001
 43
0.0000001
 44
0.0000000001
 40
0.0
 40
0.0
 40
0.0
 40
0.0
 40
0.0594147862
 40
0.1190375367
 40
0.1789192008
 40
0.2391090893
 40
0.2996544896
 40
0.3606004989
 40
0.4219897298
 40
0.4838620973
 40
0.5462546683
 40
0.6092016632
 40
0.6727343253
 40
0.7368799947
 40
0.8670853823
 40
1.0
 40
1.0
 40
1.0
 40
1.0
 10
14.7658753083
 20
12.2711890447
 30
0.0
 10
14.7652657519
 20
12.2729683851
 30
0.0
 10
14.7641220307
 20
12.2765603863
 30
0.0
 10
14.7626381596
 20
12.2820282049
 30
0.0
 10
14.761384774
 20
12.287578662
 30
0.0
 10
14.760363199
 20
12.293206054
 30
0.0
 10
14.7595744057
 20
12.2989047599
 30
0.0
 10
14.7590191823
 20
12.3046690515
 30
0.0
 10
14.7586980674
 20
12.3104931476
 30
0.0
 10
14.7586113459
 20
12.316371204
 30
0.0
 10
14.7587591102
 20
12.3222973363
 30
0.0
 10
14.7591411503
 20
12.3282655986
 30
0.0
 10
14.7597571354
 20
12.3342700778
 30
0.0
 10
14.7608949403
 20
12.3423557094
 30
0.0
 10
14.7629077881
 20
12.3525280264
 30
0.0
 10
14.7651005257
 20
12.3605715183
 30
0.0
 10
14.7663428051
 20
12.3645915362
 30
0.0
  0
SPLINE
  5
33E
100
AcDbEntity
  8
02___PRT_ALL_AXES
100
AcDbSpline
 62
7
  6
CONTINUOUS
 70
0
 71
3
 72
56
 73
52
 74
0
 42
0.0000001
 43
0.0000001
 44
0.0000000001
 40
0.0
 40
0.0
 40
0.0
 40
0.0
 40
0.0108923804
 40
0.0218605301
 40
0.03292991
 40
0.0441248818
 40
0.0554682722
 40
0.0669812971
 40
0.0786832736
 40
0.0905914857
 40
0.1027211641
 40
0.1150852334
 40
0.1276945432
 40
0.1405575847
 40
0.1536807573
 40
0.1670682905
 40
0.1807223215
 40
0.1946431289
 40
0.2088290001
 40
0.2232766303
 40
0.2379810433
 40
0.2529358509
 40
0.2681333923
 40
0.2835648134
 40
0.2992203557
 40
0.3150893554
 40
0.3311605186
 40
0.3474219907
 40
0.3638615197
 40
0.3804665795
 40
0.3972244731
 40
0.4141224505
 40
0.4482856218
 40
0.4828584153
 40
0.5177446618
 40
0.5528533878
 40
0.5880997338
 40
0.6234053742
 40
0.6586987383
 40
0.6939150088
 40
0.7289960576
 40
0.7638904179
 40
0.7985532476
 40
0.8329462856
 40
0.8670379392
 40
0.8839648848
 40
0.9008077165
 40
0.9175643862
 40
0.934233225
 40
0.9672974061
 40
1.0
 40
1.0
 40
1.0
 40
1.0
 10
14.7649016319
 20
12.2708497324
 30
0.0
 10
14.7641426304
 20
12.2723964199
 30
0.0
 10
14.7627034957
 20
12.2755426412
 30
0.0
 10
14.7607936124
 20
12.280391005
 30
0.0
 10
14.7591276484
 20
12.2853790856
 30
0.0
 10
14.7577068174
 20
12.2905039397
 30
0.0
 10
14.7565319204
 20
12.295762548
 30
0.0
 10
14.7556036843
 20
12.301151543
 30
0.0
 10
14.754922591
 20
12.3066672397
 30
0.0
 10
14.7544889078
 20
12.3123056061
 30
0.0
 10
14.7543027482
 20
12.3180622352
 30
0.0
 10
14.7543639031
 20
12.3239323441
 30
0.0
 10
14.7546720366
 20
12.3299107324
 30
0.0
 10
14.7552264641
 20
12.3359918059
 30
0.0
 10
14.756026307
 20
12.3421695403
 30
0.0
 10
14.7570703965
 20
12.3484375
 30
0.0
 10
14.7583572627
 20
12.3547888529
 30
0.0
 10
14.7598852133
 20
12.3612163477
 30
0.0
 10
14.761652198
 20
12.3677123888
 30
0.0
 10
14.7636559546
 20
12.3742689963
 30
0.0
 10
14.7658939013
 20
12.3808778906
 30
0.0
 10
14.7683632028
 20
12.3875304928
 30
0.0
 10
14.7710607889
 20
12.3942179592
 30
0.0
 10
14.7739833119
 20
12.4009312504
 30
0.0
 10
14.7771272512
 20
12.4076611182
 30
0.0
 10
14.7804888435
 20
12.4143981999
 30
0.0
 10
14.784064172
 20
12.4211330085
 30
0.0
 10
14.7878491551
 20
12.427855995
 30
0.0
 10
14.7918395621
 20
12.4345575842
 30
0.0
 10
14.7960310648
 20
12.4412281622
 30
0.0
 10
14.800419232
 20
12.4478582177
 30
0.0
 10
14.8065482649
 20
12.4566629968
 30
0.0
 10
14.8146742318
 20
12.4675063888
 30
0.0
 10
14.8251016526
 20
12.4801592678
 30
0.0
 10
14.8362034111
 20
12.4924277074
 30
0.0
 10
14.8479409293
 20
12.5042402455
 30
0.0
 10
14.860274945
 20
12.5155274385
 30
0.0
 10
14.8731649413
 20
12.5262216117
 30
0.0
 10
14.8865687546
 20
12.5362570213
 30
0.0
 10
14.9004420132
 20
12.5455699972
 30
0.0
 10
14.9147375816
 20
12.5540992486
 30
0.0
 10
14.9294049545
 20
12.5617863113
 30
0.0
 10
14.9443899759
 20
12.5685762249
 30
0.0
 10
14.9596337664
 20
12.5744181767
 30
0.0
 10
14.9725323729
 20
12.5784685482
 30
0.0
 10
14.9829173514
 20
12.5811891354
 30
0.0
 10
14.9907115787
 20
12.5829624169
 30
0.0
 10
14.9985200914
 20
12.5844695326
 30
0.0
 10
15.008909133
 20
12.5861151708
 30
0.0
 10
15.0218854867
 20
12.5874976771
 30
0.0
 10
15.0322913907
 20
12.5878731664
 30
0.0
 10
15.0374640654
 20
12.5878731664
 30
0.0
  0
SPLINE
  5
33F
100
AcDbEntity
  8
02___PRT_ALL_AXES
100
AcDbSpline
 62
7
  6
CONTINUOUS
 70
0
 71
3
 72
46
 73
42
 74
0
 42
0.0000001
 43
0.0000001
 44
0.0000000001
 40
0.0
 40
0.0
 40
0.0
 40
0.0
 40
0.0396646826
 40
0.0788612669
 40
0.1175671919
 40
0.1557611349
 40
0.1934233521
 40
0.2305356742
 40
0.2670816653
 40
0.3030467309
 40
0.3384182498
 40
0.3731857063
 40
0.40734083
 40
0.4408777416
 40
0.4737931039
 40
0.5060862771
 40
0.5377594789
 40
0.5688179455
 40
0.5992700919
 40
0.6291276691
 40
0.6584059116
 40
0.6728343756
 40
0.6871253923
 40
0.7153052558
 40
0.7429736242
 40
0.7701607644
 40
0.7969008086
 40
0.8232316972
 40
0.8491950548
 40
0.8620540748
 40
0.8748384064
 40
0.887554186
 40
0.9002077256
 40
0.9128055044
 40
0.9253541483
 40
0.93786042
 40
0.9503311967
 40
0.9627734571
 40
0.9751942581
 40
0.9876007193
 40
1.0
 40
1.0
 40
1.0
 40
1.0
 10
14.8644471607
 20
12.0279902577
 30
0.0
 10
14.8560413374
 20
12.0279902577
 30
0.0
 10
14.8393282249
 20
12.0278017762
 30
0.0
 10
14.8144257661
 20
12.0269426537
 30
0.0
 10
14.7898617134
 20
12.0255097195
 30
0.0
 10
14.7656639414
 20
12.0235045746
 30
0.0
 10
14.7418597178
 20
12.0209294724
 30
0.0
 10
14.718475906
 20
12.0177873002
 30
0.0
 10
14.6955388821
 20
12.0140815833
 30
0.0
 10
14.6730745178
 20
12.0098164768
 30
0.0
 10
14.6511081482
 20
12.0049967611
 30
0.0
 10
14.6296645449
 20
11.9996278347
 30
0.0
 10
14.6087678886
 20
11.9937157077
 30
0.0
 10
14.5884417431
 20
11.9872669931
 30
0.0
 10
14.5687090294
 20
11.9802888984
 30
0.0
 10
14.5495920042
 20
11.9727892172
 30
0.0
 10
14.5311122302
 20
11.9647763152
 30
0.0
 10
14.5132905793
 20
11.9562591361
 30
0.0
 10
14.4961471238
 20
11.947247133
 30
0.0
 10
14.4797014395
 20
11.9377504705
 30
0.0
 10
14.4665298946
 20
11.929401056
 30
0.0
 10
14.4563664989
 20
11.9224876394
 30
0.0
 10
14.4465464338
 20
11.9154885835
 30
0.0
 10
14.4347317458
 20
11.9064598729
 30
0.0
 10
14.4212547363
 20
11.8951350775
 30
0.0
 10
14.4085603164
 20
11.8833834789
 30
0.0
 10
14.3966631484
 20
11.8712182515
 30
0.0
 10
14.3855770704
 20
11.8586532781
 30
0.0
 10
14.3769973889
 20
11.8478258084
 30
0.0
 10
14.3705600649
 20
11.8389830166
 30
0.0
 10
14.3659573518
 20
11.8322811062
 30
0.0
 10
14.3615661829
 20
11.8254905689
 30
0.0
 10
14.3573877711
 20
11.8186132669
 30
0.0
 10
14.353423307
 20
11.8116511697
 30
0.0
 10
14.3496739331
 20
11.8046062365
 30
0.0
 10
14.3461407009
 20
11.7974804758
 30
0.0
 10
14.3428246377
 20
11.790275896
 30
0.0
 10
14.339726668
 20
11.7829945577
 30
0.0
 10
14.3368476914
 20
11.7756384945
 30
0.0
 10
14.3341885292
 20
11.7682098902
 30
0.0
 10
14.3325625966
 20
11.7632098321
 30
0.0
 10
14.3317867801
 20
11.7606992903
 30
0.0
  0
SPLINE
  5
340
100
AcDbEntity
  8
LAYER_FEATURE
100
AcDbSpline
 62
7
  6
CONTINUOUS
 70
0
 71
3
 72
15
 73
11
 74
0
 42
0.0000001
 43
0.0000001
 44
0.0000000001
 40
0.0
 40
0.0
 40
0.0
 40
0.0
 40
0.1235477511
 40
0.2480010624
 40
0.373117932
 40
0.4986533319
 40
0.6243576589
 40
0.7499802157
 40
0.8752842201
 40
1.0
 40
1.0
 40
1.0
 40
1.0
 10
16.5682163243
 20
12.9116104345
 30
0.0
 10
16.5693715071
 20
12.9110560559
 30
0.0
 10
16.5717086539
 20
12.9099809706
 30
0.0
 10
16.5752745674
 20
12.9084766315
 30
0.0
 10
16.5789053948
 20
12.9070780234
 30
0.0
 10
16.5825903842
 20
12.9057892782
 30
0.0
 10
16.5863186724
 20
12.9046141897
 30
0.0
 10
16.5900793832
 20
12.9035561933
 30
0.0
 10
16.5938612763
 20
12.902618481
 30
0.0
 10
16.5963968877
 20
12.9020736745
 30
0.0
 10
16.5976656318
 20
12.9018221571
 30
0.0
  0
SPLINE
  5
341
100
AcDbEntity
  8
LAYER_FEATURE
100
AcDbSpline
 62
7
  6
CONTINUOUS
 70
0
 71
3
 72
23
 73
19
 74
0
 42
0.0000001
 43
0.0000001
 44
0.0000000001
 40
0.0
 40
0.0
 40
0.0
 40
0.0
 40
0.0589594221
 40
0.1189871642
 40
0.1799703788
 40
0.2417891145
 40
0.3043175613
 40
0.3674250438
 40
0.4309769079
 40
0.4948355448
 40
0.5588613915
 40
0.6229137547
 40
0.6868516444
 40
0.7505352768
 40
0.8138259445
 40
0.8765864936
 40
0.9386903895
 40
1.0
 40
1.0
 40
1.0
 40
1.0
 10
16.483569223
 20
13.0609416281
 30
0.0
 10
16.4845974644
 20
13.0602068767
 30
0.0
 10
16.4867022875
 20
13.0587652054
 30
0.0
 10
16.4899659975
 20
13.0567070687
 30
0.0
 10
16.4933559843
 20
13.0547391742
 30
0.0
 10
16.4968611099
 20
13.0528679734
 30
0.0
 10
16.5004699503
 20
13.051099557
 30
0.0
 10
16.5041707246
 20
13.0494397125
 30
0.0
 10
16.5079513491
 20
13.047893858
 30
0.0
 10
16.5117994725
 20
13.0464670305
 30
0.0
 10
16.5157025293
 20
13.0451638938
 30
0.0
 10
16.5196477741
 20
13.0439887185
 30
0.0
 10
16.5236223199
 20
13.0429453248
 30
0.0
 10
16.5276131874
 20
13.042037123
 30
0.0
 10
16.5316073146
 20
13.0412670967
 30
0.0
 10
16.535591763
 20
13.0406377193
 30
0.0
 10
16.5395533467
 20
13.0401511187
 30
0.0
 10
16.5421893507
 20
13.0399212717
 30
0.0
 10
16.5435004052
 20
13.0398310425
 30
0.0
  0
SPLINE
  5
342
100
AcDbEntity
  8
LAYER_FEATURE
100
AcDbSpline
 62
7
  6
CONTINUOUS
 70
0
 71
3
 72
14
 73
10
 74
0
 42
0.0000001
 43
0.0000001
 44
0.0000000001
 40
0.0
 40
0.0
 40
0.0
 40
0.0
 40
0.120667046
 40
0.2417700778
 40
0.3637349446
 40
0.4869736942
 40
0.6118841475
 40
0.738841746
 40
1.0
 40
1.0
 40
1.0
 40
1.0
 10
16.3802483009
 20
13.2722796046
 30
0.0
 10
16.3803123222
 20
13.2724867697
 30
0.0
 10
16.3804253712
 20
13.2729067302
 30
0.0
 10
16.3805486435
 20
13.2735491729
 30
0.0
 10
16.380625624
 20
13.2742034697
 30
0.0
 10
16.3806561312
 20
13.2748683842
 30
0.0
 10
16.3806401458
 20
13.2755428026
 30
0.0
 10
16.3805561574
 20
13.2764613538
 30
0.0
 10
16.3804240496
 20
13.2771486286
 30
0.0
 10
16.3803085187
 20
13.2776034722
 30
0.0
  0
SPLINE
  5
343
100
AcDbEntity
  8
LAYER_FEATURE
100
AcDbSpline
 62
7
  6
CONTINUOUS
 70
0
 71
3
 72
26
 73
22
 74
0
 42
0.0000001
 43
0.0000001
 44
0.0000000001
 40
0.0
 40
0.0
 40
0.0
 40
0.0
 40
0.0547268848
 40
0.0829533943
 40
0.1117259065
 40
0.141020919
 40
0.1708123324
 40
0.2317616025
 40
0.2943278625
 40
0.3582297919
 40
0.4231639269
 40
0.4888103589
 40
0.554838143
 40
0.6209105268
 40
0.6866900763
 40
0.751843837
 40
0.8160483847
 40
0.8789956783
 40
0.9403971533
 40
0.9704416562
 40
1.0
 40
1.0
 40
1.0
 40
1.0
 10
16.3606227582
 20
13.2089087906
 30
0.0
 10
16.3617930659
 20
13.2076303179
 30
0.0
 10
16.3636429215
 20
13.2057604971
 30
0.0
 10
16.3662586207
 20
13.2033769259
 30
0.0
 10
16.368339765
 20
13.2016046115
 30
0.0
 10
16.3705158167
 20
13.1998696766
 30
0.0
 10
16.3735613021
 20
13.1975934488
 30
0.0
 10
16.3775815538
 20
13.1948654913
 30
0.0
 10
16.3826776131
 20
13.1918163746
 30
0.0
 10
16.3880434681
 20
13.1889899472
 30
0.0
 10
16.3936384184
 20
13.1864076421
 30
0.0
 10
16.3994201846
 20
13.1840889637
 30
0.0
 10
16.4053450058
 20
13.1820514626
 30
0.0
 10
16.4113680409
 20
13.1803105588
 30
0.0
 10
16.4174437051
 20
13.1788794276
 30
0.0
 10
16.4235260067
 20
13.1777689041
 30
0.0
 10
16.4295689896
 20
13.1769873771
 30
0.0
 10
16.4355267881
 20
13.1765408017
 30
0.0
 10
16.4404187095
 20
13.1764498751
 30
0.0
 10
16.444250137
 20
13.1765508214
 30
0.0
 10
16.4461351085
 20
13.1766584313
 30
0.0
 10
16.447068745
 20
13.1767267508
 30
0.0
  0
SPLINE
  5
344
100
AcDbEntity
  8
LAYER_FEATURE
100
AcDbSpline
 62
7
  6
CONTINUOUS
 70
0
 71
3
 72
15
 73
11
 74
0
 42
0.0000001
 43
0.0000001
 44
0.0000000001
 40
0.0
 40
0.0
 40
0.0
 40
0.0
 40
0.1149451313
 40
0.2309611169
 40
0.3490989452
 40
0.4703047705
 40
0.5953934302
 40
0.7250406559
 40
0.8597953364
 40
1.0
 40
1.0
 40
1.0
 40
1.0
 10
16.218775051
 20
13.3939496412
 30
0.0
 10
16.2188789875
 20
13.3942859844
 30
0.0
 10
16.2190475533
 20
13.3949749979
 30
0.0
 10
16.2191772322
 20
13.3960386137
 30
0.0
 10
16.2191839466
 20
13.3971292746
 30
0.0
 10
16.2190678958
 20
13.3982414892
 30
0.0
 10
16.218829923
 20
13.399369981
 30
0.0
 10
16.2184714184
 20
13.400509539
 30
0.0
 10
16.2179943097
 20
13.4016547807
 30
0.0
 10
16.2176066334
 20
13.4024035179
 30
0.0
 10
16.2173950149
 20
13.4027771482
 30
0.0
  0
SPLINE
  5
345
100
AcDbEntity
  8
LAYER_FEATURE
100
AcDbSpline
 62
7
  6
CONTINUOUS
 70
0
 71
3
 72
39
 73
35
 74
0
 42
0.0000001
 43
0.0000001
 44
0.0000000001
 40
0.0
 40
0.0
 40
0.0
 40
0.0
 40
0.0242906569
 40
0.0494334292
 40
0.0754426715
 40
0.102319857
 40
0.1300548822
 40
0.1586272175
 40
0.1880069069
 40
0.2181556096
 40
0.2490276081
 40
0.2805706413
 40
0.3127266275
 40
0.3454324745
 40
0.3786208047
 40
0.4122205736
 40
0.4461576658
 40
0.4803555598
 40
0.514735903
 40
0.5492190499
 40
0.5837246403
 40
0.6181721778
 40
0.6524815558
 40
0.6865736138
 40
0.720370743
 40
0.7537974324
 40
0.7867808375
 40
0.8192514455
 40
0.8511436653
 40
0.8823966559
 40
0.9129547742
 40
0.9427678588
 40
0.971795885
 40
1.0
 40
1.0
 40
1.0
 40
1.0
 10
16.2048815764
 20
13.3491599784
 30
0.0
 10
16.2053186546
 20
13.3482655488
 30
0.0
 10
16.2062736259
 20
13.3464766801
 30
0.0
 10
16.2079067287
 20
13.3438489822
 30
0.0
 10
16.2097592
 20
13.3412399443
 30
0.0
 10
16.2118244757
 20
13.3386586513
 30
0.0
 10
16.2140954112
 20
13.336113876
 30
0.0
 10
16.2165641443
 20
13.3336143625
 30
0.0
 10
16.2192221346
 20
13.3311686896
 30
0.0
 10
16.2220601823
 20
13.3287852648
 30
0.0
 10
16.225068477
 20
13.3264723009
 30
0.0
 10
16.2282366244
 20
13.324237788
 30
0.0
 10
16.2315536607
 20
13.3220894377
 30
0.0
 10
16.2350081046
 20
13.3200346701
 30
0.0
 10
16.2385880032
 20
13.3180805949
 30
0.0
 10
16.2422809691
 20
13.3162339849
 30
0.0
 10
16.2460742093
 20
13.3145012235
 30
0.0
 10
16.249954585
 20
13.3128883074
 30
0.0
 10
16.2539086585
 20
13.3114008286
 30
0.0
 10
16.2579227351
 20
13.3100439479
 30
0.0
 10
16.2619829046
 20
13.3088223545
 30
0.0
 10
16.2660751011
 20
13.3077402784
 30
0.0
 10
16.2701851506
 20
13.3068014764
 30
0.0
 10
16.2742988163
 20
13.3060092043
 30
0.0
 10
16.2784018483
 20
13.305366195
 30
0.0
 10
16.2824800388
 20
13.3048746751
 30
0.0
 10
16.2865192698
 20
13.304536359
 30
0.0
 10
16.2905055594
 20
13.3043524201
 30
0.0
 10
16.2944251181
 20
13.3043234854
 30
0.0
 10
16.2982643966
 20
13.3044496684
 30
0.0
 10
16.3020100877
 20
13.3047305608
 30
0.0
 10
16.3056493668
 20
13.3051651825
 30
0.0
 10
16.3091694412
 20
13.3057520837
 30
0.0
 10
16.3114625676
 20
13.3062508821
 30
0.0
 10
16.3125851773
 20
13.3065262827
 30
0.0
  0
SPLINE
  5
346
100
AcDbEntity
  8
LAYER_FEATURE
100
AcDbSpline
 62
7
  6
CONTINUOUS
 70
0
 71
3
 72
11
 73
7
 74
0
 42
0.0000001
 43
0.0000001
 44
0.0000000001
 40
0.0
 40
0.0
 40
0.0
 40
0.0
 40
0.2480077083
 40
0.4968266482
 40
0.7472524233
 40
1.0
 40
1.0
 40
1.0
 40
1.0
 10
16.0296044058
 20
13.4940703385
 30
0.0
 10
16.0297793148
 20
13.494636338
 30
0.0
 10
16.0300903452
 20
13.4957827772
 30
0.0
 10
16.0304374798
 20
13.4975350314
 30
0.0
 10
16.0306649352
 20
13.4993181938
 30
0.0
 10
16.0307362295
 20
13.5005190474
 30
0.0
 10
16.030752174
 20
13.5011225679
 30
0.0
  0
SPLINE
  5
347
100
AcDbEntity
  8
LAYER_FEATURE
100
AcDbSpline
 62
7
  6
CONTINUOUS
 70
0
 71
3
 72
40
 73
36
 74
0
 42
0.0000001
 43
0.0000001
 44
0.0000000001
 40
0.0
 40
0.0
 40
0.0
 40
0.0
 40
0.0108679297
 40
0.0219037949
 40
0.0445564758
 40
0.0681173512
 40
0.0927004419
 40
0.1183847044
 40
0.1452162753
 40
0.1732115153
 40
0.2023603088
 40
0.2326293003
 40
0.2639649141
 40
0.2962961057
 40
0.3295368481
 40
0.3635883817
 40
0.3983412666
 40
0.4336772764
 40
0.4694711665
 40
0.5055923509
 40
0.5419065099
 40
0.5782771554
 40
0.614567169
 40
0.6506403334
 40
0.6863628739
 40
0.7216050285
 40
0.756242666
 40
0.7901589779
 40
0.8232462625
 40
0.8554078584
 40
0.8865601809
 40
0.9166351571
 40
0.9455823486
 40
0.9733727565
 40
1.0
 40
1.0
 40
1.0
 40
1.0
 10
16.0239190023
 20
13.4757088732
 30
0.0
 10
16.0239331947
 20
13.4751718679
 30
0.0
 10
16.0239950454
 20
13.4740901482
 30
0.0
 10
16.0242507419
 20
13.4719016275
 30
0.0
 10
16.0248227897
 20
13.469123692
 30
0.0
 10
16.0258908281
 20
13.4657850774
 30
0.0
 10
16.0273394477
 20
13.4624297623
 30
0.0
 10
16.0291598149
 20
13.4590763984
 30
0.0
 10
16.0313413265
 20
13.4557431018
 30
0.0
 10
16.0338715619
 20
13.4524480505
 30
0.0
 10
16.0367362939
 20
13.4492092483
 30
0.0
 10
16.0399195083
 20
13.4460444831
 30
0.0
 10
16.0434034543
 20
13.4429712065
 30
0.0
 10
16.0471687169
 20
13.4400064267
 30
0.0
 10
16.0511943102
 20
13.4371665982
 30
0.0
 10
16.055457786
 20
13.4344675174
 30
0.0
 10
16.0599353554
 20
13.4319242229
 30
0.0
 10
16.0646020207
 20
13.4295509031
 30
0.0
 10
16.0694317159
 20
13.4273608099
 30
0.0
 10
16.0743974538
 20
13.4253661799
 30
0.0
 10
16.0794714796
 20
13.4235781613
 30
0.0
 10
16.0846254287
 20
13.4220067493
 30
0.0
 10
16.0898304882
 20
13.4206607286
 30
0.0
 10
16.0950575616
 20
13.4195476233
 30
0.0
 10
16.100277435
 20
13.4186736546
 30
0.0
 10
16.105460944
 20
13.4180437072
 30
0.0
 10
16.1105791411
 20
13.4176613038
 30
0.0
 10
16.1156034613
 20
13.4175285895
 30
0.0
 10
16.1205058879
 20
13.4176463238
 30
0.0
 10
16.1252591072
 20
13.4180138881
 30
0.0
 10
16.1298366837
 20
13.418629296
 30
0.0
 10
16.1342131408
 20
13.4194892212
 30
0.0
 10
16.1383643113
 20
13.4205890767
 30
0.0
 10
16.1422667827
 20
13.4219228456
 30
0.0
 10
16.1447412702
 20
13.4229861038
 30
0.0
 10
16.1459272795
 20
13.4235567758
 30
0.0
  0
SPLINE
  5
348
100
AcDbEntity
  8
02___PRT_ALL_AXES
100
AcDbSpline
 62
7
  6
CONTINUOUS
 70
0
 71
3
 72
46
 73
42
 74
0
 42
0.0000001
 43
0.0000001
 44
0.0000000001
 40
0.0
 40
0.0
 40
0.0
 40
0.0
 40
0.0123992809
 40
0.0248057417
 40
0.0372265433
 40
0.0496688029
 40
0.0621395805
 40
0.0746458516
 40
0.0871944957
 40
0.0997922748
 40
0.1124458135
 40
0.1251615943
 40
0.1379459248
 40
0.1508049455
 40
0.1767683023
 40
0.2030991908
 40
0.2298392362
 40
0.2570263777
 40
0.2846947465
 40
0.3128746091
 40
0.3271656243
 40
0.341594088
 40
0.3708723298
 40
0.4007299082
 40
0.4311820561
 40
0.4622405229
 40
0.4939137235
 40
0.5262068948
 40
0.5591222562
 40
0.5926591693
 40
0.6268142948
 40
0.6615817518
 40
0.69695327
 40
0.7329183338
 40
0.7694643244
 40
0.8065766505
 40
0.8442388555
 40
0.8824328507
 40
0.921138628
 40
0.9603355108
 40
1.0
 40
1.0
 40
1.0
 40
1.0
 10
14.5473771009
 20
12.4583498187
 30
0.0
 10
14.5481529191
 20
12.46086036
 30
0.0
 10
14.549778855
 20
12.4658604168
 30
0.0
 10
14.5524380046
 20
12.4732890259
 30
0.0
 10
14.5553169985
 20
12.4806450821
 30
0.0
 10
14.5584149492
 20
12.4879264285
 30
0.0
 10
14.5617310294
 20
12.4951310006
 30
0.0
 10
14.5652642501
 20
12.5022567669
 30
0.0
 10
14.5690136288
 20
12.5093016976
 30
0.0
 10
14.5729780945
 20
12.5162637936
 30
0.0
 10
14.5771564994
 20
12.5231411
 30
0.0
 10
14.5815476772
 20
12.5299316313
 30
0.0
 10
14.5861503823
 20
12.5366335474
 30
0.0
 10
14.5925877129
 20
12.5454763341
 30
0.0
 10
14.6011673887
 20
12.5563038079
 30
0.0
 10
14.6122534671
 20
12.5688687812
 30
0.0
 10
14.6241506374
 20
12.5810340071
 30
0.0
 10
14.6368450597
 20
12.5927856038
 30
0.0
 10
14.6503220696
 20
12.6041103989
 30
0.0
 10
14.6621367571
 20
12.6131391091
 30
0.0
 10
14.6719568192
 20
12.6201381683
 30
0.0
 10
14.6821202149
 20
12.6270515838
 30
0.0
 10
14.6952917584
 20
12.6354010007
 30
0.0
 10
14.7117374443
 20
12.6448976611
 30
0.0
 10
14.7288809012
 20
12.6539096627
 30
0.0
 10
14.7467025524
 20
12.6624268414
 30
0.0
 10
14.7651823251
 20
12.6704397445
 30
0.0
 10
14.7842993484
 20
12.6779394279
 30
0.0
 10
14.8040320613
 20
12.684917524
 30
0.0
 10
14.8243582079
 20
12.6913662368
 30
0.0
 10
14.8452548655
 20
12.697278362
 30
0.0
 10
14.8666984692
 20
12.7026472876
 30
0.0
 10
14.8886648381
 20
12.7074670041
 30
0.0
 10
14.9111292013
 20
12.7117321125
 30
0.0
 10
14.9340662253
 20
12.7154378309
 30
0.0
 10
14.9574500356
 20
12.7185799998
 30
0.0
 10
14.9812542683
 20
12.7211551043
 30
0.0
 10
15.0054520182
 20
12.7231602382
 30
0.0
 10
15.0300161129
 20
12.7245931893
 30
0.0
 10
15.0549185632
 20
12.7254522977
 30
0.0
 10
15.0716316977
 20
12.7256407866
 30
0.0
 10
15.08003748
 20
12.7256407866
 30
0.0
  0
SPLINE
  5
349
100
AcDbEntity
  8
02___PRT_ALL_AXES
100
AcDbSpline
 62
7
  6
CONTINUOUS
 70
0
 71
3
 72
75
 73
71
 74
0
 42
0.0000001
 43
0.0000001
 44
0.0000000001
 40
0.0
 40
0.0
 40
0.0
 40
0.0
 40
0.0171786892
 40
0.0345303607
 40
0.052044229
 40
0.069709889
 40
0.0875161642
 40
0.1054517028
 40
0.1235048325
 40
0.1416636226
 40
0.1599159172
 40
0.1782493581
 40
0.1966514145
 40
0.2151094104
 40
0.233610553
 40
0.2521419599
 40
0.270690686
 40
0.2892437497
 40
0.3077881608
 40
0.3263109471
 40
0.3447991812
 40
0.3632400074
 40
0.3816206683
 40
0.3999285336
 40
0.4181511268
 40
0.4362761536
 40
0.4542915291
 40
0.4721854073
 40
0.4899462114
 40
0.5075626641
 40
0.5250238169
 40
0.5423190818
 40
0.5594382638
 40
0.5763715969
 40
0.5931097777
 40
0.6096440006
 40
0.6259659951
 40
0.6420680648
 40
0.6579431309
 40
0.6735847738
 40
0.6889872759
 40
0.7041456685
 40
0.7190557797
 40
0.7337142887
 40
0.7481187774
 40
0.7622677831
 40
0.7761608551
 40
0.7897986129
 40
0.8031828071
 40
0.8163163772
 40
0.8292035078
 40
0.8418496831
 40
0.8542617384
 40
0.860382833
 40
0.8664486067
 40
0.8784185581
 40
0.8901834163
 40
0.9017557731
 40
0.9131496792
 40
0.9243806165
 40
0.9354654436
 40
0.9464223124
 40
0.9572705583
 40
0.9680305606
 40
0.9733845989
 40
0.9787246098
 40
0.9840533545
 40
0.9893736232
 40
0.9946882293
 40
1.0
 40
1.0
 40
1.0
 40
1.0
 10
15.08003748
 20
12.7256407866
 30
0.0
 10
15.0881959228
 20
12.7256407866
 30
0.0
 10
15.1045954844
 20
12.725461269
 30
0.0
 10
15.1293010158
 20
12.7246636335
 30
0.0
 10
15.1542154683
 20
12.7233370182
 30
0.0
 10
15.179312636
 20
12.7214828617
 30
0.0
 10
15.204566546
 20
12.7191030567
 30
0.0
 10
15.2299508625
 20
12.7162000934
 30
0.0
 10
15.2554391804
 20
12.7127769933
 30
0.0
 10
15.2810049683
 20
12.7088373223
 30
0.0
 10
15.3066216156
 20
12.704385182
 30
0.0
 10
15.3322624587
 20
12.6994252046
 30
0.0
 10
15.3579008062
 20
12.6939625492
 30
0.0
 10
15.3835099704
 20
12.6880029059
 30
0.0
 10
15.4090632935
 20
12.6815524805
 30
0.0
 10
15.4345341751
 20
12.6746179879
 30
0.0
 10
15.4598961001
 20
12.6672066452
 30
0.0
 10
15.4851226653
 20
12.6593261635
 30
0.0
 10
15.5101876109
 20
12.6509847496
 30
0.0
 10
15.5350648452
 20
12.6421910892
 30
0.0
 10
15.5597284717
 20
12.6329543364
 30
0.0
 10
15.5841528154
 20
12.623284105
 30
0.0
 10
15.6083124498
 20
12.6131904577
 30
0.0
 10
15.632182227
 20
12.602683904
 30
0.0
 10
15.655737302
 20
12.5917753825
 30
0.0
 10
15.6789531567
 20
12.5804762476
 30
0.0
 10
15.7018056258
 20
12.5687982586
 30
0.0
 10
15.7242709214
 20
12.5567535656
 30
0.0
 10
15.7463256632
 20
12.5443547061
 30
0.0
 10
15.7679468995
 20
12.5316145848
 30
0.0
 10
15.7891121295
 20
12.518546458
 30
0.0
 10
15.8097993266
 20
12.5051639213
 30
0.0
 10
15.8299869603
 20
12.491480893
 30
0.0
 10
15.8496540258
 20
12.4775116081
 30
0.0
 10
15.8687800619
 20
12.4632705968
 30
0.0
 10
15.8873451692
 20
12.4487726676
 30
0.0
 10
15.9053300309
 20
12.4340328926
 30
0.0
 10
15.922715932
 20
12.4190665896
 30
0.0
 10
15.9394847862
 20
12.4038893135
 30
0.0
 10
15.9556191503
 20
12.3885168343
 30
0.0
 10
15.9711022382
 20
12.3729651186
 30
0.0
 10
15.985917938
 20
12.3572503137
 30
0.0
 10
16.0000508268
 20
12.3413887287
 30
0.0
 10
16.0134861949
 20
12.3253968237
 30
0.0
 10
16.026210056
 20
12.3092911885
 30
0.0
 10
16.0382091551
 20
12.2930885228
 30
0.0
 10
16.0494709817
 20
12.2768056208
 30
0.0
 10
16.0599837785
 20
12.2604593531
 30
0.0
 10
16.069736565
 20
12.2440666498
 30
0.0
 10
16.0787191328
 20
12.2276445052
 30
0.0
 10
16.086922082
 20
12.2112098696
 30
0.0
 10
16.0943367068
 20
12.1947799637
 30
0.0
 10
16.0998776156
 20
12.1810431863
 30
0.0
 10
16.1039025833
 20
12.1700751744
 30
0.0
 10
16.1076236436
 20
12.1592221421
 30
0.0
 10
16.111776916
 20
12.1456872302
 30
0.0
 10
16.1159682885
 20
12.1294455919
 30
0.0
 10
16.1193404307
 20
12.1132932233
 30
0.0
 10
16.1218895528
 20
12.0972471342
 30
0.0
 10
16.1236127928
 20
12.0813240343
 30
0.0
 10
16.1245081377
 20
12.0655406364
 30
0.0
 10
16.1245744244
 20
12.0499134309
 30
0.0
 10
16.1238114478
 20
12.0344591966
 30
0.0
 10
16.1224827184
 20
12.0217163911
 30
0.0
 10
16.1210055843
 20
12.0116340581
 30
0.0
 10
16.1196933426
 20
12.0041375215
 30
0.0
 10
16.1181752944
 20
11.9966963603
 30
0.0
 10
16.1164517953
 20
11.9893124355
 30
0.0
 10
16.1145233629
 20
11.9819877646
 30
0.0
 10
16.1131012436
 20
11.9771448159
 30
0.0
 10
16.1123564366
 20
11.9747346265
 30
0.0
  0
SPLINE
  5
34A
100
AcDbEntity
  8
LAYER_CHAMFER_FEAT
100
AcDbSpline
 62
7
  6
CONTINUOUS
 70
0
 71
3
 72
58
 73
54
 74
0
 42
0.0000001
 43
0.0000001
 44
0.0000000001
 40
0.0
 40
0.0
 40
0.0
 40
0.0
 40
0.0106255961
 40
0.0212738377
 40
0.0319671271
 40
0.042727408
 40
0.0535759325
 40
0.064533083
 40
0.0756181978
 40
0.0868494219
 40
0.0982436261
 40
0.1098162752
 40
0.1215814417
 40
0.1335516976
 40
0.1457381852
 40
0.1581505595
 40
0.1707970587
 40
0.183684524
 40
0.1968184278
 40
0.2102029744
 40
0.2238410767
 40
0.2377345128
 40
0.2518838772
 40
0.2662887414
 40
0.2809476277
 40
0.2958581226
 40
0.3110169078
 40
0.3264198015
 40
0.3420618538
 40
0.3579373235
 40
0.3740398147
 40
0.3903622242
 40
0.4068968763
 40
0.4236354871
 40
0.4405692572
 40
0.4576888824
 40
0.4924442682
 40
0.5278206097
 40
0.5637290403
 40
0.6000759112
 40
0.6367637445
 40
0.6736921498
 40
0.7107587145
 40
0.7478598762
 40
0.7848917872
 40
0.8217511721
 40
0.858336203
 40
0.8945473343
 40
0.9302883609
 40
0.947954276
 40
0.965468697
 40
0.9828214056
 40
1.0
 40
1.0
 40
1.0
 40
1.0
 10
14.7696098743
 20
11.6736715934
 30
0.0
 10
14.7689277043
 20
11.6714640896
 30
0.0
 10
14.767686319
 20
11.667004825
 30
0.0
 10
14.766201268
 20
11.6602105992
 30
0.0
 10
14.7650937053
 20
11.6533148816
 30
0.0
 10
14.764364921
 20
11.6463252521
 30
0.0
 10
14.7640155504
 20
11.6392490462
 30
0.0
 10
14.7640458976
 20
11.6320937569
 30
0.0
 10
14.7644558698
 20
11.624866921
 30
0.0
 10
14.7652448774
 20
11.6175761238
 30
0.0
 10
14.7664120863
 20
11.6102290149
 30
0.0
 10
14.7679560737
 20
11.6028332484
 30
0.0
 10
14.7698752409
 20
11.5953965572
 30
0.0
 10
14.7721674041
 20
11.5879266488
 30
0.0
 10
14.7748301686
 20
11.580431304
 30
0.0
 10
14.7778606471
 20
11.5729182815
 30
0.0
 10
14.7812556365
 20
11.5653953712
 30
0.0
 10
14.7850115702
 20
11.5578703771
 30
0.0
 10
14.7891244528
 20
11.5503510656
 30
0.0
 10
14.7935900346
 20
11.5428452638
 30
0.0
 10
14.7984035671
 20
11.5353606948
 30
0.0
 10
14.8035600973
 20
11.5279051667
 30
0.0
 10
14.8090541762
 20
11.5204863525
 30
0.0
 10
14.8148801286
 20
11.5131119849
 30
0.0
 10
14.8210318525
 20
11.5057896824
 30
0.0
 10
14.827502953
 20
11.4985270495
 30
0.0
 10
14.8342867042
 20
11.4913316331
 30
0.0
 10
14.8413760185
 20
11.4842108717
 30
0.0
 10
14.8487635606
 20
11.477172206
 30
0.0
 10
14.8564415953
 20
11.4702228883
 30
0.0
 10
14.8644021851
 20
11.4633702012
 30
0.0
 10
14.8726370012
 20
11.4566212072
 30
0.0
 10
14.8811375154
 20
11.4499829677
 30
0.0
 10
14.8898948486
 20
11.4434623612
 30
0.0
 10
14.8988999423
 20
11.4370661438
 30
0.0
 10
14.9112861702
 20
11.4286708881
 30
0.0
 10
14.927332487
 20
11.4185364281
 30
0.0
 10
14.9473248936
 20
11.4070358298
 30
0.0
 10
14.9680674913
 20
11.3961828932
 30
0.0
 10
14.9894739063
 20
11.3860228117
 30
0.0
 10
15.0114553242
 20
11.3765977269
 30
0.0
 10
15.0339204311
 20
11.3679467942
 30
0.0
 10
15.0567759162
 20
11.3601059466
 30
0.0
 10
15.0799268296
 20
11.3531077563
 30
0.0
 10
15.1032770008
 20
11.3469812944
 30
0.0
 10
15.1267294114
 20
11.3417520109
 30
0.0
 10
15.1501867176
 20
11.3374416214
 30
0.0
 10
15.1735512473
 20
11.3340680537
 30
0.0
 10
15.1929384306
 20
11.3320412713
 30
0.0
 10
15.208319038
 20
11.3309049316
 30
0.0
 10
15.2197268951
 20
11.3302974957
 30
0.0
 10
15.2310389767
 20
11.3299323144
 30
0.0
 10
15.2385479463
 20
11.3298500943
 30
0.0
 10
15.2422833802
 20
11.3298500943
 30
0.0
  0
SPLINE
  5
34B
100
AcDbEntity
  8
LAYER_CUT_FEAT
100
AcDbSpline
 62
7
  6
CONTINUOUS
 70
0
 71
3
 72
28
 73
24
 74
0
 42
0.0000001
 43
0.0000001
 44
0.0000000001
 40
0.0
 40
0.0
 40
0.0
 40
0.0
 40
0.0696894171
 40
0.1381380473
 40
0.2053812452
 40
0.2714663202
 40
0.3364452313
 40
0.4003773948
 40
0.4633294358
 40
0.5253748187
 40
0.5865938857
 40
0.6470734889
 40
0.7069065559
 40
0.7366137012
 40
0.7661965789
 40
0.7956682558
 40
0.8250420417
 40
0.8543314943
 40
0.8835503566
 40
0.9127125388
 40
0.9418320957
 40
0.9709231754
 40
1.0
 40
1.0
 40
1.0
 40
1.0
 10
16.1947430421
 20
12.2165422226
 30
0.0
 10
16.1976697318
 20
12.210578256
 30
0.0
 10
16.2032552696
 20
12.1986490286
 30
0.0
 10
16.2108744551
 20
12.180608602
 30
0.0
 10
16.2176509835
 20
12.1626011266
 30
0.0
 10
16.2235781041
 20
12.1446442587
 30
0.0
 10
16.2286500371
 20
12.1267548985
 30
0.0
 10
16.2328617566
 20
12.1089501901
 30
0.0
 10
16.236209055
 20
12.0912471454
 30
0.0
 10
16.2386884991
 20
12.0736627364
 30
0.0
 10
16.2402975225
 20
12.0562137655
 30
0.0
 10
16.2410344176
 20
12.0389173367
 30
0.0
 10
16.2409206055
 20
12.0246098488
 30
0.0
 10
16.2403904194
 20
12.0132653766
 30
0.0
 10
16.2397758158
 20
12.0048252199
 30
0.0
 10
16.2389434702
 20
11.9964357252
 30
0.0
 10
16.2378935303
 20
11.9880988436
 30
0.0
 10
16.2366262906
 20
11.9798165914
 30
0.0
 10
16.2351420443
 20
11.9715909511
 30
0.0
 10
16.2334411103
 20
11.9634239137
 30
0.0
 10
16.2315239412
 20
11.9553174101
 30
0.0
 10
16.2293909897
 20
11.9472734703
 30
0.0
 10
16.2278253132
 20
11.9419532209
 30
0.0
 10
16.2270069335
 20
11.9393049432
 30
0.0
  0
SPLINE
  5
34C
100
AcDbEntity
  8
02___PRT_ALL_AXES
100
AcDbSpline
 62
7
  6
CONTINUOUS
 70
0
 71
3
 72
35
 73
31
 74
0
 42
0.0000001
 43
0.0000001
 44
0.0000000001
 40
0.0
 40
0.0
 40
0.0
 40
0.0
 40
0.0666440823
 40
0.1326261961
 40
0.1979617068
 40
0.2626702652
 40
0.2948015378
 40
0.3267853017
 40
0.3586249218
 40
0.3903238428
 40
0.4218855836
 40
0.4533136638
 40
0.4846116191
 40
0.5157829254
 40
0.5468310553
 40
0.5777594024
 40
0.6085713299
 40
0.6392701093
 40
0.6698589795
 40
0.7003411051
 40
0.7307196396
 40
0.7609977056
 40
0.7911784533
 40
0.8212650635
 40
0.8512607935
 40
0.8811690047
 40
0.9109932044
 40
0.9407370936
 40
0.9704046136
 40
1.0
 40
1.0
 40
1.0
 40
1.0
 10
15.0374640654
 20
12.5878731664
 30
0.0
 10
15.0420670108
 20
12.5878731664
 30
0.0
 10
15.0512300907
 20
12.5875789502
 30
0.0
 10
15.0648470083
 20
12.5862423213
 30
0.0
 10
15.0782129699
 20
12.5840220424
 30
0.0
 10
15.0891224331
 20
12.5814416543
 30
0.0
 10
15.0976658748
 20
12.5789514075
 30
0.0
 10
15.103962415
 20
12.5768793288
 30
0.0
 10
15.1101557894
 20
12.5746020271
 30
0.0
 10
15.1162398462
 20
12.5721231778
 30
0.0
 10
15.1222084554
 20
12.569446719
 30
0.0
 10
15.1280556682
 20
12.5665768203
 30
0.0
 10
15.1337756882
 20
12.5635178957
 30
0.0
 10
15.1393628571
 20
12.560274528
 30
0.0
 10
15.14481169
 20
12.5568515293
 30
0.0
 10
15.1501168219
 20
12.5532538293
 30
0.0
 10
15.1552730663
 20
12.5494865673
 30
0.0
 10
15.1602753366
 20
12.5455549636
 30
0.0
 10
15.1651187228
 20
12.5414644257
 30
0.0
 10
15.1697983976
 20
12.5372204188
 30
0.0
 10
15.1743097044
 20
12.5328285719
 30
0.0
 10
15.1786480557
 20
12.5282945584
 30
0.0
 10
15.1828090276
 20
12.5236241952
 30
0.0
 10
15.1867882533
 20
12.5188233373
 30
0.0
 10
15.1905815252
 20
12.5138979703
 30
0.0
 10
15.1941846841
 20
12.5088541132
 30
0.0
 10
15.1975937285
 20
12.503697917
 30
0.0
 10
15.2008047154
 20
12.4984355336
 30
0.0
 10
15.2038138117
 20
12.493073358
 30
0.0
 10
15.2056850928
 20
12.4894317779
 30
0.0
 10
15.2065855963
 20
12.4875967402
 30
0.0
  0
SPLINE
  5
34D
100
AcDbEntity
  8
LAYER_CHAMFER_FEAT
100
AcDbSpline
 62
7
  6
CONTINUOUS
 70
0
 71
3
 72
39
 73
35
 74
0
 42
0.0000001
 43
0.0000001
 44
0.0000000001
 40
0.0
 40
0.0
 40
0.0
 40
0.0
 40
0.0248034963
 40
0.0496643347
 40
0.0746391942
 40
0.099783485
 40
0.1251507464
 40
0.1507921142
 40
0.1767559258
 40
0.2030872574
 40
0.2298277661
 40
0.2570153712
 40
0.2846842088
 40
0.3128645651
 40
0.3415828039
 40
0.3708615622
 40
0.4007196409
 40
0.4311723134
 40
0.4622313148
 40
0.493905049
 40
0.5261987895
 40
0.5591147003
 40
0.5926522007
 40
0.6268079011
 40
0.6615759528
 40
0.6969480925
 40
0.7329137578
 40
0.7694603575
 40
0.8065733574
 40
0.8442363193
 40
0.8824305683
 40
0.9211370727
 40
0.9603360377
 40
1.0
 40
1.0
 40
1.0
 40
1.0
 10
15.4861754861
 20
11.4522360714
 30
0.0
 10
15.4854649028
 20
11.4499366222
 30
0.0
 10
15.4839063834
 20
11.4453730945
 30
0.0
 10
15.4811664885
 20
11.4386647151
 30
0.0
 10
15.4780264855
 20
11.4320971437
 30
0.0
 10
15.4744901142
 20
11.425678239
 30
0.0
 10
15.470561472
 20
11.4194152659
 30
0.0
 10
15.4662452074
 20
11.4133153367
 30
0.0
 10
15.4615462693
 20
11.407385415
 30
0.0
 10
15.45647019
 20
11.4016321275
 30
0.0
 10
15.4510227705
 20
11.3960619975
 30
0.0
 10
15.4452103164
 20
11.3906812317
 30
0.0
 10
15.4390394853
 20
11.3854958438
 30
0.0
 10
15.4325173019
 20
11.380511652
 30
0.0
 10
15.4256512363
 20
11.3757341448
 30
0.0
 10
15.4184490376
 20
11.3711687187
 30
0.0
 10
15.4109189144
 20
11.3668203796
 30
0.0
 10
15.4030693596
 20
11.3626940197
 30
0.0
 10
15.3949092573
 20
11.3587942147
 30
0.0
 10
15.386447829
 20
11.3551252899
 30
0.0
 10
15.3776946058
 20
11.3516913893
 30
0.0
 10
15.3686594868
 20
11.3484962705
 30
0.0
 10
15.3593526392
 20
11.3455435792
 30
0.0
 10
15.3497845755
 20
11.3428365527
 30
0.0
 10
15.3399660755
 20
11.3403782519
 30
0.0
 10
15.3299082122
 20
11.338171433
 30
0.0
 10
15.3196223362
 20
11.3362185291
 30
0.0
 10
15.3091200327
 20
11.3345217888
 30
0.0
 10
15.2984131494
 20
11.3330830491
 30
0.0
 10
15.2875137977
 20
11.3319039932
 30
0.0
 10
15.2764342658
 20
11.3309858734
 30
0.0
 10
15.2651868656
 20
11.3303297501
 30
0.0
 10
15.2537846178
 20
11.329936423
 30
0.0
 10
15.2461320644
 20
11.3298500943
 30
0.0
 10
15.2422833802
 20
11.3298500943
 30
0.0
  0
SPLINE
  5
34E
100
AcDbEntity
  8
02___PRT_ALL_AXES
100
AcDbSpline
 62
7
  6
CONTINUOUS
 70
0
 71
3
 72
24
 73
20
 74
0
 42
0.0000001
 43
0.0000001
 44
0.0000000001
 40
0.0
 40
0.0
 40
0.0
 40
0.0
 40
0.0250670613
 40
0.0505918184
 40
0.1030085268
 40
0.157258209
 40
0.2133250416
 40
0.2711715924
 40
0.3307433244
 40
0.3919695277
 40
0.4547654677
 40
0.5190339959
 40
0.5846671383
 40
0.6515474524
 40
0.719549148
 40
0.7885388612
 40
0.8583762288
 40
0.928914376
 40
1.0
 40
1.0
 40
1.0
 40
1.0
 10
16.0416423082
 20
12.0787746023
 30
0.0
 10
16.0423104298
 20
12.0774131137
 30
0.0
 10
16.0436159644
 20
12.0746439918
 30
0.0
 10
16.0461044417
 20
12.0689294397
 30
0.0
 10
16.048976903
 20
12.0614604555
 30
0.0
 10
16.0520171088
 20
12.0520916681
 30
0.0
 10
16.0546762374
 20
12.0422672216
 30
0.0
 10
16.0569524053
 20
12.0320174732
 30
0.0
 10
16.0588465988
 20
12.0213734964
 30
0.0
 10
16.060362333
 20
12.0103670847
 30
0.0
 10
16.0615055595
 20
11.9990304482
 30
0.0
 10
16.06228445
 20
11.9873960165
 30
0.0
 10
16.062709193
 20
11.9754962622
 30
0.0
 10
16.0627917589
 20
11.9633635737
 30
0.0
 10
16.0625456812
 20
11.9510301792
 30
0.0
 10
16.0619858452
 20
11.9385281306
 30
0.0
 10
16.0611282798
 20
11.9258892969
 30
0.0
 10
16.0599899869
 20
11.9131455136
 30
0.0
 10
16.0590587078
 20
11.9046272504
 30
0.0
 10
16.058552084
 20
11.9003564282
 30
0.0
  0
SPLINE
  5
34F
100
AcDbEntity
  8
02___PRT_ALL_AXES
100
AcDbSpline
 62
7
  6
CONTINUOUS
 70
0
 71
3
 72
38
 73
34
 74
0
 42
0.0000001
 43
0.0000001
 44
0.0000000001
 40
0.0
 40
0.0
 40
0.0
 40
0.0
 40
0.0987060219
 40
0.1462657431
 40
0.1926015717
 40
0.2376954663
 40
0.281530393
 40
0.3240920648
 40
0.3653682096
 40
0.4053482473
 40
0.4440248498
 40
0.4813924
 40
0.5174482304
 40
0.55219286
 40
0.5856291926
 40
0.6177642666
 40
0.6486085276
 40
0.6781764156
 40
0.7064876518
 40
0.7335667137
 40
0.7594444204
 40
0.7841586243
 40
0.8077546901
 40
0.830287417
 40
0.8518216072
 40
0.8724333881
 40
0.892211644
 40
0.9112584106
 40
0.9296894889
 40
0.9476339744
 40
0.9652327859
 40
0.9826361273
 40
1.0
 40
1.0
 40
1.0
 40
1.0
 10
16.0135202233
 20
11.7065429241
 30
0.0
 10
16.0126014463
 20
11.7039490133
 30
0.0
 10
16.0112114242
 20
11.7001152499
 30
0.0
 10
16.0093153249
 20
11.695091578
 30
0.0
 10
16.0079136763
 20
11.6914790203
 30
0.0
 10
16.0065149524
 20
11.6879769075
 30
0.0
 10
16.0051192395
 20
11.6845871052
 30
0.0
 10
16.0037265351
 20
11.681311409
 30
0.0
 10
16.002336774
 20
11.6781515154
 30
0.0
 10
16.0009498428
 20
11.6751090133
 30
0.0
 10
15.9995655452
 20
11.6721854232
 30
0.0
 10
15.9981836435
 20
11.6693821565
 30
0.0
 10
15.9968038395
 20
11.6667005452
 30
0.0
 10
15.9954257821
 20
11.6641418413
 30
0.0
 10
15.9940490722
 20
11.6617072046
 30
0.0
 10
15.992673267
 20
11.6593977259
 30
0.0
 10
15.9912978788
 20
11.6572144158
 30
0.0
 10
15.9899223732
 20
11.6551582161
 30
0.0
 10
15.9885461934
 20
11.653229996
 30
0.0
 10
15.9871687236
 20
11.6514305662
 30
0.0
 10
15.9857893256
 20
11.6497606761
 30
0.0
 10
15.9844073346
 20
11.6482210139
 30
0.0
 10
15.9830220225
 20
11.646812245
 30
0.0
 10
15.9816326687
 20
11.645534971
 30
0.0
 10
15.9802385043
 20
11.6443897831
 30
0.0
 10
15.9788387368
 20
11.6433772795
 30
0.0
 10
15.9774326079
 20
11.6424980144
 30
0.0
 10
15.9760193447
 20
11.6417526084
 30
0.0
 10
15.9745982532
 20
11.6411416656
 30
0.0
 10
15.9731687493
 20
11.6406657623
 30
0.0
 10
15.9717302923
 20
11.6403255008
 30
0.0
 10
15.970282704
 20
11.6401213066
 30
0.0
 10
15.9693128095
 20
11.6400761815
 30
0.0
 10
15.9688287226
 20
11.6400761833
 30
0.0
  0
SPLINE
  5
350
100
AcDbEntity
  8
02___PRT_ALL_AXES
100
AcDbSpline
 62
7
  6
CONTINUOUS
 70
0
 71
3
 72
78
 73
74
 74
0
 42
0.0000001
 43
0.0000001
 44
0.0000000001
 40
0.0
 40
0.0
 40
0.0
 40
0.0
 40
0.0171787338
 40
0.0345302049
 40
0.0520440915
 40
0.0697096779
 40
0.0875159046
 40
0.10545139
 40
0.1235044651
 40
0.1416632018
 40
0.1599154426
 40
0.1782488292
 40
0.1966508308
 40
0.2151087718
 40
0.2336098597
 40
0.2521412118
 40
0.2706898828
 40
0.2892428914
 40
0.3077872476
 40
0.326309979
 40
0.3447981582
 40
0.3632389295
 40
0.381619536
 40
0.3999273472
 40
0.4181498866
 40
0.4362748593
 40
0.454290181
 40
0.4721840062
 40
0.4899447582
 40
0.5075611588
 40
0.5250222594
 40
0.5423174723
 40
0.5594366038
 40
0.5763698873
 40
0.5931080187
 40
0.6096421921
 40
0.6259641373
 40
0.6420661595
 40
0.6579411793
 40
0.6735827761
 40
0.688985232
 40
0.7041435786
 40
0.7190536458
 40
0.7337121123
 40
0.7481165586
 40
0.7622655217
 40
0.7761585516
 40
0.7897962691
 40
0.8031804245
 40
0.816313956
 40
0.8292010478
 40
0.8418471847
 40
0.8542592033
 40
0.8603802807
 40
0.8664460362
 40
0.8784159525
 40
0.8901807754
 40
0.9017530971
 40
0.9131469694
 40
0.924377874
 40
0.9354626685
 40
0.9409563761
 40
0.9464204659
 40
0.9518573914
 40
0.9572696697
 40
0.9626598801
 40
0.9680306552
 40
0.9733846779
 40
0.9787246728
 40
0.9840534017
 40
0.9893736547
 40
0.994688245
 40
1.0
 40
1.0
 40
1.0
 40
1.0
 10
14.8644471607
 20
12.0279902577
 30
0.0
 10
14.872605649
 20
12.0279902577
 30
0.0
 10
14.8890051854
 20
12.027810748
 30
0.0
 10
14.9137107244
 20
12.0270130987
 30
0.0
 10
14.9386251302
 20
12.0256864991
 30
0.0
 10
14.9637223227
 20
12.0238323316
 30
0.0
 10
14.9889762248
 20
12.0214525279
 30
0.0
 10
15.0143605431
 20
12.0185495658
 30
0.0
 10
15.039848861
 20
12.0151264677
 30
0.0
 10
15.0654146488
 20
12.0111867969
 30
0.0
 10
15.0910312963
 20
12.0067346545
 30
0.0
 10
15.1166721391
 20
12.001774675
 30
0.0
 10
15.1423104869
 20
11.9963120214
 30
0.0
 10
15.1679196516
 20
11.9903523801
 30
0.0
 10
15.1934729749
 20
11.9839019549
 30
0.0
 10
15.2189438561
 20
11.9769674604
 30
0.0
 10
15.2443057805
 20
11.9695561156
 30
0.0
 10
15.2695323463
 20
11.9616756354
 30
0.0
 10
15.2945972927
 20
11.9533342235
 30
0.0
 10
15.3194745272
 20
11.9445405632
 30
0.0
 10
15.344138153
 20
11.9353038088
 30
0.0
 10
15.3685624959
 20
11.9256335753
 30
0.0
 10
15.3927221309
 20
11.9155399293
 30
0.0
 10
15.4165919093
 20
11.9050333774
 30
0.0
 10
15.4401469846
 20
11.8941248562
 30
0.0
 10
15.4633628384
 20
11.8828257198
 30
0.0
 10
15.4862153062
 20
11.8711477287
 30
0.0
 10
15.5086806026
 20
11.8591030369
 30
0.0
 10
15.5307353458
 20
11.8467041792
 30
0.0
 10
15.5523565825
 20
11.8339640581
 30
0.0
 10
15.5735218114
 20
11.8208959301
 30
0.0
 10
15.5942090067
 20
11.8075133914
 30
0.0
 10
15.6143966413
 20
11.7938303641
 30
0.0
 10
15.6340637088
 20
11.7798610808
 30
0.0
 10
15.6531897454
 20
11.7656200697
 30
0.0
 10
15.6717548512
 20
11.7511221394
 30
0.0
 10
15.6897397108
 20
11.7363823627
 30
0.0
 10
15.7071256129
 20
11.7214160605
 30
0.0
 10
15.7238944693
 20
11.7062387858
 30
0.0
 10
15.7400288341
 20
11.6908663069
 30
0.0
 10
15.7555119204
 20
11.6753145903
 30
0.0
 10
15.7703276177
 20
11.6595997838
 30
0.0
 10
15.7844605074
 20
11.6437381994
 30
0.0
 10
15.7978958782
 20
11.6277462957
 30
0.0
 10
15.8106197401
 20
11.6116406607
 30
0.0
 10
15.8226188374
 20
11.5954379944
 30
0.0
 10
15.8338806609
 20
11.5791550909
 30
0.0
 10
15.8443934587
 20
11.5628088238
 30
0.0
 10
15.8541462483
 20
11.5464161215
 30
0.0
 10
15.8631288172
 20
11.529993977
 30
0.0
 10
15.8713317643
 20
11.5135593409
 30
0.0
 10
15.8787463862
 20
11.4971294343
 30
0.0
 10
15.8842872935
 20
11.4833926563
 30
0.0
 10
15.8883122677
 20
11.4724246462
 30
0.0
 10
15.8920333257
 20
11.4615716124
 30
0.0
 10
15.8961866011
 20
11.4480367026
 30
0.0
 10
15.9003779708
 20
11.4317950598
 30
0.0
 10
15.9037501095
 20
11.4156427054
 30
0.0
 10
15.9062992309
 20
11.3995965642
 30
0.0
 10
15.9080224802
 20
11.3836736555
 30
0.0
 10
15.9087708004
 20
11.3704812008
 30
0.0
 10
15.9089512625
 20
11.3600133239
 30
0.0
 10
15.9088791735
 20
11.3522265495
 30
0.0
 10
15.9086000465
 20
11.3444831793
 30
0.0
 10
15.9081139361
 20
11.3367851734
 30
0.0
 10
15.9074209836
 20
11.3291345602
 30
0.0
 10
15.9065213438
 20
11.3215333373
 30
0.0
 10
15.9054152703
 20
11.3139834923
 30
0.0
 10
15.9041030253
 20
11.3064870017
 30
0.0
 10
15.9025849739
 20
11.299045829
 30
0.0
 10
15.9008614813
 20
11.291661906
 30
0.0
 10
15.8989330434
 20
11.2843372355
 30
0.0
 10
15.8975109242
 20
11.2794942871
 30
0.0
 10
15.8967661188
 20
11.2770840971
 30
0.0
  0
SPLINE
  5
351
100
AcDbEntity
  8
LAYER_FEATURE
100
AcDbSpline
 62
7
  6
CONTINUOUS
 70
0
 71
3
 72
15
 73
11
 74
0
 42
0.0000001
 43
0.0000001
 44
0.0000000001
 40
0.0
 40
0.0
 40
0.0
 40
0.0
 40
0.1391844866
 40
0.2740132754
 40
0.404602365
 40
0.5310940848
 40
0.6536601756
 40
0.7725035446
 40
0.8878599052
 40
1.0
 40
1.0
 40
1.0
 40
1.0
 10
15.9772800752
 20
11.6631445496
 30
0.0
 10
15.9764441498
 20
11.6621430722
 30
0.0
 10
15.9747617351
 20
11.6602016975
 30
0.0
 10
15.9721646139
 20
11.6574370897
 30
0.0
 10
15.9695366966
 20
11.6548690154
 30
0.0
 10
15.9668801954
 20
11.6524997663
 30
0.0
 10
15.964197323
 20
11.6503314042
 30
0.0
 10
15.9614902763
 20
11.6483658174
 30
0.0
 10
15.9587614305
 20
11.6466048787
 30
0.0
 10
15.956904262
 20
11.6455543042
 30
0.0
 10
15.9559737647
 20
11.6450655925
 30
0.0
  0
SPLINE
  5
352
100
AcDbEntity
  8
LAYER_CHAMFER_FEAT
100
AcDbSpline
 62
7
  6
CONTINUOUS
 70
0
 71
3
 72
86
 73
82
 74
0
 42
0.0000001
 43
0.0000001
 44
0.0000000001
 40
0.0
 40
0.0
 40
0.0
 40
0.0
 40
0.0157577792
 40
0.0311470772
 40
0.0461642062
 40
0.0608082456
 40
0.0750812508
 40
0.0889884716
 40
0.1025385713
 40
0.1091840365
 40
0.1157451538
 40
0.1286216909
 40
0.1411895419
 40
0.147365876
 40
0.1534744082
 40
0.1595187692
 40
0.1655028511
 40
0.171430765
 40
0.1773068674
 40
0.1831357287
 40
0.1889221199
 40
0.1946710142
 40
0.2003875444
 40
0.2060770037
 40
0.211744812
 40
0.2173964918
 40
0.2230376497
 40
0.2286739401
 40
0.2343110444
 40
0.2399546377
 40
0.2456103661
 40
0.251283811
 40
0.2569804715
 40
0.2627057332
 40
0.2684648415
 40
0.2742628939
 40
0.2801047975
 40
0.2859952743
 40
0.2919388347
 40
0.2979397576
 40
0.3040021069
 40
0.3163244445
 40
0.3289350956
 40
0.3418575533
 40
0.355111285
 40
0.3687118307
 40
0.3826709524
 40
0.3969968198
 40
0.411694212
 40
0.4267647366
 40
0.4422070596
 40
0.4580171234
 40
0.4741883547
 40
0.4907118565
 40
0.5075766018
 40
0.5247696182
 40
0.5422761547
 40
0.560079837
 40
0.5781628106
 40
0.5965058883
 40
0.6150886871
 40
0.6338897539
 40
0.6528866845
 40
0.6720562392
 40
0.691374462
 40
0.7108167914
 40
0.7303581658
 40
0.7499731271
 40
0.7696359264
 40
0.7893206289
 40
0.8090012145
 40
0.8286516778
 40
0.848246131
 40
0.8677589064
 40
0.8871646652
 40
0.9064384843
 40
0.925555979
 40
0.9444934628
 40
0.9632277099
 40
0.9817372669
 40
1.0
 40
1.0
 40
1.0
 40
1.0
 10
14.8702642087
 20
11.7747645845
 30
0.0
 10
14.8652963706
 20
11.7735962545
 30
0.0
 10
14.8555198271
 20
11.7710987428
 30
0.0
 10
14.8411920758
 20
11.7668129296
 30
0.0
 10
14.8273999003
 20
11.7620394092
 30
0.0
 10
14.814170627
 20
11.7567874651
 30
0.0
 10
14.8015300522
 20
11.7510671436
 30
0.0
 10
14.789503254
 20
11.7448895766
 30
0.0
 10
14.779950515
 20
11.7393345897
 30
0.0
 10
14.7726458556
 20
11.7346708244
 30
0.0
 10
14.765656192
 20
11.7299254025
 30
0.0
 10
14.7573344035
 20
11.723734968
 30
0.0
 10
14.7494990545
 20
11.7171297825
 30
0.0
 10
14.7436008245
 20
11.7116511975
 30
0.0
 10
14.7393846982
 20
11.7074708106
 30
0.0
 10
14.7353530003
 20
11.7031975061
 30
0.0
 10
14.7315076225
 20
11.6988333994
 30
0.0
 10
14.727850545
 20
11.6943805872
 30
0.0
 10
14.7243835516
 20
11.6898412841
 30
0.0
 10
14.7211083571
 20
11.6852177285
 30
0.0
 10
14.7180266474
 20
11.6805121602
 30
0.0
 10
14.7151398857
 20
11.6757269486
 30
0.0
 10
14.7124495768
 20
11.6708644141
 30
0.0
 10
14.7099570374
 20
11.6659269787
 30
0.0
 10
14.7076634877
 20
11.6609170941
 30
0.0
 10
14.705570142
 20
11.6558372121
 30
0.0
 10
14.7036779594
 20
11.6506898864
 30
0.0
 10
14.7019879475
 20
11.645477644
 30
0.0
 10
14.700500927
 20
11.6402030815
 30
0.0
 10
14.6992175973
 20
11.6348688246
 30
0.0
 10
14.6981386718
 20
11.6294775041
 30
0.0
 10
14.6972645898
 20
11.6240318143
 30
0.0
 10
14.6965958363
 20
11.6185344452
 30
0.0
 10
14.6961327243
 20
11.6129881273
 30
0.0
 10
14.6958754222
 20
11.6073956096
 30
0.0
 10
14.6958241294
 20
11.6017596588
 30
0.0
 10
14.6959787688
 20
11.5960830649
 30
0.0
 10
14.6963392995
 20
11.5903686278
 30
0.0
 10
14.6969055256
 20
11.5846191903
 30
0.0
 10
14.6976771147
 20
11.5788375107
 30
0.0
 10
14.6989862413
 20
11.5710478866
 30
0.0
 10
14.7011439278
 20
11.561236325
 30
0.0
 10
14.7045323691
 20
11.5494459767
 30
0.0
 10
14.7087269752
 20
11.5375975779
 30
0.0
 10
14.7137190415
 20
11.5257146316
 30
0.0
 10
14.7194984475
 20
11.513820171
 30
0.0
 10
14.7260535916
 20
11.5019373665
 30
0.0
 10
14.7333714293
 20
11.4900893288
 30
0.0
 10
14.7414374619
 20
11.4782991172
 30
0.0
 10
14.7502357545
 20
11.4665896842
 30
0.0
 10
14.7597489785
 20
11.4549838504
 30
0.0
 10
14.7699584318
 20
11.4435042557
 30
0.0
 10
14.7808440688
 20
11.4321733218
 30
0.0
 10
14.7923845141
 20
11.42101319
 30
0.0
 10
14.8045571104
 20
11.4100456832
 30
0.0
 10
14.8173379699
 20
11.3992922677
 30
0.0
 10
14.8307020157
 20
11.3887740063
 30
0.0
 10
14.8446230279
 20
11.378511519
 30
0.0
 10
14.8590736775
 20
11.3685249204
 30
0.0
 10
14.874025595
 20
11.3588337943
 30
0.0
 10
14.8894494276
 20
11.3494571553
 30
0.0
 10
14.9053148962
 20
11.3404134103
 30
0.0
 10
14.9215908506
 20
11.3317203201
 30
0.0
 10
14.9382453216
 20
11.3233949454
 30
0.0
 10
14.9552455973
 20
11.3154536331
 30
0.0
 10
14.9725582872
 20
11.3079119809
 30
0.0
 10
14.9901493873
 20
11.300784809
 30
0.0
 10
15.007984342
 20
11.2940861218
 30
0.0
 10
15.0260281106
 20
11.2878290698
 30
0.0
 10
15.0442452451
 20
11.2820259437
 30
0.0
 10
15.0625999575
 20
11.2766881451
 30
0.0
 10
15.0810561911
 20
11.2718261693
 30
0.0
 10
15.0995776867
 20
11.2674495672
 30
0.0
 10
15.1181280583
 20
11.2635669272
 30
0.0
 10
15.1366708657
 20
11.2601858771
 30
0.0
 10
15.1551696837
 20
11.2573130603
 30
0.0
 10
15.1735881984
 20
11.2549541232
 30
0.0
 10
15.1918901618
 20
11.253113725
 30
0.0
 10
15.2100398425
 20
11.2517954041
 30
0.0
 10
15.22800121
 20
11.2510018651
 30
0.0
 10
15.2399111185
 20
11.2508223949
 30
0.0
 10
15.2458257545
 20
11.2508223949
 30
0.0
  0
SPLINE
  5
353
100
AcDbEntity
  8
LAYER_FEATURE
100
AcDbSpline
 62
7
  6
CONTINUOUS
 70
0
 71
3
 72
72
 73
68
 74
0
 42
0.0000001
 43
0.0000001
 44
0.0000000001
 40
0.0
 40
0.0
 40
0.0
 40
0.0
 40
0.0146663605
 40
0.0219124737
 40
0.0291008425
 40
0.0433088308
 40
0.0573045097
 40
0.0642278984
 40
0.071103871
 40
0.0847210533
 40
0.098177377
 40
0.1114948445
 40
0.1246975226
 40
0.1378112249
 40
0.1508631596
 40
0.1638815194
 40
0.1768950379
 40
0.1899325275
 40
0.2030224119
 40
0.2161922755
 40
0.2294684442
 40
0.242875609
 40
0.2564364993
 40
0.2701716289
 40
0.2840991009
 40
0.2982344704
 40
0.3125906531
 40
0.3271778999
 40
0.3420038154
 40
0.3570734042
 40
0.3723891373
 40
0.3879510482
 40
0.4037568588
 40
0.4198021037
 40
0.4360802569
 40
0.452582864
 40
0.4692996958
 40
0.4862188915
 40
0.5033270951
 40
0.5206095897
 40
0.5380504469
 40
0.5556326666
 40
0.5733383103
 40
0.5911486298
 40
0.6090442061
 40
0.6270050838
 40
0.6450108986
 40
0.6630410036
 40
0.6810746025
 40
0.6990908796
 40
0.7170691255
 40
0.7349888638
 40
0.7528299861
 40
0.7705728816
 40
0.788198565
 40
0.8056888062
 40
0.823026273
 40
0.8401946661
 40
0.857178851
 40
0.873964994
 40
0.890540711
 40
0.9068952188
 40
0.9388981222
 40
0.9545422856
 40
0.9699405674
 40
0.9850929992
 40
1.0
 40
1.0
 40
1.0
 40
1.0
 10
14.7966509462
 20
12.3951747466
 30
0.0
 10
14.7958778591
 20
12.3926730359
 30
0.0
 10
14.794820204
 20
12.3889040408
 30
0.0
 10
14.7936224079
 20
12.3838480199
 30
0.0
 10
14.7925815081
 20
12.3788408367
 30
0.0
 10
14.7915555797
 20
12.3726023673
 30
0.0
 10
14.7908976024
 20
12.3663617181
 30
0.0
 10
14.7905993843
 20
12.3614076635
 30
0.0
 10
14.7904531219
 20
12.3565144421
 30
0.0
 10
14.7905500394
 20
12.3504498727
 30
0.0
 10
14.7911187689
 20
12.3432564046
 30
0.0
 10
14.7921383102
 20
12.3361873532
 30
0.0
 10
14.7936063353
 20
12.3292600699
 30
0.0
 10
14.7955193877
 20
12.3224913869
 30
0.0
 10
14.7978728786
 20
12.3158978213
 30
0.0
 10
14.8006611244
 20
12.3094954635
 30
0.0
 10
14.8038773547
 20
12.3032999459
 30
0.0
 10
14.8075137216
 20
12.2973263849
 30
0.0
 10
14.8115613006
 20
12.291589315
 30
0.0
 10
14.8160101625
 20
12.2861026662
 30
0.0
 10
14.820849403
 20
12.2808797246
 30
0.0
 10
14.8260671811
 20
12.2759331059
 30
0.0
 10
14.8316507292
 20
12.2712746953
 30
0.0
 10
14.837586424
 20
12.2669156519
 30
0.0
 10
14.8438598252
 20
12.2628663912
 30
0.0
 10
14.8504557132
 20
12.2591365754
 30
0.0
 10
14.8573581068
 20
12.2557350665
 30
0.0
 10
14.8645503137
 20
12.2526699261
 30
0.0
 10
14.8720149757
 20
12.2499484164
 30
0.0
 10
14.8797341046
 20
12.2475769883
 30
0.0
 10
14.8876891118
 20
12.2455612503
 30
0.0
 10
14.8958608511
 20
12.2439059475
 30
0.0
 10
14.9042296703
 20
12.2426149808
 30
0.0
 10
14.9127754533
 20
12.241691393
 30
0.0
 10
14.9214776612
 20
12.2411373567
 30
0.0
 10
14.9303153791
 20
12.2409541398
 30
0.0
 10
14.9392673698
 20
12.2411421381
 30
0.0
 10
14.948312123
 20
12.2417008683
 30
0.0
 10
14.9574279024
 20
12.242628972
 30
0.0
 10
14.9665928004
 20
12.2439241835
 30
0.0
 10
14.9757847904
 20
12.2455833633
 30
0.0
 10
14.9849817793
 20
12.2476025079
 30
0.0
 10
14.9941616569
 20
12.249976762
 30
0.0
 10
15.0033023547
 20
12.2527004035
 30
0.0
 10
15.0123818993
 20
12.2557668658
 30
0.0
 10
15.0213784613
 20
12.2591687696
 30
0.0
 10
15.030270406
 20
12.262897939
 30
0.0
 10
15.0390363493
 20
12.2669454081
 30
0.0
 10
15.047655217
 20
12.2713014311
 30
0.0
 10
15.0561062839
 20
12.2759555326
 30
0.0
 10
15.0643692244
 20
12.2808965272
 30
0.0
 10
15.0724241606
 20
12.286112546
 30
0.0
 10
15.0802517271
 20
12.2915910406
 30
0.0
 10
15.0878331011
 20
12.2973188418
 30
0.0
 10
15.0951500475
 20
12.3032821881
 30
0.0
 10
15.1021849574
 20
12.3094667617
 30
0.0
 10
15.1089209149
 20
12.3158577016
 30
0.0
 10
15.1153417168
 20
12.3224396477
 30
0.0
 10
15.1214319289
 20
12.3291968206
 30
0.0
 10
15.1271768276
 20
12.3361129185
 30
0.0
 10
15.132562789
 20
12.3431716622
 30
0.0
 10
15.1391988711
 20
12.3526801185
 30
0.0
 10
15.1451258916
 20
12.3624707939
 30
0.0
 10
15.1502690284
 20
12.372486467
 30
0.0
 10
15.1536830877
 20
12.3799977761
 30
0.0
 10
15.1566738024
 20
12.3875457736
 30
0.0
 10
15.1583947818
 20
12.3926319887
 30
0.0
 10
15.1591805534
 20
12.3951747466
 30
0.0
  0
SPLINE
  5
354
100
AcDbEntity
  8
LAYER_FEATURE
100
AcDbSpline
 62
7
  6
CONTINUOUS
 70
0
 71
3
 72
37
 73
33
 74
0
 42
0.0000001
 43
0.0000001
 44
0.0000000001
 40
0.0
 40
0.0
 40
0.0
 40
0.0
 40
0.0272320291
 40
0.0549120075
 40
0.0830414253
 40
0.1116199289
 40
0.1700822989
 40
0.1999584494
 40
0.230238706
 40
0.2609033564
 40
0.2919297822
 40
0.3232927246
 40
0.3549645335
 40
0.3869154233
 40
0.4191137308
 40
0.4515261623
 40
0.4841180367
 40
0.5168535254
 40
0.5496958915
 40
0.5826077332
 40
0.6155512192
 40
0.6484883221
 40
0.6813810518
 40
0.7141916921
 40
0.7468830403
 40
0.7794186394
 40
0.8117630236
 40
0.8438819415
 40
0.8757425985
 40
0.9073140581
 40
0.9385667823
 40
1.0
 40
1.0
 40
1.0
 40
1.0
 10
14.7663428051
 20
12.3645915362
 30
0.0
 10
14.7673250255
 20
12.3677700024
 30
0.0
 10
14.7694762387
 20
12.3741277656
 30
0.0
 10
14.7732146451
 20
12.3835627588
 30
0.0
 10
14.7774822065
 20
12.3929518807
 30
0.0
 10
14.7839111405
 20
12.4054714754
 30
0.0
 10
14.7913198985
 20
12.4177098284
 30
0.0
 10
14.7996150086
 20
12.4295953931
 30
0.0
 10
14.8063474682
 20
12.4384188174
 30
0.0
 10
14.8135285899
 20
12.4470639402
 30
0.0
 10
14.8211413451
 20
12.455510414
 30
0.0
 10
14.8291673458
 20
12.4637378486
 30
0.0
 10
14.8375873009
 20
12.4717265164
 30
0.0
 10
14.8463809434
 20
12.4794572281
 30
0.0
 10
14.8555271205
 20
12.4869114171
 30
0.0
 10
14.8650038335
 20
12.494071174
 30
0.0
 10
14.8747882925
 20
12.5009192917
 30
0.0
 10
14.8848569687
 20
12.5074393067
 30
0.0
 10
14.8951856431
 20
12.5136155519
 30
0.0
 10
14.9057494745
 20
12.5194331825
 30
0.0
 10
14.9165230589
 20
12.524878212
 30
0.0
 10
14.9274804896
 20
12.5299375452
 30
0.0
 10
14.93859542
 20
12.5345990081
 30
0.0
 10
14.9498411219
 20
12.5388513903
 30
0.0
 10
14.9611905528
 20
12.5426844661
 30
0.0
 10
14.9726164281
 20
12.5460890131
 30
0.0
 10
14.9840912685
 20
12.5490568331
 30
0.0
 10
14.9955875246
 20
12.5515807727
 30
0.0
 10
15.0070774355
 20
12.5536547459
 30
0.0
 10
15.0185338475
 20
12.5552737565
 30
0.0
 10
15.0336379245
 20
12.5568116202
 30
0.0
 10
15.0449672037
 20
12.5572899559
 30
0.0
 10
15.0524721252
 20
12.5572899559
 30
0.0
  0
SPLINE
  5
355
100
AcDbEntity
  8
LAYER_FEATURE
100
AcDbSpline
 62
7
  6
CONTINUOUS
 70
0
 71
3
 72
28
 73
24
 74
0
 42
0.0000001
 43
0.0000001
 44
0.0000000001
 40
0.0
 40
0.0
 40
0.0
 40
0.0
 40
0.0706138688
 40
0.140143218
 40
0.2085427107
 40
0.2757815332
 40
0.3418400827
 40
0.3744277754
 40
0.4067195729
 40
0.4704161333
 40
0.5329605308
 40
0.5638163059
 40
0.5944004091
 40
0.6547767288
 40
0.7141693867
 40
0.772666574
 40
0.830371707
 40
0.858968174
 40
0.8874118106
 40
0.9157192353
 40
0.943907744
 40
0.9719952083
 40
1.0
 40
1.0
 40
1.0
 40
1.0
 10
15.0524721252
 20
12.5572899559
 30
0.0
 10
15.0566061789
 20
12.5572899559
 30
0.0
 10
15.0648122224
 20
12.5570990014
 30
0.0
 10
15.076994655
 20
12.5562256366
 30
0.0
 10
15.0889228408
 20
12.5547699418
 30
0.0
 10
15.1005599827
 20
12.5527363218
 30
0.0
 10
15.1100288874
 20
12.5505550261
 30
0.0
 10
15.1174215556
 20
12.5485239997
 30
0.0
 10
15.1246217392
 20
12.5463257285
 30
0.0
 10
15.133379417
 20
12.5432358594
 30
0.0
 10
15.1418605754
 20
12.5396624807
 30
0.0
 10
15.1484123003
 20
12.5365355605
 30
0.0
 10
15.1547496486
 20
12.5332625114
 30
0.0
 10
15.1623743964
 20
12.5288508701
 30
0.0
 10
15.171048566
 20
12.5230334872
 30
0.0
 10
15.1791817221
 20
12.5167328086
 30
0.0
 10
15.1855073277
 20
12.5110774814
 30
0.0
 10
15.1902658439
 20
12.5063340009
 30
0.0
 10
15.1936743504
 20
12.502678858
 30
0.0
 10
15.1969301359
 20
12.4989186458
 30
0.0
 10
15.2000307879
 20
12.4950561607
 30
0.0
 10
15.2029738861
 20
12.4910944477
 30
0.0
 10
15.2048318421
 20
12.4883855642
 30
0.0
 10
15.2057333538
 20
12.4870161396
 30
0.0
  0
SPLINE
  5
356
100
AcDbEntity
  8
LAYER_FEATURE
100
AcDbSpline
 62
7
  6
CONTINUOUS
 70
0
 71
3
 72
72
 73
68
 74
0
 42
0.0000001
 43
0.0000001
 44
0.0000000001
 40
0.0
 40
0.0
 40
0.0
 40
0.0
 40
0.0149070008
 40
0.0300594326
 40
0.0454577144
 40
0.0611018778
 40
0.0931047812
 40
0.109459289
 40
0.126035006
 40
0.142821149
 40
0.1598053339
 40
0.176973727
 40
0.1943111938
 40
0.211801435
 40
0.2294271184
 40
0.2471700139
 40
0.2650111362
 40
0.2829308745
 40
0.3009091204
 40
0.3189253975
 40
0.3369589964
 40
0.3549891014
 40
0.3729949162
 40
0.3909557939
 40
0.4088513702
 40
0.4266616897
 40
0.4443673334
 40
0.4619495531
 40
0.4793904103
 40
0.4966729049
 40
0.5137811085
 40
0.5307003042
 40
0.547417136
 40
0.5639197431
 40
0.5801978963
 40
0.5962431412
 40
0.6120489518
 40
0.6276108627
 40
0.6429265958
 40
0.6579961846
 40
0.6728221001
 40
0.6874093469
 40
0.7017655296
 40
0.7159008991
 40
0.7298283711
 40
0.7435635007
 40
0.757124391
 40
0.7705315558
 40
0.7838077245
 40
0.7969775881
 40
0.8100674725
 40
0.8231049621
 40
0.8361184806
 40
0.8491368404
 40
0.8621887751
 40
0.8753024774
 40
0.8885051555
 40
0.901822623
 40
0.9152789467
 40
0.928896129
 40
0.9357721016
 40
0.9426954903
 40
0.9566911692
 40
0.9708991575
 40
0.9780875263
 40
0.9853336395
 40
1.0
 40
1.0
 40
1.0
 40
1.0
 10
14.7966509462
 20
12.3951747466
 30
0.0
 10
14.7974367178
 20
12.3977175044
 30
0.0
 10
14.7991576972
 20
12.4028037196
 30
0.0
 10
14.8021484119
 20
12.410351717
 30
0.0
 10
14.8055624712
 20
12.4178630262
 30
0.0
 10
14.810705608
 20
12.4278786992
 30
0.0
 10
14.8166326285
 20
12.4376693747
 30
0.0
 10
14.8232687106
 20
12.4471778309
 30
0.0
 10
14.8286546721
 20
12.4542365747
 30
0.0
 10
14.8343995707
 20
12.4611526725
 30
0.0
 10
14.8404897829
 20
12.4679098454
 30
0.0
 10
14.8469105847
 20
12.4744917916
 30
0.0
 10
14.8536465422
 20
12.4808827315
 30
0.0
 10
14.8606814521
 20
12.4870673051
 30
0.0
 10
14.8679983985
 20
12.4930306514
 30
0.0
 10
14.8755797725
 20
12.4987584526
 30
0.0
 10
14.883407339
 20
12.5042369472
 30
0.0
 10
14.8914622752
 20
12.509452966
 30
0.0
 10
14.8997252157
 20
12.5143939606
 30
0.0
 10
14.9081762826
 20
12.5190480621
 30
0.0
 10
14.9167951503
 20
12.5234040851
 30
0.0
 10
14.9255610936
 20
12.5274515542
 30
0.0
 10
14.9344530383
 20
12.5311807236
 30
0.0
 10
14.9434496003
 20
12.5345826274
 30
0.0
 10
14.9525291449
 20
12.5376490897
 30
0.0
 10
14.9616698427
 20
12.5403727312
 30
0.0
 10
14.9708497203
 20
12.5427469853
 30
0.0
 10
14.9800467092
 20
12.5447661298
 30
0.0
 10
14.9892386992
 20
12.5464253097
 30
0.0
 10
14.9984035972
 20
12.5477205212
 30
0.0
 10
15.0075193766
 20
12.5486486249
 30
0.0
 10
15.0165641298
 20
12.5492073551
 30
0.0
 10
15.0255161205
 20
12.5493953534
 30
0.0
 10
15.0343538384
 20
12.5492121365
 30
0.0
 10
15.0430560463
 20
12.5486581002
 30
0.0
 10
15.0516018293
 20
12.5477345124
 30
0.0
 10
15.0599706485
 20
12.5464435457
 30
0.0
 10
15.0681423878
 20
12.5447882429
 30
0.0
 10
15.076097395
 20
12.5427725049
 30
0.0
 10
15.0838165239
 20
12.5404010768
 30
0.0
 10
15.0912811859
 20
12.5376795671
 30
0.0
 10
15.0984733928
 20
12.5346144267
 30
0.0
 10
15.1053757864
 20
12.5312129178
 30
0.0
 10
15.1119716744
 20
12.527483102
 30
0.0
 10
15.1182450756
 20
12.5234338413
 30
0.0
 10
15.1241807704
 20
12.5190747979
 30
0.0
 10
15.1297643185
 20
12.5144163873
 30
0.0
 10
15.1349820966
 20
12.5094697685
 30
0.0
 10
15.1398213371
 20
12.504246827
 30
0.0
 10
15.1442701991
 20
12.4987601782
 30
0.0
 10
15.148317778
 20
12.4930231083
 30
0.0
 10
15.1519541449
 20
12.4870495472
 30
0.0
 10
15.1551703752
 20
12.4808540297
 30
0.0
 10
15.157958621
 20
12.4744516719
 30
0.0
 10
15.1603121119
 20
12.4678581063
 30
0.0
 10
15.1622251643
 20
12.4610894233
 30
0.0
 10
15.1636931895
 20
12.45416214
 30
0.0
 10
15.1647127308
 20
12.4470930886
 30
0.0
 10
15.1652814602
 20
12.4398996205
 30
0.0
 10
15.1653783777
 20
12.4338350511
 30
0.0
 10
15.1652321153
 20
12.4289418297
 30
0.0
 10
15.1649338972
 20
12.4239877751
 30
0.0
 10
15.1642759199
 20
12.4177471259
 30
0.0
 10
15.1632499916
 20
12.4115086565
 30
0.0
 10
15.1622090917
 20
12.4065014733
 30
0.0
 10
15.1610112956
 20
12.4014454524
 30
0.0
 10
15.1599536405
 20
12.3976764573
 30
0.0
 10
15.1591805534
 20
12.3951747466
 30
0.0
  0
SPLINE
  5
357
100
AcDbEntity
  8
LAYER_FEATURE
100
AcDbSpline
 62
7
  6
CONTINUOUS
 70
0
 71
3
 72
46
 73
42
 74
0
 42
0.0000001
 43
0.0000001
 44
0.0000000001
 40
0.0
 40
0.0
 40
0.0
 40
0.0
 40
0.0475517155
 40
0.0938180973
 40
0.138742701
 40
0.1822849036
 40
0.2244077556
 40
0.2650791153
 40
0.3042752232
 40
0.3419802734
 40
0.3781872852
 40
0.4128998122
 40
0.4461327175
 40
0.477914185
 40
0.5082872336
 40
0.5373115075
 40
0.5650656943
 40
0.5916489764
 40
0.6171829974
 40
0.6418127374
 40
0.6538436366
 40
0.6657133507
 40
0.6774461712
 40
0.6890674561
 40
0.7006035532
 40
0.7120815302
 40
0.7235289495
 40
0.7349736692
 40
0.7464435587
 40
0.757966266
 40
0.7695689887
 40
0.7812781861
 40
0.7931194422
 40
0.8051173161
 40
0.8296680189
 40
0.8551078095
 40
0.8815837849
 40
0.9092199076
 40
0.9381174945
 40
0.968356987
 40
1.0
 40
1.0
 40
1.0
 40
1.0
 10
15.9220617533
 20
12.0084090243
 30
0.0
 10
15.9227163033
 20
12.0105271487
 30
0.0
 10
15.9240576393
 20
12.0146909407
 30
0.0
 10
15.9261974381
 20
12.0207959687
 30
0.0
 10
15.9284345947
 20
12.0266664839
 30
0.0
 10
15.930765117
 20
12.0322920857
 30
0.0
 10
15.9331849645
 20
12.0376631739
 30
0.0
 10
15.9356900144
 20
12.0427704174
 30
0.0
 10
15.9382758943
 20
12.0476049764
 30
0.0
 10
15.9409381641
 20
12.0521585098
 30
0.0
 10
15.9436723026
 20
12.056423148
 30
0.0
 10
15.9464736152
 20
12.0603915652
 30
0.0
 10
15.9493374227
 20
12.0640568962
 30
0.0
 10
15.9522589204
 20
12.0674128239
 30
0.0
 10
15.9552332654
 20
12.0704535345
 30
0.0
 10
15.9582556394
 20
12.0731736487
 30
0.0
 10
15.9613210731
 20
12.0755683291
 30
0.0
 10
15.9644247126
 20
12.077633107
 30
0.0
 10
15.9675612552
 20
12.0793638623
 30
0.0
 10
15.9702193073
 20
12.0805340322
 30
0.0
 10
15.9723513
 20
12.0812938625
 30
0.0
 10
15.9739424035
 20
12.0817741489
 30
0.0
 10
15.9755371688
 20
12.0821689641
 30
0.0
 10
15.9771349257
 20
12.0824780874
 30
0.0
 10
15.9787349379
 20
12.082701381
 30
0.0
 10
15.9803364813
 20
12.0828387568
 30
0.0
 10
15.9819388298
 20
12.0828901071
 30
0.0
 10
15.9835412479
 20
12.0828554036
 30
0.0
 10
15.9851430054
 20
12.0827347027
 30
0.0
 10
15.9867433723
 20
12.0825280442
 30
0.0
 10
15.9883416182
 20
12.0822355059
 30
0.0
 10
15.9899370195
 20
12.0818572853
 30
0.0
 10
15.991528898
 20
12.081393545
 30
0.0
 10
15.9936617597
 20
12.0806559498
 30
0.0
 10
15.9963214676
 20
12.0795135983
 30
0.0
 10
15.9994609193
 20
12.0778153434
 30
0.0
 10
16.0025679966
 20
12.0757827465
 30
0.0
 10
16.005637341
 20
12.0734198272
 30
0.0
 10
16.0086641014
 20
12.0707309834
 30
0.0
 10
16.0116432681
 20
12.0677211849
 30
0.0
 10
16.0135504732
 20
12.0655540544
 30
0.0
 10
16.0144958188
 20
12.0644214856
 30
0.0
  0
SPLINE
  5
358
100
AcDbEntity
  8
LAYER_FEATURE
100
AcDbSpline
 62
7
  6
CONTINUOUS
 70
0
 71
3
 72
15
 73
11
 74
0
 42
0.0000001
 43
0.0000001
 44
0.0000000001
 40
0.0
 40
0.0
 40
0.0
 40
0.0
 40
0.1099205567
 40
0.2232552412
 40
0.340539359
 40
0.462235753
 40
0.5887366389
 40
0.7203659048
 40
0.8573857406
 40
1.0
 40
1.0
 40
1.0
 40
1.0
 10
15.9502887173
 20
12.129617231
 30
0.0
 10
15.9514704033
 20
12.1291849364
 30
0.0
 10
15.9538335347
 20
12.1282027153
 30
0.0
 10
15.9573043183
 20
12.1264198203
 30
0.0
 10
15.9607456631
 20
12.1243099561
 30
0.0
 10
15.9641527558
 20
12.1218764915
 30
0.0
 10
15.9675212783
 20
12.1191229142
 30
0.0
 10
15.970846954
 20
12.116053159
 30
0.0
 10
15.9741253723
 20
12.1126715267
 30
0.0
 10
15.9762339576
 20
12.1102611262
 30
0.0
 10
15.9772800758
 20
12.1090078188
 30
0.0
  0
SPLINE
  5
359
100
AcDbEntity
  8
02___PRT_ALL_AXES
100
AcDbSpline
 62
7
  6
CONTINUOUS
 70
0
 71
3
 72
25
 73
21
 74
0
 42
0.0000001
 43
0.0000001
 44
0.0000000001
 40
0.0
 40
0.0
 40
0.0
 40
0.0
 40
0.0565193345
 40
0.1129430647
 40
0.1694701406
 40
0.2263035919
 40
0.2836479971
 40
0.3417066483
 40
0.4006785914
 40
0.4607557656
 40
0.5221203062
 40
0.5533436537
 40
0.5849512781
 40
0.6493855227
 40
0.7155717499
 40
0.7493644879
 40
0.7836390196
 40
0.85367491
 40
0.9257760555
 40
1.0
 40
1.0
 40
1.0
 40
1.0
 10
15.9688287227
 20
12.1320761819
 30
0.0
 10
15.9706236683
 20
12.1320761786
 30
0.0
 10
15.974212195
 20
12.1319343368
 30
0.0
 10
15.9795613265
 20
12.1312921749
 30
0.0
 10
15.9848519033
 20
12.1302212315
 30
0.0
 10
15.9900677968
 20
12.1287222899
 30
0.0
 10
15.9951937124
 20
12.1267968997
 30
0.0
 10
16.0002145477
 20
12.1244473892
 30
0.0
 10
16.0051156675
 20
12.1216767813
 30
0.0
 10
16.0098827921
 20
12.1184891256
 30
0.0
 10
16.0137105792
 20
12.115506248
 30
0.0
 10
16.01669145
 20
12.1129223895
 30
0.0
 10
16.0196534882
 20
12.1101714974
 30
0.0
 10
16.0232487277
 20
12.1064756708
 30
0.0
 10
16.0266439704
 20
12.1025041087
 30
0.0
 10
16.029264108
 20
12.0991398717
 30
0.0
 10
16.0318548852
 20
12.0956002486
 30
0.0
 10
16.0349637604
 20
12.0909354693
 30
0.0
 10
16.0384548192
 20
12.085013639
 30
0.0
 10
16.0406038565
 20
12.0808907444
 30
0.0
 10
16.0416423082
 20
12.0787746023
 30
0.0
  0
SPLINE
  5
35A
100
AcDbEntity
  8
LAYER_FEATURE
100
AcDbSpline
 62
7
  6
CONTINUOUS
 70
0
 71
3
 72
78
 73
74
 74
0
 42
0.0000001
 43
0.0000001
 44
0.0000000001
 40
0.0
 40
0.0
 40
0.0
 40
0.0
 40
0.0176367147
 40
0.0357018449
 40
0.0541702323
 40
0.0730192045
 40
0.0922240316
 40
0.1117584832
 40
0.1315956303
 40
0.1517077217
 40
0.1720661836
 40
0.1926417586
 40
0.2134046583
 40
0.2343245591
 40
0.2553707427
 40
0.2765121701
 40
0.2977175406
 40
0.3189554073
 40
0.3401942266
 40
0.3614024639
 40
0.3825486511
 40
0.403601489
 40
0.4245299162
 40
0.4453031802
 40
0.4658909627
 40
0.4862633973
 40
0.5063912229
 40
0.5262458405
 40
0.5457993736
 40
0.5650248567
 40
0.5838962171
 40
0.6023884687
 40
0.6204778134
 40
0.6381416778
 40
0.6553589967
 40
0.6721102083
 40
0.6883774854
 40
0.7041449614
 40
0.7193987853
 40
0.7341275424
 40
0.7483223849
 40
0.761977357
 40
0.7750898729
 40
0.7876609441
 40
0.7996958435
 40
0.8112045837
 40
0.8222024929
 40
0.8327110721
 40
0.8427585395
 40
0.8523806595
 40
0.8616213312
 40
0.8705328554
 40
0.8748851527
 40
0.8791786188
 40
0.8834220587
 40
0.8876246724
 40
0.8917959881
 40
0.8959458189
 40
0.9000841674
 40
0.9042211338
 40
0.9083668372
 40
0.9125313109
 40
0.9167244235
 40
0.9209558048
 40
0.9252347409
 40
0.9295701347
 40
0.9384413141
 40
0.9476338086
 40
0.9572011467
 40
0.967188331
 40
0.9776321808
 40
0.9885619766
 40
1.0
 40
1.0
 40
1.0
 40
1.0
 10
15.9220617533
 20
12.0084090243
 30
0.0
 10
15.9213888944
 20
12.006231652
 30
0.0
 10
15.9200808487
 20
12.0018071523
 30
0.0
 10
15.9182513483
 20
11.9950501652
 30
0.0
 10
15.9165334023
 20
11.9881024788
 30
0.0
 10
15.9149300519
 20
11.980976473
 30
0.0
 10
15.9134440337
 20
11.9736844637
 30
0.0
 10
15.9120780093
 20
11.9662391937
 30
0.0
 10
15.9108343441
 20
11.9586537071
 30
0.0
 10
15.9097152194
 20
11.9509412598
 30
0.0
 10
15.9087226194
 20
11.9431153343
 30
0.0
 10
15.9078582509
 20
11.9351896232
 30
0.0
 10
15.9071236608
 20
11.9271779879
 30
0.0
 10
15.9065201227
 20
11.9190944434
 30
0.0
 10
15.9060486857
 20
11.9109531319
 30
0.0
 10
15.9057102059
 20
11.9027682955
 30
0.0
 10
15.9055052426
 20
11.8945542547
 30
0.0
 10
15.9054341779
 20
11.8863253807
 30
0.0
 10
15.9054971356
 20
11.8780960705
 30
0.0
 10
15.9056939839
 20
11.8698807224
 30
0.0
 10
15.9060244116
 20
11.8616937103
 30
0.0
 10
15.9064878093
 20
11.853549357
 30
0.0
 10
15.9070833748
 20
11.8454619116
 30
0.0
 10
15.9078100772
 20
11.8374455228
 30
0.0
 10
15.9086666112
 20
11.8295142123
 30
0.0
 10
15.9096515088
 20
11.8216818557
 30
0.0
 10
15.910763022
 20
11.8139621498
 30
0.0
 10
15.9119991984
 20
11.806368595
 30
0.0
 10
15.9133578976
 20
11.7989144718
 30
0.0
 10
15.9148367009
 20
11.7916128075
 30
0.0
 10
15.9164330458
 20
11.7844763683
 30
0.0
 10
15.9181441274
 20
11.7775176234
 30
0.0
 10
15.9199669298
 20
11.7707487257
 30
0.0
 10
15.9218982993
 20
11.7641815026
 30
0.0
 10
15.923934818
 20
11.7578274084
 30
0.0
 10
15.9260729445
 20
11.7516975312
 30
0.0
 10
15.928308953
 20
11.7458025599
 30
0.0
 10
15.930638909
 20
11.7401527525
 30
0.0
 10
15.933058799
 20
11.7347579548
 30
0.0
 10
15.935564386
 20
11.7296275333
 30
0.0
 10
15.9381513337
 20
11.7247703946
 30
0.0
 10
15.9408152055
 20
11.7201949738
 30
0.0
 10
15.9435513816
 20
11.7159091704
 30
0.0
 10
15.9463552366
 20
11.7119204211
 30
0.0
 10
15.9492220042
 20
11.7082356167
 30
0.0
 10
15.9521468621
 20
11.7048611297
 30
0.0
 10
15.9551249974
 20
11.7018028759
 30
0.0
 10
15.9581514763
 20
11.6990662003
 30
0.0
 10
15.9612213864
 20
11.6966560614
 30
0.0
 10
15.9643298123
 20
11.6945769396
 30
0.0
 10
15.9674714069
 20
11.6928329424
 30
0.0
 10
15.9701341117
 20
11.6916526568
 30
0.0
 10
15.9722699268
 20
11.6908853274
 30
0.0
 10
15.973863851
 20
11.6903998365
 30
0.0
 10
15.9754614884
 20
11.6900001489
 30
0.0
 10
15.9770621534
 20
11.6896864237
 30
0.0
 10
15.9786651208
 20
11.6894588632
 30
0.0
 10
15.9802696596
 20
11.6893175788
 30
0.0
 10
15.9818750333
 20
11.689262608
 30
0.0
 10
15.9834805092
 20
11.6892940053
 30
0.0
 10
15.9850853472
 20
11.6894117764
 30
0.0
 10
15.9866888145
 20
11.6896158153
 30
0.0
 10
15.9882901848
 20
11.689906029
 30
0.0
 10
15.9898887143
 20
11.6902823038
 30
0.0
 10
15.9914837256
 20
11.6907444295
 30
0.0
 10
15.9936208074
 20
11.6914802337
 30
0.0
 10
15.9962858083
 20
11.6926213001
 30
0.0
 10
15.999431572
 20
11.6943192611
 30
0.0
 10
16.0025448421
 20
11.6963529343
 30
0.0
 10
16.0056202814
 20
11.6987181848
 30
0.0
 10
16.0086530136
 20
11.701410608
 30
0.0
 10
16.0116379382
 20
11.7044252608
 30
0.0
 10
16.0135487299
 20
11.7065962057
 30
0.0
 10
16.0144958197
 20
11.7077308744
 30
0.0
  0
SPLINE
  5
35B
100
AcDbEntity
  8
LAYER_FEATURE
100
AcDbSpline
 62
7
  6
CONTINUOUS
 70
0
 71
3
 72
28
 73
24
 74
0
 42
0.0000001
 43
0.0000001
 44
0.0000000001
 40
0.0
 40
0.0
 40
0.0
 40
0.0
 40
0.0696894171
 40
0.1381380473
 40
0.2053812452
 40
0.2714663202
 40
0.3364452313
 40
0.4003773948
 40
0.4633294358
 40
0.5253748187
 40
0.5865938857
 40
0.6470734889
 40
0.7069065559
 40
0.7366137012
 40
0.7661965788
 40
0.7956682558
 40
0.8250420417
 40
0.8543314943
 40
0.8835503566
 40
0.9127125388
 40
0.9418320957
 40
0.9709231754
 40
1.0
 40
1.0
 40
1.0
 40
1.0
 10
16.2074515241
 20
12.2576668853
 30
0.0
 10
16.2103782138
 20
12.2517029188
 30
0.0
 10
16.2159637516
 20
12.2397736914
 30
0.0
 10
16.2235829371
 20
12.2217332648
 30
0.0
 10
16.2303594654
 20
12.2037257894
 30
0.0
 10
16.2362865861
 20
12.1857689215
 30
0.0
 10
16.241358519
 20
12.1678795613
 30
0.0
 10
16.2455702386
 20
12.1500748528
 30
0.0
 10
16.248917537
 20
12.1323718082
 30
0.0
 10
16.2513969811
 20
12.1147873992
 30
0.0
 10
16.2530060045
 20
12.0973384283
 30
0.0
 10
16.2537428996
 20
12.0800419994
 30
0.0
 10
16.2536290875
 20
12.0657345115
 30
0.0
 10
16.2530989014
 20
12.0543900394
 30
0.0
 10
16.2524842977
 20
12.0459498826
 30
0.0
 10
16.2516519522
 20
12.0375603879
 30
0.0
 10
16.2506020122
 20
12.0292235063
 30
0.0
 10
16.2493347725
 20
12.0209412541
 30
0.0
 10
16.2478505263
 20
12.0127156138
 30
0.0
 10
16.2461495922
 20
12.0045485764
 30
0.0
 10
16.2442324232
 20
11.9964420728
 30
0.0
 10
16.2420994717
 20
11.9883981331
 30
0.0
 10
16.2405337952
 20
11.9830778837
 30
0.0
 10
16.2397154155
 20
11.980429606
 30
0.0
  0
SPLINE
  5
35C
100
AcDbEntity
  8
LAYER_FEATURE
100
AcDbSpline
 62
7
  6
CONTINUOUS
 70
0
 71
3
 72
80
 73
76
 74
0
 42
0.0000001
 43
0.0000001
 44
0.0000000001
 40
0.0
 40
0.0
 40
0.0
 40
0.0
 40
0.017178625
 40
0.0345301896
 40
0.0520439856
 40
0.0697095611
 40
0.0875157513
 40
0.105451206
 40
0.1235042502
 40
0.1416629551
 40
0.159915164
 40
0.1782485184
 40
0.1966504877
 40
0.2151083967
 40
0.2336094524
 40
0.2521407721
 40
0.2706894106
 40
0.2892423869
 40
0.3077867108
 40
0.3263094099
 40
0.3447975567
 40
0.3632382956
 40
0.3816188701
 40
0.3999266497
 40
0.4181491573
 40
0.4362740982
 40
0.4542893881
 40
0.4721831821
 40
0.4899439035
 40
0.5075602738
 40
0.5250213437
 40
0.5423165259
 40
0.5594356272
 40
0.5763688815
 40
0.5931069843
 40
0.6096411291
 40
0.6259630453
 40
0.6420650388
 40
0.6579400309
 40
0.673581601
 40
0.6889840307
 40
0.7041423508
 40
0.7190523912
 40
0.7337108317
 40
0.7481152531
 40
0.7622641923
 40
0.7761571984
 40
0.7897948916
 40
0.8031790229
 40
0.8163125314
 40
0.8291996012
 40
0.8418457167
 40
0.8542577138
 40
0.8603787793
 40
0.8664445248
 40
0.8784144197
 40
0.8901792221
 40
0.8959889949
 40
0.9017523402
 40
0.9131461931
 40
0.9243770779
 40
0.9299370835
 40
0.935462781
 40
0.9409564793
 40
0.9464205592
 40
0.9518574755
 40
0.9572697442
 40
0.9626599452
 40
0.9680307112
 40
0.9733847242
 40
0.9787247102
 40
0.9840534294
 40
0.9893736733
 40
0.9946882542
 40
1.0
 40
1.0
 40
1.0
 40
1.0
 10
15.1567229552
 20
13.9366174728
 30
0.0
 10
15.1708433509
 20
13.9366174728
 30
0.0
 10
15.1992272005
 20
13.9363067718
 30
0.0
 10
15.2419867755
 20
13.9349262448
 30
0.0
 10
15.2851079299
 20
13.932630183
 30
0.0
 10
15.328545342
 20
13.9294210628
 30
0.0
 10
15.3722540309
 20
13.9253021694
 30
0.0
 10
15.4161884247
 20
13.9202778144
 30
0.0
 10
15.4603028214
 20
13.9143532179
 30
0.0
 10
15.5045513003
 20
13.9075345545
 30
0.0
 10
15.5488878052
 20
13.8998289239
 30
0.0
 10
15.5932661869
 20
13.8912443466
 30
0.0
 10
15.6376402508
 20
13.8817897569
 30
0.0
 10
15.6819638048
 20
13.8714749917
 30
0.0
 10
15.7261907097
 20
13.860310791
 30
0.0
 10
15.7702749268
 20
13.8483087802
 30
0.0
 10
15.8141705653
 20
13.8354814538
 30
0.0
 10
15.8578319299
 20
13.8218421642
 30
0.0
 10
15.9012135685
 20
13.807405107
 30
0.0
 10
15.9442703195
 20
13.7921853077
 30
0.0
 10
15.986957363
 20
13.7761986149
 30
0.0
 10
16.0292302636
 20
13.7594616721
 30
0.0
 10
16.0710450174
 20
13.7419919021
 30
0.0
 10
16.1123580971
 20
13.7238074885
 30
0.0
 10
16.1531264965
 20
13.7049273554
 30
0.0
 10
16.19330778
 20
13.6853711551
 30
0.0
 10
16.2328601268
 20
13.6651592459
 30
0.0
 10
16.2717423708
 20
13.6443126645
 30
0.0
 10
16.3099140438
 20
13.6228531054
 30
0.0
 10
16.3473354168
 20
13.6008028982
 30
0.0
 10
16.3839675423
 20
13.5781849825
 30
0.0
 10
16.419772301
 20
13.5550228942
 30
0.0
 10
16.4547124366
 20
13.5313407309
 30
0.0
 10
16.4887515932
 20
13.5071631263
 30
0.0
 10
16.5218543518
 20
13.482515225
 30
0.0
 10
16.5539862668
 20
13.4574226542
 30
0.0
 10
16.5851139056
 20
13.4319114999
 30
0.0
 10
16.6152048873
 20
13.4060082831
 30
0.0
 10
16.644227908
 20
13.3797399233
 30
0.0
 10
16.6721527728
 20
13.3531337112
 30
0.0
 10
16.6989504256
 20
13.3262172807
 30
0.0
 10
16.7245929776
 20
13.2990185764
 30
0.0
 10
16.7490537444
 20
13.2715658324
 30
0.0
 10
16.7723072687
 20
13.2438875369
 30
0.0
 10
16.7943293387
 20
13.2160124
 30
0.0
 10
16.815097011
 20
13.1879693251
 30
0.0
 10
16.8345886316
 20
13.159787378
 30
0.0
 10
16.8527838551
 20
13.1314957603
 30
0.0
 10
16.8696636794
 20
13.1031237748
 30
0.0
 10
16.8852104321
 20
13.0747008324
 30
0.0
 10
16.899407844
 20
13.0462562703
 30
0.0
 10
16.9122408459
 20
13.0178198951
 30
0.0
 10
16.9218308857
 20
12.9940447013
 30
0.0
 10
16.9287971694
 20
12.9750616094
 30
0.0
 10
16.9352374788
 20
12.9562774863
 30
0.0
 10
16.9424257839
 20
12.9328519082
 30
0.0
 10
16.9484962512
 20
12.9093285725
 30
0.0
 10
16.9526334027
 20
12.8905951869
 30
0.0
 10
16.9562658463
 20
12.8720681162
 30
0.0
 10
16.9599284988
 20
12.8490131342
 30
0.0
 10
16.9624222072
 20
12.8259699501
 30
0.0
 10
16.9636930283
 20
12.8076686291
 30
0.0
 10
16.9642849188
 20
12.7940520373
 30
0.0
 10
16.9645185255
 20
12.7805034984
 30
0.0
 10
16.9643937361
 20
12.7670264536
 30
0.0
 10
16.9639106446
 20
12.7536244495
 30
0.0
 10
16.9630692948
 20
12.7403009823
 30
0.0
 10
16.9618699471
 20
12.727059536
 30
0.0
 10
16.9603128969
 20
12.7139035714
 30
0.0
 10
16.9583985115
 20
12.7008365357
 30
0.0
 10
16.9561273496
 20
12.6878618353
 30
0.0
 10
16.9534999244
 20
12.6749828881
 30
0.0
 10
16.9505169759
 20
12.6622030172
 30
0.0
 10
16.947179287
 20
12.6495257046
 30
0.0
 10
16.944717924
 20
12.6411436795
 30
0.0
 10
16.9434288402
 20
12.6369721961
 30
0.0
  0
SPLINE
  5
35D
100
AcDbEntity
  8
LAYER_CHAMFER_FEAT
100
AcDbSpline
 62
7
  6
CONTINUOUS
 70
0
 71
3
 72
69
 73
65
 74
0
 42
0.0000001
 43
0.0000001
 44
0.0000000001
 40
0.0
 40
0.0
 40
0.0
 40
0.0
 40
0.0180026588
 40
0.0357336106
 40
0.053190388
 40
0.0703714015
 40
0.087275871
 40
0.1039039754
 40
0.1202568009
 40
0.136336474
 40
0.15214613
 40
0.1676900227
 40
0.1979982034
 40
0.2127817304
 40
0.2273281317
 40
0.2416476473
 40
0.2557517824
 40
0.2696533208
 40
0.2833662901
 40
0.2969059626
 40
0.3102887737
 40
0.3235322955
 40
0.3366551102
 40
0.3496767454
 40
0.3626175085
 40
0.3754983784
 40
0.3883408149
 40
0.4011666087
 40
0.4139976862
 40
0.4268559288
 40
0.4397629954
 40
0.452740127
 40
0.4658080087
 40
0.4789865764
 40
0.4922949317
 40
0.5057511658
 40
0.5193723306
 40
0.5331742893
 40
0.5471717387
 40
0.5613780907
 40
0.5758055327
 40
0.5904649416
 40
0.6053659675
 40
0.6359203227
 40
0.6515916189
 40
0.6675308697
 40
0.6837417785
 40
0.7002269925
 40
0.7169881308
 40
0.7340258349
 40
0.7513398213
 40
0.7689289064
 40
0.7867910819
 40
0.8049235189
 40
0.8233226603
 40
0.8419841853
 40
0.8609031307
 40
0.880073897
 40
0.8994903202
 40
0.9191454355
 40
0.9390318349
 40
0.9591422522
 40
0.9794686888
 40
1.0
 40
1.0
 40
1.0
 40
1.0
 10
15.460103172
 20
11.5924905629
 30
0.0
 10
15.4623545249
 20
11.5900268316
 30
0.0
 10
15.4667622551
 20
11.5850803627
 30
0.0
 10
15.4731296394
 20
11.5775495679
 30
0.0
 10
15.4791977721
 20
11.5699696352
 30
0.0
 10
15.4849615954
 20
11.5623469832
 30
0.0
 10
15.4904162515
 20
11.5546878797
 30
0.0
 10
15.4955572365
 20
11.5469987461
 30
0.0
 10
15.5003802053
 20
11.5392859107
 30
0.0
 10
15.5048811447
 20
11.5315558805
 30
0.0
 10
15.5090563397
 20
11.5238148183
 30
0.0
 10
15.5141408579
 20
11.513574917
 30
0.0
 10
15.5186153379
 20
11.503249997
 30
0.0
 10
15.5224327555
 20
11.4928715605
 30
0.0
 10
15.5249317689
 20
11.4851728066
 30
0.0
 10
15.5270879909
 20
11.4775018795
 30
0.0
 10
15.5288996174
 20
11.4698650187
 30
0.0
 10
15.5303650774
 20
11.4622686365
 30
0.0
 10
15.5314830582
 20
11.4547190616
 30
0.0
 10
15.5322525977
 20
11.4472226205
 30
0.0
 10
15.5326729355
 20
11.439785591
 30
0.0
 10
15.5327437173
 20
11.4324142262
 30
0.0
 10
15.5324647516
 20
11.4251147304
 30
0.0
 10
15.5318363021
 20
11.41789326
 30
0.0
 10
15.5308587614
 20
11.4107559258
 30
0.0
 10
15.5295330184
 20
11.403708757
 30
0.0
 10
15.5278600622
 20
11.396757745
 30
0.0
 10
15.5258414072
 20
11.3899087563
 30
0.0
 10
15.5234786452
 20
11.383167631
 30
0.0
 10
15.5207739055
 20
11.3765400371
 30
0.0
 10
15.5177293804
 20
11.3700316299
 30
0.0
 10
15.5143477932
 20
11.3636478474
 30
0.0
 10
15.5106319256
 20
11.3573941281
 30
0.0
 10
15.5065850673
 20
11.3512756575
 30
0.0
 10
15.5022105723
 20
11.3452976318
 30
0.0
 10
15.4975122673
 20
11.3394649703
 30
0.0
 10
15.4924940596
 20
11.3337826076
 30
0.0
 10
15.487160286
 20
11.3282551908
 30
0.0
 10
15.4815153895
 20
11.3228873793
 30
0.0
 10
15.4755641882
 20
11.3176835411
 30
0.0
 10
15.4693116721
 20
11.3126480674
 30
0.0
 10
15.4627630103
 20
11.3077849722
 30
0.0
 10
15.4535681319
 20
11.3014841803
 30
0.0
 10
15.443869036
 20
11.2956017285
 30
0.0
 10
15.4337215246
 20
11.2901357715
 30
0.0
 10
15.4257795066
 20
11.2861922811
 30
0.0
 10
15.4175779874
 20
11.2824431885
 30
0.0
 10
15.4091235926
 20
11.278891475
 30
0.0
 10
15.4004234266
 20
11.2755401106
 30
0.0
 10
15.391484727
 20
11.2723918467
 30
0.0
 10
15.3823149409
 20
11.269449309
 30
0.0
 10
15.3729217138
 20
11.2667149051
 30
0.0
 10
15.3633128639
 20
11.2641909339
 30
0.0
 10
15.3534964037
 20
11.2618794444
 30
0.0
 10
15.3434805037
 20
11.2597824024
 30
0.0
 10
15.3332735201
 20
11.2579014903
 30
0.0
 10
15.3228839473
 20
11.2562383272
 30
0.0
 10
15.3123204373
 20
11.2547942291
 30
0.0
 10
15.301591802
 20
11.2535704719
 30
0.0
 10
15.2907070274
 20
11.2525679871
 30
0.0
 10
15.2796751232
 20
11.2517876714
 30
0.0
 10
15.2685051241
 20
11.2512301207
 30
0.0
 10
15.2572066724
 20
11.2508958894
 30
0.0
 10
15.2496319807
 20
11.2508223949
 30
0.0
 10
15.2458257545
 20
11.2508223949
 30
0.0
  0
SPLINE
  5
35E
100
AcDbEntity
  8
LAYER_FEATURE
100
AcDbSpline
 62
7
  6
CONTINUOUS
 70
0
 71
3
 72
50
 73
46
 74
0
 42
0.0000001
 43
0.0000001
 44
0.0000000001
 40
0.0
 40
0.0
 40
0.0
 40
0.0
 40
0.0396641793
 40
0.0788606661
 40
0.1175661307
 40
0.1557597858
 40
0.1934216622
 40
0.2305336657
 40
0.2670793388
 40
0.3030440904
 40
0.3384152998
 40
0.3731824522
 40
0.4073372782
 40
0.4408738985
 40
0.4737889752
 40
0.5060818677
 40
0.5377547925
 40
0.5688129867
 40
0.5992648666
 40
0.6291221833
 40
0.6584001714
 40
0.6728285106
 40
0.6871194029
 40
0.7152990215
 40
0.7429671481
 40
0.7566197094
 40
0.7701560775
 40
0.7835806402
 40
0.7968980187
 40
0.8101130807
 40
0.8232309096
 40
0.8362568292
 40
0.8491963692
 40
0.8620552768
 40
0.874839498
 40
0.8875551653
 40
0.9002085963
 40
0.9128062638
 40
0.9253547993
 40
0.9378609614
 40
0.9503316297
 40
0.9627737816
 40
0.9751944743
 40
0.9876008274
 40
1.0
 40
1.0
 40
1.0
 40
1.0
 10
14.8974699228
 20
13.0976743526
 30
0.0
 10
14.8829214403
 20
13.0976743526
 30
0.0
 10
14.853994868
 20
13.0973481243
 30
0.0
 10
14.8108944712
 20
13.0958612018
 30
0.0
 10
14.7683797051
 20
13.0933810986
 30
0.0
 10
14.7264989781
 20
13.0899106708
 30
0.0
 10
14.6852993471
 20
13.0854537582
 30
0.0
 10
14.6448273671
 20
13.080015389
 30
0.0
 10
14.60512867
 20
13.0736016494
 30
0.0
 10
14.5662480402
 20
13.0662197328
 30
0.0
 10
14.5282293253
 20
13.0578779146
 30
0.0
 10
14.4911153979
 20
13.0485855405
 30
0.0
 10
14.4549481083
 20
13.0383530131
 30
0.0
 10
14.4197682396
 20
13.0271917781
 30
0.0
 10
14.3856154639
 20
13.0151143089
 30
0.0
 10
14.3525283041
 20
13.0021340928
 30
0.0
 10
14.3205440817
 20
12.9882656061
 30
0.0
 10
14.2896989196
 20
12.9735243318
 30
0.0
 10
14.2600275563
 20
12.9579266322
 30
0.0
 10
14.2315638734
 20
12.9414901022
 30
0.0
 10
14.2087669644
 20
12.9270391898
 30
0.0
 10
14.1911764758
 20
12.9150736703
 30
0.0
 10
14.1741801817
 20
12.9029598944
 30
0.0
 10
14.1537318838
 20
12.8873334694
 30
0.0
 10
14.1342075943
 20
12.8709270525
 30
0.0
 10
14.119279964
 20
12.8574329008
 30
0.0
 10
14.1084753136
 20
12.8471753555
 30
0.0
 10
14.0980158099
 20
12.8367394858
 30
0.0
 10
14.0879043842
 20
12.8261281426
 30
0.0
 10
14.0781438757
 20
12.8153443836
 30
0.0
 10
14.068737112
 20
12.8043911904
 30
0.0
 10
14.0596867115
 20
12.7932717077
 30
0.0
 10
14.0509952887
 20
12.7819890383
 30
0.0
 10
14.0426652999
 20
12.7705463859
 30
0.0
 10
14.034699104
 20
12.758946992
 30
0.0
 10
14.0270990108
 20
12.7471941102
 30
0.0
 10
14.019867123
 20
12.7352911071
 30
0.0
 10
14.0130055746
 20
12.7232413076
 30
0.0
 10
14.0065162534
 20
12.711048166
 30
0.0
 10
14.000401058
 20
12.6987151111
 30
0.0
 10
13.9946617119
 20
12.6862456491
 30
0.0
 10
13.9892998389
 20
12.6736433336
 30
0.0
 10
13.9843170026
 20
12.6609116829
 30
0.0
 10
13.9797145963
 20
12.6480544867
 30
0.0
 10
13.9769004865
 20
12.6394005385
 30
0.0
 10
13.9755577297
 20
12.6350553693
 30
0.0
  0
SPLINE
  5
35F
100
AcDbEntity
  8
LAYER_FEATURE
100
AcDbSpline
 62
7
  6
CONTINUOUS
 70
0
 71
3
 72
50
 73
46
 74
0
 42
0.0000001
 43
0.0000001
 44
0.0000000001
 40
0.0
 40
0.0
 40
0.0
 40
0.0
 40
0.0396641793
 40
0.0788606661
 40
0.1175661307
 40
0.1557597858
 40
0.1934216622
 40
0.2305336657
 40
0.2670793388
 40
0.3030440904
 40
0.3384152998
 40
0.3731824522
 40
0.4073372782
 40
0.4408738985
 40
0.4737889752
 40
0.5060818677
 40
0.5377547925
 40
0.5688129867
 40
0.5992648666
 40
0.6291221833
 40
0.6584001714
 40
0.6728285106
 40
0.6871194029
 40
0.7152990215
 40
0.7429671481
 40
0.7566197094
 40
0.7701560775
 40
0.7835806402
 40
0.7968980187
 40
0.8101130807
 40
0.8232309096
 40
0.8362568292
 40
0.8491963692
 40
0.8620552768
 40
0.874839498
 40
0.8875551653
 40
0.9002085963
 40
0.9128062638
 40
0.9253547993
 40
0.9378609614
 40
0.9503316297
 40
0.9627737816
 40
0.9751944743
 40
0.9876008274
 40
1.0
 40
1.0
 40
1.0
 40
1.0
 10
15.1567229552
 20
13.9366174728
 30
0.0
 10
15.1421744727
 20
13.9366174728
 30
0.0
 10
15.1132479003
 20
13.9362912446
 30
0.0
 10
15.0701475036
 20
13.934804322
 30
0.0
 10
15.0276327375
 20
13.9323242188
 30
0.0
 10
14.9857520105
 20
13.928853791
 30
0.0
 10
14.9445523795
 20
13.9243968784
 30
0.0
 10
14.9040803995
 20
13.9189585092
 30
0.0
 10
14.8643817024
 20
13.9125447696
 30
0.0
 10
14.8255010726
 20
13.905162853
 30
0.0
 10
14.7874823576
 20
13.8968210348
 30
0.0
 10
14.7503684303
 20
13.8875286607
 30
0.0
 10
14.7142011407
 20
13.8772961333
 30
0.0
 10
14.679021272
 20
13.8661348983
 30
0.0
 10
14.6448684963
 20
13.8540574291
 30
0.0
 10
14.6117813364
 20
13.841077213
 30
0.0
 10
14.579797114
 20
13.8272087263
 30
0.0
 10
14.548951952
 20
13.8124674521
 30
0.0
 10
14.5192805887
 20
13.7968697524
 30
0.0
 10
14.4908169058
 20
13.7804332224
 30
0.0
 10
14.4680199968
 20
13.76598231
 30
0.0
 10
14.4504295082
 20
13.7540167905
 30
0.0
 10
14.4334332141
 20
13.7419030146
 30
0.0
 10
14.4129849162
 20
13.7262765896
 30
0.0
 10
14.3934606266
 20
13.7098701727
 30
0.0
 10
14.3785329963
 20
13.696376021
 30
0.0
 10
14.367728346
 20
13.6861184757
 30
0.0
 10
14.3572688422
 20
13.675682606
 30
0.0
 10
14.3471574166
 20
13.6650712628
 30
0.0
 10
14.3373969081
 20
13.6542875038
 30
0.0
 10
14.3279901444
 20
13.6433343106
 30
0.0
 10
14.3189397438
 20
13.6322148279
 30
0.0
 10
14.310248321
 20
13.6209321586
 30
0.0
 10
14.3019183322
 20
13.6094895061
 30
0.0
 10
14.2939521364
 20
13.5978901123
 30
0.0
 10
14.2863520432
 20
13.5861372304
 30
0.0
 10
14.2791201554
 20
13.5742342273
 30
0.0
 10
14.272258607
 20
13.5621844278
 30
0.0
 10
14.2657692857
 20
13.5499912862
 30
0.0
 10
14.2596540903
 20
13.5376582313
 30
0.0
 10
14.2539147442
 20
13.5251887693
 30
0.0
 10
14.2485528713
 20
13.5125864539
 30
0.0
 10
14.243570035
 20
13.4998548031
 30
0.0
 10
14.2389676286
 20
13.4869976069
 30
0.0
 10
14.2361535189
 20
13.4783436587
 30
0.0
 10
14.2348107621
 20
13.4739984895
 30
0.0
  0
SPLINE
  5
360
100
AcDbEntity
  8
LAYER_FEATURE
100
AcDbSpline
 62
7
  6
CONTINUOUS
 70
0
 71
3
 72
48
 73
44
 74
0
 42
0.0000001
 43
0.0000001
 44
0.0000000001
 40
0.0
 40
0.0
 40
0.0
 40
0.0
 40
0.0307441619
 40
0.0618835188
 40
0.0933862551
 40
0.1252189465
 40
0.157346988
 40
0.1897346205
 40
0.2223451324
 40
0.2551409926
 40
0.2880840018
 40
0.3211354343
 40
0.3542561796
 40
0.3874068828
 40
0.4205480835
 40
0.453640355
 40
0.4866444424
 40
0.5195214032
 40
0.5522327472
 40
0.5847405789
 40
0.6170077427
 40
0.6489979697
 40
0.6806760287
 40
0.7120078818
 40
0.7275340744
 40
0.7429615837
 40
0.7582865571
 40
0.7735052601
 40
0.7886140576
 40
0.8036094426
 40
0.8184880211
 40
0.8332465367
 40
0.8478818606
 40
0.8623910115
 40
0.8767711517
 40
0.8910196004
 40
0.9051338382
 40
0.9191115121
 40
0.9329504494
 40
0.9466486543
 40
0.9602043307
 40
0.973615871
 40
1.0
 40
1.0
 40
1.0
 40
1.0
 10
14.9582224988
 20
13.0408954454
 30
0.0
 10
14.9746146552
 20
13.0408954454
 30
0.0
 10
15.0076114319
 20
13.0404238216
 30
0.0
 10
15.0573651475
 20
13.0383363342
 30
0.0
 10
15.1076236778
 20
13.0348677669
 30
0.0
 10
15.1582976548
 20
13.0300242465
 30
0.0
 10
15.2092975885
 20
13.0238143578
 30
0.0
 10
15.2605332535
 20
13.0162490813
 30
0.0
 10
15.3119140363
 20
13.0073418034
 30
0.0
 10
15.3633490507
 20
12.9971082797
 30
0.0
 10
15.4147473115
 20
12.9855666138
 30
0.0
 10
15.4660178942
 20
12.9727372229
 30
0.0
 10
15.517070097
 20
12.9586428032
 30
0.0
 10
15.5678136028
 20
12.9433082891
 30
0.0
 10
15.6181586398
 20
12.9267608094
 30
0.0
 10
15.6680161416
 20
12.9090296387
 30
0.0
 10
15.7172979052
 20
12.8901461453
 30
0.0
 10
15.765916749
 20
12.8701437349
 30
0.0
 10
15.8137866654
 20
12.8490577921
 30
0.0
 10
15.8608229819
 20
12.8269256124
 30
0.0
 10
15.9069424833
 20
12.8037863505
 30
0.0
 10
15.9520636617
 20
12.7796808941
 30
0.0
 10
15.9961064884
 20
12.7546519944
 30
0.0
 10
16.0319526895
 20
12.7329970901
 30
0.0
 10
16.0600201249
 20
12.7152449135
 30
0.0
 10
16.0806903552
 20
12.7017678855
 30
0.0
 10
16.1010337703
 20
12.6880942365
 30
0.0
 10
16.1210414397
 20
12.6742300351
 30
0.0
 10
16.1407044658
 20
12.6601813775
 30
0.0
 10
16.1600141765
 20
12.645954523
 30
0.0
 10
16.1789619981
 20
12.6315557281
 30
0.0
 10
16.197539567
 20
12.6169913984
 30
0.0
 10
16.2157386411
 20
12.6022679501
 30
0.0
 10
16.2335511806
 20
12.5873919192
 30
0.0
 10
16.2509692908
 20
12.5723698724
 30
0.0
 10
16.2679852678
 20
12.5572084631
 30
0.0
 10
16.2845915806
 20
12.5419143971
 30
0.0
 10
16.3007808707
 20
12.5264944354
 30
0.0
 10
16.3165459945
 20
12.5109554012
 30
0.0
 10
16.331879918
 20
12.495304187
 30
0.0
 10
16.3467760174
 20
12.4795475904
 30
0.0
 10
16.3659389737
 20
12.4585237161
 30
0.0
 10
16.3797963256
 20
12.4424466015
 30
0.0
 10
16.3887694496
 20
12.4316125379
 30
0.0
  0
SPLINE
  5
361
100
AcDbEntity
  8
LAYER_FEATURE
100
AcDbSpline
 62
7
  6
CONTINUOUS
 70
0
 71
3
 72
70
 73
66
 74
0
 42
0.0000001
 43
0.0000001
 44
0.0000000001
 40
0.0
 40
0.0
 40
0.0
 40
0.0
 40
0.0182618485
 40
0.0362779223
 40
0.0540474229
 40
0.0715701252
 40
0.0888464064
 40
0.1058772892
 40
0.1226644368
 40
0.1392102067
 40
0.1555176625
 40
0.1715905889
 40
0.2030480035
 40
0.2184477542
 40
0.2336358911
 40
0.2486201521
 40
0.2634091174
 40
0.2780121897
 40
0.2924395969
 40
0.30670239
 40
0.3208124047
 40
0.3347822526
 40
0.3486252736
 40
0.3623554868
 40
0.3759875457
 40
0.3895366579
 40
0.4030185189
 40
0.4164492263
 40
0.4298451846
 40
0.4432230139
 40
0.4565994454
 40
0.4699912187
 40
0.4834149782
 40
0.4968871741
 40
0.5104239594
 40
0.5240411023
 40
0.5377539014
 40
0.5515771011
 40
0.5655248363
 40
0.5796105623
 40
0.5938470104
 40
0.6082461574
 40
0.6228191772
 40
0.637576441
 40
0.6525274923
 40
0.6676810389
 40
0.6830449715
 40
0.6986263446
 40
0.7144314087
 40
0.7304656208
 40
0.7467336474
 40
0.763239413
 40
0.7799860949
 40
0.7969761613
 40
0.8142114031
 40
0.8316929331
 40
0.8494212434
 40
0.867396209
 40
0.8856171145
 40
0.9040826982
 40
0.9227911452
 40
0.9417401389
 40
0.9609268736
 40
0.9803480651
 40
1.0
 40
1.0
 40
1.0
 40
1.0
 10
16.3887694496
 20
12.4316125379
 30
0.0
 10
16.3939459817
 20
12.4253624428
 30
0.0
 10
16.4040889217
 20
12.4128291809
 30
0.0
 10
16.4187574824
 20
12.3938077605
 30
0.0
 10
16.4327689699
 20
12.3747028444
 30
0.0
 10
16.4461147089
 20
12.35552619
 30
0.0
 10
16.4587865436
 20
12.3362894259
 30
0.0
 10
16.4707767502
 20
12.3170043127
 30
0.0
 10
16.482077964
 20
12.2976825331
 30
0.0
 10
16.4926832285
 20
12.2783359776
 30
0.0
 10
16.502586232
 20
12.2589760201
 30
0.0
 10
16.5147571532
 20
12.2333472339
 30
0.0
 10
16.5256097896
 20
12.2075495681
 30
0.0
 10
16.5350581963
 20
12.1816423693
 30
0.0
 10
16.5413664203
 20
12.162393796
 30
0.0
 10
16.5469420697
 20
12.1432029746
 30
0.0
 10
16.5517818269
 20
12.1240813437
 30
0.0
 10
16.55588261
 20
12.1050406441
 30
0.0
 10
16.5592418104
 20
12.0860924857
 30
0.0
 10
16.56185734
 20
12.0672484724
 30
0.0
 10
16.5637274515
 20
12.0485201313
 30
0.0
 10
16.5648509458
 20
12.0299189503
 30
0.0
 10
16.5652270582
 20
12.0114563465
 30
0.0
 10
16.5648554263
 20
11.9931436689
 30
0.0
 10
16.5637362692
 20
11.9749921888
 30
0.0
 10
16.5618701592
 20
11.957013093
 30
0.0
 10
16.559258198
 20
11.9392174756
 30
0.0
 10
16.5559019847
 20
11.9216163179
 30
0.0
 10
16.5518034924
 20
11.904220508
 30
0.0
 10
16.5469652925
 20
11.8870407849
 30
0.0
 10
16.5413903385
 20
11.8700877715
 30
0.0
 10
16.5350820644
 20
11.8533719503
 30
0.0
 10
16.5280444376
 20
11.8369036202
 30
0.0
 10
16.520281774
 20
11.820692964
 30
0.0
 10
16.5117989481
 20
11.8047499486
 30
0.0
 10
16.5026012392
 20
11.789084377
 30
0.0
 10
16.4926943363
 20
11.7737058918
 30
0.0
 10
16.4820844534
 20
11.7586238827
 30
0.0
 10
16.4707781351
 20
11.7438476085
 30
0.0
 10
16.4587824101
 20
11.7293860843
 30
0.0
 10
16.4461047227
 20
11.7152481111
 30
0.0
 10
16.4327528676
 20
11.7014423384
 30
0.0
 10
16.4187351279
 20
11.6879771193
 30
0.0
 10
16.4040601153
 20
11.6748606582
 30
0.0
 10
16.3887368546
 20
11.662100923
 30
0.0
 10
16.3727747856
 20
11.649705618
 30
0.0
 10
16.3561836675
 20
11.6376823056
 30
0.0
 10
16.3389736968
 20
11.6260382349
 30
0.0
 10
16.3211554058
 20
11.6147804684
 30
0.0
 10
16.3027396835
 20
11.6039158532
 30
0.0
 10
16.2837378161
 20
11.5934509253
 30
0.0
 10
16.2641613937
 20
11.5833920708
 30
0.0
 10
16.2440223872
 20
11.5737453648
 30
0.0
 10
16.2233330995
 20
11.5645166423
 30
0.0
 10
16.202106146
 20
11.5557115416
 30
0.0
 10
16.1803545022
 20
11.5473353545
 30
0.0
 10
16.1580914319
 20
11.539393196
 30
0.0
 10
16.1353305226
 20
11.5318898859
 30
0.0
 10
16.112085671
 20
11.5248299498
 30
0.0
 10
16.0883710493
 20
11.5182177234
 30
0.0
 10
16.064201136
 20
11.5120571828
 30
0.0
 10
16.0395906843
 20
11.506352087
 30
0.0
 10
16.0145546745
 20
11.5011059191
 30
0.0
 10
15.9891085214
 20
11.4963218435
 30
0.0
 10
15.9719809398
 20
11.4934591527
 30
0.0
 10
15.9633535258
 20
11.4921041542
 30
0.0
  0
SPLINE
  5
362
100
AcDbEntity
  8
LAYER_FEATURE
100
AcDbSpline
 62
7
  6
CONTINUOUS
 70
0
 71
3
 72
86
 73
82
 74
0
 42
0.0000001
 43
0.0000001
 44
0.0000000001
 40
0.0
 40
0.0
 40
0.0
 40
0.0
 40
0.0203496644
 40
0.04048451
 40
0.0603943094
 40
0.0800705085
 40
0.0995045158
 40
0.1186884785
 40
0.1376151698
 40
0.1562780033
 40
0.1746711086
 40
0.1927893675
 40
0.2106284573
 40
0.228184896
 40
0.2454560914
 40
0.2624403995
 40
0.2791371718
 40
0.2955468056
 40
0.3116707994
 40
0.3275118145
 40
0.3430737243
 40
0.3583616635
 40
0.3733820786
 40
0.3807947024
 40
0.3881434902
 40
0.4026536839
 40
0.4169240038
 40
0.4239733351
 40
0.4309673538
 40
0.4447956177
 40
0.4584245993
 40
0.4718706871
 40
0.4851516299
 40
0.4917365744
 40
0.4982874746
 40
0.5048068959
 40
0.5112974657
 40
0.517761878
 40
0.5242028813
 40
0.530623275
 40
0.5370259075
 40
0.5434136641
 40
0.5497894658
 40
0.556156261
 40
0.562517018
 40
0.5688747202
 40
0.5752323571
 40
0.5815929193
 40
0.5879593895
 40
0.5943347378
 40
0.6007219134
 40
0.6071238373
 40
0.6135433993
 40
0.6199834466
 40
0.6264467819
 40
0.6394532281
 40
0.6525851062
 40
0.6658626625
 40
0.679304961
 40
0.6929297831
 40
0.6998162636
 40
0.7067544133
 40
0.720792126
 40
0.7350573525
 40
0.7422795073
 40
0.749562957
 40
0.7643181055
 40
0.7793327812
 40
0.7946148225
 40
0.8101707107
 40
0.826005609
 40
0.8421234129
 40
0.8585268079
 40
0.875217323
 40
0.8921953799
 40
0.9094603471
 40
0.9270106
 40
0.9448435722
 40
0.9629558015
 40
0.9813429784
 40
1.0
 40
1.0
 40
1.0
 40
1.0
 10
14.9582224988
 20
13.0408954454
 30
0.0
 10
14.946562397
 20
13.0408954454
 30
0.0
 10
14.9233645362
 20
13.040659534
 30
0.0
 10
14.8887735732
 20
13.0395856691
 30
0.0
 10
14.854598502
 20
13.03779451
 30
0.0
 10
14.8208710656
 20
13.0352877794
 30
0.0
 10
14.787621948
 20
13.0320676983
 30
0.0
 10
14.7548816972
 20
13.0281372314
 30
0.0
 10
14.7226803018
 20
13.0234999711
 30
0.0
 10
14.6910472679
 20
13.0181601394
 30
0.0
 10
14.6600115861
 20
13.0121225947
 30
0.0
 10
14.6296016878
 20
13.0053928508
 30
0.0
 10
14.5998454298
 20
12.9979770447
 30
0.0
 10
14.5707700734
 20
12.9898819272
 30
0.0
 10
14.5424022596
 20
12.9811148523
 30
0.0
 10
14.5147679732
 20
12.9716838063
 30
0.0
 10
14.4878925282
 20
12.9615973689
 30
0.0
 10
14.4618005543
 20
12.9508647029
 30
0.0
 10
14.4365159696
 20
12.9394955366
 30
0.0
 10
14.4120619695
 20
12.9275002092
 30
0.0
 10
14.3884609226
 20
12.9148895667
 30
0.0
 10
14.3657347152
 20
12.9016751885
 30
0.0
 10
14.3474628247
 20
12.8901195493
 30
0.0
 10
14.3333107297
 20
12.8805826785
 30
0.0
 10
14.3195877671
 20
12.870937974
 30
0.0
 10
14.303008468
 20
12.8585310282
 30
0.0
 10
14.2870884217
 20
12.8455579346
 30
0.0
 10
14.2748470462
 20
12.8349097685
 30
0.0
 10
14.2630269634
 20
12.8241690495
 30
0.0
 10
14.2488572828
 20
12.810415004
 30
0.0
 10
14.2327926777
 20
12.7933384246
 30
0.0
 10
14.2177466172
 20
12.7757685019
 30
0.0
 10
14.2060353209
 20
12.7606858851
 30
0.0
 10
14.1971987755
 20
12.7483949346
 30
0.0
 10
14.1908525743
 20
12.7390895207
 30
0.0
 10
14.1847707246
 20
12.729673586
 30
0.0
 10
14.1789546297
 20
12.720149198
 30
0.0
 10
14.1734056094
 20
12.7105185875
 30
0.0
 10
14.1681249431
 20
12.7007839617
 30
0.0
 10
14.1631138905
 20
12.6909475414
 30
0.0
 10
14.1583735545
 20
12.681011618
 30
0.0
 10
14.153905071
 20
12.6709784577
 30
0.0
 10
14.1497094695
 20
12.660850374
 30
0.0
 10
14.1457876816
 20
12.6506297136
 30
0.0
 10
14.1421406715
 20
12.6403188086
 30
0.0
 10
14.1387692348
 20
12.6299200523
 30
0.0
 10
14.1356741538
 20
12.6194358375
 30
0.0
 10
14.1328561806
 20
12.6088685702
 30
0.0
 10
14.1303159036
 20
12.5982207019
 30
0.0
 10
14.128053953
 20
12.5874946739
 30
0.0
 10
14.1260708397
 20
12.5766929635
 30
0.0
 10
14.1243669809
 20
12.5658180582
 30
0.0
 10
14.1229428264
 20
12.5548724787
 30
0.0
 10
14.1217986506
 20
12.5438586645
 30
0.0
 10
14.1206443831
 20
12.5290562495
 30
0.0
 10
14.1199067126
 20
12.5103817427
 30
0.0
 10
14.1201473819
 20
12.4877892068
 30
0.0
 10
14.12151147
 20
12.4649863498
 30
0.0
 10
14.123997474
 20
12.4419949241
 30
0.0
 10
14.1269913771
 20
12.4227641409
 30
0.0
 10
14.1299372068
 20
12.4073131554
 30
0.0
 10
14.1332775801
 20
12.3917005398
 30
0.0
 10
14.1381569434
 20
12.3720992201
 30
0.0
 10
14.1439150002
 20
12.3525686035
 30
0.0
 10
14.1490631614
 20
12.3369067149
 30
0.0
 10
14.1546216476
 20
12.3210878243
 30
0.0
 10
14.1622619282
 20
12.3012727297
 30
0.0
 10
14.1724740173
 20
12.2775578708
 30
0.0
 10
14.1837597358
 20
12.2538257768
 30
0.0
 10
14.1961085366
 20
12.2300983842
 30
0.0
 10
14.2095090266
 20
12.2063972857
 30
0.0
 10
14.2239488219
 20
12.1827441363
 30
0.0
 10
14.2394146251
 20
12.1591605298
 30
0.0
 10
14.2558922204
 20
12.135668014
 30
0.0
 10
14.273366464
 20
12.1122880511
 30
0.0
 10
14.2918212961
 20
12.0890420007
 30
0.0
 10
14.3112397815
 20
12.0659511091
 30
0.0
 10
14.3316041027
 20
12.0430365081
 30
0.0
 10
14.3528956264
 20
12.0203191134
 30
0.0
 10
14.3750946449
 20
11.9978198701
 30
0.0
 10
14.3903761485
 20
11.9830848909
 30
0.0
 10
14.3981603173
 20
11.9757576867
 30
0.0
  0
SPLINE
  5
363
100
AcDbEntity
  8
LAYER_FEATURE
100
AcDbSpline
 62
7
  6
CONTINUOUS
 70
0
 71
3
 72
80
 73
76
 74
0
 42
0.0000001
 43
0.0000001
 44
0.0000000001
 40
0.0
 40
0.0
 40
0.0
 40
0.0
 40
0.017178625
 40
0.0345301896
 40
0.0520439856
 40
0.0697095611
 40
0.0875157513
 40
0.105451206
 40
0.1235042502
 40
0.1416629551
 40
0.159915164
 40
0.1782485184
 40
0.1966504877
 40
0.2151083967
 40
0.2336094524
 40
0.2521407721
 40
0.2706894106
 40
0.2892423869
 40
0.3077867108
 40
0.3263094099
 40
0.3447975567
 40
0.3632382956
 40
0.3816188701
 40
0.3999266497
 40
0.4181491573
 40
0.4362740982
 40
0.4542893881
 40
0.4721831821
 40
0.4899439035
 40
0.5075602738
 40
0.5250213437
 40
0.5423165259
 40
0.5594356272
 40
0.5763688815
 40
0.5931069843
 40
0.6096411291
 40
0.6259630453
 40
0.6420650388
 40
0.6579400309
 40
0.673581601
 40
0.6889840307
 40
0.7041423508
 40
0.7190523912
 40
0.7337108317
 40
0.7481152531
 40
0.7622641923
 40
0.7761571984
 40
0.7897948916
 40
0.8031790229
 40
0.8163125314
 40
0.8291996012
 40
0.8418457167
 40
0.8542577138
 40
0.8603787793
 40
0.8664445248
 40
0.8784144197
 40
0.8901792221
 40
0.8959889949
 40
0.9017523402
 40
0.9131461931
 40
0.9243770779
 40
0.9299370835
 40
0.935462781
 40
0.9409564793
 40
0.9464205592
 40
0.9518574755
 40
0.9572697442
 40
0.9626599452
 40
0.9680307112
 40
0.9733847242
 40
0.9787247102
 40
0.9840534294
 40
0.9893736733
 40
0.9946882542
 40
1.0
 40
1.0
 40
1.0
 40
1.0
 10
14.8974699228
 20
13.0976743526
 30
0.0
 10
14.9115903185
 20
13.0976743526
 30
0.0
 10
14.9399741682
 20
13.0973636516
 30
0.0
 10
14.9827337431
 20
13.0959831246
 30
0.0
 10
15.0258548975
 20
13.0936870628
 30
0.0
 10
15.0692923096
 20
13.0904779426
 30
0.0
 10
15.1130009985
 20
13.0863590491
 30
0.0
 10
15.1569353923
 20
13.0813346942
 30
0.0
 10
15.201049789
 20
13.0754100977
 30
0.0
 10
15.2452982679
 20
13.0685914343
 30
0.0
 10
15.2896347728
 20
13.0608858037
 30
0.0
 10
15.3340131546
 20
13.0523012263
 30
0.0
 10
15.3783872185
 20
13.0428466367
 30
0.0
 10
15.4227107725
 20
13.0325318715
 30
0.0
 10
15.4669376774
 20
13.0213676708
 30
0.0
 10
15.5110218945
 20
13.00936566
 30
0.0
 10
15.5549175329
 20
12.9965383336
 30
0.0
 10
15.5985788976
 20
12.982899044
 30
0.0
 10
15.6419605362
 20
12.9684619867
 30
0.0
 10
15.6850172872
 20
12.9532421875
 30
0.0
 10
15.7277043306
 20
12.9372554947
 30
0.0
 10
15.7699772312
 20
12.9205185519
 30
0.0
 10
15.8117919851
 20
12.9030487819
 30
0.0
 10
15.8531050647
 20
12.8848643683
 30
0.0
 10
15.8938734641
 20
12.8659842352
 30
0.0
 10
15.9340547477
 20
12.8464280349
 30
0.0
 10
15.9736070944
 20
12.8262161257
 30
0.0
 10
16.0124893384
 20
12.8053695443
 30
0.0
 10
16.0506610114
 20
12.7839099852
 30
0.0
 10
16.0880823845
 20
12.761859778
 30
0.0
 10
16.1247145099
 20
12.7392418623
 30
0.0
 10
16.1605192686
 20
12.7160797739
 30
0.0
 10
16.1954594043
 20
12.6923976107
 30
0.0
 10
16.2294985609
 20
12.6682200061
 30
0.0
 10
16.2626013194
 20
12.6435721048
 30
0.0
 10
16.2947332345
 20
12.618479534
 30
0.0
 10
16.3258608733
 20
12.5929683797
 30
0.0
 10
16.3559518549
 20
12.5670651629
 30
0.0
 10
16.3849748756
 20
12.5407968031
 30
0.0
 10
16.4128997404
 20
12.514190591
 30
0.0
 10
16.4396973932
 20
12.4872741605
 30
0.0
 10
16.4653399452
 20
12.4600754562
 30
0.0
 10
16.4898007121
 20
12.4326227122
 30
0.0
 10
16.5130542364
 20
12.4049444167
 30
0.0
 10
16.5350763064
 20
12.3770692798
 30
0.0
 10
16.5558439787
 20
12.3490262049
 30
0.0
 10
16.5753355992
 20
12.3208442578
 30
0.0
 10
16.5935308227
 20
12.2925526401
 30
0.0
 10
16.610410647
 20
12.2641806546
 30
0.0
 10
16.6259573997
 20
12.2357577121
 30
0.0
 10
16.6401548116
 20
12.2073131501
 30
0.0
 10
16.6529878135
 20
12.1788767748
 30
0.0
 10
16.6625778533
 20
12.1551015811
 30
0.0
 10
16.6695441371
 20
12.1361184892
 30
0.0
 10
16.6759844465
 20
12.1173343661
 30
0.0
 10
16.6831727515
 20
12.093908788
 30
0.0
 10
16.6892432188
 20
12.0703854523
 30
0.0
 10
16.6933803703
 20
12.0516520667
 30
0.0
 10
16.6970128139
 20
12.033124996
 30
0.0
 10
16.7006754665
 20
12.010070014
 30
0.0
 10
16.7031691748
 20
11.9870268299
 30
0.0
 10
16.7044399959
 20
11.9687255089
 30
0.0
 10
16.7050318864
 20
11.9551089171
 30
0.0
 10
16.7052654931
 20
11.9415603782
 30
0.0
 10
16.7051407037
 20
11.9280833334
 30
0.0
 10
16.7046576122
 20
11.9146813292
 30
0.0
 10
16.7038162624
 20
11.9013578621
 30
0.0
 10
16.7026169147
 20
11.8881164158
 30
0.0
 10
16.7010598645
 20
11.8749604511
 30
0.0
 10
16.6991454792
 20
11.8618934155
 30
0.0
 10
16.6968743173
 20
11.8489187151
 30
0.0
 10
16.694246892
 20
11.8360397678
 30
0.0
 10
16.6912639435
 20
11.823259897
 30
0.0
 10
16.6879262547
 20
11.8105825844
 30
0.0
 10
16.6854648917
 20
11.8022005593
 30
0.0
 10
16.6841758078
 20
11.7980290759
 30
0.0
  0
SPLINE
  5
364
100
AcDbEntity
  8
LAYER_FEATURE
100
AcDbSpline
 62
7
  6
CONTINUOUS
 70
0
 71
3
 72
11
 73
7
 74
0
 42
0.0000001
 43
0.0000001
 44
0.0000000001
 40
0.0
 40
0.0
 40
0.0
 40
0.0
 40
0.2662891678
 40
0.5217723753
 40
0.7663211067
 40
1.0
 40
1.0
 40
1.0
 40
1.0
 10
14.5250095151
 20
13.3083113004
 30
0.0
 10
14.5244512329
 20
13.3082002616
 30
0.0
 10
14.5233638812
 20
13.3079475405
 30
0.0
 10
14.5217971219
 20
13.3074644693
 30
0.0
 10
14.5203368978
 20
13.306887796
 30
0.0
 10
14.5194196599
 20
13.3064328989
 30
0.0
 10
14.5189831426
 20
13.3061900758
 30
0.0
  0
SPLINE
  5
365
100
AcDbEntity
  8
LAYER_FEATURE
100
AcDbSpline
 62
7
  6
CONTINUOUS
 70
0
 71
3
 72
15
 73
11
 74
0
 42
0.0000001
 43
0.0000001
 44
0.0000000001
 40
0.0
 40
0.0
 40
0.0
 40
0.0
 40
0.1357563213
 40
0.269247693
 40
0.3999976074
 40
0.5276115834
 40
0.651712225
 40
0.77197269
 40
0.8881427659
 40
1.0
 40
1.0
 40
1.0
 40
1.0
 10
14.5832959999
 20
13.4287534269
 30
0.0
 10
14.5826524769
 20
13.4288482233
 30
0.0
 10
14.5813717956
 20
13.4290079474
 30
0.0
 10
14.5794604057
 20
13.4291575095
 30
0.0
 10
14.5775829663
 20
13.429214437
 30
0.0
 10
14.5757499645
 20
13.429178455
 30
0.0
 10
14.5739714577
 20
13.4290497055
 30
0.0
 10
14.57225718
 20
13.4288289139
 30
0.0
 10
14.570616733
 20
13.4285172385
 30
0.0
 10
14.56955769
 20
13.4282447038
 30
0.0
 10
14.5690436946
 20
13.4280928541
 30
0.0
  0
SPLINE
  5
366
100
AcDbEntity
  8
LAYER_FEATURE
100
AcDbSpline
 62
7
  6
CONTINUOUS
 70
0
 71
3
 72
15
 73
11
 74
0
 42
0.0000001
 43
0.0000001
 44
0.0000000001
 40
0.0
 40
0.0
 40
0.0
 40
0.0
 40
0.1311158458
 40
0.2614025173
 40
0.3903546684
 40
0.5175283024
 40
0.6424770405
 40
0.7647822989
 40
0.8840786596
 40
1.0
 40
1.0
 40
1.0
 40
1.0
 10
14.6782791026
 20
13.5305143711
 30
0.0
 10
14.6776343646
 20
13.5306917937
 30
0.0
 10
14.6763412483
 20
13.5310181485
 30
0.0
 10
14.6743911566
 20
13.5314218784
 30
0.0
 10
14.6724450437
 20
13.5317365977
 30
0.0
 10
14.6705137993
 20
13.5319605935
 30
0.0
 10
14.6686080397
 20
13.5320925909
 30
0.0
 10
14.6667382391
 20
13.5321319015
 30
0.0
 10
14.6649148587
 20
13.5320782507
 30
0.0
 10
14.6637185979
 20
13.5319792235
 30
0.0
 10
14.6631310456
 20
13.5319135511
 30
0.0
  0
SPLINE
  5
367
100
AcDbEntity
  8
LAYER_FEATURE
100
AcDbSpline
 62
7
  6
CONTINUOUS
 70
0
 71
3
 72
15
 73
11
 74
0
 42
0.0000001
 43
0.0000001
 44
0.0000000001
 40
0.0
 40
0.0
 40
0.0
 40
0.0
 40
0.1244642749
 40
0.2499239606
 40
0.3759556521
 40
0.5021417044
 40
0.6280561065
 40
0.7532783758
 40
0.8773939975
 40
1.0
 40
1.0
 40
1.0
 40
1.0
 10
14.6995270528
 20
13.522703436
 30
0.0
 10
14.7010432677
 20
13.5219941915
 30
0.0
 10
14.7041182709
 20
13.5206341757
 30
0.0
 10
14.7088239084
 20
13.5187807259
 30
0.0
 10
14.7136229936
 20
13.5171126168
 30
0.0
 10
14.7184914385
 20
13.5156381876
 30
0.0
 10
14.7234050532
 20
13.5143647884
 30
0.0
 10
14.7283393525
 20
13.5132987542
 30
0.0
 10
14.7332696367
 20
13.5124454182
 30
0.0
 10
14.7365613338
 20
13.5120180571
 30
0.0
 10
14.7382007745
 20
13.5118416265
 30
0.0
  0
SPLINE
  5
368
100
AcDbEntity
  8
LAYER_FEATURE
100
AcDbSpline
 62
7
  6
CONTINUOUS
 70
0
 71
3
 72
15
 73
11
 74
0
 42
0.0000001
 43
0.0000001
 44
0.0000000001
 40
0.0
 40
0.0
 40
0.0
 40
0.0
 40
0.1264843275
 40
0.2534944088
 40
0.3805297824
 40
0.5071342044
 40
0.6328340548
 40
0.7571662493
 40
0.8797041694
 40
1.0
 40
1.0
 40
1.0
 40
1.0
 10
14.8125148929
 20
13.6097169222
 30
0.0
 10
14.8118972705
 20
13.609970043
 30
0.0
 10
14.8106482665
 20
13.6104504846
 30
0.0
 10
14.8087443621
 20
13.6110908043
 30
0.0
 10
14.8068142586
 20
13.6116496092
 30
0.0
 10
14.8048687674
 20
13.6121238186
 30
0.0
 10
14.80291859
 20
13.6125107823
 30
0.0
 10
14.800974468
 20
13.61280841
 30
0.0
 10
14.799047273
 20
13.6130149888
 30
0.0
 10
14.7977675449
 20
13.6130920904
 30
0.0
 10
14.797133127
 20
13.6131147042
 30
0.0
  0
SPLINE
  5
369
100
AcDbEntity
  8
LAYER_FEATURE
100
AcDbSpline
 62
7
  6
CONTINUOUS
 70
0
 71
3
 72
11
 73
7
 74
0
 42
0.0000001
 43
0.0000001
 44
0.0000000001
 40
0.0
 40
0.0
 40
0.0
 40
0.0
 40
0.2440519104
 40
0.4926215748
 40
0.7448908832
 40
1.0
 40
1.0
 40
1.0
 40
1.0
 10
14.832091353
 20
13.5996330784
 30
0.0
 10
14.8305790142
 20
13.6005974276
 30
0.0
 10
14.8274789331
 20
13.6024705846
 30
0.0
 10
14.8226669377
 20
13.6050848449
 30
0.0
 10
14.817670741
 20
13.6075187222
 30
0.0
 10
14.8142497527
 20
13.6090059232
 30
0.0
 10
14.8125148929
 20
13.6097169222
 30
0.0
  0
SPLINE
  5
36A
100
AcDbEntity
  8
LAYER_FEATURE
100
AcDbSpline
 62
7
  6
CONTINUOUS
 70
0
 71
3
 72
23
 73
19
 74
0
 42
0.0000001
 43
0.0000001
 44
0.0000000001
 40
0.0
 40
0.0
 40
0.0
 40
0.0
 40
0.0609128771
 40
0.1228583953
 40
0.1856682741
 40
0.2491760011
 40
0.3132034518
 40
0.3775699332
 40
0.442091331
 40
0.5065822787
 40
0.5708577063
 40
0.6347343614
 40
0.698032421
 40
0.7605771074
 40
0.8222004016
 40
0.8827427707
 40
0.9420549768
 40
1.0
 40
1.0
 40
1.0
 40
1.0
 10
14.832091353
 20
13.5996330784
 30
0.0
 10
14.833340471
 20
13.5988365731
 30
0.0
 10
14.8358948786
 20
13.5972842945
 30
0.0
 10
14.839848266
 20
13.5950997637
 30
0.0
 10
14.8439423049
 20
13.5930467875
 30
0.0
 10
14.8481593521
 20
13.5911341529
 30
0.0
 10
14.8524815363
 20
13.5893700037
 30
0.0
 10
14.8568903904
 20
13.5877618646
 30
0.0
 10
14.8613671261
 20
13.5863165941
 30
0.0
 10
14.8658926487
 20
13.5850403513
 30
0.0
 10
14.8704476604
 20
13.583938577
 30
0.0
 10
14.8750127395
 20
13.5830159698
 30
0.0
 10
14.879568423
 20
13.5822764656
 30
0.0
 10
14.8840952955
 20
13.5817232219
 30
0.0
 10
14.8885740572
 20
13.5813585933
 30
0.0
 10
14.8929856691
 20
13.5811841371
 30
0.0
 10
14.8973112188
 20
13.581200598
 30
0.0
 10
14.9001608081
 20
13.5813405584
 30
0.0
 10
14.901566314
 20
13.5814435823
 30
0.0
  0
SPLINE
  5
36B
100
AcDbEntity
  8
LAYER_FEATURE
100
AcDbSpline
 62
7
  6
CONTINUOUS
 70
0
 71
3
 72
11
 73
7
 74
0
 42
0.0000001
 43
0.0000001
 44
0.0000000001
 40
0.0
 40
0.0
 40
0.0
 40
0.0
 40
0.2536370935
 40
0.5042162083
 40
0.7526553717
 40
1.0
 40
1.0
 40
1.0
 40
1.0
 10
14.9258416136
 20
13.658477694
 30
0.0
 10
14.9257010819
 20
13.658278601
 30
0.0
 10
14.9254364243
 20
13.6578721688
 30
0.0
 10
14.9250895908
 20
13.657236797
 30
0.0
 10
14.9247966451
 20
13.6565814505
 30
0.0
 10
14.9246375693
 20
13.6561318035
 30
0.0
 10
14.9245674037
 20
13.6559047487
 30
0.0
  0
SPLINE
  5
36C
100
AcDbEntity
  8
LAYER_FEATURE
100
AcDbSpline
 62
7
  6
CONTINUOUS
 70
0
 71
3
 72
15
 73
11
 74
0
 42
0.0000001
 43
0.0000001
 44
0.0000000001
 40
0.0
 40
0.0
 40
0.0
 40
0.0
 40
0.1108544271
 40
0.2262192978
 40
0.3459278534
 40
0.4697756005
 40
0.5974730338
 40
0.7286722167
 40
0.863001399
 40
1.0
 40
1.0
 40
1.0
 40
1.0
 10
16.6386701177
 20
12.7511178879
 30
0.0
 10
16.6383643995
 20
12.7515381445
 30
0.0
 10
16.6377079584
 20
12.7523724503
 30
0.0
 10
16.6366200686
 20
12.753576615
 30
0.0
 10
16.6354148843
 20
12.7547523575
 30
0.0
 10
16.6340992121
 20
12.7558931632
 30
0.0
 10
16.6326802356
 20
12.7569927881
 30
0.0
 10
16.6311657702
 20
12.7580452542
 30
0.0
 10
16.6295642472
 20
12.7590446542
 30
0.0
 10
16.6284540186
 20
12.7596665433
 30
0.0
 10
16.6278867153
 20
12.7599676426
 30
0.0
  0
SPLINE
  5
36D
100
AcDbEntity
  8
LAYER_FEATURE
100
AcDbSpline
 62
7
  6
CONTINUOUS
 70
0
 71
3
 72
11
 73
7
 74
0
 42
0.0000001
 43
0.0000001
 44
0.0000000001
 40
0.0
 40
0.0
 40
0.0
 40
0.0
 40
0.2465648242
 40
0.4958591657
 40
0.7472160439
 40
1.0
 40
1.0
 40
1.0
 40
1.0
 10
16.6278867153
 20
12.7599676426
 30
0.0
 10
16.6264726539
 20
12.7607181634
 30
0.0
 10
16.6235990909
 20
12.7621720727
 30
0.0
 10
16.6191893106
 20
12.7641973007
 30
0.0
 10
16.6146700651
 20
12.7660727947
 30
0.0
 10
16.6116020506
 20
12.7672161279
 30
0.0
 10
16.6100539596
 20
12.7677612718
 30
0.0
  0
SPLINE
  5
36E
100
AcDbEntity
  8
LAYER_FEATURE
100
AcDbSpline
 62
7
  6
CONTINUOUS
 70
0
 71
3
 72
15
 73
11
 74
0
 42
0.0000001
 43
0.0000001
 44
0.0000000001
 40
0.0
 40
0.0
 40
0.0
 40
0.0
 40
0.1219368714
 40
0.2456715914
 40
0.3707366174
 40
0.4966920646
 40
0.6230668718
 40
0.7493851439
 40
0.8751934155
 40
1.0
 40
1.0
 40
1.0
 40
1.0
 10
14.9801366226
 20
13.6628995488
 30
0.0
 10
14.9795735575
 20
13.6632180364
 30
0.0
 10
14.9784238792
 20
13.663833122
 30
0.0
 10
14.9766490641
 20
13.6646821505
 30
0.0
 10
14.9748190083
 20
13.6654607093
 30
0.0
 10
14.972943971
 20
13.6661644856
 30
0.0
 10
14.971034261
 20
13.6667895667
 30
0.0
 10
14.969100406
 20
13.6673325494
 30
0.0
 10
14.9671532135
 20
13.6677903499
 30
0.0
 10
14.9658464915
 20
13.6680384225
 30
0.0
 10
14.9651934048
 20
13.6681474332
 30
0.0
  0
SPLINE
  5
36F
100
AcDbEntity
  8
LAYER_FEATURE
100
AcDbSpline
 62
7
  6
CONTINUOUS
 70
0
 71
3
 72
11
 73
7
 74
0
 42
0.0000001
 43
0.0000001
 44
0.0000000001
 40
0.0
 40
0.0
 40
0.0
 40
0.0
 40
0.240325106
 40
0.4875611234
 40
0.741036549
 40
1.0
 40
1.0
 40
1.0
 40
1.0
 10
14.9971860073
 20
13.6509835086
 30
0.0
 10
14.9959260672
 20
13.6520779619
 30
0.0
 10
14.993306704
 20
13.6542264521
 30
0.0
 10
14.9891606298
 20
13.6572783055
 30
0.0
 10
14.9847602299
 20
13.6601918208
 30
0.0
 10
14.9817019188
 20
13.6620141673
 30
0.0
 10
14.9801366226
 20
13.6628995488
 30
0.0
  0
SPLINE
  5
370
100
AcDbEntity
  8
LAYER_FEATURE
100
AcDbSpline
 62
7
  6
CONTINUOUS
 70
0
 71
3
 72
31
 73
27
 74
0
 42
0.0000001
 43
0.0000001
 44
0.0000000001
 40
0.0
 40
0.0
 40
0.0
 40
0.0
 40
0.0292157774
 40
0.0590047487
 40
0.0893279194
 40
0.1201518059
 40
0.1831395074
 40
0.2476394689
 40
0.3132862882
 40
0.3796923258
 40
0.4464559102
 40
0.5131688573
 40
0.5794239073
 40
0.644822166
 40
0.6770829414
 40
0.7089877462
 40
0.7404924876
 40
0.7715551573
 40
0.8021360472
 40
0.8321979522
 40
0.8617067163
 40
0.8906312414
 40
0.918944128
 40
0.9466218846
 40
0.9736452767
 40
1.0
 40
1.0
 40
1.0
 40
1.0
 10
14.9971860073
 20
13.6509835086
 30
0.0
 10
14.9979424457
 20
13.6503264247
 30
0.0
 10
14.9994947322
 20
13.6490273904
 30
0.0
 10
15.0019119411
 20
13.647144307
 30
0.0
 10
15.0044359532
 20
13.6453114054
 30
0.0
 10
15.0079609851
 20
13.6429231013
 30
0.0
 10
15.0125990764
 20
13.6400933311
 30
0.0
 10
15.0184526177
 20
13.6369856416
 30
0.0
 10
15.0245811516
 20
13.634169632
 30
0.0
 10
15.0309290707
 20
13.6316708746
 30
0.0
 10
15.0374389439
 20
13.629511961
 30
0.0
 10
15.0440518555
 20
13.6277124342
 30
0.0
 10
15.0507077727
 20
13.6262886218
 30
0.0
 10
15.0562655027
 20
13.6254219363
 30
0.0
 10
15.0606821528
 20
13.6249294428
 30
0.0
 10
15.0639528703
 20
13.6246624571
 30
0.0
 10
15.0671891351
 20
13.6244968325
 30
0.0
 10
15.0703836199
 20
13.62443293
 30
0.0
 10
15.0735290555
 20
13.6244708916
 30
0.0
 10
15.0766182971
 20
13.6246106626
 30
0.0
 10
15.0796443262
 20
13.6248518886
 30
0.0
 10
15.0826002713
 20
13.625194069
 30
0.0
 10
15.0854794171
 20
13.6256364091
 30
0.0
 10
15.0882752512
 20
13.6261779217
 30
0.0
 10
15.0909813518
 20
13.626817401
 30
0.0
 10
15.0927439722
 20
13.6273143798
 30
0.0
 10
15.0936080878
 20
13.627579443
 30
0.0
  0
SPLINE
  5
371
100
AcDbEntity
  8
LAYER_FEATURE
100
AcDbSpline
 62
7
  6
CONTINUOUS
 70
0
 71
3
 72
15
 73
11
 74
0
 42
0.0000001
 43
0.0000001
 44
0.0000000001
 40
0.0
 40
0.0
 40
0.0
 40
0.0
 40
0.1147647026
 40
0.2331867762
 40
0.354931765
 40
0.4796591576
 40
0.6069697494
 40
0.7364310509
 40
0.8676082436
 40
1.0
 40
1.0
 40
1.0
 40
1.0
 10
16.632305178
 20
12.8877965371
 30
0.0
 10
16.6318851448
 20
12.8881921226
 30
0.0
 10
16.6310071821
 20
12.8889702198
 30
0.0
 10
16.629607288
 20
12.8900781273
 30
0.0
 10
16.6281103098
 20
12.8911399949
 30
0.0
 10
16.6265246574
 20
12.8921499291
 30
0.0
 10
16.6248590181
 20
12.8931023557
 30
0.0
 10
16.6231225704
 20
12.8939920788
 30
0.0
 10
16.6213250002
 20
12.8948140825
 30
0.0
 10
16.620096585
 20
12.8953122963
 30
0.0
 10
16.6194745558
 20
12.8955491853
 30
0.0
  0
SPLINE
  5
372
100
AcDbEntity
  8
LAYER_FEATURE
100
AcDbSpline
 62
7
  6
CONTINUOUS
 70
0
 71
3
 72
14
 73
10
 74
0
 42
0.0000001
 43
0.0000001
 44
0.0000000001
 40
0.0
 40
0.0
 40
0.0
 40
0.0
 40
0.2646816635
 40
0.3922971819
 40
0.5172214129
 40
0.6399274815
 40
0.7609251341
 40
0.8807583626
 40
1.0
 40
1.0
 40
1.0
 40
1.0
 10
15.1154596213
 20
13.6913356463
 30
0.0
 10
15.1150088365
 20
13.6909977359
 30
0.0
 10
15.114371502
 20
13.6904526765
 30
0.0
 10
15.113618965
 20
13.6896480576
 30
0.0
 10
15.1131191237
 20
13.6890239766
 30
0.0
 10
15.1126785821
 20
13.6883736794
 30
0.0
 10
15.1122983434
 20
13.6876987103
 30
0.0
 10
15.1119795227
 20
13.6870007888
 30
0.0
 10
15.1118082248
 20
13.6865208296
 30
0.0
 10
15.1117332864
 20
13.6862783395
 30
0.0
  0
SPLINE
  5
373
100
AcDbEntity
  8
LAYER_FEATURE
100
AcDbSpline
 62
7
  6
CONTINUOUS
 70
0
 71
3
 72
15
 73
11
 74
0
 42
0.0000001
 43
0.0000001
 44
0.0000000001
 40
0.0
 40
0.0
 40
0.0
 40
0.0
 40
0.1175025393
 40
0.2379808214
 40
0.3610332708
 40
0.4862671714
 40
0.613243289
 40
0.7415013338
 40
0.8705892129
 40
1.0
 40
1.0
 40
1.0
 40
1.0
 10
15.1738184178
 20
13.6877379147
 30
0.0
 10
15.1733352862
 20
13.68810842
 30
0.0
 10
15.1723364006
 20
13.6888325704
 30
0.0
 10
15.1707679103
 20
13.6898533714
 30
0.0
 10
15.1691175606
 20
13.6908178004
 30
0.0
 10
15.1673946119
 20
13.6917205049
 30
0.0
 10
15.1656085211
 20
13.6925564862
 30
0.0
 10
15.1637691339
 20
13.6933211821
 30
0.0
 10
15.1618867198
 20
13.6940102713
 30
0.0
 10
15.1606099733
 20
13.6944167811
 30
0.0
 10
15.1599668384
 20
13.694606544
 30
0.0
  0
SPLINE
  5
374
100
AcDbEntity
  8
LAYER_FEATURE
100
AcDbSpline
 62
7
  6
CONTINUOUS
 70
0
 71
3
 72
15
 73
11
 74
0
 42
0.0000001
 43
0.0000001
 44
0.0000000001
 40
0.0
 40
0.0
 40
0.0
 40
0.0
 40
0.1190811369
 40
0.2407272431
 40
0.3645084182
 40
0.490010848
 40
0.6167800858
 40
0.7443467373
 40
0.8722549168
 40
1.0
 40
1.0
 40
1.0
 40
1.0
 10
16.57979261
 20
13.0300066467
 30
0.0
 10
16.5792779765
 20
13.0303601488
 30
0.0
 10
16.5782192472
 20
13.0310483594
 30
0.0
 10
16.5765681422
 20
13.0320121252
 30
0.0
 10
16.5748443977
 20
13.0329141341
 30
0.0
 10
16.5730576822
 20
13.0337493821
 30
0.0
 10
16.5712178097
 20
13.0345132371
 30
0.0
 10
16.5693349237
 20
13.0352015322
 30
0.0
 10
16.5674195407
 20
13.0358103722
 30
0.0
 10
16.5661255175
 20
13.0361617717
 30
0.0
 10
16.5654755278
 20
13.0363233603
 30
0.0
  0
SPLINE
  5
375
100
AcDbEntity
  8
LAYER_FEATURE
100
AcDbSpline
 62
7
  6
CONTINUOUS
 70
0
 71
3
 72
11
 73
7
 74
0
 42
0.0000001
 43
0.0000001
 44
0.0000000001
 40
0.0
 40
0.0
 40
0.0
 40
0.0
 40
0.2540478564
 40
0.5059756199
 40
0.7549073093
 40
1.0
 40
1.0
 40
1.0
 40
1.0
 10
16.5654755278
 20
13.0363233603
 30
0.0
 10
16.5636445509
 20
13.0367785446
 30
0.0
 10
16.5599783976
 20
13.0376087962
 30
0.0
 10
16.5544610825
 20
13.0386135494
 30
0.0
 10
16.5489711865
 20
13.0393687076
 30
0.0
 10
16.5453163121
 20
13.0397060684
 30
0.0
 10
16.5435004052
 20
13.0398310425
 30
0.0
  0
SPLINE
  5
376
100
AcDbEntity
  8
LAYER_FEATURE
100
AcDbSpline
 62
7
  6
CONTINUOUS
 70
0
 71
3
 72
11
 73
7
 74
0
 42
0.0000001
 43
0.0000001
 44
0.0000000001
 40
0.0
 40
0.0
 40
0.0
 40
0.0
 40
0.2369409488
 40
0.4828700106
 40
0.7373981177
 40
1.0
 40
1.0
 40
1.0
 40
1.0
 10
15.1875955873
 20
13.6745104663
 30
0.0
 10
15.1866466482
 20
13.6756873008
 30
0.0
 10
15.1846285974
 20
13.6780187415
 30
0.0
 10
15.1813285734
 20
13.6813760341
 30
0.0
 10
15.1777152366
 20
13.6846428203
 30
0.0
 10
15.1751479566
 20
13.6867183145
 30
0.0
 10
15.1738184178
 20
13.6877379147
 30
0.0
  0
SPLINE
  5
377
100
AcDbEntity
  8
LAYER_FEATURE
100
AcDbSpline
 62
7
  6
CONTINUOUS
 70
0
 71
3
 72
39
 73
35
 74
0
 42
0.0000001
 43
0.0000001
 44
0.0000000001
 40
0.0
 40
0.0
 40
0.0
 40
0.0
 40
0.0277962556
 40
0.0565147226
 40
0.0861205223
 40
0.116573055
 40
0.1478194255
 40
0.1797992519
 40
0.2124446811
 40
0.2456815788
 40
0.279430514
 40
0.313607584
 40
0.3481252539
 40
0.3828931737
 40
0.4178189773
 40
0.4528090355
 40
0.4877691973
 40
0.5226055453
 40
0.5572251632
 40
0.5915368881
 40
0.6254520715
 40
0.6588853711
 40
0.6917556107
 40
0.7239866385
 40
0.7555082244
 40
0.7862570271
 40
0.8161776611
 40
0.8452238831
 40
0.8733598011
 40
0.9005612147
 40
0.9268170792
 40
0.9395927992
 40
0.9521348992
 40
1.0
 40
1.0
 40
1.0
 40
1.0
 10
15.1875955873
 20
13.6745104663
 30
0.0
 10
15.1883528797
 20
13.673571304
 30
0.0
 10
15.1899505316
 20
13.6717079116
 30
0.0
 10
15.1925382455
 20
13.6690082197
 30
0.0
 10
15.1953469672
 20
13.6663679297
 30
0.0
 10
15.1983652807
 20
13.6637976352
 30
0.0
 10
15.2015812726
 20
13.6613074905
 30
0.0
 10
15.2049820872
 20
13.6589074092
 30
0.0
 10
15.2085541714
 20
13.6566069335
 30
0.0
 10
15.2122832766
 20
13.6544152284
 30
0.0
 10
15.2161545258
 20
13.6523410316
 30
0.0
 10
15.2201524734
 20
13.6503926233
 30
0.0
 10
15.2242611593
 20
13.6485777807
 30
0.0
 10
15.2284641755
 20
13.6469037442
 30
0.0
 10
15.2327447378
 20
13.6453771977
 30
0.0
 10
15.2370857518
 20
13.6440042389
 30
0.0
 10
15.2414698817
 20
13.6427903579
 30
0.0
 10
15.2458796166
 20
13.6417404003
 30
0.0
 10
15.2502973453
 20
13.6408585542
 30
0.0
 10
15.2547054285
 20
13.6401483405
 30
0.0
 10
15.2590862689
 20
13.6396125974
 30
0.0
 10
15.2634223825
 20
13.6392534721
 30
0.0
 10
15.2676964698
 20
13.6390723961
 30
0.0
 10
15.2718914882
 20
13.6390700945
 30
0.0
 10
15.2759907199
 20
13.6392465882
 30
0.0
 10
15.2799778371
 20
13.6396011965
 30
0.0
 10
15.2838369718
 20
13.6401325431
 30
0.0
 10
15.2875527729
 20
13.6408385486
 30
0.0
 10
15.2911104978
 20
13.6417164733
 30
0.0
 10
15.294495941
 20
13.6427629013
 30
0.0
 10
15.297186565
 20
13.6437811245
 30
0.0
 10
15.2992379879
 20
13.6446782271
 30
0.0
 10
15.3021022783
 20
13.6460506696
 30
0.0
 10
15.3043717686
 20
13.6473923884
 30
0.0
 10
15.3060627707
 20
13.6485992549
 30
0.0
  0
SPLINE
  5
378
100
AcDbEntity
  8
LAYER_FEATURE
100
AcDbSpline
 62
7
  6
CONTINUOUS
 70
0
 71
3
 72
15
 73
11
 74
0
 42
0.0000001
 43
0.0000001
 44
0.0000000001
 40
0.0
 40
0.0
 40
0.0
 40
0.0
 40
0.1235616538
 40
0.2484732282
 40
0.3742520237
 40
0.5004490569
 40
0.6265891636
 40
0.7521978345
 40
0.8768279237
 40
1.0
 40
1.0
 40
1.0
 40
1.0
 10
16.4834274647
 20
13.1715329525
 30
0.0
 10
16.4828417193
 20
13.1718293141
 30
0.0
 10
16.4816501382
 20
13.1723986077
 30
0.0
 10
16.479819618
 20
13.1731763691
 30
0.0
 10
16.4779440908
 20
13.1738793066
 30
0.0
 10
16.4760340676
 20
13.174503531
 30
0.0
 10
16.4741000528
 20
13.1750455669
 30
0.0
 10
16.4721527061
 20
13.1755024687
 30
0.0
 10
16.4702029132
 20
13.1758716339
 30
0.0
 10
16.4688993168
 20
13.1760592709
 30
0.0
 10
16.4682496478
 20
13.1761376609
 30
0.0
  0
SPLINE
  5
379
100
AcDbEntity
  8
LAYER_FEATURE
100
AcDbSpline
 62
7
  6
CONTINUOUS
 70
0
 71
3
 72
11
 73
7
 74
0
 42
0.0000001
 43
0.0000001
 44
0.0000000001
 40
0.0
 40
0.0
 40
0.0
 40
0.0
 40
0.2579166731
 40
0.5110709461
 40
0.7586727144
 40
1.0
 40
1.0
 40
1.0
 40
1.0
 10
16.4682496478
 20
13.1761376609
 30
0.0
 10
16.4664384757
 20
13.1763561996
 30
0.0
 10
16.4628394576
 20
13.1767100942
 30
0.0
 10
16.4574785237
 20
13.1769892266
 30
0.0
 10
16.4522276268
 20
13.1770108747
 30
0.0
 10
16.4487711612
 20
13.1768513263
 30
0.0
 10
16.447068745
 20
13.1767267508
 30
0.0
  0
SPLINE
  5
37A
100
AcDbEntity
  8
LAYER_FEATURE
100
AcDbSpline
 62
7
  6
CONTINUOUS
 70
0
 71
3
 72
15
 73
11
 74
0
 42
0.0000001
 43
0.0000001
 44
0.0000000001
 40
0.0
 40
0.0
 40
0.0
 40
0.0
 40
0.1423606162
 40
0.2786518841
 40
0.4091753628
 40
0.5344647944
 40
0.6552190339
 40
0.7723266316
 40
0.8868641317
 40
1.0
 40
1.0
 40
1.0
 40
1.0
 10
15.3252234301
 20
13.694606544
 30
0.0
 10
15.3247763641
 20
13.6944208617
 30
0.0
 10
15.3239147269
 20
13.6940236623
 30
0.0
 10
15.3227038647
 20
13.6933346648
 30
0.0
 10
15.3216097045
 20
13.6925689879
 30
0.0
 10
15.3206385786
 20
13.6917307043
 30
0.0
 10
15.3197961864
 20
13.6908241178
 30
0.0
 10
15.3190875881
 20
13.6898540536
 30
0.0
 10
15.3185174587
 20
13.6888261662
 30
0.0
 10
15.3182312075
 20
13.6881040575
 30
0.0
 10
15.3181131181
 20
13.6877379147
 30
0.0
  0
SPLINE
  5
37B
100
AcDbEntity
  8
LAYER_FEATURE
100
AcDbSpline
 62
7
  6
CONTINUOUS
 70
0
 71
3
 72
15
 73
11
 74
0
 42
0.0000001
 43
0.0000001
 44
0.0000000001
 40
0.0
 40
0.0
 40
0.0
 40
0.0
 40
0.113288754
 40
0.2305794792
 40
0.3515874786
 40
0.4760120226
 40
0.603485486
 40
0.7335989736
 40
0.8659344312
 40
1.0
 40
1.0
 40
1.0
 40
1.0
 10
15.3850954546
 20
13.6831464643
 30
0.0
 10
15.3847145024
 20
13.6835530437
 30
0.0
 10
15.3839119664
 20
13.6843554572
 30
0.0
 10
15.3826179682
 20
13.685503751
 30
0.0
 10
15.3812190807
 20
13.6866121671
 30
0.0
 10
15.3797231718
 20
13.6876745558
 30
0.0
 10
15.3781384271
 20
13.6886850677
 30
0.0
 10
15.3764735769
 20
13.6896381943
 30
0.0
 10
15.3747379019
 20
13.6905285699
 30
0.0
 10
15.3735462026
 20
13.6910742297
 30
0.0
 10
15.3729408941
 20
13.6913356463
 30
0.0
  0
SPLINE
  5
37C
100
AcDbEntity
  8
LAYER_FEATURE
100
AcDbSpline
 62
7
  6
CONTINUOUS
 70
0
 71
3
 72
15
 73
11
 74
0
 42
0.0000001
 43
0.0000001
 44
0.0000000001
 40
0.0
 40
0.0
 40
0.0
 40
0.0
 40
0.1281423907
 40
0.2563326801
 40
0.3840653616
 40
0.5108851043
 40
0.6363243109
 40
0.7599317548
 40
0.8812982018
 40
1.0
 40
1.0
 40
1.0
 40
1.0
 10
16.3474213616
 20
13.3061900758
 30
0.0
 10
16.3467907518
 20
13.3064169846
 30
0.0
 10
16.345519397
 20
13.3068438884
 30
0.0
 10
16.3435891458
 20
13.307401793
 30
0.0
 10
16.3416434903
 20
13.3078750568
 30
0.0
 10
16.3396933253
 20
13.3082610787
 30
0.0
 10
16.337749377
 20
13.3085576937
 30
0.0
 10
16.3358223464
 20
13.3087633094
 30
0.0
 10
16.3339230113
 20
13.3088767261
 30
0.0
 10
16.3326669026
 20
13.3088906629
 30
0.0
 10
16.3320461533
 20
13.3088815311
 30
0.0
  0
SPLINE
  5
37D
100
AcDbEntity
  8
LAYER_FEATURE
100
AcDbSpline
 62
7
  6
CONTINUOUS
 70
0
 71
3
 72
11
 73
7
 74
0
 42
0.0000001
 43
0.0000001
 44
0.0000000001
 40
0.0
 40
0.0
 40
0.0
 40
0.0
 40
0.2616511188
 40
0.5159172534
 40
0.7621952019
 40
1.0
 40
1.0
 40
1.0
 40
1.0
 10
16.3320461533
 20
13.3088815311
 30
0.0
 10
16.3303332461
 20
13.3088563327
 30
0.0
 10
16.3269563006
 20
13.3087233947
 30
0.0
 10
16.321984757
 20
13.3082646264
 30
0.0
 10
16.3172009084
 20
13.30755159
 30
0.0
 10
16.314097305
 20
13.3068972405
 30
0.0
 10
16.3125851773
 20
13.3065262827
 30
0.0
  0
SPLINE
  5
37E
100
AcDbEntity
  8
LAYER_FEATURE
100
AcDbSpline
 62
7
  6
CONTINUOUS
 70
0
 71
3
 72
11
 73
7
 74
0
 42
0.0000001
 43
0.0000001
 44
0.0000000001
 40
0.0
 40
0.0
 40
0.0
 40
0.0
 40
0.2346149511
 40
0.4794327574
 40
0.7345899886
 40
1.0
 40
1.0
 40
1.0
 40
1.0
 10
15.3949982804
 20
13.6691857106
 30
0.0
 10
15.3944059519
 20
13.6703911801
 30
0.0
 10
15.3930854745
 20
13.6728016775
 30
0.0
 10
15.3907750345
 20
13.6763201912
 30
0.0
 10
15.3881057503
 20
13.6797994834
 30
0.0
 10
15.3861343426
 20
13.6820376889
 30
0.0
 10
15.3850954546
 20
13.6831464643
 30
0.0
  0
SPLINE
  5
37F
100
AcDbEntity
  8
LAYER_FEATURE
100
AcDbSpline
 62
7
  6
CONTINUOUS
 70
0
 71
3
 72
46
 73
42
 74
0
 42
0.0000001
 43
0.0000001
 44
0.0000000001
 40
0.0
 40
0.0
 40
0.0
 40
0.0
 40
0.0261773458
 40
0.0397322328
 40
0.0535992792
 40
0.0677800439
 40
0.0822731307
 40
0.0970753087
 40
0.1121817027
 40
0.1275860661
 40
0.1432804762
 40
0.1754978996
 40
0.2087498799
 40
0.242931365
 40
0.2779231081
 40
0.3135941935
 40
0.3498043724
 40
0.3864062545
 40
0.4232473973
 40
0.460172326
 40
0.4970245134
 40
0.5336483455
 40
0.5698911001
 40
0.6056049624
 40
0.6406491087
 40
0.6748918894
 40
0.708213153
 40
0.7405067568
 40
0.7716833161
 40
0.8016732509
 40
0.8304301773
 40
0.8579346676
 40
0.8841983362
 40
0.9092680773
 40
0.9332300502
 40
0.9448388694
 40
0.956222601
 40
0.9674040215
 40
0.9784085349
 40
0.9892639287
 40
1.0
 40
1.0
 40
1.0
 40
1.0
 10
15.3949982804
 20
13.6691857106
 30
0.0
 10
15.3955942991
 20
13.6679727311
 30
0.0
 10
15.3965887731
 20
13.6661743838
 30
0.0
 10
15.3980802436
 20
13.6638429119
 30
0.0
 10
15.3993116679
 20
13.6620822682
 30
0.0
 10
15.4006407527
 20
13.6603330693
 30
0.0
 10
15.4020654343
 20
13.6585978838
 30
0.0
 10
15.4035834971
 20
13.6568795214
 30
0.0
 10
15.4051924977
 20
13.6551806338
 30
0.0
 10
15.406889955
 20
13.653503911
 30
0.0
 10
15.4092883547
 20
13.6512820568
 30
0.0
 10
15.4124941284
 20
13.6485792014
 30
0.0
 10
15.4166142507
 20
13.6454936408
 30
0.0
 10
15.4210150809
 20
13.6425571631
 30
0.0
 10
15.4256689118
 20
13.6397882225
 30
0.0
 10
15.4305465887
 20
13.6372041417
 30
0.0
 10
15.4356174898
 20
13.6348211367
 30
0.0
 10
15.440849777
 20
13.6326541655
 30
0.0
 10
15.4462105835
 20
13.6307168399
 30
0.0
 10
15.4516662291
 20
13.6290213314
 30
0.0
 10
15.4571824345
 20
13.6275782935
 30
0.0
 10
15.4627245425
 20
13.6263967923
 30
0.0
 10
15.4682577405
 20
13.6254842498
 30
0.0
 10
15.4737472854
 20
13.6248463983
 30
0.0
 10
15.4791587282
 20
13.6244872479
 30
0.0
 10
15.4844581367
 20
13.6244090668
 30
0.0
 10
15.4896123153
 20
13.624612376
 30
0.0
 10
15.4945890192
 20
13.6250959597
 30
0.0
 10
15.4993571604
 20
13.6258568939
 30
0.0
 10
15.5038869969
 20
13.6268905884
 30
0.0
 10
15.5081503155
 20
13.6281908626
 30
0.0
 10
15.5121205359
 20
13.629749989
 30
0.0
 10
15.5157729426
 20
13.6315589116
 30
0.0
 10
15.5190842674
 20
13.633606867
 30
0.0
 10
15.5215683698
 20
13.6355235084
 30
0.0
 10
15.523355139
 20
13.6371635935
 30
0.0
 10
15.5245834428
 20
13.6384316882
 30
0.0
 10
15.5257118674
 20
13.6397486193
 30
0.0
 10
15.5267386362
 20
13.6411123734
 30
0.0
 10
15.5276619968
 20
13.6425207065
 30
0.0
 10
15.5282102272
 20
13.6434924645
 30
0.0
 10
15.5284659628
 20
13.6439842326
 30
0.0
  0
SPLINE
  5
380
100
AcDbEntity
  8
LAYER_FEATURE
100
AcDbSpline
 62
7
  6
CONTINUOUS
 70
0
 71
3
 72
11
 73
7
 74
0
 42
0.0000001
 43
0.0000001
 44
0.0000000001
 40
0.0
 40
0.0
 40
0.0
 40
0.0
 40
0.2549895779
 40
0.5057558559
 40
0.7536087995
 40
1.0
 40
1.0
 40
1.0
 40
1.0
 10
15.5361727125
 20
13.6628995488
 30
0.0
 10
15.5356569975
 20
13.6622438206
 30
0.0
 10
15.5346891918
 20
13.6608986354
 30
0.0
 10
15.5334330482
 20
13.6587732321
 30
0.0
 10
15.5323905635
 20
13.6565662465
 30
0.0
 10
15.5318395681
 20
13.6550430162
 30
0.0
 10
15.531601572
 20
13.6542728503
 30
0.0
  0
SPLINE
  5
381
100
AcDbEntity
  8
LAYER_FEATURE
100
AcDbSpline
 62
7
  6
CONTINUOUS
 70
0
 71
3
 72
15
 73
11
 74
0
 42
0.0000001
 43
0.0000001
 44
0.0000000001
 40
0.0
 40
0.0
 40
0.0
 40
0.0
 40
0.1327924523
 40
0.2642480214
 40
0.3938671885
 40
0.521218629
 40
0.6458749077
 40
0.7674436959
 40
0.8855932137
 40
1.0
 40
1.0
 40
1.0
 40
1.0
 10
16.1777184199
 20
13.4280928541
 30
0.0
 10
16.1770708483
 20
13.4282411636
 30
0.0
 10
16.175775702
 20
13.4285086416
 30
0.0
 10
16.1738297693
 20
13.4288223964
 30
0.0
 10
16.1718986917
 20
13.42904538
 30
0.0
 10
16.169993269
 20
13.4291763925
 30
0.0
 10
16.1681239702
 20
13.4292146678
 30
0.0
 10
16.1663010564
 20
13.4291600295
 30
0.0
 10
16.1645347288
 20
13.429012723
 30
0.0
 10
16.1633818457
 20
13.4288505603
 30
0.0
 10
16.1628177906
 20
13.4287534269
 30
0.0
  0
SPLINE
  5
382
100
AcDbEntity
  8
LAYER_FEATURE
100
AcDbSpline
 62
7
  6
CONTINUOUS
 70
0
 71
3
 72
11
 73
7
 74
0
 42
0.0000001
 43
0.0000001
 44
0.0000000001
 40
0.0
 40
0.0
 40
0.0
 40
0.0
 40
0.2647874317
 40
0.5198409977
 40
0.7649250881
 40
1.0
 40
1.0
 40
1.0
 40
1.0
 10
16.1628177906
 20
13.4287534269
 30
0.0
 10
16.1612760529
 20
13.4284879311
 30
0.0
 10
16.1582635065
 20
13.427878352
 30
0.0
 10
16.1538968515
 20
13.4267009504
 30
0.0
 10
16.1497872042
 20
13.4252831819
 30
0.0
 10
16.1471788165
 20
13.4241589778
 30
0.0
 10
16.1459272795
 20
13.4235567758
 30
0.0
  0
SPLINE
  5
383
100
AcDbEntity
  8
LAYER_FEATURE
100
AcDbSpline
 62
7
  6
CONTINUOUS
 70
0
 71
3
 72
15
 73
11
 74
0
 42
0.0000001
 43
0.0000001
 44
0.0000000001
 40
0.0
 40
0.0
 40
0.0
 40
0.0
 40
0.1438743621
 40
0.2822036246
 40
0.4148721231
 40
0.5419375422
 40
0.6635701521
 40
0.780095991
 40
0.8920247137
 40
1.0
 40
1.0
 40
1.0
 40
1.0
 10
15.545965355
 20
13.6681474332
 30
0.0
 10
15.5454322285
 20
13.6680410117
 30
0.0
 10
15.5443925554
 20
13.6678001426
 30
0.0
 10
15.5428914465
 20
13.6673440409
 30
0.0
 10
15.5414866821
 20
13.6668023446
 30
0.0
 10
15.5401860988
 20
13.6661779741
 30
0.0
 10
15.5389968766
 20
13.6654740942
 30
0.0
 10
15.5379255889
 20
13.664694308
 30
0.0
 10
15.5369785958
 20
13.663842788
 30
0.0
 10
15.5364249324
 20
13.6632202448
 30
0.0
 10
15.5361727125
 20
13.6628995488
 30
0.0
  0
SPLINE
  5
384
100
AcDbEntity
  8
LAYER_FEATURE
100
AcDbSpline
 62
7
  6
CONTINUOUS
 70
0
 71
3
 72
15
 73
11
 74
0
 42
0.0000001
 43
0.0000001
 44
0.0000000001
 40
0.0
 40
0.0
 40
0.0
 40
0.0
 40
0.1087958485
 40
0.2210215246
 40
0.337474929
 40
0.4588173349
 40
0.5855155477
 40
0.7178656758
 40
0.8560347274
 40
1.0
 40
1.0
 40
1.0
 40
1.0
 10
16.030752174
 20
13.5011225679
 30
0.0
 10
16.0307627025
 20
13.501521082
 30
0.0
 10
16.0307331573
 20
13.5023327669
 30
0.0
 10
16.0305431576
 20
13.5035572099
 30
0.0
 10
16.0302083946
 20
13.5047978123
 30
0.0
 10
16.0297312183
 20
13.5060474796
 30
0.0
 10
16.0291145177
 20
13.5072995123
 30
0.0
 10
16.0283619299
 20
13.5085472289
 30
0.0
 10
16.0274777587
 20
13.5097837643
 30
0.0
 10
16.0268171933
 20
13.5105802461
 30
0.0
 10
16.0264674479
 20
13.5109751608
 30
0.0
  0
SPLINE
  5
385
100
AcDbEntity
  8
LAYER_FEATURE
100
AcDbSpline
 62
7
  6
CONTINUOUS
 70
0
 71
3
 72
15
 73
11
 74
0
 42
0.0000001
 43
0.0000001
 44
0.0000000001
 40
0.0
 40
0.0
 40
0.0
 40
0.0
 40
0.1373833379
 40
0.271969572
 40
0.4033040241
 40
0.5310231223
 40
0.6547893893
 40
0.7743264472
 40
0.8894457859
 40
1.0
 40
1.0
 40
1.0
 40
1.0
 10
15.9817354725
 20
13.5319135511
 30
0.0
 10
15.9810992827
 20
13.5319776303
 30
0.0
 10
15.9798367451
 20
13.532075754
 30
0.0
 10
15.9779598098
 20
13.5321316962
 30
0.0
 10
15.9761272978
 20
13.5320946779
 30
0.0
 10
15.9743494358
 20
13.5319649437
 30
0.0
 10
15.9726359694
 20
13.53174314
 30
0.0
 10
15.9709962581
 20
13.5314304863
 30
0.0
 10
15.9694394952
 20
13.5310286394
 30
0.0
 10
15.9684421119
 20
13.5306958864
 30
0.0
 10
15.9679606512
 20
13.5305143711
 30
0.0
  0
SPLINE
  5
386
100
AcDbEntity
  8
LAYER_FEATURE
100
AcDbSpline
 62
7
  6
CONTINUOUS
 70
0
 71
3
 72
11
 73
7
 74
0
 42
0.0000001
 43
0.0000001
 44
0.0000000001
 40
0.0
 40
0.0
 40
0.0
 40
0.0
 40
0.2661372115
 40
0.5211684291
 40
0.7655397428
 40
1.0
 40
1.0
 40
1.0
 40
1.0
 10
15.9679606512
 20
13.5305143711
 30
0.0
 10
15.9666537952
 20
13.530021674
 30
0.0
 10
15.9641282812
 20
13.5289637019
 30
0.0
 10
15.9605554558
 20
13.5271165598
 30
0.0
 10
15.9572980512
 20
13.5250525455
 30
0.0
 10
15.9553094673
 20
13.5235082795
 30
0.0
 10
15.9543788014
 20
13.522703436
 30
0.0
  0
SPLINE
  5
387
100
AcDbEntity
  8
LAYER_FEATURE
100
AcDbSpline
 62
7
  6
CONTINUOUS
 70
0
 71
3
 72
49
 73
45
 74
0
 42
0.0000001
 43
0.0000001
 44
0.0000000001
 40
0.0
 40
0.0
 40
0.0
 40
0.0
 40
0.0108400519
 40
0.0217905635
 40
0.0328850524
 40
0.0441575155
 40
0.0556393279
 40
0.0673579473
 40
0.0915891192
 40
0.1041506082
 40
0.1170260772
 40
0.1437524873
 40
0.1576242233
 40
0.1718365584
 40
0.2012741839
 40
0.2320432372
 40
0.2640824544
 40
0.2973029461
 40
0.3315925655
 40
0.3668198066
 40
0.4028373142
 40
0.4394850917
 40
0.4765934804
 40
0.5139859767
 40
0.5514819408
 40
0.5888992427
 40
0.6260568849
 40
0.6627776433
 40
0.6988907634
 40
0.73423476
 40
0.7686603715
 40
0.8020337311
 40
0.8342398325
 40
0.8498777172
 40
0.8651913116
 40
0.8801733789
 40
0.8948186174
 40
0.9091238774
 40
0.9230883871
 40
0.9367138543
 40
0.9500045388
 40
0.9629674139
 40
0.9756133973
 40
1.0
 40
1.0
 40
1.0
 40
1.0
 10
15.824178516
 20
13.574162716
 30
0.0
 10
15.8240806466
 20
13.573580911
 30
0.0
 10
15.823927021
 20
13.5724036774
 30
0.0
 10
15.8238240511
 20
13.5706153964
 30
0.0
 10
15.823847878
 20
13.56880073
 30
0.0
 10
15.8239983208
 20
13.5669632542
 30
0.0
 10
15.8242750814
 20
13.5651061708
 30
0.0
 10
15.8248175595
 20
13.5625808863
 30
0.0
 10
15.8256104741
 20
13.5600549746
 30
0.0
 10
15.8266299552
 20
13.5575503836
 30
0.0
 10
15.8278383589
 20
13.5549800597
 30
0.0
 10
15.8292766285
 20
13.5524438512
 30
0.0
 10
15.830920038
 20
13.5499534574
 30
0.0
 10
15.8327566722
 20
13.5474170081
 30
0.0
 10
15.8353359039
 20
13.5442880776
 30
0.0
 10
15.8388145978
 20
13.5406622207
 30
0.0
 10
15.8426878151
 20
13.5371473027
 30
0.0
 10
15.8469276319
 20
13.5337684543
 30
0.0
 10
15.8515037054
 20
13.530549699
 30
0.0
 10
15.8563831996
 20
13.5275140654
 30
0.0
 10
15.8615310881
 20
13.5246833052
 30
0.0
 10
15.8669103833
 20
13.5220777422
 30
0.0
 10
15.8724824109
 20
13.5197161031
 30
0.0
 10
15.8782070913
 20
13.5176153744
 30
0.0
 10
15.8840432349
 20
13.5157906708
 30
0.0
 10
15.8899488453
 20
13.5142551226
 30
0.0
 10
15.8958814303
 20
13.5130197783
 30
0.0
 10
15.9017983142
 20
13.5120935244
 30
0.0
 10
15.9076569612
 20
13.5114830253
 30
0.0
 10
15.9134152663
 20
13.511192678
 30
0.0
 10
15.9190319607
 20
13.5112245994
 30
0.0
 10
15.92446659
 20
13.511578599
 30
0.0
 10
15.9288540001
 20
13.5121454607
 30
0.0
 10
15.9322362509
 20
13.5127621619
 30
0.0
 10
15.9346786442
 20
13.5132982984
 30
0.0
 10
15.9370470724
 20
13.5139115517
 30
0.0
 10
15.939337291
 20
13.5146008563
 30
0.0
 10
15.9415451695
 20
13.5153649782
 30
0.0
 10
15.9436667325
 20
13.516202556
 30
0.0
 10
15.9456981547
 20
13.5171121382
 30
0.0
 10
15.947635728
 20
13.5180920378
 30
0.0
 10
15.9494761137
 20
13.5191406835
 30
0.0
 10
15.9517674209
 20
13.520609667
 30
0.0
 10
15.9533748791
 20
13.5218352401
 30
0.0
 10
15.9543788014
 20
13.522703436
 30
0.0
  0
SPLINE
  5
388
100
AcDbEntity
  8
LAYER_FEATURE
100
AcDbSpline
 62
7
  6
CONTINUOUS
 70
0
 71
3
 72
14
 73
10
 74
0
 42
0.0000001
 43
0.0000001
 44
0.0000000001
 40
0.0
 40
0.0
 40
0.0
 40
0.0
 40
0.1196466491
 40
0.2402915429
 40
0.3622090824
 40
0.4856797624
 40
0.6109716892
 40
0.7383322369
 40
1.0
 40
1.0
 40
1.0
 40
1.0
 10
15.824178516
 20
13.574162716
 30
0.0
 10
15.8242694886
 20
13.5747035216
 30
0.0
 10
15.8244178517
 20
13.5757957278
 30
0.0
 10
15.8245387347
 20
13.5774525168
 30
0.0
 10
15.8245584759
 20
13.579131162
 30
0.0
 10
15.8244771459
 20
13.5808291991
 30
0.0
 10
15.824294832
 20
13.5825445085
 30
0.0
 10
15.8239142471
 20
13.5848718841
 30
0.0
 10
15.8234818009
 20
13.5866062538
 30
0.0
 10
15.8231345377
 20
13.5877542419
 30
0.0
  0
SPLINE
  5
389
100
AcDbEntity
  8
LAYER_FEATURE
100
AcDbSpline
 62
7
  6
CONTINUOUS
 70
0
 71
3
 72
15
 73
11
 74
0
 42
0.0000001
 43
0.0000001
 44
0.0000000001
 40
0.0
 40
0.0
 40
0.0
 40
0.0
 40
0.1075369872
 40
0.2198026976
 40
0.3370717559
 40
0.4595155858
 40
0.5871608621
 40
0.7199197551
 40
0.8576316002
 40
1.0
 40
1.0
 40
1.0
 40
1.0
 10
15.8231345377
 20
13.5877542419
 30
0.0
 10
15.8230068351
 20
13.5881764032
 30
0.0
 10
15.8227003516
 20
13.5890260655
 30
0.0
 10
15.8221099509
 20
13.5902780725
 30
0.0
 10
15.8213828354
 20
13.5915271386
 30
0.0
 10
15.8205232979
 20
13.5927663449
 30
0.0
 10
15.819536081
 20
13.5939890437
 30
0.0
 10
15.8184266722
 20
13.5951886704
 30
0.0
 10
15.8172012509
 20
13.5963585638
 30
0.0
 10
15.8163252539
 20
13.5971027586
 30
0.0
 10
15.8158702684
 20
13.5974687375
 30
0.0
  0
SPLINE
  5
38A
100
AcDbEntity
  8
LAYER_FEATURE
100
AcDbSpline
 62
7
  6
CONTINUOUS
 70
0
 71
3
 72
14
 73
10
 74
0
 42
0.0000001
 43
0.0000001
 44
0.0000000001
 40
0.0
 40
0.0
 40
0.0
 40
0.0
 40
0.1414983869
 40
0.2787233899
 40
0.4113306522
 40
0.5390999064
 40
0.6618712821
 40
0.7795855475
 40
1.0
 40
1.0
 40
1.0
 40
1.0
 10
15.7680379146
 20
13.6131147042
 30
0.0
 10
15.767440599
 20
13.613092641
 30
0.0
 10
15.7662648505
 20
13.6130189116
 30
0.0
 10
15.7645384491
 20
13.6128145466
 30
0.0
 10
15.7628840055
 20
13.6125190047
 30
0.0
 10
15.761310832
 20
13.6121339869
 30
0.0
 10
15.7598271637
 20
13.6116612933
 30
0.0
 10
15.7580201751
 20
13.6109341785
 30
0.0
 10
15.7567588589
 20
13.6102434172
 30
0.0
 10
15.7559909271
 20
13.6097169222
 30
0.0
  0
SPLINE
  5
38B
100
AcDbEntity
  8
LAYER_FEATURE
100
AcDbSpline
 62
7
  6
CONTINUOUS
 70
0
 71
3
 72
13
 73
9
 74
0
 42
0.0000001
 43
0.0000001
 44
0.0000000001
 40
0.0
 40
0.0
 40
0.0
 40
0.0
 40
0.2634291697
 40
0.5168005681
 40
0.6402201444
 40
0.7617308183
 40
0.8815767448
 40
1.0
 40
1.0
 40
1.0
 40
1.0
 10
15.7559909271
 20
13.6097169222
 30
0.0
 10
15.7549706965
 20
13.6090174508
 30
0.0
 10
15.7530311642
 20
13.6075515897
 30
0.0
 10
15.7508264962
 20
13.6054988522
 30
0.0
 10
15.7492521852
 20
13.6037663273
 30
0.0
 10
15.748173713
 20
13.6024343087
 30
0.0
 10
15.7471890279
 20
13.6010603719
 30
0.0
 10
15.7465927596
 20
13.6001126855
 30
0.0
 10
15.7463113307
 20
13.5996330784
 30
0.0
  0
SPLINE
  5
38C
100
AcDbEntity
  8
LAYER_FEATURE
100
AcDbSpline
 62
7
  6
CONTINUOUS
 70
0
 71
3
 72
49
 73
45
 74
0
 42
0.0000001
 43
0.0000001
 44
0.0000000001
 40
0.0
 40
0.0
 40
0.0
 40
0.0
 40
0.0116849416
 40
0.0236307945
 40
0.0358561351
 40
0.0483792018
 40
0.0743668177
 40
0.0878588847
 40
0.1016884131
 40
0.1158580324
 40
0.1303677614
 40
0.1452152374
 40
0.1603959454
 40
0.1917240108
 40
0.2242828236
 40
0.2579723497
 40
0.2926711787
 40
0.3282402282
 40
0.3645260999
 40
0.401364169
 40
0.4385814782
 40
0.4759994948
 40
0.5134367815
 40
0.5507116235
 40
0.5876446518
 40
0.6240615018
 40
0.659795548
 40
0.6946907648
 40
0.7286047687
 40
0.7614121117
 40
0.7930079043
 40
0.8233118534
 40
0.8522727924
 40
0.8662461903
 40
0.8798806676
 40
0.9061442919
 40
0.9187984114
 40
0.931147878
 40
0.9432091293
 40
0.9550018513
 40
0.9665489983
 40
0.9778776808
 40
0.9890179781
 40
1.0
 40
1.0
 40
1.0
 40
1.0
 10
15.6103295939
 20
13.6352419589
 30
0.0
 10
15.6104402313
 20
13.6346149183
 30
0.0
 10
15.6107049993
 20
13.6333537394
 30
0.0
 10
15.6112229099
 20
13.6314686574
 30
0.0
 10
15.6118648937
 20
13.6295737918
 30
0.0
 10
15.6128970814
 20
13.6270078186
 30
0.0
 10
15.6141654236
 20
13.6244673252
 30
0.0
 10
15.6156448192
 20
13.6219665996
 30
0.0
 10
15.616884212
 20
13.6200746779
 30
0.0
 10
15.6182370978
 20
13.6181936268
 30
0.0
 10
15.6197010944
 20
13.6163267114
 30
0.0
 10
15.6212735379
 20
13.6144772765
 30
0.0
 10
15.6235345536
 20
13.6120134539
 30
0.0
 10
15.6266201108
 20
13.6090008748
 30
0.0
 10
15.6306663164
 20
13.6055459171
 30
0.0
 10
15.6350655524
 20
13.6022381206
 30
0.0
 10
15.6397861131
 20
13.599101246
 30
0.0
 10
15.6447941718
 20
13.5961577058
 30
0.0
 10
15.6500537487
 20
13.5934286263
 30
0.0
 10
15.6555270461
 20
13.590933608
 30
0.0
 10
15.661174703
 20
13.5886905912
 30
0.0
 10
15.66695609
 20
13.586715712
 30
0.0
 10
15.6728296062
 20
13.5850231814
 30
0.0
 10
15.6787529873
 20
13.5836251784
 30
0.0
 10
15.6846836171
 20
13.5825317609
 30
0.0
 10
15.6905788437
 20
13.5817507944
 30
0.0
 10
15.6963962964
 20
13.5812878995
 30
0.0
 10
15.7020941989
 20
13.5811464185
 30
0.0
 10
15.7076316896
 20
13.5813274068
 30
0.0
 10
15.7129690913
 20
13.5818296364
 30
0.0
 10
15.7180683214
 20
13.5826496707
 30
0.0
 10
15.7228927412
 20
13.5837818065
 30
0.0
 10
15.7267003743
 20
13.584993208
 30
0.0
 10
15.7295721463
 20
13.5861160051
 30
0.0
 10
15.7322561268
 20
13.5873066076
 30
0.0
 10
15.7347915653
 20
13.5886497958
 30
0.0
 10
15.7371503061
 20
13.59014872
 30
0.0
 10
15.738794115
 20
13.5913241113
 30
0.0
 10
15.7403312903
 20
13.5925623909
 30
0.0
 10
15.7417590874
 20
13.5938613617
 30
0.0
 10
15.743074838
 20
13.5952187405
 30
0.0
 10
15.744276163
 20
13.596632154
 30
0.0
 10
15.7453606269
 20
13.5980989411
 30
0.0
 10
15.746008472
 20
13.5991169512
 30
0.0
 10
15.7463113307
 20
13.5996330784
 30
0.0
  0
SPLINE
  5
38D
100
AcDbEntity
  8
LAYER_FEATURE
100
AcDbSpline
 62
7
  6
CONTINUOUS
 70
0
 71
3
 72
11
 73
7
 74
0
 42
0.0000001
 43
0.0000001
 44
0.0000000001
 40
0.0
 40
0.0
 40
0.0
 40
0.0
 40
0.234949702
 40
0.4792983479
 40
0.734080326
 40
1.0
 40
1.0
 40
1.0
 40
1.0
 10
15.6103295939
 20
13.6352419589
 30
0.0
 10
15.6101222238
 20
13.6364172337
 30
0.0
 10
15.6095648527
 20
13.6387927351
 30
0.0
 10
15.6083465834
 20
13.6423228113
 30
0.0
 10
15.6067385194
 20
13.6458662018
 30
0.0
 10
15.605440775
 20
13.6481748454
 30
0.0
 10
15.6047339128
 20
13.6493258659
 30
0.0
  0
SPLINE
  5
38E
100
AcDbEntity
  8
LAYER_FEATURE
100
AcDbSpline
 62
7
  6
CONTINUOUS
 70
0
 71
3
 72
15
 73
11
 74
0
 42
0.0000001
 43
0.0000001
 44
0.0000000001
 40
0.0
 40
0.0
 40
0.0
 40
0.0
 40
0.1096562939
 40
0.2240239384
 40
0.343023754
 40
0.4665239423
 40
0.59429496
 40
0.7260369805
 40
0.8614162103
 40
1.0
 40
1.0
 40
1.0
 40
1.0
 10
15.6047339128
 20
13.6493258659
 30
0.0
 10
15.6044732417
 20
13.6497503301
 30
0.0
 10
15.6039047804
 20
13.6505958452
 30
0.0
 10
15.6029414731
 20
13.6518221433
 30
0.0
 10
15.6018547935
 20
13.6530266579
 30
0.0
 10
15.6006509077
 20
13.6542027213
 30
0.0
 10
15.5993363848
 20
13.6553439252
 30
0.0
 10
15.5979184672
 20
13.6564440806
 30
0.0
 10
15.5964050436
 20
13.6574970255
 30
0.0
 10
15.5953491387
 20
13.6581567378
 30
0.0
 10
15.5948075838
 20
13.658477694
 30
0.0
  0
ENDSEC
  0
SECTION
  2
OBJECTS
  0
DICTIONARY
  5
C
100
AcDbDictionary
280
0
281
1
  3
ACAD_GROUP
350
D
  3
ACAD_MLINESTYLE
350
17
  3
ACAD_LAYOUT
350
1A
  3
ACAD_PLOTSETTINGS
350
19
  3
ACAD_PLOTSTYLENAME
350
E
  0
DICTIONARY
  5
D
102
{ACAD_REACTORS
330
C
102
}
100
AcDbDictionary
280
0
281
1
  0
ACDBDICTIONARYWDFLT
  5
E
102
{ACAD_REACTORS
330
C
102
}
100
AcDbDictionary
281
1
  3
Normal
350
F
100
AcDbDictionaryWithDefault
340
F
  0
DICTIONARY
  5
17
102
{ACAD_REACTORS
330
C
102
}
100
AcDbDictionary
280
0
281
1
  3
Standard
350
18
  0
DICTIONARY
  5
19
102
{ACAD_REACTORS
330
C
102
}
100
AcDbDictionary
281
1
  0
DICTIONARY
  5
1A
102
{ACAD_REACTORS
330
C
102
}
100
AcDbDictionary
281
1
  3
Model
350
38F
  3
Layout1
350
390
  0
ACDBPLACEHOLDER
  5
F
102
{ACAD_REACTORS
330
E
102
}
  0
MLINESTYLE
  5
18
102
{ACAD_REACTORS
330
17
102
}
100
AcDbMlineStyle
  2
STANDARD
 70
0
  3

 62
256
 51
90.0
 52
90.0
 71
2
 49
0.5
 62
256
  6
BYLAYER
 49
-0.5
 62
256
  6
BYLAYER
  0
LAYOUT
  5
38F
102
{ACAD_REACTORS
330
1A
102
}
100
AcDbPlotSettings
  1

  2
none_device
  4
ANSI_C_(22.00_x_17.00_Inches)
  6

 40
0.0
 41
0.0
 42
0.0
 43
0.0
 44
558.8
 45
431.8
 46
0.0
 47
0.0
 48
0.0
 49
0.0
140
0.0
141
0.0
142
1.0
143
1.0
 70
1024
 72
0
 73
0
 74
0
  7

 75
0
147
1.0
148
0.0
149
0.0
100
AcDbLayout
  1
Model
 70
0
 71
0
 10
0.0
 20
0.0
 11
22.0
 21
17.0
 12
0.0
 22
0.0
 32
0.0
 14
0.0
 24
0.0
 34
0.0
 15
0.0
 25
0.0
 35
0.0
146
0.0
 13
0.0
 23
0.0
 33
0.0
 16
1.0
 26
0.0
 36
0.0
 17
0.0
 27
1.0
 37
0.0
 76
0
330
222
345
0
346
0
  0
LAYOUT
  5
390
102
{ACAD_REACTORS
330
1A
102
}
100
AcDbPlotSettings
  1

  2
none_device
  4
ANSI_C_(22.00_x_17.00_Inches)
  6

 40
0.0
 41
0.0
 42
0.0
 43
0.0
 44
558.8
 45
431.8
 46
0.0
 47
0.0
 48
0.0
 49
0.0
140
0.0
141
0.0
142
1.0
143
1.0
 70
0
 72
0
 73
0
 74
0
  7

 75
0
147
1.0
148
0.0
149
0.0
100
AcDbLayout
  1
Layout1
 70
0
 71
1
 10
0.0
 20
0.0
 11
22.0
 21
17.0
 12
0.0
 22
0.0
 32
0.0
 14
0.0
 24
0.0
 34
0.0
 15
0.0
 25
0.0
 35
0.0
146
0.0
 13
0.0
 23
0.0
 33
0.0
 16
1.0
 26
0.0
 36
0.0
 17
0.0
 27
1.0
 37
0.0
 76
0
330
223
345
0
346
0
  0
ENDSEC
  0
EOF