999
DXF file: _cgs_temp_output.dxf
999
Pro/ENGINEER 2016360 by Parametric Technology Corporation
  0
SECTION
  2
HEADER
  9
$ACADVER
  1
AC1021
  9
$DWGCODEPAGE
  3
ANSI_1252
  9
$EXTMAX
 10
22.0
 20
17.0
 30
0.0
  9
$EXTMIN
 10
0.0
 20
0.0
 30
0.0
  9
$LIMMIN
 10
0.0
 20
0.0
  9
$LIMMAX
 10
22.0
 20
17.0
  9
$VIEWCTR
 10
11.0
 20
8.5
  9
$VIEWSIZE
 40
17.0
  9
$CLAYER
  8
0
  9
$LTSCALE
 40
1.21
  9
$CELTYPE
  6
BYLAYER
  9
$DIMSCALE
 40
1.0
  9
$DIMASZ
 40
0.1875
  9
$DIMEXO
 40
0.0625
  9
$DIMDLI
 40
0.836
  9
$DIMEXE
 40
0.125
  9
$DIMCEN
 40
0.198
  9
$DIMLFAC
 40
1.0
  9
$DIMBLK
  1
_CLOSED
  9
$DIMALT
 70
0
  9
$DIMALTF
 40
25.4
  9
$DIMTXT
 40
0.15625
  9
$DIMTOL
 70
0
  9
$DIMLIM
 70
0
  9
$DIMTFAC
 40
1.0
  9
$DIMGAP
 40
0.09
  9
$DIMDSEP
 70
46
  9
$AUNITS
 70
0
  9
$PDMODE
 70
3
  9
$PDSIZE
 40
0.3125
  9
$HANDSEED
  5
306
  9
$TILEMODE
 70
1
  9
$MEASUREMENT
 70
0
  9
$INSUNITS
 70
1
  0
ENDSEC
  0
SECTION
  2
CLASSES
  0
CLASS
  1
ACDBDICTIONARYWDFLT
  2
AcDbDictionaryWithDefault
  3
AutoCAD 2000
 90
0
 91
1
280
0
281
0
  0
CLASS
  1
ACDBPLACEHOLDER
  2
AcDbPlaceHolder
  3
AutoCAD 2000
 90
0
 91
1
280
0
281
0
  0
CLASS
  1
LAYOUT
  2
AcDbLayout
  3
AutoCAD 2000
 90
0
 91
0
280
0
281
0
  0
ENDSEC
  0
SECTION
  2
TABLES
  0
TABLE
  2
VPORT
  5
8
100
AcDbSymbolTable
 70
2
  0
VPORT
  5
1F4
100
AcDbSymbolTableRecord
100
AcDbViewportTableRecord
  2
*ACTIVE
 70
0
 10
0.0
 20
0.0
 11
1.0
 21
1.0
 12
11.0
 22
8.5
 13
0.0
 23
0.0
 14
1.0
 24
1.0
 15
0.0
 25
0.0
 16
0.0
 26
0.0
 36
1.0
 17
0.0
 27
0.0
 37
0.0
 40
17.0
 41
1.2941176471
 42
50.0
 43
0.0
 44
0.0
 50
0.0
 51
0.0
 71
0
 72
100
 73
1
 74
1
 75
0
 76
0
 77
0
 78
0
  0
ENDTAB
  0
TABLE
  2
LTYPE
  5
5
100
AcDbSymbolTable
 70
6
  0
LTYPE
  5
14
100
AcDbSymbolTableRecord
100
AcDbLinetypeTableRecord
  2
BYBLOCK
 70
0
  3

 72
65
 73
0
 40
0.0
  0
LTYPE
  5
15
100
AcDbSymbolTableRecord
100
AcDbLinetypeTableRecord
  2
BYLAYER
 70
0
  3

 72
65
 73
0
 40
0.0
  0
LTYPE
  5
16
100
AcDbSymbolTableRecord
100
AcDbLinetypeTableRecord
  2
CONTINUOUS
 70
64
  3
Solid line
 72
65
 73
0
 40
0.0
  0
LTYPE
  5
1F5
100
AcDbSymbolTableRecord
100
AcDbLinetypeTableRecord
  2
CENTER
 70
64
  3
____ _ ____ _ ____ _ ____ _ ____ _ ____ _ ____
 72
65
 73
4
 40
0.6
 49
0.375
 74
0
 49
-0.075
 74
0
 49
0.075
 74
0
 49
-0.075
 74
0
  0
LTYPE
  5
1F6
100
AcDbSymbolTableRecord
100
AcDbLinetypeTableRecord
  2
HIDDEN
 70
64
  3
- - - - - - - - - - - - - - - - - - - -
 72
65
 73
2
 40
0.2
 49
0.1
 74
0
 49
-0.1
 74
0
  0
LTYPE
  5
1F7
100
AcDbSymbolTableRecord
100
AcDbLinetypeTableRecord
  2
PHANTOM
 70
64
  3
_____ _ _ _____ _ _ _____ _ _ _____
 72
65
 73
6
 40
0.8
 49
0.45
 74
0
 49
-0.05
 74
0
 49
0.1
 74
0
 49
-0.05
 74
0
 49
0.1
 74
0
 49
-0.05
 74
0
  0
LTYPE
  5
1F8
100
AcDbSymbolTableRecord
100
AcDbLinetypeTableRecord
  2
DOT
 70
64
  3
. . . . . . . . . . . . . . . . . . . .
 72
65
 73
2
 40
0.2
 49
0.1
 74
0
 49
-0.1
 74
0
  0
LTYPE
  5
1F9
100
AcDbSymbolTableRecord
100
AcDbLinetypeTableRecord
  2
DASHED
 70
64
  3
- - - - - - - - - - - - - - - - - - - -
 72
65
 73
2
 40
0.2
 49
0.1
 74
0
 49
-0.1
 74
0
  0
ENDTAB
  0
TABLE
  2
LAYER
  5
2
100
AcDbSymbolTable
 70
36
  0
LAYER
  5
10
100
AcDbSymbolTableRecord
100
AcDbLayerTableRecord
  2
0
 70
0
 62
7
  6
CONTINUOUS
370
-3
390
F
  0
LAYER
  5
1FA
100
AcDbSymbolTableRecord
100
AcDbLayerTableRecord
  2
DEFAULT_1
 70
0
 62
7
  6
CENTER
370
-3
390
F
  0
LAYER
  5
1FB
100
AcDbSymbolTableRecord
100
AcDbLayerTableRecord
  2
DEFAULT_2
 70
0
 62
8
  6
HIDDEN
370
-3
390
F
  0
LAYER
  5
1FC
100
AcDbSymbolTableRecord
100
AcDbLayerTableRecord
  2
DEFAULT_3
 70
0
 62
7
  6
PHANTOM
370
-3
390
F
  0
LAYER
  5
1FD
100
AcDbSymbolTableRecord
100
AcDbLayerTableRecord
  2
01_ALL_DTM_PLN
 70
0
 62
7
  6
CONTINUOUS
370
-3
390
F
  0
LAYER
  5
1FE
100
AcDbSymbolTableRecord
100
AcDbLayerTableRecord
  2
01__ASM_ALL_DTM_PLN
 70
0
 62
7
  6
CONTINUOUS
370
-3
390
F
  0
LAYER
  5
1FF
100
AcDbSymbolTableRecord
100
AcDbLayerTableRecord
  2
01__ASM_DEF_DTM_PLN
 70
0
 62
7
  6
CONTINUOUS
370
-3
390
F
  0
LAYER
  5
200
100
AcDbSymbolTableRecord
100
AcDbLayerTableRecord
  2
01___PRT_ALL_DTM_PLN
 70
0
 62
7
  6
CONTINUOUS
370
-3
390
F
  0
LAYER
  5
201
100
AcDbSymbolTableRecord
100
AcDbLayerTableRecord
  2
01___PRT_DEF_DTM_PLN
 70
0
 62
7
  6
CONTINUOUS
370
-3
390
F
  0
LAYER
  5
202
100
AcDbSymbolTableRecord
100
AcDbLayerTableRecord
  2
02_ALL_AXES
 70
0
 62
7
  6
CONTINUOUS
370
-3
390
F
  0
LAYER
  5
203
100
AcDbSymbolTableRecord
100
AcDbLayerTableRecord
  2
02__ASM_ALL_AXES
 70
0
 62
7
  6
CONTINUOUS
370
-3
390
F
  0
LAYER
  5
204
100
AcDbSymbolTableRecord
100
AcDbLayerTableRecord
  2
02___PRT_ALL_AXES
 70
0
 62
7
  6
CONTINUOUS
370
-3
390
F
  0
LAYER
  5
205
100
AcDbSymbolTableRecord
100
AcDbLayerTableRecord
  2
03_ALL_CURVES
 70
0
 62
7
  6
CONTINUOUS
370
-3
390
F
  0
LAYER
  5
206
100
AcDbSymbolTableRecord
100
AcDbLayerTableRecord
  2
03__ASM_ALL_CURVES
 70
0
 62
7
  6
CONTINUOUS
370
-3
390
F
  0
LAYER
  5
207
100
AcDbSymbolTableRecord
100
AcDbLayerTableRecord
  2
03___PRT_ALL_CURVES
 70
0
 62
7
  6
CONTINUOUS
370
-3
390
F
  0
LAYER
  5
208
100
AcDbSymbolTableRecord
100
AcDbLayerTableRecord
  2
04_ALL_DTM_PNT
 70
0
 62
7
  6
CONTINUOUS
370
-3
390
F
  0
LAYER
  5
209
100
AcDbSymbolTableRecord
100
AcDbLayerTableRecord
  2
04__ASM_ALL_DTM_PNT
 70
0
 62
7
  6
CONTINUOUS
370
-3
390
F
  0
LAYER
  5
20A
100
AcDbSymbolTableRecord
100
AcDbLayerTableRecord
  2
04___PRT_ALL_DTM_PNT
 70
0
 62
7
  6
CONTINUOUS
370
-3
390
F
  0
LAYER
  5
20B
100
AcDbSymbolTableRecord
100
AcDbLayerTableRecord
  2
05_ALL_DTM_CSYS
 70
0
 62
7
  6
CONTINUOUS
370
-3
390
F
  0
LAYER
  5
20C
100
AcDbSymbolTableRecord
100
AcDbLayerTableRecord
  2
05__ASM_ALL_DTM_CSYS
 70
0
 62
7
  6
CONTINUOUS
370
-3
390
F
  0
LAYER
  5
20D
100
AcDbSymbolTableRecord
100
AcDbLayerTableRecord
  2
05__ASM_DEF_DTM_CSYS
 70
0
 62
7
  6
CONTINUOUS
370
-3
390
F
  0
LAYER
  5
20E
100
AcDbSymbolTableRecord
100
AcDbLayerTableRecord
  2
05___PRT_ALL_DTM_CSYS
 70
0
 62
7
  6
CONTINUOUS
370
-3
390
F
  0
LAYER
  5
20F
100
AcDbSymbolTableRecord
100
AcDbLayerTableRecord
  2
05___PRT_DEF_DTM_CSYS
 70
0
 62
7
  6
CONTINUOUS
370
-3
390
F
  0
LAYER
  5
210
100
AcDbSymbolTableRecord
100
AcDbLayerTableRecord
  2
06_ALL_SURFS
 70
0
 62
7
  6
CONTINUOUS
370
-3
390
F
  0
LAYER
  5
211
100
AcDbSymbolTableRecord
100
AcDbLayerTableRecord
  2
06__ASM_ALL_SURFS
 70
0
 62
7
  6
CONTINUOUS
370
-3
390
F
  0
LAYER
  5
212
100
AcDbSymbolTableRecord
100
AcDbLayerTableRecord
  2
06___PRT_ALL_SURFS
 70
0
 62
7
  6
CONTINUOUS
370
-3
390
F
  0
LAYER
  5
213
100
AcDbSymbolTableRecord
100
AcDbLayerTableRecord
  2
07__ASM_ALL_SKELETONS
 70
0
 62
7
  6
CONTINUOUS
370
-3
390
F
  0
ENDTAB
  0
TABLE
  2
STYLE
  5
3
100
AcDbSymbolTable
 70
1
  0
STYLE
  5
11
100
AcDbSymbolTableRecord
100
AcDbTextStyleTableRecord
  2
STANDARD
 70
0
 40
0.0
 41
0.8
 50
0.0
 71
0
 42
0.2
  3
txt
  4

  0
STYLE
  5
214
100
AcDbSymbolTableRecord
100
AcDbTextStyleTableRecord
  2
TEXTSTYLE_1
 70
0
 40
0.0
 41
0.8
 50
0.0
 71
0
 42
0.2
  3
gdt
  4

  0
ENDTAB
  0
TABLE
  2
VIEW
  5
6
100
AcDbSymbolTable
 70
0
  0
ENDTAB
  0
TABLE
  2
UCS
  5
7
100
AcDbSymbolTable
 70
0
  0
ENDTAB
  0
TABLE
  2
APPID
  5
9
100
AcDbSymbolTable
 70
1
  0
APPID
  5
215
100
AcDbSymbolTableRecord
100
AcDbRegAppTableRecord
  2
ACAD
 70
0
  0
ENDTAB
  0
TABLE
  2
BLOCK_RECORD
  5
1
100
AcDbSymbolTable
 70
0
  0
BLOCK_RECORD
  5
216
100
AcDbSymbolTableRecord
100
AcDbBlockTableRecord
  2
*Model_Space
  0
BLOCK_RECORD
  5
217
100
AcDbSymbolTableRecord
100
AcDbBlockTableRecord
  2
*Paper_Space
  0
ENDTAB
  0
TABLE
  2
DIMSTYLE
  5
A
100
AcDbSymbolTable
 70
1
100
AcDbDimStyleTable
 71
0
  0
DIMSTYLE
105
218
100
AcDbSymbolTableRecord
100
AcDbDimStyleTableRecord
  2
STANDARD
 70
0
  3

  4

 40
1.0
 41
0.1875
 42
0.0625
 43
0.38
 44
0.125
 45
0.0
 46
0.0
 47
0.0001
 48
0.0001
140
0.15625
141
0.09
142
0.0
143
25.4
144
1.0
145
0.0
146
1.0
147
0.09
 71
0.0
 72
0.0
 73
1
 74
1
 75
0
 76
0
 77
0
 78
4
 79
1
170
0
171
3
172
0
173
0
174
0
175
0
176
0
177
0
178
0
270
2
179
4
271
4
272
4
273
2
274
2
275
0
280
0
281
0
282
0
283
1
284
4
285
0
286
0
287
3
288
0
340
11
278
46
  0
ENDTAB
  0
ENDSEC
  0
SECTION
  2
BLOCKS
  0
BLOCK
  5
20
100
AcDbEntity
  8
0
100
AcDbBlockBegin
  2
*Model_Space
 70
0
 10
0.0
 20
0.0
 30
0.0
  3
*Model_Space
  1

  0
ENDBLK
  5
21
100
AcDbEntity
  8
0
100
AcDbBlockEnd
  0
BLOCK
  5
1C
100
AcDbEntity
  8
0
100
AcDbBlockBegin
  2
*Paper_Space
 70
0
 10
0.0
 20
0.0
 30
0.0
  3
*Paper_Space
  1

  0
ENDBLK
  5
1D
100
AcDbEntity
  8
0
100
AcDbBlockEnd
  0
ENDSEC
  0
SECTION
  2
ENTITIES
  0
MTEXT
  5
219
100
AcDbEntity
  8
0
100
AcDbMText
 62
7
  6
CONTINUOUS
  7
STANDARD
 71
1
 72
1
 10
15.9560215477
 20
0.9479130325
 30
0.0
 11
1.0
 21
0.0
 31
0.0
 44
0.9
  1
SCALE: 1:1.000
 40
0.3
 41
3.36
  0
LINE
  5
21A
100
AcDbEntity
  8
0
100
AcDbLine
 62
7
  6
CONTINUOUS
 10
0.0
 20
0.0
 11
0.0
 21
17.0
  0
LINE
  5
21B
100
AcDbEntity
  8
0
100
AcDbLine
 62
7
  6
CONTINUOUS
 10
0.0
 20
0.0
 11
22.0
 21
0.0
  0
LINE
  5
21C
100
AcDbEntity
  8
0
100
AcDbLine
 62
7
  6
CONTINUOUS
 10
0.0
 20
17.0
 11
22.0
 21
17.0
  0
LINE
  5
21D
100
AcDbEntity
  8
0
100
AcDbLine
 62
7
  6
CONTINUOUS
 10
22.0
 20
0.0
 11
22.0
 21
17.0
  0
LINE
  5
21E
100
AcDbEntity
  8
0
100
AcDbLine
 62
7
  6
CONTINUOUS
 10
5.2241172762
 20
5.7471198977
 11
5.2241172762
 21
5.6575134585
  0
LINE
  5
21F
100
AcDbEntity
  8
0
100
AcDbLine
 62
7
  6
CONTINUOUS
 10
5.3069120987
 20
5.2874961213
 11
5.2266802697
 21
5.6350183531
  0
LINE
  5
220
100
AcDbEntity
  8
0
100
AcDbLine
 62
7
  6
CONTINUOUS
 10
5.3312713503
 20
5.2681198977
 11
6.929463202
 21
5.2681198977
  0
LINE
  5
221
100
AcDbEntity
  8
0
100
AcDbLine
 62
7
  6
CONTINUOUS
 10
5.2924854942
 20
5.4361198977
 11
6.9682490581
 21
5.4361198977
  0
LINE
  5
222
100
AcDbEntity
  8
0
100
AcDbLine
 62
7
  6
CONTINUOUS
 10
7.0116172762
 20
5.7721198977
 11
5.2491172762
 21
5.7721198977
  0
LINE
  5
223
100
AcDbEntity
  8
0
100
AcDbLine
 62
7
  6
CONTINUOUS
 10
7.0366172762
 20
5.6575134585
 11
7.0366172762
 21
5.7471198977
  0
LINE
  5
224
100
AcDbEntity
  8
0
100
AcDbLine
 62
7
  6
CONTINUOUS
 10
6.9538224536
 20
5.2874961213
 11
7.0340542826
 21
5.6350183531
  0
LINE
  5
225
100
AcDbEntity
  8
0
100
AcDbLine
 62
7
  6
CONTINUOUS
 10
6.9771220839
 20
10.6000477814
 11
5.1646220839
 21
10.6000477814
  0
LINE
  5
226
100
AcDbEntity
  8
0
100
AcDbLine
 62
7
  6
CONTINUOUS
 10
5.1646220839
 20
10.6000477814
 11
5.1646220839
 21
14.6000477814
  0
LINE
  5
227
100
AcDbEntity
  8
0
100
AcDbLine
 62
7
  6
CONTINUOUS
 10
6.9771220839
 20
10.6000477814
 11
6.9771220839
 21
14.6000477814
  0
LINE
  5
228
100
AcDbEntity
  8
0
100
AcDbLine
 62
7
  6
CONTINUOUS
 10
5.1646220839
 20
14.6000477814
 11
6.9771220839
 21
14.6000477814
  0
LINE
  5
229
100
AcDbEntity
  8
0
100
AcDbLine
 62
7
  6
CONTINUOUS
 10
13.5603552569
 20
5.3766247054
 11
13.5603552569
 21
5.7126247054
  0
LINE
  5
22A
100
AcDbEntity
  8
0
100
AcDbLine
 62
7
  6
CONTINUOUS
 10
13.6734775631
 20
5.3440726496
 11
13.6972329508
 21
5.2411767611
  0
LINE
  5
22B
100
AcDbEntity
  8
0
100
AcDbLine
 62
7
  6
CONTINUOUS
 10
13.9234775631
 20
5.2411767611
 11
13.9472329508
 21
5.3440726496
  0
LINE
  5
22C
100
AcDbEntity
  8
0
100
AcDbLine
 62
7
  6
CONTINUOUS
 10
14.1734775631
 20
5.3440726496
 11
14.1972329508
 21
5.2411767611
  0
LINE
  5
22D
100
AcDbEntity
  8
0
100
AcDbLine
 62
7
  6
CONTINUOUS
 10
14.4234775631
 20
5.2411767611
 11
14.4472329508
 21
5.3440726496
  0
LINE
  5
22E
100
AcDbEntity
  8
0
100
AcDbLine
 62
7
  6
CONTINUOUS
 10
14.6734775631
 20
5.3440726496
 11
14.6972329508
 21
5.2411767611
  0
LINE
  5
22F
100
AcDbEntity
  8
0
100
AcDbLine
 62
7
  6
CONTINUOUS
 10
14.9234775631
 20
5.2411767611
 11
14.9472329508
 21
5.3440726496
  0
LINE
  5
230
100
AcDbEntity
  8
0
100
AcDbLine
 62
7
  6
CONTINUOUS
 10
15.1734775631
 20
5.3440726496
 11
15.1972329508
 21
5.2411767611
  0
LINE
  5
231
100
AcDbEntity
  8
0
100
AcDbLine
 62
7
  6
CONTINUOUS
 10
13.7381564935
 20
5.2086247054
 11
13.8825540204
 21
5.2086247054
  0
LINE
  5
232
100
AcDbEntity
  8
0
100
AcDbLine
 62
7
  6
CONTINUOUS
 10
14.2381564935
 20
5.2086247054
 11
14.3825540204
 21
5.2086247054
  0
LINE
  5
233
100
AcDbEntity
  8
0
100
AcDbLine
 62
7
  6
CONTINUOUS
 10
14.7381564935
 20
5.2086247054
 11
14.8825540204
 21
5.2086247054
  0
LINE
  5
234
100
AcDbEntity
  8
0
100
AcDbLine
 62
7
  6
CONTINUOUS
 10
15.2381564935
 20
5.2086247054
 11
15.3825540204
 21
5.2086247054
  0
LINE
  5
235
100
AcDbEntity
  8
0
100
AcDbLine
 62
7
  6
CONTINUOUS
 10
15.7381564935
 20
5.2086247054
 11
15.8825540204
 21
5.2086247054
  0
LINE
  5
236
100
AcDbEntity
  8
0
100
AcDbLine
 62
7
  6
CONTINUOUS
 10
16.2381564935
 20
5.2086247054
 11
16.3825540204
 21
5.2086247054
  0
LINE
  5
237
100
AcDbEntity
  8
0
100
AcDbLine
 62
7
  6
CONTINUOUS
 10
16.7381564935
 20
5.2086247054
 11
16.8825540204
 21
5.2086247054
  0
LINE
  5
238
100
AcDbEntity
  8
0
100
AcDbLine
 62
7
  6
CONTINUOUS
 10
17.2381564935
 20
5.2086247054
 11
17.3825540204
 21
5.2086247054
  0
LINE
  5
239
100
AcDbEntity
  8
0
100
AcDbLine
 62
7
  6
CONTINUOUS
 10
15.4234775631
 20
5.2411767611
 11
15.4472329508
 21
5.3440726496
  0
LINE
  5
23A
100
AcDbEntity
  8
0
100
AcDbLine
 62
7
  6
CONTINUOUS
 10
13.5603552569
 20
5.3766247054
 11
13.6325540204
 21
5.3766247054
  0
LINE
  5
23B
100
AcDbEntity
  8
0
100
AcDbLine
 62
7
  6
CONTINUOUS
 10
13.9881564935
 20
5.3766247054
 11
14.1325540204
 21
5.3766247054
  0
LINE
  5
23C
100
AcDbEntity
  8
0
100
AcDbLine
 62
7
  6
CONTINUOUS
 10
14.4881564935
 20
5.3766247054
 11
14.6325540204
 21
5.3766247054
  0
LINE
  5
23D
100
AcDbEntity
  8
0
100
AcDbLine
 62
7
  6
CONTINUOUS
 10
14.9881564935
 20
5.3766247054
 11
15.1325540204
 21
5.3766247054
  0
LINE
  5
23E
100
AcDbEntity
  8
0
100
AcDbLine
 62
7
  6
CONTINUOUS
 10
15.4881564935
 20
5.3766247054
 11
15.6325540204
 21
5.3766247054
  0
LINE
  5
23F
100
AcDbEntity
  8
0
100
AcDbLine
 62
7
  6
CONTINUOUS
 10
15.9881564935
 20
5.3766247054
 11
16.1325540204
 21
5.3766247054
  0
LINE
  5
240
100
AcDbEntity
  8
0
100
AcDbLine
 62
7
  6
CONTINUOUS
 10
16.4881564935
 20
5.3766247054
 11
16.6325540204
 21
5.3766247054
  0
LINE
  5
241
100
AcDbEntity
  8
0
100
AcDbLine
 62
7
  6
CONTINUOUS
 10
16.9881564935
 20
5.3766247054
 11
17.1325540204
 21
5.3766247054
  0
LINE
  5
242
100
AcDbEntity
  8
0
100
AcDbLine
 62
7
  6
CONTINUOUS
 10
17.4881564935
 20
5.3766247054
 11
17.5603552569
 21
5.3766247054
  0
LINE
  5
243
100
AcDbEntity
  8
0
100
AcDbLine
 62
7
  6
CONTINUOUS
 10
15.6734775631
 20
5.3440726496
 11
15.6972329508
 21
5.2411767611
  0
LINE
  5
244
100
AcDbEntity
  8
0
100
AcDbLine
 62
7
  6
CONTINUOUS
 10
13.5603552569
 20
5.7126247054
 11
17.5603552569
 21
5.7126247054
  0
LINE
  5
245
100
AcDbEntity
  8
0
100
AcDbLine
 62
7
  6
CONTINUOUS
 10
15.9234775631
 20
5.2411767611
 11
15.9472329508
 21
5.3440726496
  0
LINE
  5
246
100
AcDbEntity
  8
0
100
AcDbLine
 62
7
  6
CONTINUOUS
 10
16.1734775631
 20
5.3440726496
 11
16.1972329508
 21
5.2411767611
  0
LINE
  5
247
100
AcDbEntity
  8
0
100
AcDbLine
 62
7
  6
CONTINUOUS
 10
16.4234775631
 20
5.2411767611
 11
16.4472329508
 21
5.3440726496
  0
LINE
  5
248
100
AcDbEntity
  8
0
100
AcDbLine
 62
7
  6
CONTINUOUS
 10
16.6734775631
 20
5.3440726496
 11
16.6972329508
 21
5.2411767611
  0
LINE
  5
249
100
AcDbEntity
  8
0
100
AcDbLine
 62
7
  6
CONTINUOUS
 10
16.9234775631
 20
5.2411767611
 11
16.9472329508
 21
5.3440726496
  0
LINE
  5
24A
100
AcDbEntity
  8
0
100
AcDbLine
 62
7
  6
CONTINUOUS
 10
17.1734775631
 20
5.3440726496
 11
17.1972329508
 21
5.2411767611
  0
LINE
  5
24B
100
AcDbEntity
  8
0
100
AcDbLine
 62
7
  6
CONTINUOUS
 10
17.5603552569
 20
5.3766247054
 11
17.5603552569
 21
5.7126247054
  0
LINE
  5
24C
100
AcDbEntity
  8
0
100
AcDbLine
 62
7
  6
CONTINUOUS
 10
17.4234775631
 20
5.2411767611
 11
17.4472329508
 21
5.3440726496
  0
LINE
  5
24D
100
AcDbEntity
  8
0
100
AcDbLine
 62
7
  6
CONTINUOUS
 10
14.1652281555
 20
10.9633579615
 11
14.2581642212
 21
10.8517651527
  0
LINE
  5
24E
100
AcDbEntity
  8
0
100
AcDbLine
 62
7
  6
CONTINUOUS
 10
14.1286718177
 20
11.0330413991
 11
14.1560055332
 21
10.9773411433
  0
LWPOLYLINE
  5
24F
100
AcDbEntity
  8
0
100
AcDbPolyline
 62
7
  6
CONTINUOUS
 90
5
 70
0
 10
15.8771095092
 20
10.8586743551
 10
15.8870034413
 20
10.8606361444
 10
15.8947513335
 20
10.865534065
 10
15.899851347
 20
10.8715880941
 10
15.9032327665
 20
10.8782411727
  0
LINE
  5
250
100
AcDbEntity
  8
0
100
AcDbLine
 62
7
  6
CONTINUOUS
 10
14.2865111371
 20
10.839720699
 11
15.829991591
 21
10.839720699
  0
LINE
  5
251
100
AcDbEntity
  8
0
100
AcDbLine
 62
7
  6
CONTINUOUS
 10
15.8495868405
 20
10.8586743361
 11
15.8771101434
 21
10.8586743361
  0
LINE
  5
252
100
AcDbEntity
  8
0
100
AcDbLine
 62
7
  6
CONTINUOUS
 10
15.7674422978
 20
11.0485816483
 11
14.1440722959
 21
11.0485816483
  0
LWPOLYLINE
  5
253
100
AcDbEntity
  8
0
100
AcDbPolyline
 62
7
  6
CONTINUOUS
 90
5
 70
0
 10
15.9981426709
 20
11.2503378099
 10
16.0080366031
 20
11.2522995992
 10
16.0157844952
 20
11.2571975198
 10
16.0208845087
 20
11.263251549
 10
16.0242659282
 20
11.2699046275
  0
LINE
  5
254
100
AcDbEntity
  8
0
100
AcDbLine
 62
7
  6
CONTINUOUS
 10
15.9706200022
 20
11.250337791
 11
15.9981433052
 21
11.250337791
  0
LINE
  5
255
100
AcDbEntity
  8
0
100
AcDbLine
 62
7
  6
CONTINUOUS
 10
14.1278128214
 20
11.0404225834
 11
15.0960781151
 21
14.1737302219
  0
LWPOLYLINE
  5
256
100
AcDbEntity
  8
0
100
AcDbPolyline
 62
7
  6
CONTINUOUS
 90
5
 70
0
 10
16.1191758326
 20
11.6420012647
 10
16.1290697648
 20
11.643963054
 10
16.1368176569
 20
11.6488609747
 10
16.1419176704
 20
11.6549150038
 10
16.1452990899
 20
11.6615680823
  0
LINE
  5
257
100
AcDbEntity
  8
0
100
AcDbLine
 62
7
  6
CONTINUOUS
 10
16.0916531639
 20
11.6420012458
 11
16.1191764669
 21
11.6420012458
  0
LWPOLYLINE
  5
258
100
AcDbEntity
  8
0
100
AcDbPolyline
 62
7
  6
CONTINUOUS
 90
5
 70
0
 10
16.2402089943
 20
12.0336647195
 10
16.2501029265
 20
12.0356265088
 10
16.2578508186
 20
12.0405244295
 10
16.2629508321
 20
12.0465784586
 10
16.2663322516
 20
12.0532315371
  0
LINE
  5
259
100
AcDbEntity
  8
0
100
AcDbLine
 62
7
  6
CONTINUOUS
 10
16.2126863256
 20
12.0336647006
 11
16.2402096286
 21
12.0336647006
  0
LINE
  5
25A
100
AcDbEntity
  8
0
100
AcDbLine
 62
7
  6
CONTINUOUS
 10
15.8254285848
 20
10.9773411433
 11
15.7980948693
 21
11.0330413991
  0
LWPOLYLINE
  5
25B
100
AcDbEntity
  8
0
100
AcDbPolyline
 62
7
  6
CONTINUOUS
 90
5
 70
0
 10
16.361242156
 20
12.4253281743
 10
16.3711360882
 20
12.4272899636
 10
16.3788839803
 20
12.4321878843
 10
16.3839839938
 20
12.4382419134
 10
16.3873654133
 20
12.444894992
  0
LINE
  5
25C
100
AcDbEntity
  8
0
100
AcDbLine
 62
7
  6
CONTINUOUS
 10
16.3337194873
 20
12.4253281554
 11
16.3612427903
 21
12.4253281554
  0
LWPOLYLINE
  5
25D
100
AcDbEntity
  8
0
100
AcDbPolyline
 62
7
  6
CONTINUOUS
 90
5
 70
0
 10
16.4822753177
 20
12.8169916292
 10
16.4921692499
 20
12.8189534184
 10
16.499917142
 20
12.8238513391
 10
16.5050171555
 20
12.8299053682
 10
16.508398575
 20
12.8365584468
  0
LINE
  5
25E
100
AcDbEntity
  8
0
100
AcDbLine
 62
7
  6
CONTINUOUS
 10
15.8465173881
 20
10.8517651527
 11
15.8299298604
 21
10.9633579615
  0
LINE
  5
25F
100
AcDbEntity
  8
0
100
AcDbLine
 62
7
  6
CONTINUOUS
 10
15.9436483034
 20
11.0255192758
 11
15.9398912899
 21
11.1080886197
  0
LWPOLYLINE
  5
260
100
AcDbEntity
  8
0
100
AcDbPolyline
 62
7
  6
CONTINUOUS
 90
6
 70
0
 10
15.9398897026
 20
11.1081127246
 10
15.9397542027
 20
11.1138695213
 10
15.9402599804
 20
11.1285406492
 10
15.9419418144
 20
11.1452622972
 10
15.9446694121
 20
11.1620484308
 10
15.9480541823
 20
11.1768728846
  0
LINE
  5
261
100
AcDbEntity
  8
0
100
AcDbLine
 62
7
  6
CONTINUOUS
 10
16.454752649
 20
12.8169916102
 11
16.482275952
 21
12.8169916102
  0
LINE
  5
262
100
AcDbEntity
  8
0
100
AcDbLine
 62
7
  6
CONTINUOUS
 10
16.0646814651
 20
11.4171827306
 11
16.0609244516
 21
11.4997520745
  0
LWPOLYLINE
  5
263
100
AcDbEntity
  8
0
100
AcDbPolyline
 62
7
  6
CONTINUOUS
 90
6
 70
0
 10
16.0609228643
 20
11.4997761794
 10
16.0607873644
 20
11.5055329761
 10
16.0612931421
 20
11.520204104
 10
16.0629749761
 20
11.5369257521
 10
16.0657025738
 20
11.5537118856
 10
16.069087344
 20
11.5685363395
  0
LINE
  5
264
100
AcDbEntity
  8
0
100
AcDbLine
 62
7
  6
CONTINUOUS
 10
15.943693163
 20
11.0206020104
 11
15.943645477
 21
11.025577644
  0
LINE
  5
265
100
AcDbEntity
  8
0
100
AcDbLine
 62
7
  6
CONTINUOUS
 10
16.0647263247
 20
11.4122654653
 11
16.0646786387
 21
11.4172410988
  0
LINE
  5
266
100
AcDbEntity
  8
0
100
AcDbLine
 62
7
  6
CONTINUOUS
 10
15.8462493242
 20
10.8478802999
 11
15.8465173881
 21
10.8517651527
  0
LINE
  5
267
100
AcDbEntity
  8
0
100
AcDbLine
 62
7
  6
CONTINUOUS
 10
15.9428867213
 20
11.0105294501
 11
15.943693163
 21
11.0206020104
  0
LINE
  5
268
100
AcDbEntity
  8
0
100
AcDbLine
 62
7
  6
CONTINUOUS
 10
16.7158430609
 20
13.6586697138
 11
16.7164272914
 21
13.6596820842
  0
LWPOLYLINE
  5
269
100
AcDbEntity
  8
0
100
AcDbPolyline
 62
7
  6
CONTINUOUS
 90
5
 70
0
 10
16.6033084794
 20
13.208655084
 10
16.6132024116
 20
13.2106168732
 10
16.6209503037
 20
13.2155147939
 10
16.6260503172
 20
13.221568823
 10
16.6294317368
 20
13.2282219016
  0
LINE
  5
26A
100
AcDbEntity
  8
0
100
AcDbLine
 62
7
  6
CONTINUOUS
 10
16.1857146268
 20
11.8088461854
 11
16.1819576133
 21
11.8914155294
  0
LWPOLYLINE
  5
26B
100
AcDbEntity
  8
0
100
AcDbPolyline
 62
7
  6
CONTINUOUS
 90
6
 70
0
 10
16.181956026
 20
11.8914396342
 10
16.1818205261
 20
11.8971964309
 10
16.1823263038
 20
11.9118675588
 10
16.1840081378
 20
11.9285892069
 10
16.1867357355
 20
11.9453753404
 10
16.1901205057
 20
11.9601997943
  0
LINE
  5
26C
100
AcDbEntity
  8
0
100
AcDbLine
 62
7
  6
CONTINUOUS
 10
16.1857594864
 20
11.8039289201
 11
16.1857118004
 21
11.8089045536
  0
LINE
  5
26D
100
AcDbEntity
  8
0
100
AcDbLine
 62
7
  6
CONTINUOUS
 10
16.063919883
 20
11.4021929049
 11
16.0647263247
 21
11.4122654653
  0
LINE
  5
26E
100
AcDbEntity
  8
0
100
AcDbLine
 62
7
  6
CONTINUOUS
 10
16.5948098992
 20
13.267006259
 11
16.5953941297
 21
13.2680186294
  0
LINE
  5
26F
100
AcDbEntity
  8
0
100
AcDbLine
 62
7
  6
CONTINUOUS
 10
16.4737767375
 20
12.8753428042
 11
16.474360968
 21
12.8763551746
  0
LINE
  5
270
100
AcDbEntity
  8
0
100
AcDbLine
 62
7
  6
CONTINUOUS
 10
16.5757858107
 20
13.208655065
 11
16.6033091137
 21
13.208655065
  0
LINE
  5
271
100
AcDbEntity
  8
0
100
AcDbLine
 62
7
  6
CONTINUOUS
 10
16.3067477885
 20
12.2005096402
 11
16.302990775
 21
12.2830789842
  0
LWPOLYLINE
  5
272
100
AcDbEntity
  8
0
100
AcDbPolyline
 62
7
  6
CONTINUOUS
 90
6
 70
0
 10
16.3029891877
 20
12.283103089
 10
16.3028536878
 20
12.2888598858
 10
16.3033594655
 20
12.3035310136
 10
16.3050412995
 20
12.3202526617
 10
16.3077688973
 20
12.3370387952
 10
16.3111536674
 20
12.3518632491
  0
LINE
  5
273
100
AcDbEntity
  8
0
100
AcDbLine
 62
7
  6
CONTINUOUS
 10
16.3067926482
 20
12.1955923749
 11
16.3067449621
 21
12.2005680084
  0
LINE
  5
274
100
AcDbEntity
  8
0
100
AcDbLine
 62
7
  6
CONTINUOUS
 10
16.1849530447
 20
11.7938563597
 11
16.1857594864
 21
11.8039289201
  0
LINE
  5
275
100
AcDbEntity
  8
0
100
AcDbLine
 62
7
  6
CONTINUOUS
 10
16.3059862064
 20
12.1855198145
 11
16.3067926482
 21
12.1955923749
  0
LINE
  5
276
100
AcDbEntity
  8
0
100
AcDbLine
 62
7
  6
CONTINUOUS
 10
15.9410304364
 20
11.0004552313
 11
15.9428867213
 21
11.0105294501
  0
LINE
  5
277
100
AcDbEntity
  8
0
100
AcDbLine
 62
7
  6
CONTINUOUS
 10
16.0620635981
 20
11.3921186861
 11
16.063919883
 21
11.4021929049
  0
LINE
  5
278
100
AcDbEntity
  8
0
100
AcDbLine
 62
7
  6
CONTINUOUS
 10
16.1830967598
 20
11.783782141
 11
16.1849530447
 21
11.7938563597
  0
LINE
  5
279
100
AcDbEntity
  8
0
100
AcDbLine
 62
7
  6
CONTINUOUS
 10
15.9397534975
 20
10.9957916425
 11
15.9410304364
 21
11.0004552313
  0
LINE
  5
27A
100
AcDbEntity
  8
0
100
AcDbLine
 62
7
  6
CONTINUOUS
 10
16.0607866592
 20
11.3874550973
 11
16.0620635981
 21
11.3921186861
  0
LINE
  5
27B
100
AcDbEntity
  8
0
100
AcDbLine
 62
7
  6
CONTINUOUS
 10
15.9480541823
 20
11.1768728846
 11
15.949801624
 21
11.182973929
  0
LINE
  5
27C
100
AcDbEntity
  8
0
100
AcDbLine
 62
7
  6
CONTINUOUS
 10
16.069087344
 20
11.5685363395
 11
16.0708347857
 21
11.5746373838
  0
LINE
  5
27D
100
AcDbEntity
  8
0
100
AcDbLine
 62
7
  6
CONTINUOUS
 10
16.1901205057
 20
11.9601997943
 11
16.1918679474
 21
11.9663008386
  0
LINE
  5
27E
100
AcDbEntity
  8
0
100
AcDbLine
 62
7
  6
CONTINUOUS
 10
16.3111536674
 20
12.3518632491
 11
16.3129011091
 21
12.3579642934
  0
LINE
  5
27F
100
AcDbEntity
  8
0
100
AcDbLine
 62
7
  6
CONTINUOUS
 10
16.4321868291
 20
12.7435267039
 11
16.4339342708
 21
12.7496277482
  0
LINE
  5
280
100
AcDbEntity
  8
0
100
AcDbLine
 62
7
  6
CONTINUOUS
 10
16.5532199908
 20
13.1351901587
 11
16.5549674325
 21
13.141291203
  0
LINE
  5
281
100
AcDbEntity
  8
0
100
AcDbLine
 62
7
  6
CONTINUOUS
 10
16.6742531525
 20
13.5268536135
 11
16.6760005942
 21
13.5329546579
  0
LINE
  5
282
100
AcDbEntity
  8
0
100
AcDbLine
 62
7
  6
CONTINUOUS
 10
15.8473702929
 20
10.8515015852
 11
15.8637279555
 21
10.9044350009
  0
LINE
  5
283
100
AcDbEntity
  8
0
100
AcDbLine
 62
7
  6
CONTINUOUS
 10
15.9498073379
 20
11.1829879845
 11
15.9847611172
 21
11.2960984557
  0
LINE
  5
284
100
AcDbEntity
  8
0
100
AcDbLine
 62
7
  6
CONTINUOUS
 10
16.0708404996
 20
11.5746514393
 11
16.1057942789
 21
11.6877619106
  0
LINE
  5
285
100
AcDbEntity
  8
0
100
AcDbLine
 62
7
  6
CONTINUOUS
 10
16.1918736613
 20
11.9663148941
 11
16.2268274406
 21
12.0794253654
  0
LINE
  5
286
100
AcDbEntity
  8
0
100
AcDbLine
 62
7
  6
CONTINUOUS
 10
16.312906823
 20
12.3579783489
 11
16.3478606023
 21
12.4710888202
  0
LINE
  5
287
100
AcDbEntity
  8
0
100
AcDbLine
 62
7
  6
CONTINUOUS
 10
16.4339399847
 20
12.7496418037
 11
16.468893764
 21
12.862752275
  0
LINE
  5
288
100
AcDbEntity
  8
0
100
AcDbLine
 62
7
  6
CONTINUOUS
 10
16.5549731464
 20
13.1413052585
 11
16.5899269257
 21
13.2544157298
  0
LINE
  5
289
100
AcDbEntity
  8
0
100
AcDbLine
 62
7
  6
CONTINUOUS
 10
16.6760063081
 20
13.5329687134
 11
16.7109600874
 21
13.6460791846
  0
LINE
  5
28A
100
AcDbEntity
  8
0
100
AcDbLine
 62
7
  6
CONTINUOUS
 10
16.7970394698
 20
13.9246321682
 11
16.814516359
 21
13.9811874024
  0
LINE
  5
28B
100
AcDbEntity
  8
0
100
AcDbLine
 62
7
  6
CONTINUOUS
 10
16.7109602947
 20
13.6460820962
 11
16.7116074343
 21
13.648117036
  0
LINE
  5
28C
100
AcDbEntity
  8
0
100
AcDbLine
 62
7
  6
CONTINUOUS
 10
16.589927133
 20
13.2544186414
 11
16.5905742726
 21
13.2564535812
  0
LINE
  5
28D
100
AcDbEntity
  8
0
100
AcDbLine
 62
7
  6
CONTINUOUS
 10
16.4688939713
 20
12.8627551866
 11
16.4695411109
 21
12.8647901264
  0
LINE
  5
28E
100
AcDbEntity
  8
0
100
AcDbLine
 62
7
  6
CONTINUOUS
 10
16.3478608096
 20
12.4710917318
 11
16.3485079492
 21
12.4731266715
  0
LINE
  5
28F
100
AcDbEntity
  8
0
100
AcDbLine
 62
7
  6
CONTINUOUS
 10
16.2268276479
 20
12.079428277
 11
16.2274747875
 21
12.0814632167
  0
LINE
  5
290
100
AcDbEntity
  8
0
100
AcDbLine
 62
7
  6
CONTINUOUS
 10
16.1057944862
 20
11.6877648222
 11
16.1064416258
 21
11.6897997619
  0
LINE
  5
291
100
AcDbEntity
  8
0
100
AcDbLine
 62
7
  6
CONTINUOUS
 10
15.9847613245
 20
11.2961013674
 11
15.9854084641
 21
11.2981363071
  0
LINE
  5
292
100
AcDbEntity
  8
0
100
AcDbLine
 62
7
  6
CONTINUOUS
 10
15.8637281628
 20
10.9044379125
 11
15.8643753024
 21
10.9064728523
  0
LINE
  5
293
100
AcDbEntity
  8
0
100
AcDbLine
 62
7
  6
CONTINUOUS
 10
16.7504648985
 20
13.6198853564
 11
16.7520490244
 21
13.6243804781
  0
LINE
  5
294
100
AcDbEntity
  8
0
100
AcDbLine
 62
7
  6
CONTINUOUS
 10
16.6294317368
 20
13.2282219016
 11
16.6310158627
 21
13.2327170233
  0
LINE
  5
295
100
AcDbEntity
  8
0
100
AcDbLine
 62
7
  6
CONTINUOUS
 10
16.508398575
 20
12.8365584468
 11
16.509982701
 21
12.8410535685
  0
LWPOLYLINE
  5
296
100
AcDbEntity
  8
0
100
AcDbPolyline
 62
7
  6
CONTINUOUS
 90
3
 70
0
 10
16.7116074343
 20
13.648117036
 10
16.7139804934
 20
13.6546374679
 10
16.7158430609
 20
13.6586697138
  0
LWPOLYLINE
  5
297
100
AcDbEntity
  8
0
100
AcDbPolyline
 62
7
  6
CONTINUOUS
 90
3
 70
0
 10
16.5905742726
 20
13.2564535812
 10
16.5929473316
 20
13.2629740131
 10
16.5948098992
 20
13.267006259
  0
LWPOLYLINE
  5
298
100
AcDbEntity
  8
0
100
AcDbPolyline
 62
7
  6
CONTINUOUS
 90
3
 70
0
 10
16.4695411109
 20
12.8647901264
 10
16.4719141699
 20
12.8713105582
 10
16.4737767375
 20
12.8753428042
  0
LWPOLYLINE
  5
299
100
AcDbEntity
  8
0
100
AcDbPolyline
 62
7
  6
CONTINUOUS
 90
3
 70
0
 10
16.3485079492
 20
12.4731266715
 10
16.3508810082
 20
12.4796471034
 10
16.3527435758
 20
12.4836793493
  0
LWPOLYLINE
  5
29A
100
AcDbEntity
  8
0
100
AcDbPolyline
 62
7
  6
CONTINUOUS
 90
3
 70
0
 10
16.2274747875
 20
12.0814632167
 10
16.2298478465
 20
12.0879836486
 10
16.2317104141
 20
12.0920158945
  0
LINE
  5
29B
100
AcDbEntity
  8
0
100
AcDbLine
 62
7
  6
CONTINUOUS
 10
16.3527435758
 20
12.4836793493
 11
16.3533278063
 21
12.4846917198
  0
LINE
  5
29C
100
AcDbEntity
  8
0
100
AcDbLine
 62
7
  6
CONTINUOUS
 10
16.2317104141
 20
12.0920158945
 11
16.2322946446
 21
12.093028265
  0
LWPOLYLINE
  5
29D
100
AcDbEntity
  8
0
100
AcDbPolyline
 62
7
  6
CONTINUOUS
 90
5
 70
0
 10
16.7243416411
 20
13.6003185388
 10
16.7342355733
 20
13.6022803281
 10
16.7419834654
 20
13.6071782487
 10
16.7470834789
 20
13.6132322778
 10
16.7504648985
 20
13.6198853564
  0
LINE
  5
29E
100
AcDbEntity
  8
0
100
AcDbLine
 62
7
  6
CONTINUOUS
 10
16.4277809502
 20
12.592173095
 11
16.4240239367
 21
12.674742439
  0
LWPOLYLINE
  5
29F
100
AcDbEntity
  8
0
100
AcDbPolyline
 62
7
  6
CONTINUOUS
 90
6
 70
0
 10
16.4240223494
 20
12.6747665438
 10
16.4238868495
 20
12.6805233406
 10
16.4243926272
 20
12.6951944684
 10
16.4260744612
 20
12.7119161165
 10
16.428802059
 20
12.72870225
 10
16.4321868291
 20
12.7435267039
  0
LINE
  5
2A0
100
AcDbEntity
  8
0
100
AcDbLine
 62
7
  6
CONTINUOUS
 10
16.4278258099
 20
12.5872558297
 11
16.4277781238
 21
12.5922314633
  0
LINE
  5
2A1
100
AcDbEntity
  8
0
100
AcDbLine
 62
7
  6
CONTINUOUS
 10
16.4270193681
 20
12.5771832693
 11
16.4278258099
 21
12.5872558297
  0
LINE
  5
2A2
100
AcDbEntity
  8
0
100
AcDbLine
 62
7
  6
CONTINUOUS
 10
16.3041299215
 20
12.1754455958
 11
16.3059862064
 21
12.1855198145
  0
LINE
  5
2A3
100
AcDbEntity
  8
0
100
AcDbLine
 62
7
  6
CONTINUOUS
 10
16.4251630832
 20
12.5671090506
 11
16.4270193681
 21
12.5771832693
  0
LINE
  5
2A4
100
AcDbEntity
  8
0
100
AcDbLine
 62
7
  6
CONTINUOUS
 10
16.5461962449
 20
12.9587725054
 11
16.5480525298
 21
12.9688467241
  0
LINE
  5
2A5
100
AcDbEntity
  8
0
100
AcDbLine
 62
7
  6
CONTINUOUS
 10
16.1818198209
 20
11.7791185521
 11
16.1830967598
 21
11.783782141
  0
LINE
  5
2A6
100
AcDbEntity
  8
0
100
AcDbLine
 62
7
  6
CONTINUOUS
 10
16.3028529826
 20
12.170782007
 11
16.3041299215
 21
12.1754455958
  0
LINE
  5
2A7
100
AcDbEntity
  8
0
100
AcDbLine
 62
7
  6
CONTINUOUS
 10
16.4238861443
 20
12.5624454618
 11
16.4251630832
 21
12.5671090506
  0
LINE
  5
2A8
100
AcDbEntity
  8
0
100
AcDbLine
 62
7
  6
CONTINUOUS
 10
16.5449193061
 20
12.9541089166
 11
16.5461962449
 21
12.9587725054
  0
LINE
  5
2A9
100
AcDbEntity
  8
0
100
AcDbLine
 62
7
  6
CONTINUOUS
 10
16.6659524678
 20
13.3457723714
 11
16.6672294066
 21
13.3504359602
  0
LINE
  5
2AA
100
AcDbEntity
  8
0
100
AcDbLine
 62
7
  6
CONTINUOUS
 10
16.7869856295
 20
13.7374358262
 11
16.7882625683
 21
13.742099415
  0
LINE
  5
2AB
100
AcDbEntity
  8
0
100
AcDbLine
 62
7
  6
CONTINUOUS
 10
16.7952863143
 20
13.9185170683
 11
16.7970337559
 21
13.9246181127
  0
LINE
  5
2AC
100
AcDbEntity
  8
0
100
AcDbLine
 62
7
  6
CONTINUOUS
 10
15.9048136515
 20
10.8827257824
 11
15.9397674299
 21
10.9958362509
  0
LINE
  5
2AD
100
AcDbEntity
  8
0
100
AcDbLine
 62
7
  6
CONTINUOUS
 10
16.0258468132
 20
11.2743892372
 11
16.0608005916
 21
11.3874997058
  0
LINE
  5
2AE
100
AcDbEntity
  8
0
100
AcDbLine
 62
7
  6
CONTINUOUS
 10
16.1468799749
 20
11.666052692
 11
16.1818337533
 21
11.7791631606
  0
LINE
  5
2AF
100
AcDbEntity
  8
0
100
AcDbLine
 62
7
  6
CONTINUOUS
 10
16.2679131366
 20
12.0577161468
 11
16.302866915
 21
12.1708266154
  0
LINE
  5
2B0
100
AcDbEntity
  8
0
100
AcDbLine
 62
7
  6
CONTINUOUS
 10
16.3889462983
 20
12.4493796016
 11
16.4239000767
 21
12.5624900702
  0
LINE
  5
2B1
100
AcDbEntity
  8
0
100
AcDbLine
 62
7
  6
CONTINUOUS
 10
16.50997946
 20
12.8410430565
 11
16.5449332384
 21
12.954153525
  0
LINE
  5
2B2
100
AcDbEntity
  8
0
100
AcDbLine
 62
7
  6
CONTINUOUS
 10
16.6310126217
 20
13.2327065113
 11
16.6659664001
 21
13.3458169798
  0
LINE
  5
2B3
100
AcDbEntity
  8
0
100
AcDbLine
 62
7
  6
CONTINUOUS
 10
16.7520457834
 20
13.6243699661
 11
16.7869995618
 21
13.7374804346
  0
LINE
  5
2B4
100
AcDbEntity
  8
0
100
AcDbLine
 62
7
  6
CONTINUOUS
 10
16.3873654133
 20
12.444894992
 11
16.3889495393
 21
12.4493901137
  0
LINE
  5
2B5
100
AcDbEntity
  8
0
100
AcDbLine
 62
7
  6
CONTINUOUS
 10
16.2663322516
 20
12.0532315371
 11
16.2679163776
 21
12.0577266589
  0
LINE
  5
2B6
100
AcDbEntity
  8
0
100
AcDbLine
 62
7
  6
CONTINUOUS
 10
16.1452990899
 20
11.6615680823
 11
16.1468832159
 21
11.666063204
  0
LINE
  5
2B7
100
AcDbEntity
  8
0
100
AcDbLine
 62
7
  6
CONTINUOUS
 10
16.0242659282
 20
11.2699046275
 11
16.0258500542
 21
11.2743997492
  0
LINE
  5
2B8
100
AcDbEntity
  8
0
100
AcDbLine
 62
7
  6
CONTINUOUS
 10
15.9032327665
 20
10.8782411727
 11
15.9048168925
 21
10.8827362944
  0
LWPOLYLINE
  5
2B9
100
AcDbEntity
  8
0
100
AcDbPolyline
 62
7
  6
CONTINUOUS
 90
3
 70
0
 10
16.1064416258
 20
11.6897997619
 10
16.1088146848
 20
11.6963201938
 10
16.1106772524
 20
11.7003524397
  0
LWPOLYLINE
  5
2BA
100
AcDbEntity
  8
0
100
AcDbPolyline
 62
7
  6
CONTINUOUS
 90
3
 70
0
 10
15.9854084641
 20
11.2981363071
 10
15.9877815231
 20
11.304656739
 10
15.9896440907
 20
11.3086889849
  0
LWPOLYLINE
  5
2BB
100
AcDbEntity
  8
0
100
AcDbPolyline
 62
7
  6
CONTINUOUS
 90
3
 70
0
 10
15.8643753024
 20
10.9064728523
 10
15.8667483614
 20
10.9129932842
 10
15.868610929
 20
10.9170255301
  0
LINE
  5
2BC
100
AcDbEntity
  8
0
100
AcDbLine
 62
7
  6
CONTINUOUS
 10
16.1106772524
 20
11.7003524397
 11
16.1112614829
 21
11.7013648101
  0
LINE
  5
2BD
100
AcDbEntity
  8
0
100
AcDbLine
 62
7
  6
CONTINUOUS
 10
16.5488141119
 20
12.9838365499
 11
16.5450570984
 21
13.0664058938
  0
LWPOLYLINE
  5
2BE
100
AcDbEntity
  8
0
100
AcDbPolyline
 62
7
  6
CONTINUOUS
 90
6
 70
0
 10
16.5450555111
 20
13.0664299987
 10
16.5449200112
 20
13.0721867954
 10
16.5454257889
 20
13.0868579232
 10
16.5471076229
 20
13.1035795713
 10
16.5498352207
 20
13.1203657048
 10
16.5532199908
 20
13.1351901587
  0
LINE
  5
2BF
100
AcDbEntity
  8
0
100
AcDbLine
 62
7
  6
CONTINUOUS
 10
16.5488589716
 20
12.9789192845
 11
16.5488112855
 21
12.9838949181
  0
LINE
  5
2C0
100
AcDbEntity
  8
0
100
AcDbLine
 62
7
  6
CONTINUOUS
 10
16.5480525298
 20
12.9688467241
 11
16.5488589716
 21
12.9789192845
  0
LINE
  5
2C1
100
AcDbEntity
  8
0
100
AcDbLine
 62
7
  6
CONTINUOUS
 10
16.6690856915
 20
13.360510179
 11
16.6698921333
 21
13.3705827393
  0
LINE
  5
2C2
100
AcDbEntity
  8
0
100
AcDbLine
 62
7
  6
CONTINUOUS
 10
16.6672294066
 20
13.3504359602
 11
16.6690856915
 21
13.360510179
  0
LINE
  5
2C3
100
AcDbEntity
  8
0
100
AcDbLine
 62
7
  6
CONTINUOUS
 10
16.7882625683
 20
13.742099415
 11
16.7901188532
 21
13.7521736338
  0
LINE
  5
2C4
100
AcDbEntity
  8
0
100
AcDbLine
 62
7
  6
CONTINUOUS
 10
15.9896440907
 20
11.3086889849
 11
15.9902283212
 21
11.3097013553
  0
LINE
  5
2C5
100
AcDbEntity
  8
0
100
AcDbLine
 62
7
  6
CONTINUOUS
 10
15.868610929
 20
10.9170255301
 11
15.8691951595
 21
10.9180379005
  0
LINE
  5
2C6
100
AcDbEntity
  8
0
100
AcDbLine
 62
7
  6
CONTINUOUS
 10
16.6968189725
 20
13.6003185198
 11
16.7243422754
 21
13.6003185198
  0
LINE
  5
2C7
100
AcDbEntity
  8
0
100
AcDbLine
 62
7
  6
CONTINUOUS
 10
16.6698472736
 20
13.3755000047
 11
16.6660902601
 21
13.4580693486
  0
LWPOLYLINE
  5
2C8
100
AcDbEntity
  8
0
100
AcDbPolyline
 62
7
  6
CONTINUOUS
 90
6
 70
0
 10
16.6660886728
 20
13.4580934535
 10
16.6659531729
 20
13.4638502502
 10
16.6664589506
 20
13.4785213781
 10
16.6681407846
 20
13.4952430261
 10
16.6708683824
 20
13.5120291596
 10
16.6742531525
 20
13.5268536135
  0
LINE
  5
2C9
100
AcDbEntity
  8
0
100
AcDbLine
 62
7
  6
CONTINUOUS
 10
16.6698921333
 20
13.3705827393
 11
16.6698444473
 21
13.3755583729
  0
LINE
  5
2CA
100
AcDbEntity
  8
0
100
AcDbLine
 62
7
  6
CONTINUOUS
 10
16.8147826817
 20
13.9850727913
 11
16.8145146178
 21
13.9811879384
  0
LINE
  5
2CB
100
AcDbEntity
  8
0
100
AcDbLine
 62
7
  6
CONTINUOUS
 10
16.7901188532
 20
13.7521736338
 11
16.790925295
 21
13.7622461941
  0
LINE
  5
2CC
100
AcDbEntity
  8
0
100
AcDbLine
 62
7
  6
CONTINUOUS
 10
16.7908804353
 20
13.7671634595
 11
16.7871234218
 21
13.8497328034
  0
LWPOLYLINE
  5
2CD
100
AcDbEntity
  8
0
100
AcDbPolyline
 62
7
  6
CONTINUOUS
 90
6
 70
0
 10
16.7871218345
 20
13.8497569083
 10
16.7869863346
 20
13.855513705
 10
16.7874921123
 20
13.8701848329
 10
16.7891739463
 20
13.8869064809
 10
16.7919015441
 20
13.9036926145
 10
16.7952863143
 20
13.9185170683
  0
LINE
  5
2CE
100
AcDbEntity
  8
0
100
AcDbLine
 62
7
  6
CONTINUOUS
 10
16.790925295
 20
13.7622461941
 11
16.790877609
 21
13.7672218277
  0
LINE
  5
2CF
100
AcDbEntity
  8
0
100
AcDbLine
 62
7
  6
CONTINUOUS
 10
16.8147826817
 20
13.9850727913
 11
16.798195154
 21
14.0966656
  0
LINE
  5
2D0
100
AcDbEntity
  8
0
100
AcDbLine
 62
7
  6
CONTINUOUS
 10
16.7357075914
 20
14.1818892868
 11
15.1123375895
 21
14.1818892868
  0
LINE
  5
2D1
100
AcDbEntity
  8
0
100
AcDbLine
 62
7
  6
CONTINUOUS
 10
16.7936938784
 20
14.1106487818
 11
16.766360163
 21
14.1663490376
  0
ARC
  5
2D2
100
AcDbEntity
  8
0
100
AcDbCircle
 62
7
  6
CONTINUOUS
 10
6.9366172762
 20
5.6575134585
 40
0.1
100
AcDbArc
 50
347.0
 51
360.0
  0
ARC
  5
2D3
100
AcDbEntity
  8
0
100
AcDbCircle
 62
7
  6
CONTINUOUS
 10
5.3241172762
 20
5.6575134585
 40
0.1
100
AcDbArc
 50
180.0
 51
193.0
  0
ARC
  5
2D4
100
AcDbEntity
  8
0
100
AcDbCircle
 62
7
  6
CONTINUOUS
 10
7.0116172762
 20
5.7471198977
 40
0.025
100
AcDbArc
 50
0.0
 51
90.0
  0
ARC
  5
2D5
100
AcDbEntity
  8
0
100
AcDbCircle
 62
7
  6
CONTINUOUS
 10
6.9682490581
 20
5.4611198977
 40
0.025
100
AcDbArc
 50
270.0
 51
347.0
  0
ARC
  5
2D6
100
AcDbEntity
  8
0
100
AcDbCircle
 62
7
  6
CONTINUOUS
 10
5.2924854942
 20
5.4611198977
 40
0.025
100
AcDbArc
 50
193.0
 51
270.0
  0
ARC
  5
2D7
100
AcDbEntity
  8
0
100
AcDbCircle
 62
7
  6
CONTINUOUS
 10
5.2491172762
 20
5.7471198977
 40
0.025
100
AcDbArc
 50
90.0
 51
180.0
  0
ARC
  5
2D8
100
AcDbEntity
  8
0
100
AcDbCircle
 62
7
  6
CONTINUOUS
 10
6.929463202
 20
5.2931198977
 40
0.025
100
AcDbArc
 50
270.0
 51
347.0
  0
ARC
  5
2D9
100
AcDbEntity
  8
0
100
AcDbCircle
 62
7
  6
CONTINUOUS
 10
5.3312713504
 20
5.2931198974
 40
0.025
100
AcDbArc
 50
192.9999994396
 51
269.9999998739
  0
ARC
  5
2DA
100
AcDbEntity
  8
0
100
AcDbCircle
 62
7
  6
CONTINUOUS
 10
13.7381564935
 20
5.2506247054
 40
0.042
100
AcDbArc
 50
193.0
 51
270.0
  0
ARC
  5
2DB
100
AcDbEntity
  8
0
100
AcDbCircle
 62
7
  6
CONTINUOUS
 10
13.8825540204
 20
5.2506247054
 40
0.042
100
AcDbArc
 50
270.0
 51
347.0
  0
ARC
  5
2DC
100
AcDbEntity
  8
0
100
AcDbCircle
 62
7
  6
CONTINUOUS
 10
14.2381564935
 20
5.2506247054
 40
0.042
100
AcDbArc
 50
193.0
 51
270.0
  0
ARC
  5
2DD
100
AcDbEntity
  8
0
100
AcDbCircle
 62
7
  6
CONTINUOUS
 10
14.3825540204
 20
5.2506247054
 40
0.042
100
AcDbArc
 50
270.0
 51
347.0
  0
ARC
  5
2DE
100
AcDbEntity
  8
0
100
AcDbCircle
 62
7
  6
CONTINUOUS
 10
14.7381564935
 20
5.2506247054
 40
0.042
100
AcDbArc
 50
193.0
 51
270.0
  0
ARC
  5
2DF
100
AcDbEntity
  8
0
100
AcDbCircle
 62
7
  6
CONTINUOUS
 10
14.8825540204
 20
5.2506247054
 40
0.042
100
AcDbArc
 50
270.0
 51
347.0
  0
ARC
  5
2E0
100
AcDbEntity
  8
0
100
AcDbCircle
 62
7
  6
CONTINUOUS
 10
15.2381564935
 20
5.2506247054
 40
0.042
100
AcDbArc
 50
193.0
 51
270.0
  0
ARC
  5
2E1
100
AcDbEntity
  8
0
100
AcDbCircle
 62
7
  6
CONTINUOUS
 10
15.3825540204
 20
5.2506247054
 40
0.042
100
AcDbArc
 50
270.0
 51
347.0
  0
ARC
  5
2E2
100
AcDbEntity
  8
0
100
AcDbCircle
 62
7
  6
CONTINUOUS
 10
13.6325540204
 20
5.3346247054
 40
0.042
100
AcDbArc
 50
13.0
 51
90.0
  0
ARC
  5
2E3
100
AcDbEntity
  8
0
100
AcDbCircle
 62
7
  6
CONTINUOUS
 10
13.9881564935
 20
5.3346247054
 40
0.042
100
AcDbArc
 50
90.0
 51
167.0
  0
ARC
  5
2E4
100
AcDbEntity
  8
0
100
AcDbCircle
 62
7
  6
CONTINUOUS
 10
14.1325540204
 20
5.3346247054
 40
0.042
100
AcDbArc
 50
13.0
 51
90.0
  0
ARC
  5
2E5
100
AcDbEntity
  8
0
100
AcDbCircle
 62
7
  6
CONTINUOUS
 10
14.4881564935
 20
5.3346247054
 40
0.042
100
AcDbArc
 50
90.0
 51
167.0
  0
ARC
  5
2E6
100
AcDbEntity
  8
0
100
AcDbCircle
 62
7
  6
CONTINUOUS
 10
14.6325540204
 20
5.3346247054
 40
0.042
100
AcDbArc
 50
13.0
 51
90.0
  0
ARC
  5
2E7
100
AcDbEntity
  8
0
100
AcDbCircle
 62
7
  6
CONTINUOUS
 10
14.9881564935
 20
5.3346247054
 40
0.042
100
AcDbArc
 50
90.0
 51
167.0
  0
ARC
  5
2E8
100
AcDbEntity
  8
0
100
AcDbCircle
 62
7
  6
CONTINUOUS
 10
15.1325540204
 20
5.3346247054
 40
0.042
100
AcDbArc
 50
13.0
 51
90.0
  0
ARC
  5
2E9
100
AcDbEntity
  8
0
100
AcDbCircle
 62
7
  6
CONTINUOUS
 10
15.4881564935
 20
5.3346247054
 40
0.042
100
AcDbArc
 50
90.0
 51
167.0
  0
ARC
  5
2EA
100
AcDbEntity
  8
0
100
AcDbCircle
 62
7
  6
CONTINUOUS
 10
17.3825540204
 20
5.2506247054
 40
0.042
100
AcDbArc
 50
270.0
 51
347.0
  0
ARC
  5
2EB
100
AcDbEntity
  8
0
100
AcDbCircle
 62
7
  6
CONTINUOUS
 10
17.2381564935
 20
5.2506247054
 40
0.042
100
AcDbArc
 50
193.0
 51
270.0
  0
ARC
  5
2EC
100
AcDbEntity
  8
0
100
AcDbCircle
 62
7
  6
CONTINUOUS
 10
16.8825540204
 20
5.2506247054
 40
0.042
100
AcDbArc
 50
270.0
 51
347.0
  0
ARC
  5
2ED
100
AcDbEntity
  8
0
100
AcDbCircle
 62
7
  6
CONTINUOUS
 10
16.7381564935
 20
5.2506247054
 40
0.042
100
AcDbArc
 50
193.0
 51
270.0
  0
ARC
  5
2EE
100
AcDbEntity
  8
0
100
AcDbCircle
 62
7
  6
CONTINUOUS
 10
16.3825540204
 20
5.2506247054
 40
0.042
100
AcDbArc
 50
270.0
 51
347.0
  0
ARC
  5
2EF
100
AcDbEntity
  8
0
100
AcDbCircle
 62
7
  6
CONTINUOUS
 10
16.2381564935
 20
5.2506247054
 40
0.042
100
AcDbArc
 50
193.0
 51
270.0
  0
ARC
  5
2F0
100
AcDbEntity
  8
0
100
AcDbCircle
 62
7
  6
CONTINUOUS
 10
15.8825540204
 20
5.2506247054
 40
0.042
100
AcDbArc
 50
270.0
 51
347.0
  0
ARC
  5
2F1
100
AcDbEntity
  8
0
100
AcDbCircle
 62
7
  6
CONTINUOUS
 10
15.7381564935
 20
5.2506247054
 40
0.042
100
AcDbArc
 50
193.0
 51
270.0
  0
ARC
  5
2F2
100
AcDbEntity
  8
0
100
AcDbCircle
 62
7
  6
CONTINUOUS
 10
17.4881564935
 20
5.3346247054
 40
0.042
100
AcDbArc
 50
90.0
 51
167.0
  0
ARC
  5
2F3
100
AcDbEntity
  8
0
100
AcDbCircle
 62
7
  6
CONTINUOUS
 10
17.1325540204
 20
5.3346247054
 40
0.042
100
AcDbArc
 50
13.0
 51
90.0
  0
ARC
  5
2F4
100
AcDbEntity
  8
0
100
AcDbCircle
 62
7
  6
CONTINUOUS
 10
16.9881564935
 20
5.3346247054
 40
0.042
100
AcDbArc
 50
90.0
 51
167.0
  0
ARC
  5
2F5
100
AcDbEntity
  8
0
100
AcDbCircle
 62
7
  6
CONTINUOUS
 10
16.6325540204
 20
5.3346247054
 40
0.042
100
AcDbArc
 50
13.0
 51
90.0
  0
ARC
  5
2F6
100
AcDbEntity
  8
0
100
AcDbCircle
 62
7
  6
CONTINUOUS
 10
16.4881564935
 20
5.3346247054
 40
0.042
100
AcDbArc
 50
90.0
 51
167.0
  0
ARC
  5
2F7
100
AcDbEntity
  8
0
100
AcDbCircle
 62
7
  6
CONTINUOUS
 10
16.1325540204
 20
5.3346247054
 40
0.042
100
AcDbArc
 50
13.0
 51
90.0
  0
ARC
  5
2F8
100
AcDbEntity
  8
0
100
AcDbCircle
 62
7
  6
CONTINUOUS
 10
15.9881564935
 20
5.3346247054
 40
0.042
100
AcDbArc
 50
90.0
 51
167.0
  0
ARC
  5
2F9
100
AcDbEntity
  8
0
100
AcDbCircle
 62
7
  6
CONTINUOUS
 10
15.6325540204
 20
5.3346247054
 40
0.042
100
AcDbArc
 50
13.0
 51
90.0
  0
SPLINE
  5
2FA
100
AcDbEntity
  8
0
100
AcDbSpline
 62
7
  6
CONTINUOUS
 70
0
 71
3
 72
15
 73
11
 74
0
 42
0.0000001
 43
0.0000001
 44
0.0000000001
 40
0.0
 40
0.0
 40
0.0
 40
0.0
 40
0.1295688378
 40
0.2645761676
 40
0.401266071
 40
0.5362716512
 40
0.6662156221
 40
0.7881006028
 40
0.8998140384
 40
1.0
 40
1.0
 40
1.0
 40
1.0
 10
16.7357075914
 20
14.1818892868
 30
0.0
 10
16.7372558537
 20
14.1818892868
 30
0.0
 10
16.7404198109
 20
14.1816740523
 30
0.0
 10
16.7451423284
 20
14.1807901681
 30
0.0
 10
16.749798631
 20
14.1793627136
 30
0.0
 10
16.754210489
 20
14.1774473927
 30
0.0
 10
16.7582166742
 20
14.1751187156
 30
0.0
 10
16.7616687584
 20
14.1724573888
 30
0.0
 10
16.7644346038
 20
14.169561335
 30
0.0
 10
16.7658327645
 20
14.1674237627
 30
0.0
 10
16.766360163
 20
14.1663490376
 30
0.0
  0
SPLINE
  5
2FB
100
AcDbEntity
  8
0
100
AcDbSpline
 62
7
  6
CONTINUOUS
 70
0
 71
3
 72
15
 73
11
 74
0
 42
0.0000001
 43
0.0000001
 44
0.0000000001
 40
0.0
 40
0.0
 40
0.0
 40
0.0
 40
0.0996458013
 40
0.2028717874
 40
0.312594084
 40
0.4308566396
 40
0.5588142981
 40
0.6968305561
 40
0.8443981219
 40
1.0
 40
1.0
 40
1.0
 40
1.0
 10
15.0960780954
 20
14.1737302312
 30
0.0
 10
15.0962682107
 20
14.1743454707
 30
0.0
 10
15.0968068528
 20
14.1755564111
 30
0.0
 10
15.0980378424
 20
14.1771773531
 30
0.0
 10
15.0996612258
 20
14.1785925209
 30
0.0
 10
15.1016453828
 20
14.1797765827
 30
0.0
 10
15.103952921
 20
14.1807152151
 30
0.0
 10
15.1065445388
 20
14.1813939355
 30
0.0
 10
15.1093714205
 20
14.1818016011
 30
0.0
 10
15.1113320394
 20
14.1818892868
 30
0.0
 10
15.1123375895
 20
14.1818892868
 30
0.0
  0
SPLINE
  5
2FC
100
AcDbEntity
  8
0
100
AcDbSpline
 62
7
  6
CONTINUOUS
 70
0
 71
3
 72
11
 73
7
 74
0
 42
0.0000001
 43
0.0000001
 44
0.0000000001
 40
0.0
 40
0.0
 40
0.0
 40
0.0
 40
0.2336936819
 40
0.4747274464
 40
0.728954352
 40
1.0
 40
1.0
 40
1.0
 40
1.0
 10
14.1278128018
 20
11.0404225927
 30
0.0
 10
14.1276379473
 20
11.0398567389
 30
0.0
 10
14.1274076368
 20
11.0386645923
 30
0.0
 10
14.1274499353
 20
11.0368053147
 30
0.0
 10
14.1278677395
 20
11.0348981375
 30
0.0
 10
14.1283692021
 20
11.033658065
 30
0.0
 10
14.1286718177
 20
11.0330413991
 30
0.0
  0
SPLINE
  5
2FD
100
AcDbEntity
  8
0
100
AcDbSpline
 62
7
  6
CONTINUOUS
 70
0
 71
3
 72
9
 73
5
 74
0
 42
0.0000001
 43
0.0000001
 44
0.0000000001
 40
0.0
 40
0.0
 40
0.0
 40
0.0
 40
0.5155721205
 40
1.0
 40
1.0
 40
1.0
 40
1.0
 10
16.7936938784
 20
14.1106487818
 30
0.0
 10
16.7948093673
 20
14.1083756545
 30
0.0
 10
16.7966883933
 20
14.1038181794
 30
0.0
 10
16.7978453565
 20
14.0990188677
 30
0.0
 10
16.798195154
 20
14.0966656
 30
0.0
  0
SPLINE
  5
2FE
100
AcDbEntity
  8
0
100
AcDbSpline
 62
7
  6
CONTINUOUS
 70
0
 71
3
 72
14
 73
10
 74
0
 42
0.0000001
 43
0.0000001
 44
0.0000000001
 40
0.0
 40
0.0
 40
0.0
 40
0.0
 40
0.1556088275
 40
0.3032509177
 40
0.568844805
 40
0.6871584227
 40
0.7968876793
 40
0.9001721285
 40
1.0
 40
1.0
 40
1.0
 40
1.0
 10
15.829991591
 20
10.839720699
 30
0.0
 10
15.8309966076
 20
10.839720699
 30
0.0
 10
15.8329574991
 20
10.8398085994
 30
0.0
 10
15.8365954709
 20
10.840333316
 30
0.0
 10
15.8399163848
 20
10.8413774372
 30
0.0
 10
15.842666814
 20
10.8430161562
 30
0.0
 10
15.8442905452
 20
10.8444305854
 30
0.0
 10
15.8455215297
 20
10.8460520047
 30
0.0
 10
15.8460604614
 20
10.8472638309
 30
0.0
 10
15.8462501373
 20
10.847880049
 30
0.0
  0
SPLINE
  5
2FF
100
AcDbEntity
  8
0
100
AcDbSpline
 62
7
  6
CONTINUOUS
 70
0
 71
3
 72
15
 73
11
 74
0
 42
0.0000001
 43
0.0000001
 44
0.0000000001
 40
0.0
 40
0.0
 40
0.0
 40
0.0
 40
0.1089086419
 40
0.2266179405
 40
0.3512080615
 40
0.480631798
 40
0.6126732473
 40
0.744957941
 40
0.8750047575
 40
1.0
 40
1.0
 40
1.0
 40
1.0
 10
14.2581642212
 20
10.8517651527
 30
0.0
 10
14.2588998309
 20
10.8508818707
 30
0.0
 10
14.2605804784
 20
10.8491665741
 30
0.0
 10
14.263497786
 20
10.8468664661
 30
0.0
 10
14.2668433591
 20
10.8448019432
 30
0.0
 10
14.2705180348
 20
10.8430260184
 30
0.0
 10
14.2744244884
 20
10.8415894752
 30
0.0
 10
14.2784560716
 20
10.8405279538
 30
0.0
 10
14.2824984622
 20
10.8398780211
 30
0.0
 10
14.2851918682
 20
10.839720699
 30
0.0
 10
14.2865111371
 20
10.839720699
 30
0.0
  0
SPLINE
  5
300
100
AcDbEntity
  8
0
100
AcDbSpline
 62
7
  6
CONTINUOUS
 70
0
 71
3
 72
9
 73
5
 74
0
 42
0.0000001
 43
0.0000001
 44
0.0000000001
 40
0.0
 40
0.0
 40
0.0
 40
0.0
 40
0.2380066489
 40
1.0
 40
1.0
 40
1.0
 40
1.0
 10
14.1560055332
 20
10.9773411433
 30
0.0
 10
14.1565917821
 20
10.9761464935
 30
0.0
 10
14.1592277899
 20
10.9712122553
 30
0.0
 10
14.1625016808
 20
10.966631771
 30
0.0
 10
14.1652281555
 20
10.9633579615
 30
0.0
  0
SPLINE
  5
301
100
AcDbEntity
  8
0
100
AcDbSpline
 62
7
  6
CONTINUOUS
 70
0
 71
3
 72
15
 73
11
 74
0
 42
0.0000001
 43
0.0000001
 44
0.0000000001
 40
0.0
 40
0.0
 40
0.0
 40
0.0
 40
0.1001859616
 40
0.2118993972
 40
0.3337843779
 40
0.4637283488
 40
0.598733929
 40
0.7354238324
 40
0.8704311622
 40
1.0
 40
1.0
 40
1.0
 40
1.0
 10
15.7980948693
 20
11.0330413991
 30
0.0
 10
15.7975674709
 20
11.0341161242
 30
0.0
 10
15.7961693102
 20
11.0362536965
 30
0.0
 10
15.7934034648
 20
11.0391497503
 30
0.0
 10
15.7899513806
 20
11.0418110771
 30
0.0
 10
15.7859451954
 20
11.0441397542
 30
0.0
 10
15.7815333373
 20
11.0460550751
 30
0.0
 10
15.7768770347
 20
11.0474825296
 30
0.0
 10
15.7721545173
 20
11.0483664138
 30
0.0
 10
15.7689905601
 20
11.0485816483
 30
0.0
 10
15.7674422978
 20
11.0485816483
 30
0.0
  0
SPLINE
  5
302
100
AcDbEntity
  8
0
100
AcDbSpline
 62
7
  6
CONTINUOUS
 70
0
 71
3
 72
15
 73
11
 74
0
 42
0.0000001
 43
0.0000001
 44
0.0000000001
 40
0.0
 40
0.0
 40
0.0
 40
0.0
 40
0.1556018781
 40
0.3031694439
 40
0.4411857019
 40
0.5691433604
 40
0.687405916
 40
0.7971282126
 40
0.9003541987
 40
1.0
 40
1.0
 40
1.0
 40
1.0
 10
14.1440722959
 20
11.0485816483
 30
0.0
 10
14.1430667458
 20
11.0485816483
 30
0.0
 10
14.1411061269
 20
11.0484939626
 30
0.0
 10
14.1382792452
 20
11.0480862969
 30
0.0
 10
14.1356876274
 20
11.0474075766
 30
0.0
 10
14.1333800892
 20
11.0464689441
 30
0.0
 10
14.1313959322
 20
11.0452848824
 30
0.0
 10
14.1297725487
 20
11.0438697146
 30
0.0
 10
14.1285415591
 20
11.0422487726
 30
0.0
 10
14.128002917
 20
11.0410378322
 30
0.0
 10
14.1278128018
 20
11.0404225927
 30
0.0
  0
SPLINE
  5
303
100
AcDbEntity
  8
0
100
AcDbSpline
 62
7
  6
CONTINUOUS
 70
0
 71
3
 72
9
 73
5
 74
0
 42
0.0000001
 43
0.0000001
 44
0.0000000001
 40
0.0
 40
0.0
 40
0.0
 40
0.0
 40
0.4844278795
 40
1.0
 40
1.0
 40
1.0
 40
1.0
 10
15.8299298604
 20
10.9633579615
 30
0.0
 10
15.8295800628
 20
10.9657112292
 30
0.0
 10
15.8284230997
 20
10.9705105409
 30
0.0
 10
15.8265440736
 20
10.975068016
 30
0.0
 10
15.8254285848
 20
10.9773411433
 30
0.0
  0
ENDSEC
  0
SECTION
  2
OBJECTS
  0
DICTIONARY
  5
C
100
AcDbDictionary
280
0
281
1
  3
ACAD_GROUP
350
D
  3
ACAD_MLINESTYLE
350
17
  3
ACAD_LAYOUT
350
1A
  3
ACAD_PLOTSETTINGS
350
19
  3
ACAD_PLOTSTYLENAME
350
E
  0
DICTIONARY
  5
D
102
{ACAD_REACTORS
330
C
102
}
100
AcDbDictionary
280
0
281
1
  0
ACDBDICTIONARYWDFLT
  5
E
102
{ACAD_REACTORS
330
C
102
}
100
AcDbDictionary
281
1
  3
Normal
350
F
100
AcDbDictionaryWithDefault
340
F
  0
DICTIONARY
  5
17
102
{ACAD_REACTORS
330
C
102
}
100
AcDbDictionary
280
0
281
1
  3
Standard
350
18
  0
DICTIONARY
  5
19
102
{ACAD_REACTORS
330
C
102
}
100
AcDbDictionary
281
1
  0
DICTIONARY
  5
1A
102
{ACAD_REACTORS
330
C
102
}
100
AcDbDictionary
281
1
  3
Model
350
304
  3
Layout1
350
305
  0
ACDBPLACEHOLDER
  5
F
102
{ACAD_REACTORS
330
E
102
}
  0
MLINESTYLE
  5
18
102
{ACAD_REACTORS
330
17
102
}
100
AcDbMlineStyle
  2
STANDARD
 70
0
  3

 62
256
 51
90.0
 52
90.0
 71
2
 49
0.5
 62
256
  6
BYLAYER
 49
-0.5
 62
256
  6
BYLAYER
  0
LAYOUT
  5
304
102
{ACAD_REACTORS
330
1A
102
}
100
AcDbPlotSettings
  1

  2
none_device
  4
ANSI_C_(22.00_x_17.00_Inches)
  6

 40
0.0
 41
0.0
 42
0.0
 43
0.0
 44
558.8
 45
431.8
 46
0.0
 47
0.0
 48
0.0
 49
0.0
140
0.0
141
0.0
142
1.0
143
1.0
 70
1024
 72
0
 73
0
 74
0
  7

 75
0
147
1.0
148
0.0
149
0.0
100
AcDbLayout
  1
Model
 70
0
 71
0
 10
0.0
 20
0.0
 11
22.0
 21
17.0
 12
0.0
 22
0.0
 32
0.0
 14
0.0
 24
0.0
 34
0.0
 15
0.0
 25
0.0
 35
0.0
146
0.0
 13
0.0
 23
0.0
 33
0.0
 16
1.0
 26
0.0
 36
0.0
 17
0.0
 27
1.0
 37
0.0
 76
0
330
216
345
0
346
0
  0
LAYOUT
  5
305
102
{ACAD_REACTORS
330
1A
102
}
100
AcDbPlotSettings
  1

  2
none_device
  4
ANSI_C_(22.00_x_17.00_Inches)
  6

 40
0.0
 41
0.0
 42
0.0
 43
0.0
 44
558.8
 45
431.8
 46
0.0
 47
0.0
 48
0.0
 49
0.0
140
0.0
141
0.0
142
1.0
143
1.0
 70
0
 72
0
 73
0
 74
0
  7

 75
0
147
1.0
148
0.0
149
0.0
100
AcDbLayout
  1
Layout1
 70
0
 71
1
 10
0.0
 20
0.0
 11
22.0
 21
17.0
 12
0.0
 22
0.0
 32
0.0
 14
0.0
 24
0.0
 34
0.0
 15
0.0
 25
0.0
 35
0.0
146
0.0
 13
0.0
 23
0.0
 33
0.0
 16
1.0
 26
0.0
 36
0.0
 17
0.0
 27
1.0
 37
0.0
 76
0
330
217
345
0
346
0
  0
ENDSEC
  0
EOF