999
DXF file: _cgs_temp_output.dxf
999
Pro/ENGINEER 2016360 by Parametric Technology Corporation
  0
SECTION
  2
HEADER
  9
$ACADVER
  1
AC1021
  9
$DWGCODEPAGE
  3
ANSI_1252
  9
$EXTMAX
 10
22.0
 20
17.0
 30
0.0
  9
$EXTMIN
 10
0.0
 20
0.0
 30
0.0
  9
$LIMMIN
 10
0.0
 20
0.0
  9
$LIMMAX
 10
22.0
 20
17.0
  9
$VIEWCTR
 10
11.0
 20
8.5
  9
$VIEWSIZE
 40
17.0
  9
$CLAYER
  8
0
  9
$LTSCALE
 40
1.21
  9
$CELTYPE
  6
BYLAYER
  9
$DIMSCALE
 40
1.0
  9
$DIMASZ
 40
0.1875
  9
$DIMEXO
 40
0.0625
  9
$DIMDLI
 40
0.836
  9
$DIMEXE
 40
0.125
  9
$DIMCEN
 40
0.198
  9
$DIMLFAC
 40
1.0
  9
$DIMBLK
  1
_CLOSED
  9
$DIMALT
 70
0
  9
$DIMALTF
 40
25.4
  9
$DIMTXT
 40
0.15625
  9
$DIMTOL
 70
0
  9
$DIMLIM
 70
0
  9
$DIMTFAC
 40
1.0
  9
$DIMGAP
 40
0.09
  9
$DIMDSEP
 70
46
  9
$AUNITS
 70
0
  9
$PDMODE
 70
3
  9
$PDSIZE
 40
0.3125
  9
$HANDSEED
  5
2FE
  9
$TILEMODE
 70
1
  9
$MEASUREMENT
 70
0
  9
$INSUNITS
 70
1
  0
ENDSEC
  0
SECTION
  2
CLASSES
  0
CLASS
  1
ACDBDICTIONARYWDFLT
  2
AcDbDictionaryWithDefault
  3
AutoCAD 2000
 90
0
 91
1
280
0
281
0
  0
CLASS
  1
ACDBPLACEHOLDER
  2
AcDbPlaceHolder
  3
AutoCAD 2000
 90
0
 91
1
280
0
281
0
  0
CLASS
  1
LAYOUT
  2
AcDbLayout
  3
AutoCAD 2000
 90
0
 91
0
280
0
281
0
  0
ENDSEC
  0
SECTION
  2
TABLES
  0
TABLE
  2
VPORT
  5
8
100
AcDbSymbolTable
 70
2
  0
VPORT
  5
1F4
100
AcDbSymbolTableRecord
100
AcDbViewportTableRecord
  2
*ACTIVE
 70
0
 10
0.0
 20
0.0
 11
1.0
 21
1.0
 12
11.0
 22
8.5
 13
0.0
 23
0.0
 14
1.0
 24
1.0
 15
0.0
 25
0.0
 16
0.0
 26
0.0
 36
1.0
 17
0.0
 27
0.0
 37
0.0
 40
17.0
 41
1.2941176471
 42
50.0
 43
0.0
 44
0.0
 50
0.0
 51
0.0
 71
0
 72
100
 73
1
 74
1
 75
0
 76
0
 77
0
 78
0
  0
ENDTAB
  0
TABLE
  2
LTYPE
  5
5
100
AcDbSymbolTable
 70
6
  0
LTYPE
  5
14
100
AcDbSymbolTableRecord
100
AcDbLinetypeTableRecord
  2
BYBLOCK
 70
0
  3

 72
65
 73
0
 40
0.0
  0
LTYPE
  5
15
100
AcDbSymbolTableRecord
100
AcDbLinetypeTableRecord
  2
BYLAYER
 70
0
  3

 72
65
 73
0
 40
0.0
  0
LTYPE
  5
16
100
AcDbSymbolTableRecord
100
AcDbLinetypeTableRecord
  2
CONTINUOUS
 70
64
  3
Solid line
 72
65
 73
0
 40
0.0
  0
LTYPE
  5
1F5
100
AcDbSymbolTableRecord
100
AcDbLinetypeTableRecord
  2
CENTER
 70
64
  3
____ _ ____ _ ____ _ ____ _ ____ _ ____ _ ____
 72
65
 73
4
 40
0.6
 49
0.375
 74
0
 49
-0.075
 74
0
 49
0.075
 74
0
 49
-0.075
 74
0
  0
LTYPE
  5
1F6
100
AcDbSymbolTableRecord
100
AcDbLinetypeTableRecord
  2
HIDDEN
 70
64
  3
- - - - - - - - - - - - - - - - - - - -
 72
65
 73
2
 40
0.2
 49
0.1
 74
0
 49
-0.1
 74
0
  0
LTYPE
  5
1F7
100
AcDbSymbolTableRecord
100
AcDbLinetypeTableRecord
  2
PHANTOM
 70
64
  3
_____ _ _ _____ _ _ _____ _ _ _____
 72
65
 73
6
 40
0.8
 49
0.45
 74
0
 49
-0.05
 74
0
 49
0.1
 74
0
 49
-0.05
 74
0
 49
0.1
 74
0
 49
-0.05
 74
0
  0
LTYPE
  5
1F8
100
AcDbSymbolTableRecord
100
AcDbLinetypeTableRecord
  2
DOT
 70
64
  3
. . . . . . . . . . . . . . . . . . . .
 72
65
 73
2
 40
0.2
 49
0.1
 74
0
 49
-0.1
 74
0
  0
LTYPE
  5
1F9
100
AcDbSymbolTableRecord
100
AcDbLinetypeTableRecord
  2
DASHED
 70
64
  3
- - - - - - - - - - - - - - - - - - - -
 72
65
 73
2
 40
0.2
 49
0.1
 74
0
 49
-0.1
 74
0
  0
ENDTAB
  0
TABLE
  2
LAYER
  5
2
100
AcDbSymbolTable
 70
36
  0
LAYER
  5
10
100
AcDbSymbolTableRecord
100
AcDbLayerTableRecord
  2
0
 70
0
 62
7
  6
CONTINUOUS
370
-3
390
F
  0
LAYER
  5
1FA
100
AcDbSymbolTableRecord
100
AcDbLayerTableRecord
  2
DEFAULT_1
 70
0
 62
7
  6
CENTER
370
-3
390
F
  0
LAYER
  5
1FB
100
AcDbSymbolTableRecord
100
AcDbLayerTableRecord
  2
DEFAULT_2
 70
0
 62
8
  6
HIDDEN
370
-3
390
F
  0
LAYER
  5
1FC
100
AcDbSymbolTableRecord
100
AcDbLayerTableRecord
  2
DEFAULT_3
 70
0
 62
7
  6
PHANTOM
370
-3
390
F
  0
LAYER
  5
1FD
100
AcDbSymbolTableRecord
100
AcDbLayerTableRecord
  2
01_ALL_DTM_PLN
 70
0
 62
7
  6
CONTINUOUS
370
-3
390
F
  0
LAYER
  5
1FE
100
AcDbSymbolTableRecord
100
AcDbLayerTableRecord
  2
01__ASM_ALL_DTM_PLN
 70
0
 62
7
  6
CONTINUOUS
370
-3
390
F
  0
LAYER
  5
1FF
100
AcDbSymbolTableRecord
100
AcDbLayerTableRecord
  2
01__ASM_DEF_DTM_PLN
 70
0
 62
7
  6
CONTINUOUS
370
-3
390
F
  0
LAYER
  5
200
100
AcDbSymbolTableRecord
100
AcDbLayerTableRecord
  2
01___PRT_ALL_DTM_PLN
 70
0
 62
7
  6
CONTINUOUS
370
-3
390
F
  0
LAYER
  5
201
100
AcDbSymbolTableRecord
100
AcDbLayerTableRecord
  2
01___PRT_DEF_DTM_PLN
 70
0
 62
7
  6
CONTINUOUS
370
-3
390
F
  0
LAYER
  5
202
100
AcDbSymbolTableRecord
100
AcDbLayerTableRecord
  2
02_ALL_AXES
 70
0
 62
7
  6
CONTINUOUS
370
-3
390
F
  0
LAYER
  5
203
100
AcDbSymbolTableRecord
100
AcDbLayerTableRecord
  2
02__ASM_ALL_AXES
 70
0
 62
7
  6
CONTINUOUS
370
-3
390
F
  0
LAYER
  5
204
100
AcDbSymbolTableRecord
100
AcDbLayerTableRecord
  2
02___PRT_ALL_AXES
 70
0
 62
7
  6
CONTINUOUS
370
-3
390
F
  0
LAYER
  5
205
100
AcDbSymbolTableRecord
100
AcDbLayerTableRecord
  2
03_ALL_CURVES
 70
0
 62
7
  6
CONTINUOUS
370
-3
390
F
  0
LAYER
  5
206
100
AcDbSymbolTableRecord
100
AcDbLayerTableRecord
  2
03__ASM_ALL_CURVES
 70
0
 62
7
  6
CONTINUOUS
370
-3
390
F
  0
LAYER
  5
207
100
AcDbSymbolTableRecord
100
AcDbLayerTableRecord
  2
03___PRT_ALL_CURVES
 70
0
 62
7
  6
CONTINUOUS
370
-3
390
F
  0
LAYER
  5
208
100
AcDbSymbolTableRecord
100
AcDbLayerTableRecord
  2
04_ALL_DTM_PNT
 70
0
 62
7
  6
CONTINUOUS
370
-3
390
F
  0
LAYER
  5
209
100
AcDbSymbolTableRecord
100
AcDbLayerTableRecord
  2
04__ASM_ALL_DTM_PNT
 70
0
 62
7
  6
CONTINUOUS
370
-3
390
F
  0
LAYER
  5
20A
100
AcDbSymbolTableRecord
100
AcDbLayerTableRecord
  2
04___PRT_ALL_DTM_PNT
 70
0
 62
7
  6
CONTINUOUS
370
-3
390
F
  0
LAYER
  5
20B
100
AcDbSymbolTableRecord
100
AcDbLayerTableRecord
  2
05_ALL_DTM_CSYS
 70
0
 62
7
  6
CONTINUOUS
370
-3
390
F
  0
LAYER
  5
20C
100
AcDbSymbolTableRecord
100
AcDbLayerTableRecord
  2
05__ASM_ALL_DTM_CSYS
 70
0
 62
7
  6
CONTINUOUS
370
-3
390
F
  0
LAYER
  5
20D
100
AcDbSymbolTableRecord
100
AcDbLayerTableRecord
  2
05__ASM_DEF_DTM_CSYS
 70
0
 62
7
  6
CONTINUOUS
370
-3
390
F
  0
LAYER
  5
20E
100
AcDbSymbolTableRecord
100
AcDbLayerTableRecord
  2
05___PRT_ALL_DTM_CSYS
 70
0
 62
7
  6
CONTINUOUS
370
-3
390
F
  0
LAYER
  5
20F
100
AcDbSymbolTableRecord
100
AcDbLayerTableRecord
  2
05___PRT_DEF_DTM_CSYS
 70
0
 62
7
  6
CONTINUOUS
370
-3
390
F
  0
LAYER
  5
210
100
AcDbSymbolTableRecord
100
AcDbLayerTableRecord
  2
06_ALL_SURFS
 70
0
 62
7
  6
CONTINUOUS
370
-3
390
F
  0
LAYER
  5
211
100
AcDbSymbolTableRecord
100
AcDbLayerTableRecord
  2
06__ASM_ALL_SURFS
 70
0
 62
7
  6
CONTINUOUS
370
-3
390
F
  0
LAYER
  5
212
100
AcDbSymbolTableRecord
100
AcDbLayerTableRecord
  2
06___PRT_ALL_SURFS
 70
0
 62
7
  6
CONTINUOUS
370
-3
390
F
  0
LAYER
  5
213
100
AcDbSymbolTableRecord
100
AcDbLayerTableRecord
  2
07__ASM_ALL_SKELETONS
 70
0
 62
7
  6
CONTINUOUS
370
-3
390
F
  0
ENDTAB
  0
TABLE
  2
STYLE
  5
3
100
AcDbSymbolTable
 70
1
  0
STYLE
  5
11
100
AcDbSymbolTableRecord
100
AcDbTextStyleTableRecord
  2
STANDARD
 70
0
 40
0.0
 41
0.8
 50
0.0
 71
0
 42
0.2
  3
txt
  4

  0
STYLE
  5
214
100
AcDbSymbolTableRecord
100
AcDbTextStyleTableRecord
  2
TEXTSTYLE_1
 70
0
 40
0.0
 41
0.8
 50
0.0
 71
0
 42
0.2
  3
gdt
  4

  0
ENDTAB
  0
TABLE
  2
VIEW
  5
6
100
AcDbSymbolTable
 70
0
  0
ENDTAB
  0
TABLE
  2
UCS
  5
7
100
AcDbSymbolTable
 70
0
  0
ENDTAB
  0
TABLE
  2
APPID
  5
9
100
AcDbSymbolTable
 70
1
  0
APPID
  5
215
100
AcDbSymbolTableRecord
100
AcDbRegAppTableRecord
  2
ACAD
 70
0
  0
ENDTAB
  0
TABLE
  2
BLOCK_RECORD
  5
1
100
AcDbSymbolTable
 70
0
  0
BLOCK_RECORD
  5
216
100
AcDbSymbolTableRecord
100
AcDbBlockTableRecord
  2
*Model_Space
  0
BLOCK_RECORD
  5
217
100
AcDbSymbolTableRecord
100
AcDbBlockTableRecord
  2
*Paper_Space
  0
ENDTAB
  0
TABLE
  2
DIMSTYLE
  5
A
100
AcDbSymbolTable
 70
1
100
AcDbDimStyleTable
 71
0
  0
DIMSTYLE
105
218
100
AcDbSymbolTableRecord
100
AcDbDimStyleTableRecord
  2
STANDARD
 70
0
  3

  4

 40
1.0
 41
0.1875
 42
0.0625
 43
0.38
 44
0.125
 45
0.0
 46
0.0
 47
0.0001
 48
0.0001
140
0.15625
141
0.09
142
0.0
143
25.4
144
1.0
145
0.0
146
1.0
147
0.09
 71
0.0
 72
0.0
 73
1
 74
1
 75
0
 76
0
 77
0
 78
4
 79
1
170
0
171
3
172
0
173
0
174
0
175
0
176
0
177
0
178
0
270
2
179
4
271
4
272
4
273
2
274
2
275
0
280
0
281
0
282
0
283
1
284
4
285
0
286
0
287
3
288
0
340
11
278
46
  0
ENDTAB
  0
ENDSEC
  0
SECTION
  2
BLOCKS
  0
BLOCK
  5
20
100
AcDbEntity
  8
0
100
AcDbBlockBegin
  2
*Model_Space
 70
0
 10
0.0
 20
0.0
 30
0.0
  3
*Model_Space
  1

  0
ENDBLK
  5
21
100
AcDbEntity
  8
0
100
AcDbBlockEnd
  0
BLOCK
  5
1C
100
AcDbEntity
  8
0
100
AcDbBlockBegin
  2
*Paper_Space
 70
0
 10
0.0
 20
0.0
 30
0.0
  3
*Paper_Space
  1

  0
ENDBLK
  5
1D
100
AcDbEntity
  8
0
100
AcDbBlockEnd
  0
ENDSEC
  0
SECTION
  2
ENTITIES
  0
MTEXT
  5
219
100
AcDbEntity
  8
0
100
AcDbMText
 62
7
  6
CONTINUOUS
  7
STANDARD
 71
1
 72
1
 10
15.9560215477
 20
0.9479130325
 30
0.0
 11
1.0
 21
0.0
 31
0.0
 44
0.9
  1
SCALE: 1:1.000
 40
0.3
 41
3.36
  0
LINE
  5
21A
100
AcDbEntity
  8
0
100
AcDbLine
 62
7
  6
CONTINUOUS
 10
0.0
 20
0.0
 11
0.0
 21
17.0
  0
LINE
  5
21B
100
AcDbEntity
  8
0
100
AcDbLine
 62
7
  6
CONTINUOUS
 10
0.0
 20
0.0
 11
22.0
 21
0.0
  0
LINE
  5
21C
100
AcDbEntity
  8
0
100
AcDbLine
 62
7
  6
CONTINUOUS
 10
0.0
 20
17.0
 11
22.0
 21
17.0
  0
LINE
  5
21D
100
AcDbEntity
  8
0
100
AcDbLine
 62
7
  6
CONTINUOUS
 10
22.0
 20
0.0
 11
22.0
 21
17.0
  0
LINE
  5
21E
100
AcDbEntity
  8
0
100
AcDbLine
 62
7
  6
CONTINUOUS
 10
5.2241172762
 20
5.7531198974
 11
5.2241172762
 21
5.6605134582
  0
LINE
  5
21F
100
AcDbEntity
  8
0
100
AcDbLine
 62
7
  6
CONTINUOUS
 10
5.3089899124
 20
5.281496121
 11
5.2266802697
 21
5.6380183528
  0
LINE
  5
220
100
AcDbEntity
  8
0
100
AcDbLine
 62
7
  6
CONTINUOUS
 10
5.333349164
 20
5.2621198974
 11
6.9273853883
 21
5.2621198974
  0
LINE
  5
221
100
AcDbEntity
  8
0
100
AcDbLine
 62
7
  6
CONTINUOUS
 10
5.2936398352
 20
5.4341198974
 11
6.9670947172
 21
5.4341198974
  0
LINE
  5
222
100
AcDbEntity
  8
0
100
AcDbLine
 62
7
  6
CONTINUOUS
 10
7.0116172762
 20
5.7781198974
 11
5.2491172762
 21
5.7781198974
  0
LINE
  5
223
100
AcDbEntity
  8
0
100
AcDbLine
 62
7
  6
CONTINUOUS
 10
7.0366172762
 20
5.6605134582
 11
7.0366172762
 21
5.7531198974
  0
LINE
  5
224
100
AcDbEntity
  8
0
100
AcDbLine
 62
7
  6
CONTINUOUS
 10
6.9517446399
 20
5.281496121
 11
7.0340542826
 21
5.6380183528
  0
LINE
  5
225
100
AcDbEntity
  8
0
100
AcDbLine
 62
7
  6
CONTINUOUS
 10
6.9771220839
 20
10.6000477814
 11
5.1646220839
 21
10.6000477814
  0
LINE
  5
226
100
AcDbEntity
  8
0
100
AcDbLine
 62
7
  6
CONTINUOUS
 10
5.1646220839
 20
10.6000477814
 11
5.1646220839
 21
14.6000477814
  0
LINE
  5
227
100
AcDbEntity
  8
0
100
AcDbLine
 62
7
  6
CONTINUOUS
 10
6.9771220839
 20
10.6000477814
 11
6.9771220839
 21
14.6000477814
  0
LINE
  5
228
100
AcDbEntity
  8
0
100
AcDbLine
 62
7
  6
CONTINUOUS
 10
5.1646220839
 20
14.6000477814
 11
6.9771220839
 21
14.6000477814
  0
LINE
  5
229
100
AcDbEntity
  8
0
100
AcDbLine
 62
7
  6
CONTINUOUS
 10
13.5603552569
 20
5.3746247051
 11
13.5603552569
 21
5.7186247051
  0
LINE
  5
22A
100
AcDbEntity
  8
0
100
AcDbLine
 62
7
  6
CONTINUOUS
 10
13.6731947609
 20
5.3412976004
 11
13.697515753
 21
5.2359518098
  0
LINE
  5
22B
100
AcDbEntity
  8
0
100
AcDbLine
 62
7
  6
CONTINUOUS
 10
13.9231947609
 20
5.2359518098
 11
13.947515753
 21
5.3412976004
  0
LINE
  5
22C
100
AcDbEntity
  8
0
100
AcDbLine
 62
7
  6
CONTINUOUS
 10
14.1731947609
 20
5.3412976004
 11
14.197515753
 21
5.2359518098
  0
LINE
  5
22D
100
AcDbEntity
  8
0
100
AcDbLine
 62
7
  6
CONTINUOUS
 10
14.4231947609
 20
5.2359518098
 11
14.447515753
 21
5.3412976004
  0
LINE
  5
22E
100
AcDbEntity
  8
0
100
AcDbLine
 62
7
  6
CONTINUOUS
 10
14.6731947609
 20
5.3412976004
 11
14.697515753
 21
5.2359518098
  0
LINE
  5
22F
100
AcDbEntity
  8
0
100
AcDbLine
 62
7
  6
CONTINUOUS
 10
14.9231947609
 20
5.2359518098
 11
14.947515753
 21
5.3412976004
  0
LINE
  5
230
100
AcDbEntity
  8
0
100
AcDbLine
 62
7
  6
CONTINUOUS
 10
15.1731947609
 20
5.3412976004
 11
15.197515753
 21
5.2359518098
  0
LINE
  5
231
100
AcDbEntity
  8
0
100
AcDbLine
 62
7
  6
CONTINUOUS
 10
13.7394136658
 20
5.2026247051
 11
13.8812968481
 21
5.2026247051
  0
LINE
  5
232
100
AcDbEntity
  8
0
100
AcDbLine
 62
7
  6
CONTINUOUS
 10
14.2394136658
 20
5.2026247051
 11
14.3812968481
 21
5.2026247051
  0
LINE
  5
233
100
AcDbEntity
  8
0
100
AcDbLine
 62
7
  6
CONTINUOUS
 10
14.7394136658
 20
5.2026247051
 11
14.8812968481
 21
5.2026247051
  0
LINE
  5
234
100
AcDbEntity
  8
0
100
AcDbLine
 62
7
  6
CONTINUOUS
 10
15.2394136658
 20
5.2026247051
 11
15.3812968481
 21
5.2026247051
  0
LINE
  5
235
100
AcDbEntity
  8
0
100
AcDbLine
 62
7
  6
CONTINUOUS
 10
15.7394136658
 20
5.2026247051
 11
15.8812968481
 21
5.2026247051
  0
LINE
  5
236
100
AcDbEntity
  8
0
100
AcDbLine
 62
7
  6
CONTINUOUS
 10
16.2394136658
 20
5.2026247051
 11
16.3812968481
 21
5.2026247051
  0
LINE
  5
237
100
AcDbEntity
  8
0
100
AcDbLine
 62
7
  6
CONTINUOUS
 10
16.7394136658
 20
5.2026247051
 11
16.8812968481
 21
5.2026247051
  0
LINE
  5
238
100
AcDbEntity
  8
0
100
AcDbLine
 62
7
  6
CONTINUOUS
 10
17.2394136658
 20
5.2026247051
 11
17.3812968481
 21
5.2026247051
  0
LINE
  5
239
100
AcDbEntity
  8
0
100
AcDbLine
 62
7
  6
CONTINUOUS
 10
15.4231947609
 20
5.2359518098
 11
15.447515753
 21
5.3412976004
  0
LINE
  5
23A
100
AcDbEntity
  8
0
100
AcDbLine
 62
7
  6
CONTINUOUS
 10
13.5603552569
 20
5.3746247051
 11
13.6312968481
 21
5.3746247051
  0
LINE
  5
23B
100
AcDbEntity
  8
0
100
AcDbLine
 62
7
  6
CONTINUOUS
 10
13.9894136658
 20
5.3746247051
 11
14.1312968481
 21
5.3746247051
  0
LINE
  5
23C
100
AcDbEntity
  8
0
100
AcDbLine
 62
7
  6
CONTINUOUS
 10
14.4894136658
 20
5.3746247051
 11
14.6312968481
 21
5.3746247051
  0
LINE
  5
23D
100
AcDbEntity
  8
0
100
AcDbLine
 62
7
  6
CONTINUOUS
 10
14.9894136658
 20
5.3746247051
 11
15.1312968481
 21
5.3746247051
  0
LINE
  5
23E
100
AcDbEntity
  8
0
100
AcDbLine
 62
7
  6
CONTINUOUS
 10
15.4894136658
 20
5.3746247051
 11
15.6312968481
 21
5.3746247051
  0
LINE
  5
23F
100
AcDbEntity
  8
0
100
AcDbLine
 62
7
  6
CONTINUOUS
 10
15.9894136658
 20
5.3746247051
 11
16.1312968481
 21
5.3746247051
  0
LINE
  5
240
100
AcDbEntity
  8
0
100
AcDbLine
 62
7
  6
CONTINUOUS
 10
16.4894136658
 20
5.3746247051
 11
16.6312968481
 21
5.3746247051
  0
LINE
  5
241
100
AcDbEntity
  8
0
100
AcDbLine
 62
7
  6
CONTINUOUS
 10
16.9894136658
 20
5.3746247051
 11
17.1312968481
 21
5.3746247051
  0
LINE
  5
242
100
AcDbEntity
  8
0
100
AcDbLine
 62
7
  6
CONTINUOUS
 10
17.4894136658
 20
5.3746247051
 11
17.5603552569
 21
5.3746247051
  0
LINE
  5
243
100
AcDbEntity
  8
0
100
AcDbLine
 62
7
  6
CONTINUOUS
 10
15.6731947609
 20
5.3412976004
 11
15.697515753
 21
5.2359518098
  0
LINE
  5
244
100
AcDbEntity
  8
0
100
AcDbLine
 62
7
  6
CONTINUOUS
 10
13.5603552569
 20
5.7186247051
 11
17.5603552569
 21
5.7186247051
  0
LINE
  5
245
100
AcDbEntity
  8
0
100
AcDbLine
 62
7
  6
CONTINUOUS
 10
15.9231947609
 20
5.2359518098
 11
15.947515753
 21
5.3412976004
  0
LINE
  5
246
100
AcDbEntity
  8
0
100
AcDbLine
 62
7
  6
CONTINUOUS
 10
16.1731947609
 20
5.3412976004
 11
16.197515753
 21
5.2359518098
  0
LINE
  5
247
100
AcDbEntity
  8
0
100
AcDbLine
 62
7
  6
CONTINUOUS
 10
16.4231947609
 20
5.2359518098
 11
16.447515753
 21
5.3412976004
  0
LINE
  5
248
100
AcDbEntity
  8
0
100
AcDbLine
 62
7
  6
CONTINUOUS
 10
16.6731947609
 20
5.3412976004
 11
16.697515753
 21
5.2359518098
  0
LINE
  5
249
100
AcDbEntity
  8
0
100
AcDbLine
 62
7
  6
CONTINUOUS
 10
16.9231947609
 20
5.2359518098
 11
16.947515753
 21
5.3412976004
  0
LINE
  5
24A
100
AcDbEntity
  8
0
100
AcDbLine
 62
7
  6
CONTINUOUS
 10
17.1731947609
 20
5.3412976004
 11
17.197515753
 21
5.2359518098
  0
LINE
  5
24B
100
AcDbEntity
  8
0
100
AcDbLine
 62
7
  6
CONTINUOUS
 10
17.5603552569
 20
5.3746247051
 11
17.5603552569
 21
5.7186247051
  0
LINE
  5
24C
100
AcDbEntity
  8
0
100
AcDbLine
 62
7
  6
CONTINUOUS
 10
17.4231947609
 20
5.2359518098
 11
17.447515753
 21
5.3412976004
  0
LINE
  5
24D
100
AcDbEntity
  8
0
100
AcDbLine
 62
7
  6
CONTINUOUS
 10
14.1654547229
 20
10.9639795715
 11
14.2609792163
 21
10.8492787129
  0
LINE
  5
24E
100
AcDbEntity
  8
0
100
AcDbLine
 62
7
  6
CONTINUOUS
 10
14.1279832595
 20
11.035527839
 11
14.1562321006
 21
10.9779627533
  0
LWPOLYLINE
  5
24F
100
AcDbEntity
  8
0
100
AcDbPolyline
 62
7
  6
CONTINUOUS
 90
5
 70
0
 10
15.8782476879
 20
10.8543078639
 10
15.8882095195
 20
10.8562933351
 10
15.8960524925
 20
10.8612927036
 10
15.9011701255
 20
10.867431395
 10
15.9045660476
 20
10.8741614949
  0
LINE
  5
250
100
AcDbEntity
  8
0
100
AcDbLine
 62
7
  6
CONTINUOUS
 10
14.2893261323
 20
10.8372342591
 11
15.8306801493
 21
10.8372342591
  0
LINE
  5
251
100
AcDbEntity
  8
0
100
AcDbLine
 62
7
  6
CONTINUOUS
 10
15.8496944185
 20
10.8543078433
 11
15.8782480321
 21
10.8543078433
  0
LINE
  5
252
100
AcDbEntity
  8
0
100
AcDbLine
 62
7
  6
CONTINUOUS
 10
15.7667537396
 20
11.0510680882
 11
14.1433837377
 21
11.0510680882
  0
LWPOLYLINE
  5
253
100
AcDbEntity
  8
0
100
AcDbPolyline
 62
7
  6
CONTINUOUS
 90
5
 70
0
 10
15.9992808496
 20
11.2459713187
 10
16.0092426812
 20
11.2479567899
 10
16.0170856542
 20
11.2529561584
 10
16.0222032872
 20
11.2590948498
 10
16.0255992093
 20
11.2658249497
  0
LINE
  5
254
100
AcDbEntity
  8
0
100
AcDbLine
 62
7
  6
CONTINUOUS
 10
15.9707275802
 20
11.2459712981
 11
15.9992811938
 21
11.2459712981
  0
LWPOLYLINE
  5
255
100
AcDbEntity
  8
0
100
AcDbPolyline
 62
7
  6
CONTINUOUS
 90
5
 70
0
 10
16.1203140113
 20
11.6376347735
 10
16.1302758429
 20
11.6396202448
 10
16.1381188159
 20
11.6446196132
 10
16.1432364489
 20
11.6507583046
 10
16.146632371
 20
11.6574884045
  0
LINE
  5
256
100
AcDbEntity
  8
0
100
AcDbLine
 62
7
  6
CONTINUOUS
 10
14.1271242633
 20
11.0429090233
 11
15.0953895569
 21
14.1762166618
  0
LINE
  5
257
100
AcDbEntity
  8
0
100
AcDbLine
 62
7
  6
CONTINUOUS
 10
16.0917607419
 20
11.6376347529
 11
16.1203143555
 21
11.6376347529
  0
LWPOLYLINE
  5
258
100
AcDbEntity
  8
0
100
AcDbPolyline
 62
7
  6
CONTINUOUS
 90
5
 70
0
 10
16.241347173
 20
12.0292982283
 10
16.2513090046
 20
12.0312836996
 10
16.2591519776
 20
12.0362830681
 10
16.2642696106
 20
12.0424217594
 10
16.2676655327
 20
12.0491518593
  0
LINE
  5
259
100
AcDbEntity
  8
0
100
AcDbLine
 62
7
  6
CONTINUOUS
 10
16.2127939036
 20
12.0292982077
 11
16.2413475172
 21
12.0292982077
  0
LINE
  5
25A
100
AcDbEntity
  8
0
100
AcDbLine
 62
7
  6
CONTINUOUS
 10
15.8256551522
 20
10.9779627533
 11
15.7974063111
 21
11.035527839
  0
LWPOLYLINE
  5
25B
100
AcDbEntity
  8
0
100
AcDbPolyline
 62
7
  6
CONTINUOUS
 90
5
 70
0
 10
16.3623803347
 20
12.4209616831
 10
16.3723421664
 20
12.4229471544
 10
16.3801851393
 20
12.4279465229
 10
16.3853027723
 20
12.4340852143
 10
16.3886986944
 20
12.4408153142
  0
LINE
  5
25C
100
AcDbEntity
  8
0
100
AcDbLine
 62
7
  6
CONTINUOUS
 10
16.3338270653
 20
12.4209616625
 11
16.3623806789
 21
12.4209616625
  0
LWPOLYLINE
  5
25D
100
AcDbEntity
  8
0
100
AcDbPolyline
 62
7
  6
CONTINUOUS
 90
5
 70
0
 10
16.4834134964
 20
12.8126251379
 10
16.4933753281
 20
12.8146106092
 10
16.501218301
 20
12.8196099777
 10
16.506335934
 20
12.8257486691
 10
16.5097318561
 20
12.832478769
  0
LINE
  5
25E
100
AcDbEntity
  8
0
100
AcDbLine
 62
7
  6
CONTINUOUS
 10
15.8472059464
 20
10.8492787129
 11
15.8301564278
 21
10.9639795715
  0
LINE
  5
25F
100
AcDbEntity
  8
0
100
AcDbLine
 62
7
  6
CONTINUOUS
 10
16.454860227
 20
12.8126251173
 11
16.4834138406
 21
12.8126251173
  0
LINE
  5
260
100
AcDbEntity
  8
0
100
AcDbLine
 62
7
  6
CONTINUOUS
 10
15.9445663845
 20
11.0208066476
 11
15.9407199182
 21
11.1053419283
  0
LWPOLYLINE
  5
261
100
AcDbEntity
  8
0
100
AcDbPolyline
 62
7
  6
CONTINUOUS
 90
6
 70
0
 10
15.9407183197
 20
11.1053661067
 10
15.9405800069
 20
11.111326967
 10
15.9410995404
 20
11.12621374
 10
15.942805336
 20
11.1431473129
 10
15.945565474
 20
11.1601420751
 10
15.948992288
 20
11.175173655
  0
LINE
  5
262
100
AcDbEntity
  8
0
100
AcDbLine
 62
7
  6
CONTINUOUS
 10
16.0655995462
 20
11.4124701024
 11
16.0617530799
 21
11.4970053831
  0
LWPOLYLINE
  5
263
100
AcDbEntity
  8
0
100
AcDbPolyline
 62
7
  6
CONTINUOUS
 90
6
 70
0
 10
16.0617514814
 20
11.4970295615
 10
16.0616131686
 20
11.5029904218
 10
16.0621327021
 20
11.5178771948
 10
16.0638384977
 20
11.5348107677
 10
16.0665986357
 20
11.5518055299
 10
16.0700254497
 20
11.5668371098
  0
LINE
  5
264
100
AcDbEntity
  8
0
100
AcDbLine
 62
7
  6
CONTINUOUS
 10
15.944610576
 20
11.0156118813
 11
15.9445635691
 21
11.0208648524
  0
LINE
  5
265
100
AcDbEntity
  8
0
100
AcDbLine
 62
7
  6
CONTINUOUS
 10
16.0656437377
 20
11.4072753362
 11
16.0655967308
 21
11.4125283072
  0
LINE
  5
266
100
AcDbEntity
  8
0
100
AcDbLine
 62
7
  6
CONTINUOUS
 10
15.8469378806
 20
10.8453938606
 11
15.8472059464
 21
10.8492787129
  0
LINE
  5
267
100
AcDbEntity
  8
0
100
AcDbLine
 62
7
  6
CONTINUOUS
 10
16.716335952
 20
13.6554676609
 11
16.7169386021
 21
13.6565099125
  0
LWPOLYLINE
  5
268
100
AcDbEntity
  8
0
100
AcDbPolyline
 62
7
  6
CONTINUOUS
 90
5
 70
0
 10
16.6044466581
 20
13.2042885927
 10
16.6144084898
 20
13.206274064
 10
16.6222514627
 20
13.2112734325
 10
16.6273690957
 20
13.2174121239
 10
16.6307650178
 20
13.2241422238
  0
LINE
  5
269
100
AcDbEntity
  8
0
100
AcDbLine
 62
7
  6
CONTINUOUS
 10
16.1866327079
 20
11.8041335572
 11
16.1827862416
 21
11.8886688379
  0
LWPOLYLINE
  5
26A
100
AcDbEntity
  8
0
100
AcDbPolyline
 62
7
  6
CONTINUOUS
 90
6
 70
0
 10
16.1827846431
 20
11.8886930163
 10
16.1826463303
 20
11.8946538767
 10
16.1831658638
 20
11.9095406497
 10
16.1848716594
 20
11.9264742226
 10
16.1876317974
 20
11.9434689847
 10
16.1910586114
 20
11.9585005646
  0
LINE
  5
26B
100
AcDbEntity
  8
0
100
AcDbLine
 62
7
  6
CONTINUOUS
 10
16.1866768994
 20
11.798938791
 11
16.1866298925
 21
11.8041917621
  0
LINE
  5
26C
100
AcDbEntity
  8
0
100
AcDbLine
 62
7
  6
CONTINUOUS
 10
16.5953027903
 20
13.2638042061
 11
16.5959054404
 21
13.2648464577
  0
LINE
  5
26D
100
AcDbEntity
  8
0
100
AcDbLine
 62
7
  6
CONTINUOUS
 10
16.4742696286
 20
12.8721407513
 11
16.4748722787
 21
12.8731830029
  0
LINE
  5
26E
100
AcDbEntity
  8
0
100
AcDbLine
 62
7
  6
CONTINUOUS
 10
16.5758933887
 20
13.2042885721
 11
16.6044470023
 21
13.2042885721
  0
LINE
  5
26F
100
AcDbEntity
  8
0
100
AcDbLine
 62
7
  6
CONTINUOUS
 10
16.3076658696
 20
12.195797012
 11
16.3038194033
 21
12.2803322928
  0
LWPOLYLINE
  5
270
100
AcDbEntity
  8
0
100
AcDbPolyline
 62
7
  6
CONTINUOUS
 90
6
 70
0
 10
16.3038178048
 20
12.2803564711
 10
16.303679492
 20
12.2863173315
 10
16.3041990255
 20
12.3012041045
 10
16.3059048211
 20
12.3181376774
 10
16.3086649591
 20
12.3351324395
 10
16.3120917731
 20
12.3501640194
  0
LINE
  5
271
100
AcDbEntity
  8
0
100
AcDbLine
 62
7
  6
CONTINUOUS
 10
16.3077100611
 20
12.1906022458
 11
16.3076630542
 21
12.1958552169
  0
LWPOLYLINE
  5
272
100
AcDbEntity
  8
0
100
AcDbPolyline
 62
7
  6
CONTINUOUS
 90
3
 70
0
 10
15.9418574955
 20
10.9947775255
 10
15.9437717406
 20
11.0051990836
 10
15.944610576
 20
11.0156118813
  0
LWPOLYLINE
  5
273
100
AcDbEntity
  8
0
100
AcDbPolyline
 62
7
  6
CONTINUOUS
 90
3
 70
0
 10
16.0628906572
 20
11.3864409804
 10
16.0648049023
 20
11.3968625384
 10
16.0656437377
 20
11.4072753362
  0
LWPOLYLINE
  5
274
100
AcDbEntity
  8
0
100
AcDbPolyline
 62
7
  6
CONTINUOUS
 90
3
 70
0
 10
16.1839238189
 20
11.7781044352
 10
16.185838064
 20
11.7885259932
 10
16.1866768994
 20
11.798938791
  0
LINE
  5
275
100
AcDbEntity
  8
0
100
AcDbLine
 62
7
  6
CONTINUOUS
 10
15.9405073547
 20
10.9898340586
 11
15.9418574955
 21
10.9947775255
  0
LINE
  5
276
100
AcDbEntity
  8
0
100
AcDbLine
 62
7
  6
CONTINUOUS
 10
16.0615405164
 20
11.3814975134
 11
16.0628906572
 21
11.3864409804
  0
LINE
  5
277
100
AcDbEntity
  8
0
100
AcDbLine
 62
7
  6
CONTINUOUS
 10
15.948992288
 20
11.175173655
 11
15.95079456
 21
11.1814723436
  0
LINE
  5
278
100
AcDbEntity
  8
0
100
AcDbLine
 62
7
  6
CONTINUOUS
 10
16.0700254497
 20
11.5668371098
 11
16.0718277217
 21
11.5731357984
  0
LINE
  5
279
100
AcDbEntity
  8
0
100
AcDbLine
 62
7
  6
CONTINUOUS
 10
16.1910586114
 20
11.9585005646
 11
16.1928608834
 21
11.9647992532
  0
LINE
  5
27A
100
AcDbEntity
  8
0
100
AcDbLine
 62
7
  6
CONTINUOUS
 10
16.3120917731
 20
12.3501640194
 11
16.3138940451
 21
12.356462708
  0
LINE
  5
27B
100
AcDbEntity
  8
0
100
AcDbLine
 62
7
  6
CONTINUOUS
 10
16.4331249348
 20
12.7418274742
 11
16.4349272068
 21
12.7481261628
  0
LINE
  5
27C
100
AcDbEntity
  8
0
100
AcDbLine
 62
7
  6
CONTINUOUS
 10
16.5541580965
 20
13.1334909291
 11
16.5559603685
 21
13.1397896176
  0
LINE
  5
27D
100
AcDbEntity
  8
0
100
AcDbLine
 62
7
  6
CONTINUOUS
 10
15.8480588512
 20
10.8490151454
 11
15.8641121947
 21
10.9009637842
  0
LINE
  5
27E
100
AcDbEntity
  8
0
100
AcDbLine
 62
7
  6
CONTINUOUS
 10
15.9508002153
 20
11.1814863215
 11
15.9851453564
 21
11.292627239
  0
LINE
  5
27F
100
AcDbEntity
  8
0
100
AcDbLine
 62
7
  6
CONTINUOUS
 10
16.071833377
 20
11.5731497763
 11
16.1061785181
 21
11.6842906938
  0
LINE
  5
280
100
AcDbEntity
  8
0
100
AcDbLine
 62
7
  6
CONTINUOUS
 10
16.1928665387
 20
11.9648132311
 11
16.2272116798
 21
12.0759541486
  0
LINE
  5
281
100
AcDbEntity
  8
0
100
AcDbLine
 62
7
  6
CONTINUOUS
 10
16.3138997004
 20
12.3564766859
 11
16.3482448416
 21
12.4676176034
  0
LINE
  5
282
100
AcDbEntity
  8
0
100
AcDbLine
 62
7
  6
CONTINUOUS
 10
16.4349328621
 20
12.7481401407
 11
16.4692780033
 21
12.8592810582
  0
LINE
  5
283
100
AcDbEntity
  8
0
100
AcDbLine
 62
7
  6
CONTINUOUS
 10
16.5559660238
 20
13.1398035956
 11
16.590311165
 21
13.2509445131
  0
LINE
  5
284
100
AcDbEntity
  8
0
100
AcDbLine
 62
7
  6
CONTINUOUS
 10
16.6769991855
 20
13.5314670504
 11
16.7113443267
 21
13.6426079679
  0
LINE
  5
285
100
AcDbEntity
  8
0
100
AcDbLine
 62
7
  6
CONTINUOUS
 10
16.7980323472
 20
13.9231305052
 11
16.8152049174
 21
13.9787009625
  0
LINE
  5
286
100
AcDbEntity
  8
0
100
AcDbLine
 62
7
  6
CONTINUOUS
 10
16.7113445252
 20
13.6426109658
 11
16.7120219307
 21
13.6447394268
  0
LINE
  5
287
100
AcDbEntity
  8
0
100
AcDbLine
 62
7
  6
CONTINUOUS
 10
16.5903113634
 20
13.2509475109
 11
16.590988769
 21
13.253075972
  0
LINE
  5
288
100
AcDbEntity
  8
0
100
AcDbLine
 62
7
  6
CONTINUOUS
 10
16.4692782017
 20
12.8592840561
 11
16.4699556073
 21
12.8614125172
  0
LINE
  5
289
100
AcDbEntity
  8
0
100
AcDbLine
 62
7
  6
CONTINUOUS
 10
16.34824504
 20
12.4676206013
 11
16.3489224456
 21
12.4697490624
  0
LINE
  5
28A
100
AcDbEntity
  8
0
100
AcDbLine
 62
7
  6
CONTINUOUS
 10
16.2272118783
 20
12.0759571465
 11
16.2278892839
 21
12.0780856075
  0
LINE
  5
28B
100
AcDbEntity
  8
0
100
AcDbLine
 62
7
  6
CONTINUOUS
 10
16.1061787166
 20
11.6842936917
 11
16.1068561222
 21
11.6864221527
  0
LINE
  5
28C
100
AcDbEntity
  8
0
100
AcDbLine
 62
7
  6
CONTINUOUS
 10
15.9851455549
 20
11.2926302369
 11
15.9858229605
 21
11.2947586979
  0
LINE
  5
28D
100
AcDbEntity
  8
0
100
AcDbLine
 62
7
  6
CONTINUOUS
 10
15.8641123932
 20
10.9009667821
 11
15.8647897988
 21
10.9030952431
  0
LINE
  5
28E
100
AcDbEntity
  8
0
100
AcDbLine
 62
7
  6
CONTINUOUS
 10
16.7517981795
 20
13.6158056786
 11
16.7534118463
 21
13.6203935193
  0
LINE
  5
28F
100
AcDbEntity
  8
0
100
AcDbLine
 62
7
  6
CONTINUOUS
 10
16.6307650178
 20
13.2241422238
 11
16.6323786846
 21
13.2287300644
  0
LINE
  5
290
100
AcDbEntity
  8
0
100
AcDbLine
 62
7
  6
CONTINUOUS
 10
16.5097318561
 20
12.832478769
 11
16.5113455229
 21
12.8370666096
  0
LWPOLYLINE
  5
291
100
AcDbEntity
  8
0
100
AcDbPolyline
 62
7
  6
CONTINUOUS
 90
3
 70
0
 10
16.7120219307
 20
13.6447394268
 10
16.7144339166
 20
13.6513565701
 10
16.716335952
 20
13.6554676609
  0
LWPOLYLINE
  5
292
100
AcDbEntity
  8
0
100
AcDbPolyline
 62
7
  6
CONTINUOUS
 90
3
 70
0
 10
16.590988769
 20
13.253075972
 10
16.5934007549
 20
13.2596931153
 10
16.5953027903
 20
13.2638042061
  0
LWPOLYLINE
  5
293
100
AcDbEntity
  8
0
100
AcDbPolyline
 62
7
  6
CONTINUOUS
 90
3
 70
0
 10
16.4699556073
 20
12.8614125172
 10
16.4723675932
 20
12.8680296604
 10
16.4742696286
 20
12.8721407513
  0
LWPOLYLINE
  5
294
100
AcDbEntity
  8
0
100
AcDbPolyline
 62
7
  6
CONTINUOUS
 90
3
 70
0
 10
16.3489224456
 20
12.4697490624
 10
16.3513344315
 20
12.4763662056
 10
16.3532364668
 20
12.4804772964
  0
LWPOLYLINE
  5
295
100
AcDbEntity
  8
0
100
AcDbPolyline
 62
7
  6
CONTINUOUS
 90
3
 70
0
 10
16.2278892839
 20
12.0780856075
 10
16.2303012698
 20
12.0847027508
 10
16.2322033051
 20
12.0888138416
  0
LINE
  5
296
100
AcDbEntity
  8
0
100
AcDbLine
 62
7
  6
CONTINUOUS
 10
16.3532364668
 20
12.4804772964
 11
16.353839117
 21
12.4815195481
  0
LINE
  5
297
100
AcDbEntity
  8
0
100
AcDbLine
 62
7
  6
CONTINUOUS
 10
16.2322033051
 20
12.0888138416
 11
16.2328059553
 21
12.0898560933
  0
LWPOLYLINE
  5
298
100
AcDbEntity
  8
0
100
AcDbPolyline
 62
7
  6
CONTINUOUS
 90
5
 70
0
 10
16.7254798198
 20
13.5959520476
 10
16.7354416515
 20
13.5979375188
 10
16.7432846244
 20
13.6029368873
 10
16.7484022574
 20
13.6090755787
 10
16.7517981795
 20
13.6158056786
  0
LINE
  5
299
100
AcDbEntity
  8
0
100
AcDbLine
 62
7
  6
CONTINUOUS
 10
16.4286990313
 20
12.5874604668
 11
16.424852565
 21
12.6719957476
  0
LWPOLYLINE
  5
29A
100
AcDbEntity
  8
0
100
AcDbPolyline
 62
7
  6
CONTINUOUS
 90
6
 70
0
 10
16.4248509665
 20
12.6720199259
 10
16.4247126537
 20
12.6779807863
 10
16.4252321872
 20
12.6928675593
 10
16.4269379828
 20
12.7098011322
 10
16.4296981208
 20
12.7267958944
 10
16.4331249348
 20
12.7418274742
  0
LINE
  5
29B
100
AcDbEntity
  8
0
100
AcDbLine
 62
7
  6
CONTINUOUS
 10
16.4287432228
 20
12.5822657006
 11
16.4286962159
 21
12.5875186717
  0
LWPOLYLINE
  5
29C
100
AcDbEntity
  8
0
100
AcDbPolyline
 62
7
  6
CONTINUOUS
 90
3
 70
0
 10
16.3049569806
 20
12.16976789
 10
16.3068712257
 20
12.180189448
 10
16.3077100611
 20
12.1906022458
  0
LWPOLYLINE
  5
29D
100
AcDbEntity
  8
0
100
AcDbPolyline
 62
7
  6
CONTINUOUS
 90
3
 70
0
 10
16.4259901423
 20
12.5614313448
 10
16.4279043874
 20
12.5718529029
 10
16.4287432228
 20
12.5822657006
  0
LWPOLYLINE
  5
29E
100
AcDbEntity
  8
0
100
AcDbPolyline
 62
7
  6
CONTINUOUS
 90
3
 70
0
 10
16.547023304
 20
12.9530947996
 10
16.5489375491
 20
12.9635163577
 10
16.5497763845
 20
12.9739291554
  0
LINE
  5
29F
100
AcDbEntity
  8
0
100
AcDbLine
 62
7
  6
CONTINUOUS
 10
16.1825736781
 20
11.7731609682
 11
16.1839238189
 21
11.7781044352
  0
LINE
  5
2A0
100
AcDbEntity
  8
0
100
AcDbLine
 62
7
  6
CONTINUOUS
 10
16.3036068399
 20
12.164824423
 11
16.3049569806
 21
12.16976789
  0
LINE
  5
2A1
100
AcDbEntity
  8
0
100
AcDbLine
 62
7
  6
CONTINUOUS
 10
16.4246400016
 20
12.5564878779
 11
16.4259901423
 21
12.5614313448
  0
LINE
  5
2A2
100
AcDbEntity
  8
0
100
AcDbLine
 62
7
  6
CONTINUOUS
 10
16.5456731633
 20
12.9481513327
 11
16.547023304
 21
12.9530947996
  0
LINE
  5
2A3
100
AcDbEntity
  8
0
100
AcDbLine
 62
7
  6
CONTINUOUS
 10
16.666706325
 20
13.3398147875
 11
16.6680564657
 21
13.3447582544
  0
LINE
  5
2A4
100
AcDbEntity
  8
0
100
AcDbLine
 62
7
  6
CONTINUOUS
 10
16.7877394867
 20
13.7314782423
 11
16.7890896274
 21
13.7364217092
  0
LINE
  5
2A5
100
AcDbEntity
  8
0
100
AcDbLine
 62
7
  6
CONTINUOUS
 10
16.6751912582
 20
13.5251543839
 11
16.6769935302
 21
13.5314530724
  0
LINE
  5
2A6
100
AcDbEntity
  8
0
100
AcDbLine
 62
7
  6
CONTINUOUS
 10
16.7962244199
 20
13.9168178387
 11
16.7980266919
 21
13.9231165273
  0
LINE
  5
2A7
100
AcDbEntity
  8
0
100
AcDbLine
 62
7
  6
CONTINUOUS
 10
15.9061761216
 20
10.8787376795
 11
15.9405212619
 21
10.9898785944
  0
LINE
  5
2A8
100
AcDbEntity
  8
0
100
AcDbLine
 62
7
  6
CONTINUOUS
 10
16.0272092833
 20
11.2704011344
 11
16.0615544236
 21
11.3815420492
  0
LINE
  5
2A9
100
AcDbEntity
  8
0
100
AcDbLine
 62
7
  6
CONTINUOUS
 10
16.148242445
 20
11.6620645892
 11
16.1825875853
 21
11.773205504
  0
LINE
  5
2AA
100
AcDbEntity
  8
0
100
AcDbLine
 62
7
  6
CONTINUOUS
 10
16.2692756067
 20
12.053728044
 11
16.303620747
 21
12.1648689588
  0
LINE
  5
2AB
100
AcDbEntity
  8
0
100
AcDbLine
 62
7
  6
CONTINUOUS
 10
16.3903087684
 20
12.4453914988
 11
16.4246539087
 21
12.5565324136
  0
LINE
  5
2AC
100
AcDbEntity
  8
0
100
AcDbLine
 62
7
  6
CONTINUOUS
 10
16.5113419301
 20
12.8370549536
 11
16.5456870704
 21
12.9481958685
  0
LINE
  5
2AD
100
AcDbEntity
  8
0
100
AcDbLine
 62
7
  6
CONTINUOUS
 10
16.6323750918
 20
13.2287184084
 11
16.6667202321
 21
13.3398593233
  0
LINE
  5
2AE
100
AcDbEntity
  8
0
100
AcDbLine
 62
7
  6
CONTINUOUS
 10
16.7534082535
 20
13.6203818632
 11
16.7877533938
 21
13.7315227781
  0
LINE
  5
2AF
100
AcDbEntity
  8
0
100
AcDbLine
 62
7
  6
CONTINUOUS
 10
16.3886986944
 20
12.4408153142
 11
16.3903123612
 21
12.4454031548
  0
LINE
  5
2B0
100
AcDbEntity
  8
0
100
AcDbLine
 62
7
  6
CONTINUOUS
 10
16.2676655327
 20
12.0491518593
 11
16.2692791995
 21
12.0537397
  0
LINE
  5
2B1
100
AcDbEntity
  8
0
100
AcDbLine
 62
7
  6
CONTINUOUS
 10
16.146632371
 20
11.6574884045
 11
16.1482460378
 21
11.6620762452
  0
LINE
  5
2B2
100
AcDbEntity
  8
0
100
AcDbLine
 62
7
  6
CONTINUOUS
 10
16.0255992093
 20
11.2658249497
 11
16.0272128761
 21
11.2704127904
  0
LINE
  5
2B3
100
AcDbEntity
  8
0
100
AcDbLine
 62
7
  6
CONTINUOUS
 10
15.9045660476
 20
10.8741614949
 11
15.9061797144
 21
10.8787493356
  0
LWPOLYLINE
  5
2B4
100
AcDbEntity
  8
0
100
AcDbPolyline
 62
7
  6
CONTINUOUS
 90
3
 70
0
 10
16.1068561222
 20
11.6864221527
 10
16.1092681081
 20
11.693039296
 10
16.1111701434
 20
11.6971503868
  0
LWPOLYLINE
  5
2B5
100
AcDbEntity
  8
0
100
AcDbPolyline
 62
7
  6
CONTINUOUS
 90
3
 70
0
 10
15.9858229605
 20
11.2947586979
 10
15.9882349464
 20
11.3013758412
 10
15.9901369817
 20
11.305486932
  0
LWPOLYLINE
  5
2B6
100
AcDbEntity
  8
0
100
AcDbPolyline
 62
7
  6
CONTINUOUS
 90
3
 70
0
 10
15.8647897988
 20
10.9030952431
 10
15.8672017847
 20
10.9097123864
 10
15.86910382
 20
10.9138234772
  0
LINE
  5
2B7
100
AcDbEntity
  8
0
100
AcDbLine
 62
7
  6
CONTINUOUS
 10
16.1111701434
 20
11.6971503868
 11
16.1117727936
 21
11.6981926384
  0
LINE
  5
2B8
100
AcDbEntity
  8
0
100
AcDbLine
 62
7
  6
CONTINUOUS
 10
16.549732193
 20
12.9791239217
 11
16.5458857267
 21
13.0636592024
  0
LWPOLYLINE
  5
2B9
100
AcDbEntity
  8
0
100
AcDbPolyline
 62
7
  6
CONTINUOUS
 90
6
 70
0
 10
16.5458841282
 20
13.0636833808
 10
16.5457458154
 20
13.0696442411
 10
16.5462653489
 20
13.0845310141
 10
16.5479711445
 20
13.101464587
 10
16.5507312825
 20
13.1184593492
 10
16.5541580965
 20
13.1334909291
  0
LINE
  5
2BA
100
AcDbEntity
  8
0
100
AcDbLine
 62
7
  6
CONTINUOUS
 10
16.5497763845
 20
12.9739291554
 11
16.5497293776
 21
12.9791821265
  0
LWPOLYLINE
  5
2BB
100
AcDbEntity
  8
0
100
AcDbPolyline
 62
7
  6
CONTINUOUS
 90
3
 70
0
 10
16.6680564657
 20
13.3447582544
 10
16.6699707109
 20
13.3551798125
 10
16.6708095462
 20
13.3655926102
  0
LWPOLYLINE
  5
2BC
100
AcDbEntity
  8
0
100
AcDbPolyline
 62
7
  6
CONTINUOUS
 90
3
 70
0
 10
16.7890896274
 20
13.7364217092
 10
16.7910038726
 20
13.7468432673
 10
16.7918427079
 20
13.757256065
  0
LINE
  5
2BD
100
AcDbEntity
  8
0
100
AcDbLine
 62
7
  6
CONTINUOUS
 10
15.9901369817
 20
11.305486932
 11
15.9907396319
 21
11.3065291836
  0
LINE
  5
2BE
100
AcDbEntity
  8
0
100
AcDbLine
 62
7
  6
CONTINUOUS
 10
15.86910382
 20
10.9138234772
 11
15.8697064702
 21
10.9148657288
  0
LINE
  5
2BF
100
AcDbEntity
  8
0
100
AcDbLine
 62
7
  6
CONTINUOUS
 10
16.6969265505
 20
13.5959520269
 11
16.725480164
 21
13.5959520269
  0
LINE
  5
2C0
100
AcDbEntity
  8
0
100
AcDbLine
 62
7
  6
CONTINUOUS
 10
16.6707653547
 20
13.3707873765
 11
16.6669188884
 21
13.4553226572
  0
LWPOLYLINE
  5
2C1
100
AcDbEntity
  8
0
100
AcDbPolyline
 62
7
  6
CONTINUOUS
 90
6
 70
0
 10
16.6669172899
 20
13.4553468356
 10
16.6667789771
 20
13.4613076959
 10
16.6672985106
 20
13.4761944689
 10
16.6690043062
 20
13.4931280418
 10
16.6717644443
 20
13.510122804
 10
16.6751912582
 20
13.5251543839
  0
LINE
  5
2C2
100
AcDbEntity
  8
0
100
AcDbLine
 62
7
  6
CONTINUOUS
 10
16.6708095462
 20
13.3655926102
 11
16.6707625393
 21
13.3708455813
  0
LINE
  5
2C3
100
AcDbEntity
  8
0
100
AcDbLine
 62
7
  6
CONTINUOUS
 10
16.81547124
 20
13.9825863514
 11
16.8152031743
 21
13.9787014991
  0
LINE
  5
2C4
100
AcDbEntity
  8
0
100
AcDbLine
 62
7
  6
CONTINUOUS
 10
16.7917985164
 20
13.7624508313
 11
16.7879520501
 21
13.846986112
  0
LWPOLYLINE
  5
2C5
100
AcDbEntity
  8
0
100
AcDbPolyline
 62
7
  6
CONTINUOUS
 90
6
 70
0
 10
16.7879504516
 20
13.8470102904
 10
16.7878121388
 20
13.8529711507
 10
16.7883316723
 20
13.8678579237
 10
16.7900374679
 20
13.8847914966
 10
16.792797606
 20
13.9017862588
 10
16.7962244199
 20
13.9168178387
  0
LINE
  5
2C6
100
AcDbEntity
  8
0
100
AcDbLine
 62
7
  6
CONTINUOUS
 10
16.7918427079
 20
13.757256065
 11
16.791795701
 21
13.7625090361
  0
LINE
  5
2C7
100
AcDbEntity
  8
0
100
AcDbLine
 62
7
  6
CONTINUOUS
 10
16.81547124
 20
13.9825863514
 11
16.7984217214
 21
14.09728721
  0
LINE
  5
2C8
100
AcDbEntity
  8
0
100
AcDbLine
 62
7
  6
CONTINUOUS
 10
16.7350190333
 20
14.1843757267
 11
15.1116490313
 21
14.1843757267
  0
LINE
  5
2C9
100
AcDbEntity
  8
0
100
AcDbLine
 62
7
  6
CONTINUOUS
 10
16.7939204458
 20
14.1112703918
 11
16.7656716048
 21
14.1688354775
  0
ARC
  5
2CA
100
AcDbEntity
  8
0
100
AcDbCircle
 62
7
  6
CONTINUOUS
 10
6.9366172762
 20
5.6605134582
 40
0.1
100
AcDbArc
 50
347.0
 51
360.0
  0
ARC
  5
2CB
100
AcDbEntity
  8
0
100
AcDbCircle
 62
7
  6
CONTINUOUS
 10
5.3241172762
 20
5.6605134582
 40
0.1
100
AcDbArc
 50
180.0
 51
193.0
  0
ARC
  5
2CC
100
AcDbEntity
  8
0
100
AcDbCircle
 62
7
  6
CONTINUOUS
 10
7.0116172762
 20
5.7531198974
 40
0.025
100
AcDbArc
 50
0.0
 51
90.0
  0
ARC
  5
2CD
100
AcDbEntity
  8
0
100
AcDbCircle
 62
7
  6
CONTINUOUS
 10
6.9670947172
 20
5.4591198974
 40
0.025
100
AcDbArc
 50
270.0
 51
347.0
  0
ARC
  5
2CE
100
AcDbEntity
  8
0
100
AcDbCircle
 62
7
  6
CONTINUOUS
 10
5.2936398352
 20
5.4591198974
 40
0.025
100
AcDbArc
 50
193.0
 51
270.0
  0
ARC
  5
2CF
100
AcDbEntity
  8
0
100
AcDbCircle
 62
7
  6
CONTINUOUS
 10
5.2491172762
 20
5.7531198974
 40
0.025
100
AcDbArc
 50
90.0
 51
180.0
  0
ARC
  5
2D0
100
AcDbEntity
  8
0
100
AcDbCircle
 62
7
  6
CONTINUOUS
 10
6.9273853883
 20
5.2871198974
 40
0.025
100
AcDbArc
 50
270.0
 51
347.0
  0
ARC
  5
2D1
100
AcDbEntity
  8
0
100
AcDbCircle
 62
7
  6
CONTINUOUS
 10
5.3333491642
 20
5.2871198969
 40
0.025
100
AcDbArc
 50
192.9999988451
 51
269.9999997402
  0
ARC
  5
2D2
100
AcDbEntity
  8
0
100
AcDbCircle
 62
7
  6
CONTINUOUS
 10
13.7394136658
 20
5.2456247051
 40
0.043
100
AcDbArc
 50
193.0
 51
270.0
  0
ARC
  5
2D3
100
AcDbEntity
  8
0
100
AcDbCircle
 62
7
  6
CONTINUOUS
 10
13.8812968481
 20
5.2456247051
 40
0.043
100
AcDbArc
 50
270.0
 51
347.0
  0
ARC
  5
2D4
100
AcDbEntity
  8
0
100
AcDbCircle
 62
7
  6
CONTINUOUS
 10
14.2394136658
 20
5.2456247051
 40
0.043
100
AcDbArc
 50
193.0
 51
270.0
  0
ARC
  5
2D5
100
AcDbEntity
  8
0
100
AcDbCircle
 62
7
  6
CONTINUOUS
 10
14.3812968481
 20
5.2456247051
 40
0.043
100
AcDbArc
 50
270.0
 51
347.0
  0
ARC
  5
2D6
100
AcDbEntity
  8
0
100
AcDbCircle
 62
7
  6
CONTINUOUS
 10
14.7394136658
 20
5.2456247051
 40
0.043
100
AcDbArc
 50
193.0
 51
270.0
  0
ARC
  5
2D7
100
AcDbEntity
  8
0
100
AcDbCircle
 62
7
  6
CONTINUOUS
 10
14.8812968481
 20
5.2456247051
 40
0.043
100
AcDbArc
 50
270.0
 51
347.0
  0
ARC
  5
2D8
100
AcDbEntity
  8
0
100
AcDbCircle
 62
7
  6
CONTINUOUS
 10
15.2394136658
 20
5.2456247051
 40
0.043
100
AcDbArc
 50
193.0
 51
270.0
  0
ARC
  5
2D9
100
AcDbEntity
  8
0
100
AcDbCircle
 62
7
  6
CONTINUOUS
 10
15.3812968481
 20
5.2456247051
 40
0.043
100
AcDbArc
 50
270.0
 51
347.0
  0
ARC
  5
2DA
100
AcDbEntity
  8
0
100
AcDbCircle
 62
7
  6
CONTINUOUS
 10
13.6312968481
 20
5.3316247051
 40
0.043
100
AcDbArc
 50
13.0
 51
90.0
  0
ARC
  5
2DB
100
AcDbEntity
  8
0
100
AcDbCircle
 62
7
  6
CONTINUOUS
 10
13.9894136658
 20
5.3316247051
 40
0.043
100
AcDbArc
 50
90.0
 51
167.0
  0
ARC
  5
2DC
100
AcDbEntity
  8
0
100
AcDbCircle
 62
7
  6
CONTINUOUS
 10
14.1312968481
 20
5.3316247051
 40
0.043
100
AcDbArc
 50
13.0
 51
90.0
  0
ARC
  5
2DD
100
AcDbEntity
  8
0
100
AcDbCircle
 62
7
  6
CONTINUOUS
 10
14.4894136658
 20
5.3316247051
 40
0.043
100
AcDbArc
 50
90.0
 51
167.0
  0
ARC
  5
2DE
100
AcDbEntity
  8
0
100
AcDbCircle
 62
7
  6
CONTINUOUS
 10
14.6312968481
 20
5.3316247051
 40
0.043
100
AcDbArc
 50
13.0
 51
90.0
  0
ARC
  5
2DF
100
AcDbEntity
  8
0
100
AcDbCircle
 62
7
  6
CONTINUOUS
 10
14.9894136658
 20
5.3316247051
 40
0.043
100
AcDbArc
 50
90.0
 51
167.0
  0
ARC
  5
2E0
100
AcDbEntity
  8
0
100
AcDbCircle
 62
7
  6
CONTINUOUS
 10
15.1312968481
 20
5.3316247051
 40
0.043
100
AcDbArc
 50
13.0
 51
90.0
  0
ARC
  5
2E1
100
AcDbEntity
  8
0
100
AcDbCircle
 62
7
  6
CONTINUOUS
 10
15.4894136658
 20
5.3316247051
 40
0.043
100
AcDbArc
 50
90.0
 51
167.0
  0
ARC
  5
2E2
100
AcDbEntity
  8
0
100
AcDbCircle
 62
7
  6
CONTINUOUS
 10
17.3812968481
 20
5.2456247051
 40
0.043
100
AcDbArc
 50
270.0
 51
347.0
  0
ARC
  5
2E3
100
AcDbEntity
  8
0
100
AcDbCircle
 62
7
  6
CONTINUOUS
 10
17.2394136658
 20
5.2456247051
 40
0.043
100
AcDbArc
 50
193.0
 51
270.0
  0
ARC
  5
2E4
100
AcDbEntity
  8
0
100
AcDbCircle
 62
7
  6
CONTINUOUS
 10
16.8812968481
 20
5.2456247051
 40
0.043
100
AcDbArc
 50
270.0
 51
347.0
  0
ARC
  5
2E5
100
AcDbEntity
  8
0
100
AcDbCircle
 62
7
  6
CONTINUOUS
 10
16.7394136658
 20
5.2456247051
 40
0.043
100
AcDbArc
 50
193.0
 51
270.0
  0
ARC
  5
2E6
100
AcDbEntity
  8
0
100
AcDbCircle
 62
7
  6
CONTINUOUS
 10
16.3812968481
 20
5.2456247051
 40
0.043
100
AcDbArc
 50
270.0
 51
347.0
  0
ARC
  5
2E7
100
AcDbEntity
  8
0
100
AcDbCircle
 62
7
  6
CONTINUOUS
 10
16.2394136658
 20
5.2456247051
 40
0.043
100
AcDbArc
 50
193.0
 51
270.0
  0
ARC
  5
2E8
100
AcDbEntity
  8
0
100
AcDbCircle
 62
7
  6
CONTINUOUS
 10
15.8812968481
 20
5.2456247051
 40
0.043
100
AcDbArc
 50
270.0
 51
347.0
  0
ARC
  5
2E9
100
AcDbEntity
  8
0
100
AcDbCircle
 62
7
  6
CONTINUOUS
 10
15.7394136658
 20
5.2456247051
 40
0.043
100
AcDbArc
 50
193.0
 51
270.0
  0
ARC
  5
2EA
100
AcDbEntity
  8
0
100
AcDbCircle
 62
7
  6
CONTINUOUS
 10
17.4894136658
 20
5.3316247051
 40
0.043
100
AcDbArc
 50
90.0
 51
167.0
  0
ARC
  5
2EB
100
AcDbEntity
  8
0
100
AcDbCircle
 62
7
  6
CONTINUOUS
 10
17.1312968481
 20
5.3316247051
 40
0.043
100
AcDbArc
 50
13.0
 51
90.0
  0
ARC
  5
2EC
100
AcDbEntity
  8
0
100
AcDbCircle
 62
7
  6
CONTINUOUS
 10
16.9894136658
 20
5.3316247051
 40
0.043
100
AcDbArc
 50
90.0
 51
167.0
  0
ARC
  5
2ED
100
AcDbEntity
  8
0
100
AcDbCircle
 62
7
  6
CONTINUOUS
 10
16.6312968481
 20
5.3316247051
 40
0.043
100
AcDbArc
 50
13.0
 51
90.0
  0
ARC
  5
2EE
100
AcDbEntity
  8
0
100
AcDbCircle
 62
7
  6
CONTINUOUS
 10
16.4894136658
 20
5.3316247051
 40
0.043
100
AcDbArc
 50
90.0
 51
167.0
  0
ARC
  5
2EF
100
AcDbEntity
  8
0
100
AcDbCircle
 62
7
  6
CONTINUOUS
 10
16.1312968481
 20
5.3316247051
 40
0.043
100
AcDbArc
 50
13.0
 51
90.0
  0
ARC
  5
2F0
100
AcDbEntity
  8
0
100
AcDbCircle
 62
7
  6
CONTINUOUS
 10
15.9894136658
 20
5.3316247051
 40
0.043
100
AcDbArc
 50
90.0
 51
167.0
  0
ARC
  5
2F1
100
AcDbEntity
  8
0
100
AcDbCircle
 62
7
  6
CONTINUOUS
 10
15.6312968481
 20
5.3316247051
 40
0.043
100
AcDbArc
 50
13.0
 51
90.0
  0
SPLINE
  5
2F2
100
AcDbEntity
  8
0
100
AcDbSpline
 62
7
  6
CONTINUOUS
 70
0
 71
3
 72
15
 73
11
 74
0
 42
0.0000001
 43
0.0000001
 44
0.0000000001
 40
0.0
 40
0.0
 40
0.0
 40
0.0
 40
0.1295688408
 40
0.2645761724
 40
0.4012660716
 40
0.5362716507
 40
0.6662156209
 40
0.7881005979
 40
0.8998140352
 40
1.0
 40
1.0
 40
1.0
 40
1.0
 10
16.7350190333
 20
14.1843757267
 30
0.0
 10
16.7365672956
 20
14.1843757267
 30
0.0
 10
16.7397312528
 20
14.1841604921
 30
0.0
 10
16.7444537703
 20
14.183276608
 30
0.0
 10
16.7491100728
 20
14.1818491535
 30
0.0
 10
16.7535219308
 20
14.1799338326
 30
0.0
 10
16.757528116
 20
14.1776051555
 30
0.0
 10
16.7609802002
 20
14.1749438288
 30
0.0
 10
16.7637460455
 20
14.1720477749
 30
0.0
 10
16.7651442063
 20
14.1699102026
 30
0.0
 10
16.7656716048
 20
14.1688354775
 30
0.0
  0
SPLINE
  5
2F3
100
AcDbEntity
  8
0
100
AcDbSpline
 62
7
  6
CONTINUOUS
 70
0
 71
3
 72
15
 73
11
 74
0
 42
0.0000001
 43
0.0000001
 44
0.0000000001
 40
0.0
 40
0.0
 40
0.0
 40
0.0
 40
0.0996457988
 40
0.2028717851
 40
0.3125940816
 40
0.4308566334
 40
0.5588142875
 40
0.6968305477
 40
0.8443981189
 40
1.0
 40
1.0
 40
1.0
 40
1.0
 10
15.0953895372
 20
14.1762166711
 30
0.0
 10
15.0955796524
 20
14.1768319106
 30
0.0
 10
15.0961182946
 20
14.1780428509
 30
0.0
 10
15.0973492842
 20
14.1796637929
 30
0.0
 10
15.0989726676
 20
14.1810789608
 30
0.0
 10
15.1009568245
 20
14.1822630225
 30
0.0
 10
15.1032643627
 20
14.183201655
 30
0.0
 10
15.1058559805
 20
14.1838803753
 30
0.0
 10
15.1086828623
 20
14.184288041
 30
0.0
 10
15.1106434812
 20
14.1843757267
 30
0.0
 10
15.1116490313
 20
14.1843757267
 30
0.0
  0
SPLINE
  5
2F4
100
AcDbEntity
  8
0
100
AcDbSpline
 62
7
  6
CONTINUOUS
 70
0
 71
3
 72
11
 73
7
 74
0
 42
0.0000001
 43
0.0000001
 44
0.0000000001
 40
0.0
 40
0.0
 40
0.0
 40
0.0
 40
0.233693674
 40
0.4747274407
 40
0.7289543513
 40
1.0
 40
1.0
 40
1.0
 40
1.0
 10
14.1271242436
 20
11.0429090326
 30
0.0
 10
14.1269493891
 20
11.0423431788
 30
0.0
 10
14.1267190785
 20
11.0411510322
 30
0.0
 10
14.1267613771
 20
11.0392917546
 30
0.0
 10
14.1271791814
 20
11.0373845774
 30
0.0
 10
14.1276806439
 20
11.0361445048
 30
0.0
 10
14.1279832595
 20
11.035527839
 30
0.0
  0
SPLINE
  5
2F5
100
AcDbEntity
  8
0
100
AcDbSpline
 62
7
  6
CONTINUOUS
 70
0
 71
3
 72
9
 73
5
 74
0
 42
0.0000001
 43
0.0000001
 44
0.0000000001
 40
0.0
 40
0.0
 40
0.0
 40
0.0
 40
0.5155721206
 40
1.0
 40
1.0
 40
1.0
 40
1.0
 10
16.7939204458
 20
14.1112703918
 30
0.0
 10
16.7950359347
 20
14.1089972645
 30
0.0
 10
16.7969149607
 20
14.1044397893
 30
0.0
 10
16.7980719239
 20
14.0996404777
 30
0.0
 10
16.7984217214
 20
14.09728721
 30
0.0
  0
SPLINE
  5
2F6
100
AcDbEntity
  8
0
100
AcDbSpline
 62
7
  6
CONTINUOUS
 70
0
 71
3
 72
14
 73
10
 74
0
 42
0.0000001
 43
0.0000001
 44
0.0000000001
 40
0.0
 40
0.0
 40
0.0
 40
0.0
 40
0.1556088307
 40
0.3032509263
 40
0.5688448139
 40
0.6871584263
 40
0.796887679
 40
0.9001721262
 40
1.0
 40
1.0
 40
1.0
 40
1.0
 10
15.8306801493
 20
10.8372342591
 30
0.0
 10
15.831685166
 20
10.8372342591
 30
0.0
 10
15.8336460575
 20
10.8373221596
 30
0.0
 10
15.8372840294
 20
10.8378468762
 30
0.0
 10
15.8406049433
 20
10.8388909973
 30
0.0
 10
15.8433553723
 20
10.8405297164
 30
0.0
 10
15.8449791035
 20
10.8419441455
 30
0.0
 10
15.846210088
 20
10.8435655648
 30
0.0
 10
15.8467490197
 20
10.844777391
 30
0.0
 10
15.8469386956
 20
10.8453936091
 30
0.0
  0
SPLINE
  5
2F7
100
AcDbEntity
  8
0
100
AcDbSpline
 62
7
  6
CONTINUOUS
 70
0
 71
3
 72
15
 73
11
 74
0
 42
0.0000001
 43
0.0000001
 44
0.0000000001
 40
0.0
 40
0.0
 40
0.0
 40
0.0
 40
0.108908645
 40
0.2266179478
 40
0.3512080673
 40
0.4806317983
 40
0.6126732419
 40
0.7449579341
 40
0.8750047547
 40
1.0
 40
1.0
 40
1.0
 40
1.0
 10
14.2609792163
 20
10.8492787129
 30
0.0
 10
14.2617148261
 20
10.8483954308
 30
0.0
 10
14.2633954737
 20
10.8466801342
 30
0.0
 10
14.2663127813
 20
10.8443800262
 30
0.0
 10
14.2696583544
 20
10.8423155033
 30
0.0
 10
14.27333303
 20
10.8405395785
 30
0.0
 10
14.2772394835
 20
10.8391030353
 30
0.0
 10
14.2812710666
 20
10.8380415139
 30
0.0
 10
14.2853134573
 20
10.8373915812
 30
0.0
 10
14.2880068633
 20
10.8372342591
 30
0.0
 10
14.2893261323
 20
10.8372342591
 30
0.0
  0
SPLINE
  5
2F8
100
AcDbEntity
  8
0
100
AcDbSpline
 62
7
  6
CONTINUOUS
 70
0
 71
3
 72
9
 73
5
 74
0
 42
0.0000001
 43
0.0000001
 44
0.0000000001
 40
0.0
 40
0.0
 40
0.0
 40
0.0
 40
0.2380066488
 40
1.0
 40
1.0
 40
1.0
 40
1.0
 10
14.1562321006
 20
10.9779627533
 30
0.0
 10
14.1568183496
 20
10.9767681035
 30
0.0
 10
14.1594543573
 20
10.9718338652
 30
0.0
 10
14.1627282482
 20
10.9672533809
 30
0.0
 10
14.1654547229
 20
10.9639795715
 30
0.0
  0
SPLINE
  5
2F9
100
AcDbEntity
  8
0
100
AcDbSpline
 62
7
  6
CONTINUOUS
 70
0
 71
3
 72
15
 73
11
 74
0
 42
0.0000001
 43
0.0000001
 44
0.0000000001
 40
0.0
 40
0.0
 40
0.0
 40
0.0
 40
0.1001859648
 40
0.2118994021
 40
0.3337843791
 40
0.4637283493
 40
0.5987339284
 40
0.7354238276
 40
0.8704311592
 40
1.0
 40
1.0
 40
1.0
 40
1.0
 10
15.7974063111
 20
11.035527839
 30
0.0
 10
15.7968789127
 20
11.0366025641
 30
0.0
 10
15.7954807519
 20
11.0387401364
 30
0.0
 10
15.7927149066
 20
11.0416361903
 30
0.0
 10
15.7892628224
 20
11.044297517
 30
0.0
 10
15.7852566372
 20
11.0466261941
 30
0.0
 10
15.7808447792
 20
11.048541515
 30
0.0
 10
15.7761884766
 20
11.0499689695
 30
0.0
 10
15.7714659592
 20
11.0508528536
 30
0.0
 10
15.768302002
 20
11.0510680882
 30
0.0
 10
15.7667537396
 20
11.0510680882
 30
0.0
  0
SPLINE
  5
2FA
100
AcDbEntity
  8
0
100
AcDbSpline
 62
7
  6
CONTINUOUS
 70
0
 71
3
 72
15
 73
11
 74
0
 42
0.0000001
 43
0.0000001
 44
0.0000000001
 40
0.0
 40
0.0
 40
0.0
 40
0.0
 40
0.1556018811
 40
0.3031694523
 40
0.4411857125
 40
0.5691433666
 40
0.6874059184
 40
0.7971282149
 40
0.9003542012
 40
1.0
 40
1.0
 40
1.0
 40
1.0
 10
14.1433837377
 20
11.0510680882
 30
0.0
 10
14.1423781876
 20
11.0510680882
 30
0.0
 10
14.1404175686
 20
11.0509804025
 30
0.0
 10
14.1375906869
 20
11.0505727368
 30
0.0
 10
14.134999069
 20
11.0498940164
 30
0.0
 10
14.1326915309
 20
11.048955384
 30
0.0
 10
14.1307073739
 20
11.0477713222
 30
0.0
 10
14.1290839905
 20
11.0463561544
 30
0.0
 10
14.1278530009
 20
11.0447352124
 30
0.0
 10
14.1273143588
 20
11.0435242721
 30
0.0
 10
14.1271242436
 20
11.0429090326
 30
0.0
  0
SPLINE
  5
2FB
100
AcDbEntity
  8
0
100
AcDbSpline
 62
7
  6
CONTINUOUS
 70
0
 71
3
 72
9
 73
5
 74
0
 42
0.0000001
 43
0.0000001
 44
0.0000000001
 40
0.0
 40
0.0
 40
0.0
 40
0.0
 40
0.4844278794
 40
1.0
 40
1.0
 40
1.0
 40
1.0
 10
15.8301564278
 20
10.9639795715
 30
0.0
 10
15.8298066302
 20
10.9663328391
 30
0.0
 10
15.8286496671
 20
10.9711321508
 30
0.0
 10
15.8267706411
 20
10.975689626
 30
0.0
 10
15.8256551522
 20
10.9779627533
 30
0.0
  0
ENDSEC
  0
SECTION
  2
OBJECTS
  0
DICTIONARY
  5
C
100
AcDbDictionary
280
0
281
1
  3
ACAD_GROUP
350
D
  3
ACAD_MLINESTYLE
350
17
  3
ACAD_LAYOUT
350
1A
  3
ACAD_PLOTSETTINGS
350
19
  3
ACAD_PLOTSTYLENAME
350
E
  0
DICTIONARY
  5
D
102
{ACAD_REACTORS
330
C
102
}
100
AcDbDictionary
280
0
281
1
  0
ACDBDICTIONARYWDFLT
  5
E
102
{ACAD_REACTORS
330
C
102
}
100
AcDbDictionary
281
1
  3
Normal
350
F
100
AcDbDictionaryWithDefault
340
F
  0
DICTIONARY
  5
17
102
{ACAD_REACTORS
330
C
102
}
100
AcDbDictionary
280
0
281
1
  3
Standard
350
18
  0
DICTIONARY
  5
19
102
{ACAD_REACTORS
330
C
102
}
100
AcDbDictionary
281
1
  0
DICTIONARY
  5
1A
102
{ACAD_REACTORS
330
C
102
}
100
AcDbDictionary
281
1
  3
Model
350
2FC
  3
Layout1
350
2FD
  0
ACDBPLACEHOLDER
  5
F
102
{ACAD_REACTORS
330
E
102
}
  0
MLINESTYLE
  5
18
102
{ACAD_REACTORS
330
17
102
}
100
AcDbMlineStyle
  2
STANDARD
 70
0
  3

 62
256
 51
90.0
 52
90.0
 71
2
 49
0.5
 62
256
  6
BYLAYER
 49
-0.5
 62
256
  6
BYLAYER
  0
LAYOUT
  5
2FC
102
{ACAD_REACTORS
330
1A
102
}
100
AcDbPlotSettings
  1

  2
none_device
  4
ANSI_C_(22.00_x_17.00_Inches)
  6

 40
0.0
 41
0.0
 42
0.0
 43
0.0
 44
558.8
 45
431.8
 46
0.0
 47
0.0
 48
0.0
 49
0.0
140
0.0
141
0.0
142
1.0
143
1.0
 70
1024
 72
0
 73
0
 74
0
  7

 75
0
147
1.0
148
0.0
149
0.0
100
AcDbLayout
  1
Model
 70
0
 71
0
 10
0.0
 20
0.0
 11
22.0
 21
17.0
 12
0.0
 22
0.0
 32
0.0
 14
0.0
 24
0.0
 34
0.0
 15
0.0
 25
0.0
 35
0.0
146
0.0
 13
0.0
 23
0.0
 33
0.0
 16
1.0
 26
0.0
 36
0.0
 17
0.0
 27
1.0
 37
0.0
 76
0
330
216
345
0
346
0
  0
LAYOUT
  5
2FD
102
{ACAD_REACTORS
330
1A
102
}
100
AcDbPlotSettings
  1

  2
none_device
  4
ANSI_C_(22.00_x_17.00_Inches)
  6

 40
0.0
 41
0.0
 42
0.0
 43
0.0
 44
558.8
 45
431.8
 46
0.0
 47
0.0
 48
0.0
 49
0.0
140
0.0
141
0.0
142
1.0
143
1.0
 70
0
 72
0
 73
0
 74
0
  7

 75
0
147
1.0
148
0.0
149
0.0
100
AcDbLayout
  1
Layout1
 70
0
 71
1
 10
0.0
 20
0.0
 11
22.0
 21
17.0
 12
0.0
 22
0.0
 32
0.0
 14
0.0
 24
0.0
 34
0.0
 15
0.0
 25
0.0
 35
0.0
146
0.0
 13
0.0
 23
0.0
 33
0.0
 16
1.0
 26
0.0
 36
0.0
 17
0.0
 27
1.0
 37
0.0
 76
0
330
217
345
0
346
0
  0
ENDSEC
  0
EOF