999
DXF file: _cgs_temp_output.dxf
999
Pro/ENGINEER 2016360 by Parametric Technology Corporation
  0
SECTION
  2
HEADER
  9
$ACADVER
  1
AC1021
  9
$DWGCODEPAGE
  3
ANSI_1252
  9
$EXTMAX
 10
22.0
 20
17.0
 30
0.0
  9
$EXTMIN
 10
0.0
 20
0.0
 30
0.0
  9
$LIMMIN
 10
0.0
 20
0.0
  9
$LIMMAX
 10
22.0
 20
17.0
  9
$VIEWCTR
 10
11.0
 20
8.5
  9
$VIEWSIZE
 40
17.0
  9
$CLAYER
  8
0
  9
$LTSCALE
 40
1.21
  9
$CELTYPE
  6
BYLAYER
  9
$DIMSCALE
 40
1.0
  9
$DIMASZ
 40
0.1875
  9
$DIMEXO
 40
0.0625
  9
$DIMDLI
 40
0.836
  9
$DIMEXE
 40
0.125
  9
$DIMCEN
 40
0.198
  9
$DIMLFAC
 40
1.0
  9
$DIMBLK
  1
_CLOSED
  9
$DIMALT
 70
0
  9
$DIMALTF
 40
25.4
  9
$DIMTXT
 40
0.15625
  9
$DIMTOL
 70
0
  9
$DIMLIM
 70
0
  9
$DIMTFAC
 40
1.0
  9
$DIMGAP
 40
0.09
  9
$DIMDSEP
 70
46
  9
$AUNITS
 70
0
  9
$PDMODE
 70
3
  9
$PDSIZE
 40
0.3125
  9
$HANDSEED
  5
316
  9
$TILEMODE
 70
1
  9
$MEASUREMENT
 70
0
  9
$INSUNITS
 70
1
  0
ENDSEC
  0
SECTION
  2
CLASSES
  0
CLASS
  1
ACDBDICTIONARYWDFLT
  2
AcDbDictionaryWithDefault
  3
AutoCAD 2000
 90
0
 91
1
280
0
281
0
  0
CLASS
  1
ACDBPLACEHOLDER
  2
AcDbPlaceHolder
  3
AutoCAD 2000
 90
0
 91
1
280
0
281
0
  0
CLASS
  1
LAYOUT
  2
AcDbLayout
  3
AutoCAD 2000
 90
0
 91
0
280
0
281
0
  0
ENDSEC
  0
SECTION
  2
TABLES
  0
TABLE
  2
VPORT
  5
8
100
AcDbSymbolTable
 70
2
  0
VPORT
  5
1F4
100
AcDbSymbolTableRecord
100
AcDbViewportTableRecord
  2
*ACTIVE
 70
0
 10
0.0
 20
0.0
 11
1.0
 21
1.0
 12
11.0
 22
8.5
 13
0.0
 23
0.0
 14
1.0
 24
1.0
 15
0.0
 25
0.0
 16
0.0
 26
0.0
 36
1.0
 17
0.0
 27
0.0
 37
0.0
 40
17.0
 41
1.2941176471
 42
50.0
 43
0.0
 44
0.0
 50
0.0
 51
0.0
 71
0
 72
100
 73
1
 74
1
 75
0
 76
0
 77
0
 78
0
  0
ENDTAB
  0
TABLE
  2
LTYPE
  5
5
100
AcDbSymbolTable
 70
6
  0
LTYPE
  5
14
100
AcDbSymbolTableRecord
100
AcDbLinetypeTableRecord
  2
BYBLOCK
 70
0
  3

 72
65
 73
0
 40
0.0
  0
LTYPE
  5
15
100
AcDbSymbolTableRecord
100
AcDbLinetypeTableRecord
  2
BYLAYER
 70
0
  3

 72
65
 73
0
 40
0.0
  0
LTYPE
  5
16
100
AcDbSymbolTableRecord
100
AcDbLinetypeTableRecord
  2
CONTINUOUS
 70
64
  3
Solid line
 72
65
 73
0
 40
0.0
  0
LTYPE
  5
1F5
100
AcDbSymbolTableRecord
100
AcDbLinetypeTableRecord
  2
CENTER
 70
64
  3
____ _ ____ _ ____ _ ____ _ ____ _ ____ _ ____
 72
65
 73
4
 40
0.6
 49
0.375
 74
0
 49
-0.075
 74
0
 49
0.075
 74
0
 49
-0.075
 74
0
  0
LTYPE
  5
1F6
100
AcDbSymbolTableRecord
100
AcDbLinetypeTableRecord
  2
HIDDEN
 70
64
  3
- - - - - - - - - - - - - - - - - - - -
 72
65
 73
2
 40
0.2
 49
0.1
 74
0
 49
-0.1
 74
0
  0
LTYPE
  5
1F7
100
AcDbSymbolTableRecord
100
AcDbLinetypeTableRecord
  2
PHANTOM
 70
64
  3
_____ _ _ _____ _ _ _____ _ _ _____
 72
65
 73
6
 40
0.8
 49
0.45
 74
0
 49
-0.05
 74
0
 49
0.1
 74
0
 49
-0.05
 74
0
 49
0.1
 74
0
 49
-0.05
 74
0
  0
LTYPE
  5
1F8
100
AcDbSymbolTableRecord
100
AcDbLinetypeTableRecord
  2
DOT
 70
64
  3
. . . . . . . . . . . . . . . . . . . .
 72
65
 73
2
 40
0.2
 49
0.1
 74
0
 49
-0.1
 74
0
  0
LTYPE
  5
1F9
100
AcDbSymbolTableRecord
100
AcDbLinetypeTableRecord
  2
DASHED
 70
64
  3
- - - - - - - - - - - - - - - - - - - -
 72
65
 73
2
 40
0.2
 49
0.1
 74
0
 49
-0.1
 74
0
  0
ENDTAB
  0
TABLE
  2
LAYER
  5
2
100
AcDbSymbolTable
 70
36
  0
LAYER
  5
10
100
AcDbSymbolTableRecord
100
AcDbLayerTableRecord
  2
0
 70
0
 62
7
  6
CONTINUOUS
370
-3
390
F
  0
LAYER
  5
1FA
100
AcDbSymbolTableRecord
100
AcDbLayerTableRecord
  2
DEFAULT_1
 70
0
 62
7
  6
CENTER
370
-3
390
F
  0
LAYER
  5
1FB
100
AcDbSymbolTableRecord
100
AcDbLayerTableRecord
  2
DEFAULT_2
 70
0
 62
8
  6
HIDDEN
370
-3
390
F
  0
LAYER
  5
1FC
100
AcDbSymbolTableRecord
100
AcDbLayerTableRecord
  2
DEFAULT_3
 70
0
 62
7
  6
PHANTOM
370
-3
390
F
  0
LAYER
  5
1FD
100
AcDbSymbolTableRecord
100
AcDbLayerTableRecord
  2
01_ALL_DTM_PLN
 70
0
 62
7
  6
CONTINUOUS
370
-3
390
F
  0
LAYER
  5
1FE
100
AcDbSymbolTableRecord
100
AcDbLayerTableRecord
  2
01__ASM_ALL_DTM_PLN
 70
0
 62
7
  6
CONTINUOUS
370
-3
390
F
  0
LAYER
  5
1FF
100
AcDbSymbolTableRecord
100
AcDbLayerTableRecord
  2
01__ASM_DEF_DTM_PLN
 70
0
 62
7
  6
CONTINUOUS
370
-3
390
F
  0
LAYER
  5
200
100
AcDbSymbolTableRecord
100
AcDbLayerTableRecord
  2
01___PRT_ALL_DTM_PLN
 70
0
 62
7
  6
CONTINUOUS
370
-3
390
F
  0
LAYER
  5
201
100
AcDbSymbolTableRecord
100
AcDbLayerTableRecord
  2
01___PRT_DEF_DTM_PLN
 70
0
 62
7
  6
CONTINUOUS
370
-3
390
F
  0
LAYER
  5
202
100
AcDbSymbolTableRecord
100
AcDbLayerTableRecord
  2
02_ALL_AXES
 70
0
 62
7
  6
CONTINUOUS
370
-3
390
F
  0
LAYER
  5
203
100
AcDbSymbolTableRecord
100
AcDbLayerTableRecord
  2
02__ASM_ALL_AXES
 70
0
 62
7
  6
CONTINUOUS
370
-3
390
F
  0
LAYER
  5
204
100
AcDbSymbolTableRecord
100
AcDbLayerTableRecord
  2
02___PRT_ALL_AXES
 70
0
 62
7
  6
CONTINUOUS
370
-3
390
F
  0
LAYER
  5
205
100
AcDbSymbolTableRecord
100
AcDbLayerTableRecord
  2
03_ALL_CURVES
 70
0
 62
7
  6
CONTINUOUS
370
-3
390
F
  0
LAYER
  5
206
100
AcDbSymbolTableRecord
100
AcDbLayerTableRecord
  2
03__ASM_ALL_CURVES
 70
0
 62
7
  6
CONTINUOUS
370
-3
390
F
  0
LAYER
  5
207
100
AcDbSymbolTableRecord
100
AcDbLayerTableRecord
  2
03___PRT_ALL_CURVES
 70
0
 62
7
  6
CONTINUOUS
370
-3
390
F
  0
LAYER
  5
208
100
AcDbSymbolTableRecord
100
AcDbLayerTableRecord
  2
04_ALL_DTM_PNT
 70
0
 62
7
  6
CONTINUOUS
370
-3
390
F
  0
LAYER
  5
209
100
AcDbSymbolTableRecord
100
AcDbLayerTableRecord
  2
04__ASM_ALL_DTM_PNT
 70
0
 62
7
  6
CONTINUOUS
370
-3
390
F
  0
LAYER
  5
20A
100
AcDbSymbolTableRecord
100
AcDbLayerTableRecord
  2
04___PRT_ALL_DTM_PNT
 70
0
 62
7
  6
CONTINUOUS
370
-3
390
F
  0
LAYER
  5
20B
100
AcDbSymbolTableRecord
100
AcDbLayerTableRecord
  2
05_ALL_DTM_CSYS
 70
0
 62
7
  6
CONTINUOUS
370
-3
390
F
  0
LAYER
  5
20C
100
AcDbSymbolTableRecord
100
AcDbLayerTableRecord
  2
05__ASM_ALL_DTM_CSYS
 70
0
 62
7
  6
CONTINUOUS
370
-3
390
F
  0
LAYER
  5
20D
100
AcDbSymbolTableRecord
100
AcDbLayerTableRecord
  2
05__ASM_DEF_DTM_CSYS
 70
0
 62
7
  6
CONTINUOUS
370
-3
390
F
  0
LAYER
  5
20E
100
AcDbSymbolTableRecord
100
AcDbLayerTableRecord
  2
05___PRT_ALL_DTM_CSYS
 70
0
 62
7
  6
CONTINUOUS
370
-3
390
F
  0
LAYER
  5
20F
100
AcDbSymbolTableRecord
100
AcDbLayerTableRecord
  2
05___PRT_DEF_DTM_CSYS
 70
0
 62
7
  6
CONTINUOUS
370
-3
390
F
  0
LAYER
  5
210
100
AcDbSymbolTableRecord
100
AcDbLayerTableRecord
  2
06_ALL_SURFS
 70
0
 62
7
  6
CONTINUOUS
370
-3
390
F
  0
LAYER
  5
211
100
AcDbSymbolTableRecord
100
AcDbLayerTableRecord
  2
06__ASM_ALL_SURFS
 70
0
 62
7
  6
CONTINUOUS
370
-3
390
F
  0
LAYER
  5
212
100
AcDbSymbolTableRecord
100
AcDbLayerTableRecord
  2
06___PRT_ALL_SURFS
 70
0
 62
7
  6
CONTINUOUS
370
-3
390
F
  0
LAYER
  5
213
100
AcDbSymbolTableRecord
100
AcDbLayerTableRecord
  2
07__ASM_ALL_SKELETONS
 70
0
 62
7
  6
CONTINUOUS
370
-3
390
F
  0
ENDTAB
  0
TABLE
  2
STYLE
  5
3
100
AcDbSymbolTable
 70
1
  0
STYLE
  5
11
100
AcDbSymbolTableRecord
100
AcDbTextStyleTableRecord
  2
STANDARD
 70
0
 40
0.0
 41
0.8
 50
0.0
 71
0
 42
0.2
  3
txt
  4

  0
STYLE
  5
214
100
AcDbSymbolTableRecord
100
AcDbTextStyleTableRecord
  2
TEXTSTYLE_1
 70
0
 40
0.0
 41
0.8
 50
0.0
 71
0
 42
0.2
  3
gdt
  4

  0
ENDTAB
  0
TABLE
  2
VIEW
  5
6
100
AcDbSymbolTable
 70
0
  0
ENDTAB
  0
TABLE
  2
UCS
  5
7
100
AcDbSymbolTable
 70
0
  0
ENDTAB
  0
TABLE
  2
APPID
  5
9
100
AcDbSymbolTable
 70
1
  0
APPID
  5
215
100
AcDbSymbolTableRecord
100
AcDbRegAppTableRecord
  2
ACAD
 70
0
  0
ENDTAB
  0
TABLE
  2
BLOCK_RECORD
  5
1
100
AcDbSymbolTable
 70
0
  0
BLOCK_RECORD
  5
216
100
AcDbSymbolTableRecord
100
AcDbBlockTableRecord
  2
*Model_Space
  0
BLOCK_RECORD
  5
217
100
AcDbSymbolTableRecord
100
AcDbBlockTableRecord
  2
*Paper_Space
  0
ENDTAB
  0
TABLE
  2
DIMSTYLE
  5
A
100
AcDbSymbolTable
 70
1
100
AcDbDimStyleTable
 71
0
  0
DIMSTYLE
105
218
100
AcDbSymbolTableRecord
100
AcDbDimStyleTableRecord
  2
STANDARD
 70
0
  3

  4

 40
1.0
 41
0.1875
 42
0.0625
 43
0.38
 44
0.125
 45
0.0
 46
0.0
 47
0.0001
 48
0.0001
140
0.15625
141
0.09
142
0.0
143
25.4
144
1.0
145
0.0
146
1.0
147
0.09
 71
0.0
 72
0.0
 73
1
 74
1
 75
0
 76
0
 77
0
 78
4
 79
1
170
0
171
3
172
0
173
0
174
0
175
0
176
0
177
0
178
0
270
2
179
4
271
4
272
4
273
2
274
2
275
0
280
0
281
0
282
0
283
1
284
4
285
0
286
0
287
3
288
0
340
11
278
46
  0
ENDTAB
  0
ENDSEC
  0
SECTION
  2
BLOCKS
  0
BLOCK
  5
20
100
AcDbEntity
  8
0
100
AcDbBlockBegin
  2
*Model_Space
 70
0
 10
0.0
 20
0.0
 30
0.0
  3
*Model_Space
  1

  0
ENDBLK
  5
21
100
AcDbEntity
  8
0
100
AcDbBlockEnd
  0
BLOCK
  5
1C
100
AcDbEntity
  8
0
100
AcDbBlockBegin
  2
*Paper_Space
 70
0
 10
0.0
 20
0.0
 30
0.0
  3
*Paper_Space
  1

  0
ENDBLK
  5
1D
100
AcDbEntity
  8
0
100
AcDbBlockEnd
  0
ENDSEC
  0
SECTION
  2
ENTITIES
  0
MTEXT
  5
219
100
AcDbEntity
  8
0
100
AcDbMText
 62
7
  6
CONTINUOUS
  7
STANDARD
 71
1
 72
1
 10
15.9560215477
 20
0.9479130325
 30
0.0
 11
1.0
 21
0.0
 31
0.0
 44
0.9
  1
SCALE: 1:1.000
 40
0.3
 41
3.36
  0
LINE
  5
21A
100
AcDbEntity
  8
0
100
AcDbLine
 62
7
  6
CONTINUOUS
 10
0.0
 20
0.0
 11
0.0
 21
17.0
  0
LINE
  5
21B
100
AcDbEntity
  8
0
100
AcDbLine
 62
7
  6
CONTINUOUS
 10
0.0
 20
0.0
 11
22.0
 21
0.0
  0
LINE
  5
21C
100
AcDbEntity
  8
0
100
AcDbLine
 62
7
  6
CONTINUOUS
 10
0.0
 20
17.0
 11
22.0
 21
17.0
  0
LINE
  5
21D
100
AcDbEntity
  8
0
100
AcDbLine
 62
7
  6
CONTINUOUS
 10
22.0
 20
0.0
 11
22.0
 21
17.0
  0
LINE
  5
21E
100
AcDbEntity
  8
0
100
AcDbLine
 62
7
  6
CONTINUOUS
 10
5.2553672762
 20
5.7401198968
 11
5.2553672762
 21
5.6557851465
  0
LINE
  5
21F
100
AcDbEntity
  8
0
100
AcDbLine
 62
7
  6
CONTINUOUS
 10
5.3488736334
 20
5.2936494206
 11
5.2587746935
 21
5.629903242
  0
LINE
  5
220
100
AcDbEntity
  8
0
100
AcDbLine
 62
7
  6
CONTINUOUS
 10
5.3730217791
 20
5.2751198968
 11
6.8877127732
 21
5.2751198968
  0
LINE
  5
221
100
AcDbEntity
  8
0
100
AcDbLine
 62
7
  6
CONTINUOUS
 10
5.3292567443
 20
5.4384532301
 11
6.931477808
 21
5.4384532301
  0
LINE
  5
222
100
AcDbEntity
  8
0
100
AcDbLine
 62
7
  6
CONTINUOUS
 10
6.9803672762
 20
5.7651198968
 11
5.2803672762
 21
5.7651198968
  0
LINE
  5
223
100
AcDbEntity
  8
0
100
AcDbLine
 62
7
  6
CONTINUOUS
 10
7.0053672762
 20
5.6557851465
 11
7.0053672762
 21
5.7401198968
  0
LINE
  5
224
100
AcDbEntity
  8
0
100
AcDbLine
 62
7
  6
CONTINUOUS
 10
6.9118609189
 20
5.2936494206
 11
7.0019598588
 21
5.629903242
  0
LINE
  5
225
100
AcDbEntity
  8
0
100
AcDbLine
 62
7
  6
CONTINUOUS
 10
6.9458720839
 20
10.6000477814
 11
5.1958720839
 21
10.6000477814
  0
LINE
  5
226
100
AcDbEntity
  8
0
100
AcDbLine
 62
7
  6
CONTINUOUS
 10
5.1958720839
 20
10.6000477814
 11
5.1958720839
 21
14.6000477814
  0
LINE
  5
227
100
AcDbEntity
  8
0
100
AcDbLine
 62
7
  6
CONTINUOUS
 10
6.9458720839
 20
10.6000477814
 11
6.9458720839
 21
14.6000477814
  0
LINE
  5
228
100
AcDbEntity
  8
0
100
AcDbLine
 62
7
  6
CONTINUOUS
 10
5.1958720839
 20
14.6000477814
 11
6.9458720839
 21
14.6000477814
  0
LINE
  5
229
100
AcDbEntity
  8
0
100
AcDbLine
 62
7
  6
CONTINUOUS
 10
13.5603552569
 20
5.3789580378
 11
13.5603552569
 21
5.7056247044
  0
LINE
  5
22A
100
AcDbEntity
  8
0
100
AcDbLine
 62
7
  6
CONTINUOUS
 10
13.673807499
 20
5.3473102058
 11
13.6969030148
 21
5.2472725364
  0
LINE
  5
22B
100
AcDbEntity
  8
0
100
AcDbLine
 62
7
  6
CONTINUOUS
 10
13.923807499
 20
5.2472725364
 11
13.9469030148
 21
5.3473102058
  0
LINE
  5
22C
100
AcDbEntity
  8
0
100
AcDbLine
 62
7
  6
CONTINUOUS
 10
14.173807499
 20
5.3473102058
 11
14.1969030148
 21
5.2472725364
  0
LINE
  5
22D
100
AcDbEntity
  8
0
100
AcDbLine
 62
7
  6
CONTINUOUS
 10
14.423807499
 20
5.2472725364
 11
14.4469030148
 21
5.3473102058
  0
LINE
  5
22E
100
AcDbEntity
  8
0
100
AcDbLine
 62
7
  6
CONTINUOUS
 10
14.673807499
 20
5.3473102058
 11
14.6969030148
 21
5.2472725364
  0
LINE
  5
22F
100
AcDbEntity
  8
0
100
AcDbLine
 62
7
  6
CONTINUOUS
 10
14.923807499
 20
5.2472725364
 11
14.9469030148
 21
5.3473102058
  0
LINE
  5
230
100
AcDbEntity
  8
0
100
AcDbLine
 62
7
  6
CONTINUOUS
 10
15.173807499
 20
5.3473102058
 11
15.1969030148
 21
5.2472725364
  0
LINE
  5
231
100
AcDbEntity
  8
0
100
AcDbLine
 62
7
  6
CONTINUOUS
 10
13.7366897925
 20
5.2156247044
 11
13.8840207214
 21
5.2156247044
  0
LINE
  5
232
100
AcDbEntity
  8
0
100
AcDbLine
 62
7
  6
CONTINUOUS
 10
14.2366897925
 20
5.2156247044
 11
14.3840207214
 21
5.2156247044
  0
LINE
  5
233
100
AcDbEntity
  8
0
100
AcDbLine
 62
7
  6
CONTINUOUS
 10
14.7366897925
 20
5.2156247044
 11
14.8840207214
 21
5.2156247044
  0
LINE
  5
234
100
AcDbEntity
  8
0
100
AcDbLine
 62
7
  6
CONTINUOUS
 10
15.2366897925
 20
5.2156247044
 11
15.3840207214
 21
5.2156247044
  0
LINE
  5
235
100
AcDbEntity
  8
0
100
AcDbLine
 62
7
  6
CONTINUOUS
 10
15.7366897925
 20
5.2156247044
 11
15.8840207214
 21
5.2156247044
  0
LINE
  5
236
100
AcDbEntity
  8
0
100
AcDbLine
 62
7
  6
CONTINUOUS
 10
16.2366897925
 20
5.2156247044
 11
16.3840207214
 21
5.2156247044
  0
LINE
  5
237
100
AcDbEntity
  8
0
100
AcDbLine
 62
7
  6
CONTINUOUS
 10
16.7366897925
 20
5.2156247044
 11
16.8840207214
 21
5.2156247044
  0
LINE
  5
238
100
AcDbEntity
  8
0
100
AcDbLine
 62
7
  6
CONTINUOUS
 10
17.2366897925
 20
5.2156247044
 11
17.3840207214
 21
5.2156247044
  0
LINE
  5
239
100
AcDbEntity
  8
0
100
AcDbLine
 62
7
  6
CONTINUOUS
 10
15.423807499
 20
5.2472725364
 11
15.4469030148
 21
5.3473102058
  0
LINE
  5
23A
100
AcDbEntity
  8
0
100
AcDbLine
 62
7
  6
CONTINUOUS
 10
13.5603552569
 20
5.3789580378
 11
13.6340207214
 21
5.3789580378
  0
LINE
  5
23B
100
AcDbEntity
  8
0
100
AcDbLine
 62
7
  6
CONTINUOUS
 10
13.9866897925
 20
5.3789580378
 11
14.1340207214
 21
5.3789580378
  0
LINE
  5
23C
100
AcDbEntity
  8
0
100
AcDbLine
 62
7
  6
CONTINUOUS
 10
14.4866897925
 20
5.3789580378
 11
14.6340207214
 21
5.3789580378
  0
LINE
  5
23D
100
AcDbEntity
  8
0
100
AcDbLine
 62
7
  6
CONTINUOUS
 10
14.9866897925
 20
5.3789580378
 11
15.1340207214
 21
5.3789580378
  0
LINE
  5
23E
100
AcDbEntity
  8
0
100
AcDbLine
 62
7
  6
CONTINUOUS
 10
15.4866897925
 20
5.3789580378
 11
15.6340207214
 21
5.3789580378
  0
LINE
  5
23F
100
AcDbEntity
  8
0
100
AcDbLine
 62
7
  6
CONTINUOUS
 10
15.9866897925
 20
5.3789580378
 11
16.1340207214
 21
5.3789580378
  0
LINE
  5
240
100
AcDbEntity
  8
0
100
AcDbLine
 62
7
  6
CONTINUOUS
 10
16.4866897925
 20
5.3789580378
 11
16.6340207214
 21
5.3789580378
  0
LINE
  5
241
100
AcDbEntity
  8
0
100
AcDbLine
 62
7
  6
CONTINUOUS
 10
16.9866897925
 20
5.3789580378
 11
17.1340207214
 21
5.3789580378
  0
LINE
  5
242
100
AcDbEntity
  8
0
100
AcDbLine
 62
7
  6
CONTINUOUS
 10
17.4866897925
 20
5.3789580378
 11
17.5603552569
 21
5.3789580378
  0
LINE
  5
243
100
AcDbEntity
  8
0
100
AcDbLine
 62
7
  6
CONTINUOUS
 10
15.673807499
 20
5.3473102058
 11
15.6969030148
 21
5.2472725364
  0
LINE
  5
244
100
AcDbEntity
  8
0
100
AcDbLine
 62
7
  6
CONTINUOUS
 10
13.5603552569
 20
5.7056247044
 11
17.5603552569
 21
5.7056247044
  0
LINE
  5
245
100
AcDbEntity
  8
0
100
AcDbLine
 62
7
  6
CONTINUOUS
 10
15.923807499
 20
5.2472725364
 11
15.9469030148
 21
5.3473102058
  0
LINE
  5
246
100
AcDbEntity
  8
0
100
AcDbLine
 62
7
  6
CONTINUOUS
 10
16.173807499
 20
5.3473102058
 11
16.1969030148
 21
5.2472725364
  0
LINE
  5
247
100
AcDbEntity
  8
0
100
AcDbLine
 62
7
  6
CONTINUOUS
 10
16.423807499
 20
5.2472725364
 11
16.4469030148
 21
5.3473102058
  0
LINE
  5
248
100
AcDbEntity
  8
0
100
AcDbLine
 62
7
  6
CONTINUOUS
 10
16.673807499
 20
5.3473102058
 11
16.6969030148
 21
5.2472725364
  0
LINE
  5
249
100
AcDbEntity
  8
0
100
AcDbLine
 62
7
  6
CONTINUOUS
 10
16.923807499
 20
5.2472725364
 11
16.9469030148
 21
5.3473102058
  0
LINE
  5
24A
100
AcDbEntity
  8
0
100
AcDbLine
 62
7
  6
CONTINUOUS
 10
17.173807499
 20
5.3473102058
 11
17.1969030148
 21
5.2472725364
  0
LINE
  5
24B
100
AcDbEntity
  8
0
100
AcDbLine
 62
7
  6
CONTINUOUS
 10
17.5603552569
 20
5.3789580378
 11
17.5603552569
 21
5.7056247044
  0
LINE
  5
24C
100
AcDbEntity
  8
0
100
AcDbLine
 62
7
  6
CONTINUOUS
 10
17.423807499
 20
5.2472725364
 11
17.4469030148
 21
5.3473102058
  0
LINE
  5
24D
100
AcDbEntity
  8
0
100
AcDbLine
 62
7
  6
CONTINUOUS
 10
14.1981484198
 20
10.9616287813
 11
14.2935727609
 21
10.8541396822
  0
LINE
  5
24E
100
AcDbEntity
  8
0
100
AcDbLine
 62
7
  6
CONTINUOUS
 10
14.1613892864
 20
11.0301405526
 11
14.1871149161
 21
10.9777172312
  0
LWPOLYLINE
  5
24F
100
AcDbEntity
  8
0
100
AcDbPolyline
 62
7
  6
CONTINUOUS
 90
6
 70
0
 10
15.8384332956
 20
10.8637687151
 10
15.8461751009
 20
10.8649653868
 10
15.8538246284
 20
10.8688725687
 10
15.8592447605
 20
10.8741966743
 10
15.8627090084
 20
10.8797889681
 10
15.8649669417
 20
10.8852410511
  0
LINE
  5
250
100
AcDbEntity
  8
0
100
AcDbLine
 62
7
  6
CONTINUOUS
 10
14.3214669565
 20
10.8426215455
 11
15.797210282
 21
10.8426215455
  0
LINE
  5
251
100
AcDbEntity
  8
0
100
AcDbLine
 62
7
  6
CONTINUOUS
 10
15.817483342
 20
10.8637685778
 11
15.8384310055
 21
10.8637685778
  0
LINE
  5
252
100
AcDbEntity
  8
0
100
AcDbLine
 62
7
  6
CONTINUOUS
 10
15.7425934544
 20
11.0456808018
 11
14.1767897646
 21
11.0456808018
  0
LWPOLYLINE
  5
253
100
AcDbEntity
  8
0
100
AcDbPolyline
 62
7
  6
CONTINUOUS
 90
6
 70
0
 10
15.9594664573
 20
11.2554321699
 10
15.9672082626
 20
11.2566288416
 10
15.9748577901
 20
11.2605360235
 10
15.9802779222
 20
11.2658601292
 10
15.9837421701
 20
11.2714524229
 10
15.9860001034
 20
11.2769045059
  0
LINE
  5
254
100
AcDbEntity
  8
0
100
AcDbLine
 62
7
  6
CONTINUOUS
 10
15.9385165037
 20
11.2554320327
 11
15.9594641672
 21
11.2554320327
  0
LWPOLYLINE
  5
255
100
AcDbEntity
  8
0
100
AcDbPolyline
 62
7
  6
CONTINUOUS
 90
6
 70
0
 10
16.080499619
 20
11.6470956247
 10
16.0882414243
 20
11.6482922965
 10
16.0958909518
 20
11.6521994783
 10
16.1013110839
 20
11.657523584
 10
16.1047753318
 20
11.6631158777
 10
16.1070332651
 20
11.6685679607
  0
LINE
  5
256
100
AcDbEntity
  8
0
100
AcDbLine
 62
7
  6
CONTINUOUS
 10
16.0595496654
 20
11.6470954875
 11
16.0804973289
 21
11.6470954875
  0
LINE
  5
257
100
AcDbEntity
  8
0
100
AcDbLine
 62
7
  6
CONTINUOUS
 10
14.1605302902
 20
11.0375217369
 11
15.1287955838
 21
14.1708293754
  0
LWPOLYLINE
  5
258
100
AcDbEntity
  8
0
100
AcDbPolyline
 62
7
  6
CONTINUOUS
 90
6
 70
0
 10
16.2015327807
 20
12.0387590795
 10
16.209274586
 20
12.0399557513
 10
16.2169241135
 20
12.0438629331
 10
16.2223442456
 20
12.0491870388
 10
16.2258084935
 20
12.0547793326
 10
16.2280664268
 20
12.0602314155
  0
LINE
  5
259
100
AcDbEntity
  8
0
100
AcDbLine
 62
7
  6
CONTINUOUS
 10
16.1805828271
 20
12.0387589423
 11
16.2015304906
 21
12.0387589423
  0
LINE
  5
25A
100
AcDbEntity
  8
0
100
AcDbLine
 62
7
  6
CONTINUOUS
 10
15.7989716556
 20
10.9777172312
 11
15.7732460259
 21
11.0301405526
  0
LWPOLYLINE
  5
25B
100
AcDbEntity
  8
0
100
AcDbPolyline
 62
7
  6
CONTINUOUS
 90
6
 70
0
 10
16.3225659424
 20
12.4304225344
 10
16.3303077477
 20
12.4316192061
 10
16.3379572752
 20
12.4355263879
 10
16.3433774073
 20
12.4408504936
 10
16.3468416552
 20
12.4464427874
 10
16.3490995885
 20
12.4518948704
  0
LINE
  5
25C
100
AcDbEntity
  8
0
100
AcDbLine
 62
7
  6
CONTINUOUS
 10
16.3016159888
 20
12.4304223971
 11
16.3225636523
 21
12.4304223971
  0
LWPOLYLINE
  5
25D
100
AcDbEntity
  8
0
100
AcDbPolyline
 62
7
  6
CONTINUOUS
 90
6
 70
0
 10
16.4435991041
 20
12.8220859892
 10
16.4513409094
 20
12.8232826609
 10
16.4589904369
 20
12.8271898427
 10
16.464410569
 20
12.8325139484
 10
16.4678748169
 20
12.8381062422
 10
16.4701327502
 20
12.8435583252
  0
LINE
  5
25E
100
AcDbEntity
  8
0
100
AcDbLine
 62
7
  6
CONTINUOUS
 10
15.8137999165
 20
10.8541396822
 11
15.8037282808
 21
10.9616287813
  0
LINE
  5
25F
100
AcDbEntity
  8
0
100
AcDbLine
 62
7
  6
CONTINUOUS
 10
15.9054656079
 20
11.0299544748
 11
15.9052296287
 21
11.1102302256
  0
LINE
  5
260
100
AcDbEntity
  8
0
100
AcDbLine
 62
7
  6
CONTINUOUS
 10
16.4226491505
 20
12.8220858519
 11
16.443596814
 21
12.8220858519
  0
LINE
  5
261
100
AcDbEntity
  8
0
100
AcDbLine
 62
7
  6
CONTINUOUS
 10
16.0264987696
 20
11.4216179296
 11
16.0262627904
 21
11.5018936804
  0
LINE
  5
262
100
AcDbEntity
  8
0
100
AcDbLine
 62
7
  6
CONTINUOUS
 10
15.9052290811
 20
11.1102522896
 11
15.9053230546
 21
11.1160021026
  0
LINE
  5
263
100
AcDbEntity
  8
0
100
AcDbLine
 62
7
  6
CONTINUOUS
 10
16.0262622428
 20
11.5019157444
 11
16.0263562164
 21
11.5076655574
  0
LINE
  5
264
100
AcDbEntity
  8
0
100
AcDbLine
 62
7
  6
CONTINUOUS
 10
15.905339195
 20
11.0255373056
 11
15.9054652965
 21
11.0300099619
  0
LWPOLYLINE
  5
265
100
AcDbEntity
  8
0
100
AcDbPolyline
 62
7
  6
CONTINUOUS
 90
5
 70
0
 10
15.9053230546
 20
11.1160021026
 10
15.9063282986
 20
11.1308311635
 10
15.9084304096
 20
11.1474684987
 10
15.9114170614
 20
11.1639989008
 10
15.9149036872
 20
11.1786327387
  0
LINE
  5
266
100
AcDbEntity
  8
0
100
AcDbLine
 62
7
  6
CONTINUOUS
 10
15.8134667107
 20
10.8507815473
 11
15.8137999165
 21
10.8541396822
  0
LINE
  5
267
100
AcDbEntity
  8
0
100
AcDbLine
 62
7
  6
CONTINUOUS
 10
16.6829172888
 20
13.6619646158
 11
16.6837046696
 21
13.6635267017
  0
LWPOLYLINE
  5
268
100
AcDbEntity
  8
0
100
AcDbPolyline
 62
7
  6
CONTINUOUS
 90
6
 70
0
 10
16.5646322658
 20
13.213749444
 10
16.5723740711
 20
13.2149461157
 10
16.5800235986
 20
13.2188532975
 10
16.5854437308
 20
13.2241774032
 10
16.5889079787
 20
13.229769697
 10
16.5911659119
 20
13.23522178
  0
LINE
  5
269
100
AcDbEntity
  8
0
100
AcDbLine
 62
7
  6
CONTINUOUS
 10
16.1475319313
 20
11.8132813844
 11
16.1472959521
 21
11.8935571353
  0
LINE
  5
26A
100
AcDbEntity
  8
0
100
AcDbLine
 62
7
  6
CONTINUOUS
 10
16.1472954045
 20
11.8935791992
 11
16.1473893781
 21
11.8993290122
  0
LINE
  5
26B
100
AcDbEntity
  8
0
100
AcDbLine
 62
7
  6
CONTINUOUS
 10
16.0263723567
 20
11.4172007605
 11
16.0264984582
 21
11.4216734168
  0
LINE
  5
26C
100
AcDbEntity
  8
0
100
AcDbLine
 62
7
  6
CONTINUOUS
 10
16.1474055184
 20
11.8088642153
 11
16.1475316199
 21
11.8133368716
  0
LWPOLYLINE
  5
26D
100
AcDbEntity
  8
0
100
AcDbPolyline
 62
7
  6
CONTINUOUS
 90
5
 70
0
 10
16.0263562164
 20
11.5076655574
 10
16.0273614603
 20
11.5224946184
 10
16.0294635713
 20
11.5391319535
 10
16.0324502231
 20
11.5556623556
 10
16.0359368489
 20
11.5702961936
  0
LWPOLYLINE
  5
26E
100
AcDbEntity
  8
0
100
AcDbPolyline
 62
7
  6
CONTINUOUS
 90
5
 70
0
 10
16.1473893781
 20
11.8993290122
 10
16.148394622
 20
11.9141580732
 10
16.150496733
 20
11.9307954083
 10
16.1534833848
 20
11.9473258104
 10
16.1569700106
 20
11.9619596484
  0
LINE
  5
26F
100
AcDbEntity
  8
0
100
AcDbLine
 62
7
  6
CONTINUOUS
 10
15.9043472727
 20
11.0162698643
 11
15.905339195
 21
11.0255373056
  0
LINE
  5
270
100
AcDbEntity
  8
0
100
AcDbLine
 62
7
  6
CONTINUOUS
 10
16.0253804344
 20
11.4079333192
 11
16.0263723567
 21
11.4172007605
  0
LINE
  5
271
100
AcDbEntity
  8
0
100
AcDbLine
 62
7
  6
CONTINUOUS
 10
15.9024940254
 20
11.0069693826
 11
15.9043472727
 21
11.0162698643
  0
LINE
  5
272
100
AcDbEntity
  8
0
100
AcDbLine
 62
7
  6
CONTINUOUS
 10
16.6810941968
 20
13.6576278966
 11
16.6829172888
 21
13.6619646158
  0
LINE
  5
273
100
AcDbEntity
  8
0
100
AcDbLine
 62
7
  6
CONTINUOUS
 10
16.5600610351
 20
13.2659644418
 11
16.5618841271
 21
13.270301161
  0
LINE
  5
274
100
AcDbEntity
  8
0
100
AcDbLine
 62
7
  6
CONTINUOUS
 10
16.5618841271
 20
13.270301161
 11
16.5626715079
 21
13.2718632469
  0
LINE
  5
275
100
AcDbEntity
  8
0
100
AcDbLine
 62
7
  6
CONTINUOUS
 10
16.4408509654
 20
12.8786377061
 11
16.4416383462
 21
12.8801997921
  0
LINE
  5
276
100
AcDbEntity
  8
0
100
AcDbLine
 62
7
  6
CONTINUOUS
 10
16.5436823122
 20
13.2137493067
 11
16.5646299757
 21
13.2137493067
  0
LINE
  5
277
100
AcDbEntity
  8
0
100
AcDbLine
 62
7
  6
CONTINUOUS
 10
16.268565093
 20
12.2049448392
 11
16.2683291138
 21
12.2852205901
  0
LINE
  5
278
100
AcDbEntity
  8
0
100
AcDbLine
 62
7
  6
CONTINUOUS
 10
16.2683285662
 20
12.285242654
 11
16.2684225398
 21
12.290992467
  0
LINE
  5
279
100
AcDbEntity
  8
0
100
AcDbLine
 62
7
  6
CONTINUOUS
 10
16.2684386801
 20
12.2005276701
 11
16.2685647816
 21
12.2050003264
  0
LWPOLYLINE
  5
27A
100
AcDbEntity
  8
0
100
AcDbPolyline
 62
7
  6
CONTINUOUS
 90
5
 70
0
 10
16.2684225398
 20
12.290992467
 10
16.2694277837
 20
12.305821528
 10
16.2715298947
 20
12.3224588631
 10
16.2745165465
 20
12.3389892653
 10
16.2780031723
 20
12.3536231032
  0
LINE
  5
27B
100
AcDbEntity
  8
0
100
AcDbLine
 62
7
  6
CONTINUOUS
 10
16.1464135961
 20
11.799596774
 11
16.1474055184
 21
11.8088642153
  0
LINE
  5
27C
100
AcDbEntity
  8
0
100
AcDbLine
 62
7
  6
CONTINUOUS
 10
16.2674467578
 20
12.1912602288
 11
16.2684386801
 21
12.2005276701
  0
LINE
  5
27D
100
AcDbEntity
  8
0
100
AcDbLine
 62
7
  6
CONTINUOUS
 10
16.0235271871
 20
11.3986328374
 11
16.0253804344
 21
11.4079333192
  0
LINE
  5
27E
100
AcDbEntity
  8
0
100
AcDbLine
 62
7
  6
CONTINUOUS
 10
16.1445603488
 20
11.7902962922
 11
16.1464135961
 21
11.799596774
  0
LINE
  5
27F
100
AcDbEntity
  8
0
100
AcDbLine
 62
7
  6
CONTINUOUS
 10
16.2655935105
 20
12.181959747
 11
16.2674467578
 21
12.1912602288
  0
LINE
  5
280
100
AcDbEntity
  8
0
100
AcDbLine
 62
7
  6
CONTINUOUS
 10
15.9013182056
 20
11.0027442508
 11
15.9024940254
 21
11.0069693826
  0
LINE
  5
281
100
AcDbEntity
  8
0
100
AcDbLine
 62
7
  6
CONTINUOUS
 10
16.0223513673
 20
11.3944077056
 11
16.0235271871
 21
11.3986328374
  0
LINE
  5
282
100
AcDbEntity
  8
0
100
AcDbLine
 62
7
  6
CONTINUOUS
 10
16.143384529
 20
11.7860711604
 11
16.1445603488
 21
11.7902962922
  0
LINE
  5
283
100
AcDbEntity
  8
0
100
AcDbLine
 62
7
  6
CONTINUOUS
 10
16.2644176907
 20
12.1777346152
 11
16.2655935105
 21
12.181959747
  0
LINE
  5
284
100
AcDbEntity
  8
0
100
AcDbLine
 62
7
  6
CONTINUOUS
 10
16.3854508524
 20
12.56939807
 11
16.3866266722
 21
12.5736232018
  0
LINE
  5
285
100
AcDbEntity
  8
0
100
AcDbLine
 62
7
  6
CONTINUOUS
 10
15.9149036872
 20
11.1786327387
 11
15.9166650421
 21
11.1847259058
  0
LINE
  5
286
100
AcDbEntity
  8
0
100
AcDbLine
 62
7
  6
CONTINUOUS
 10
16.0359368489
 20
11.5702961936
 11
16.0376982038
 21
11.5763893606
  0
LINE
  5
287
100
AcDbEntity
  8
0
100
AcDbLine
 62
7
  6
CONTINUOUS
 10
16.1569700106
 20
11.9619596484
 11
16.1587313655
 21
11.9680528154
  0
LINE
  5
288
100
AcDbEntity
  8
0
100
AcDbLine
 62
7
  6
CONTINUOUS
 10
16.2780031723
 20
12.3536231032
 11
16.2797645272
 21
12.3597162702
  0
LINE
  5
289
100
AcDbEntity
  8
0
100
AcDbLine
 62
7
  6
CONTINUOUS
 10
16.399036334
 20
12.745286558
 11
16.4007976889
 21
12.751379725
  0
LINE
  5
28A
100
AcDbEntity
  8
0
100
AcDbLine
 62
7
  6
CONTINUOUS
 10
16.5200694957
 20
13.1369500128
 11
16.5218308506
 21
13.1430431798
  0
LINE
  5
28B
100
AcDbEntity
  8
0
100
AcDbLine
 62
7
  6
CONTINUOUS
 10
16.6411026574
 20
13.5286134676
 11
16.6428640123
 21
13.5347066346
  0
LINE
  5
28C
100
AcDbEntity
  8
0
100
AcDbLine
 62
7
  6
CONTINUOUS
 10
16.7621358191
 20
13.9202769224
 11
16.763897174
 21
13.9263700894
  0
LINE
  5
28D
100
AcDbEntity
  8
0
100
AcDbLine
 62
7
  6
CONTINUOUS
 10
15.8144460823
 20
10.8539400019
 11
15.8313016858
 21
10.908484755
  0
LINE
  5
28E
100
AcDbEntity
  8
0
100
AcDbLine
 62
7
  6
CONTINUOUS
 10
15.91667099
 20
11.1847399246
 11
15.9523348475
 21
11.3001482098
  0
LINE
  5
28F
100
AcDbEntity
  8
0
100
AcDbLine
 62
7
  6
CONTINUOUS
 10
16.0377041517
 20
11.5764033794
 11
16.0733680093
 21
11.6918116646
  0
LINE
  5
290
100
AcDbEntity
  8
0
100
AcDbLine
 62
7
  6
CONTINUOUS
 10
16.1587373135
 20
11.9680668342
 11
16.194401171
 21
12.0834751194
  0
LINE
  5
291
100
AcDbEntity
  8
0
100
AcDbLine
 62
7
  6
CONTINUOUS
 10
16.2797704752
 20
12.3597302891
 11
16.3154343327
 21
12.4751385742
  0
LINE
  5
292
100
AcDbEntity
  8
0
100
AcDbLine
 62
7
  6
CONTINUOUS
 10
16.4008036369
 20
12.7513937439
 11
16.4364674944
 21
12.866802029
  0
LINE
  5
293
100
AcDbEntity
  8
0
100
AcDbLine
 62
7
  6
CONTINUOUS
 10
16.5218367986
 20
13.1430571987
 11
16.5575006561
 21
13.2584654839
  0
LINE
  5
294
100
AcDbEntity
  8
0
100
AcDbLine
 62
7
  6
CONTINUOUS
 10
16.6428699603
 20
13.5347206535
 11
16.6785338178
 21
13.6501289387
  0
LINE
  5
295
100
AcDbEntity
  8
0
100
AcDbLine
 62
7
  6
CONTINUOUS
 10
16.763903122
 20
13.9263841083
 11
16.7817350501
 21
13.9840882489
  0
LINE
  5
296
100
AcDbEntity
  8
0
100
AcDbLine
 62
7
  6
CONTINUOUS
 10
15.8656676477
 20
10.8873785691
 11
15.901331504
 21
11.0027868505
  0
LINE
  5
297
100
AcDbEntity
  8
0
100
AcDbLine
 62
7
  6
CONTINUOUS
 10
15.9867008094
 20
11.2790420239
 11
16.0223646657
 21
11.3944503053
  0
LINE
  5
298
100
AcDbEntity
  8
0
100
AcDbLine
 62
7
  6
CONTINUOUS
 10
16.1077339711
 20
11.6707054787
 11
16.1433978274
 21
11.7861137601
  0
LINE
  5
299
100
AcDbEntity
  8
0
100
AcDbLine
 62
7
  6
CONTINUOUS
 10
16.2287671328
 20
12.0623689335
 11
16.2644309891
 21
12.1777772149
  0
LINE
  5
29A
100
AcDbEntity
  8
0
100
AcDbLine
 62
7
  6
CONTINUOUS
 10
16.3498002945
 20
12.4540323883
 11
16.3854641508
 21
12.5694406697
  0
LINE
  5
29B
100
AcDbEntity
  8
0
100
AcDbLine
 62
7
  6
CONTINUOUS
 10
16.4708334562
 20
12.8456958431
 11
16.5064973125
 21
12.9611041245
  0
LINE
  5
29C
100
AcDbEntity
  8
0
100
AcDbLine
 62
7
  6
CONTINUOUS
 10
16.5918666179
 20
13.2373592979
 11
16.6275304742
 21
13.3527675793
  0
LINE
  5
29D
100
AcDbEntity
  8
0
100
AcDbLine
 62
7
  6
CONTINUOUS
 10
16.7128997796
 20
13.6290227528
 11
16.7485636359
 21
13.7444310341
  0
LINE
  5
29E
100
AcDbEntity
  8
0
100
AcDbLine
 62
7
  6
CONTINUOUS
 10
16.7485636359
 20
13.7444310341
 11
16.7485503439
 21
13.7443884329
  0
LINE
  5
29F
100
AcDbEntity
  8
0
100
AcDbLine
 62
7
  6
CONTINUOUS
 10
16.6275304742
 20
13.3527675793
 11
16.6275171822
 21
13.3527249781
  0
LINE
  5
2A0
100
AcDbEntity
  8
0
100
AcDbLine
 62
7
  6
CONTINUOUS
 10
16.5064973125
 20
12.9611041245
 11
16.5064840205
 21
12.9610615232
  0
LINE
  5
2A1
100
AcDbEntity
  8
0
100
AcDbLine
 62
7
  6
CONTINUOUS
 10
16.3854641508
 20
12.5694406697
 11
16.3854508588
 21
12.5693980684
  0
LINE
  5
2A2
100
AcDbEntity
  8
0
100
AcDbLine
 62
7
  6
CONTINUOUS
 10
16.2644309891
 20
12.1777772149
 11
16.2644176971
 21
12.1777346136
  0
LINE
  5
2A3
100
AcDbEntity
  8
0
100
AcDbLine
 62
7
  6
CONTINUOUS
 10
16.1433978274
 20
11.7861137601
 11
16.1433845354
 21
11.7860711588
  0
LINE
  5
2A4
100
AcDbEntity
  8
0
100
AcDbLine
 62
7
  6
CONTINUOUS
 10
16.0223646657
 20
11.3944503053
 11
16.0223513737
 21
11.394407704
  0
LINE
  5
2A5
100
AcDbEntity
  8
0
100
AcDbLine
 62
7
  6
CONTINUOUS
 10
15.901331504
 20
11.0027868505
 11
15.901318212
 21
11.0027442492
  0
LWPOLYLINE
  5
2A6
100
AcDbEntity
  8
0
100
AcDbPolyline
 62
7
  6
CONTINUOUS
 90
3
 70
0
 10
16.6785328575
 20
13.6501282293
 10
16.6789261414
 20
13.6513807346
 10
16.6810941968
 20
13.6576278966
  0
LWPOLYLINE
  5
2A7
100
AcDbEntity
  8
0
100
AcDbPolyline
 62
7
  6
CONTINUOUS
 90
3
 70
0
 10
16.5574996958
 20
13.2584647745
 10
16.5578929797
 20
13.2597172798
 10
16.5600610351
 20
13.2659644418
  0
LWPOLYLINE
  5
2A8
100
AcDbEntity
  8
0
100
AcDbPolyline
 62
7
  6
CONTINUOUS
 90
3
 70
0
 10
16.4364665341
 20
12.8668013197
 10
16.436859818
 20
12.8680538249
 10
16.4390278734
 20
12.874300987
  0
LWPOLYLINE
  5
2A9
100
AcDbEntity
  8
0
100
AcDbPolyline
 62
7
  6
CONTINUOUS
 90
3
 70
0
 10
16.3154333724
 20
12.4751378649
 10
16.3158266563
 20
12.4763903701
 10
16.3179947117
 20
12.4826375322
  0
LWPOLYLINE
  5
2AA
100
AcDbEntity
  8
0
100
AcDbPolyline
 62
7
  6
CONTINUOUS
 90
3
 70
0
 10
16.1944002107
 20
12.0834744101
 10
16.1947934946
 20
12.0847269153
 10
16.19696155
 20
12.0909740773
  0
LWPOLYLINE
  5
2AB
100
AcDbEntity
  8
0
100
AcDbPolyline
 62
7
  6
CONTINUOUS
 90
3
 70
0
 10
16.073367049
 20
11.6918109553
 10
16.0737603329
 20
11.6930634605
 10
16.0759283883
 20
11.6993106225
  0
LWPOLYLINE
  5
2AC
100
AcDbEntity
  8
0
100
AcDbPolyline
 62
7
  6
CONTINUOUS
 90
3
 70
0
 10
15.9523338873
 20
11.3001475004
 10
15.9527271712
 20
11.3014000057
 10
15.9548952266
 20
11.3076471677
  0
LWPOLYLINE
  5
2AD
100
AcDbEntity
  8
0
100
AcDbPolyline
 62
7
  6
CONTINUOUS
 90
3
 70
0
 10
15.8313007256
 20
10.9084840456
 10
15.8316940095
 20
10.9097365509
 10
15.8338620649
 20
10.9159837129
  0
LINE
  5
2AE
100
AcDbEntity
  8
0
100
AcDbLine
 62
7
  6
CONTINUOUS
 10
16.7121990736
 20
13.6268852348
 11
16.7129058901
 21
13.6290426195
  0
LINE
  5
2AF
100
AcDbEntity
  8
0
100
AcDbLine
 62
7
  6
CONTINUOUS
 10
16.5911659119
 20
13.23522178
 11
16.5918727284
 21
13.2373791647
  0
LINE
  5
2B0
100
AcDbEntity
  8
0
100
AcDbLine
 62
7
  6
CONTINUOUS
 10
16.4701327502
 20
12.8435583252
 11
16.4708395667
 21
12.8457157099
  0
LINE
  5
2B1
100
AcDbEntity
  8
0
100
AcDbLine
 62
7
  6
CONTINUOUS
 10
16.3490995885
 20
12.4518948704
 11
16.349806405
 21
12.4540522551
  0
LINE
  5
2B2
100
AcDbEntity
  8
0
100
AcDbLine
 62
7
  6
CONTINUOUS
 10
16.2280664268
 20
12.0602314155
 11
16.2287732433
 21
12.0623888002
  0
LINE
  5
2B3
100
AcDbEntity
  8
0
100
AcDbLine
 62
7
  6
CONTINUOUS
 10
16.1070332651
 20
11.6685679607
 11
16.1077400816
 21
11.6707253454
  0
LINE
  5
2B4
100
AcDbEntity
  8
0
100
AcDbLine
 62
7
  6
CONTINUOUS
 10
16.4390278734
 20
12.874300987
 11
16.4408509654
 21
12.8786377061
  0
LINE
  5
2B5
100
AcDbEntity
  8
0
100
AcDbLine
 62
7
  6
CONTINUOUS
 10
16.3179947117
 20
12.4826375322
 11
16.3198178037
 21
12.4869742513
  0
LINE
  5
2B6
100
AcDbEntity
  8
0
100
AcDbLine
 62
7
  6
CONTINUOUS
 10
16.19696155
 20
12.0909740773
 11
16.198784642
 21
12.0953107965
  0
LINE
  5
2B7
100
AcDbEntity
  8
0
100
AcDbLine
 62
7
  6
CONTINUOUS
 10
16.3198178037
 20
12.4869742513
 11
16.3206051845
 21
12.4885363373
  0
LINE
  5
2B8
100
AcDbEntity
  8
0
100
AcDbLine
 62
7
  6
CONTINUOUS
 10
16.198784642
 20
12.0953107965
 11
16.1995720228
 21
12.0968728824
  0
LINE
  5
2B9
100
AcDbEntity
  8
0
100
AcDbLine
 62
7
  6
CONTINUOUS
 10
16.3895982547
 20
12.596608294
 11
16.3893622755
 21
12.6768840449
  0
LINE
  5
2BA
100
AcDbEntity
  8
0
100
AcDbLine
 62
7
  6
CONTINUOUS
 10
16.3893617279
 20
12.6769061088
 11
16.3894557015
 21
12.6826559219
  0
LINE
  5
2BB
100
AcDbEntity
  8
0
100
AcDbLine
 62
7
  6
CONTINUOUS
 10
16.3894718418
 20
12.5921911249
 11
16.3895979433
 21
12.5966637812
  0
LWPOLYLINE
  5
2BC
100
AcDbEntity
  8
0
100
AcDbPolyline
 62
7
  6
CONTINUOUS
 90
5
 70
0
 10
16.3894557015
 20
12.6826559219
 10
16.3904609454
 20
12.6974849828
 10
16.3925630564
 20
12.7141223179
 10
16.3955497082
 20
12.7306527201
 10
16.399036334
 20
12.745286558
  0
LWPOLYLINE
  5
2BD
100
AcDbEntity
  8
0
100
AcDbPolyline
 62
7
  6
CONTINUOUS
 90
5
 70
0
 10
16.5104888632
 20
13.0743193767
 10
16.5114941071
 20
13.0891484376
 10
16.5135962181
 20
13.1057857727
 10
16.5165828699
 20
13.1223161749
 10
16.5200694957
 20
13.1369500128
  0
LINE
  5
2BE
100
AcDbEntity
  8
0
100
AcDbLine
 62
7
  6
CONTINUOUS
 10
16.3884799195
 20
12.5829236836
 11
16.3894718418
 21
12.5921911249
  0
LINE
  5
2BF
100
AcDbEntity
  8
0
100
AcDbLine
 62
7
  6
CONTINUOUS
 10
16.5095130812
 20
12.9745871384
 11
16.5105050035
 21
12.9838545797
  0
LINE
  5
2C0
100
AcDbEntity
  8
0
100
AcDbLine
 62
7
  6
CONTINUOUS
 10
16.3866266722
 20
12.5736232018
 11
16.3884799195
 21
12.5829236836
  0
LINE
  5
2C1
100
AcDbEntity
  8
0
100
AcDbLine
 62
7
  6
CONTINUOUS
 10
16.5076598339
 20
12.9652866566
 11
16.5095130812
 21
12.9745871384
  0
LINE
  5
2C2
100
AcDbEntity
  8
0
100
AcDbLine
 62
7
  6
CONTINUOUS
 10
16.6286929956
 20
13.3569501114
 11
16.6305462429
 21
13.3662505932
  0
LINE
  5
2C3
100
AcDbEntity
  8
0
100
AcDbLine
 62
7
  6
CONTINUOUS
 10
16.5064840141
 20
12.9610615249
 11
16.5076598339
 21
12.9652866566
  0
LINE
  5
2C4
100
AcDbEntity
  8
0
100
AcDbLine
 62
7
  6
CONTINUOUS
 10
16.6275171758
 20
13.3527249797
 11
16.6286929956
 21
13.3569501114
  0
LINE
  5
2C5
100
AcDbEntity
  8
0
100
AcDbLine
 62
7
  6
CONTINUOUS
 10
16.7485503375
 20
13.7443884345
 11
16.7497261573
 21
13.7486135663
  0
LINE
  5
2C6
100
AcDbEntity
  8
0
100
AcDbLine
 62
7
  6
CONTINUOUS
 10
15.9860001034
 20
11.2769045059
 11
15.9867069199
 21
11.2790618906
  0
LINE
  5
2C7
100
AcDbEntity
  8
0
100
AcDbLine
 62
7
  6
CONTINUOUS
 10
15.8649669417
 20
10.8852410511
 11
15.8656737582
 21
10.8873984358
  0
LINE
  5
2C8
100
AcDbEntity
  8
0
100
AcDbLine
 62
7
  6
CONTINUOUS
 10
16.0759283883
 20
11.6993106225
 11
16.0777514803
 21
11.7036473417
  0
LINE
  5
2C9
100
AcDbEntity
  8
0
100
AcDbLine
 62
7
  6
CONTINUOUS
 10
15.9548952266
 20
11.3076471677
 11
15.9567183186
 21
11.3119838869
  0
LINE
  5
2CA
100
AcDbEntity
  8
0
100
AcDbLine
 62
7
  6
CONTINUOUS
 10
15.8338620649
 20
10.9159837129
 11
15.8356851569
 21
10.9203204321
  0
LINE
  5
2CB
100
AcDbEntity
  8
0
100
AcDbLine
 62
7
  6
CONTINUOUS
 10
16.0777514803
 20
11.7036473417
 11
16.0785388611
 21
11.7052094276
  0
LINE
  5
2CC
100
AcDbEntity
  8
0
100
AcDbLine
 62
7
  6
CONTINUOUS
 10
15.9567183186
 20
11.3119838869
 11
15.9575056994
 21
11.3135459728
  0
LWPOLYLINE
  5
2CD
100
AcDbEntity
  8
0
100
AcDbPolyline
 62
7
  6
CONTINUOUS
 90
6
 70
0
 10
16.6856654275
 20
13.6054128988
 10
16.6934072328
 20
13.6066095705
 10
16.7010567603
 20
13.6105167524
 10
16.7064768925
 20
13.615840858
 10
16.7099411404
 20
13.6214331518
 10
16.7121990736
 20
13.6268852348
  0
LINE
  5
2CE
100
AcDbEntity
  8
0
100
AcDbLine
 62
7
  6
CONTINUOUS
 10
16.5106314164
 20
12.9882717488
 11
16.5103954373
 21
13.0685474997
  0
LINE
  5
2CF
100
AcDbEntity
  8
0
100
AcDbLine
 62
7
  6
CONTINUOUS
 10
16.5103948896
 20
13.0685695636
 11
16.5104888632
 21
13.0743193767
  0
LINE
  5
2D0
100
AcDbEntity
  8
0
100
AcDbLine
 62
7
  6
CONTINUOUS
 10
16.6314280513
 20
13.4602330184
 11
16.6315220249
 21
13.4659828315
  0
LINE
  5
2D1
100
AcDbEntity
  8
0
100
AcDbLine
 62
7
  6
CONTINUOUS
 10
16.5105050035
 20
12.9838545797
 11
16.510631105
 21
12.988327236
  0
LINE
  5
2D2
100
AcDbEntity
  8
0
100
AcDbLine
 62
7
  6
CONTINUOUS
 10
16.6315381652
 20
13.3755180345
 11
16.6316642667
 21
13.3799906908
  0
LWPOLYLINE
  5
2D3
100
AcDbEntity
  8
0
100
AcDbPolyline
 62
7
  6
CONTINUOUS
 90
5
 70
0
 10
16.6315220249
 20
13.4659828315
 10
16.6325272688
 20
13.4808118924
 10
16.6346293798
 20
13.4974492276
 10
16.6376160316
 20
13.5139796297
 10
16.6411026574
 20
13.5286134676
  0
LINE
  5
2D4
100
AcDbEntity
  8
0
100
AcDbLine
 62
7
  6
CONTINUOUS
 10
16.6305462429
 20
13.3662505932
 11
16.6315381652
 21
13.3755180345
  0
LINE
  5
2D5
100
AcDbEntity
  8
0
100
AcDbLine
 62
7
  6
CONTINUOUS
 10
16.7515794046
 20
13.757914048
 11
16.7525713269
 21
13.7671814893
  0
LINE
  5
2D6
100
AcDbEntity
  8
0
100
AcDbLine
 62
7
  6
CONTINUOUS
 10
16.7497261573
 20
13.7486135663
 11
16.7515794046
 21
13.757914048
  0
LINE
  5
2D7
100
AcDbEntity
  8
0
100
AcDbLine
 62
7
  6
CONTINUOUS
 10
15.8356851569
 20
10.9203204321
 11
15.8364725377
 21
10.921882518
  0
LINE
  5
2D8
100
AcDbEntity
  8
0
100
AcDbLine
 62
7
  6
CONTINUOUS
 10
16.6647154739
 20
13.6054127615
 11
16.6856631374
 21
13.6054127615
  0
LINE
  5
2D9
100
AcDbEntity
  8
0
100
AcDbLine
 62
7
  6
CONTINUOUS
 10
16.6316645781
 20
13.3799352037
 11
16.631428599
 21
13.4602109545
  0
LINE
  5
2DA
100
AcDbEntity
  8
0
100
AcDbLine
 62
7
  6
CONTINUOUS
 10
16.7526977398
 20
13.7715986585
 11
16.7524617607
 21
13.8518744093
  0
LINE
  5
2DB
100
AcDbEntity
  8
0
100
AcDbLine
 62
7
  6
CONTINUOUS
 10
16.752461213
 20
13.8518964732
 11
16.7525551866
 21
13.8576462863
  0
LINE
  5
2DC
100
AcDbEntity
  8
0
100
AcDbLine
 62
7
  6
CONTINUOUS
 10
16.7525713269
 20
13.7671814893
 11
16.7526974284
 21
13.7716541456
  0
LWPOLYLINE
  5
2DD
100
AcDbEntity
  8
0
100
AcDbPolyline
 62
7
  6
CONTINUOUS
 90
5
 70
0
 10
16.7525551866
 20
13.8576462863
 10
16.7535604305
 20
13.8724753472
 10
16.7556625415
 20
13.8891126824
 10
16.7586491933
 20
13.9056430845
 10
16.7621358191
 20
13.9202769224
  0
LINE
  5
2DE
100
AcDbEntity
  8
0
100
AcDbLine
 62
7
  6
CONTINUOUS
 10
16.7820652102
 20
13.9874473208
 11
16.7817320044
 21
13.9840891858
  0
LINE
  5
2DF
100
AcDbEntity
  8
0
100
AcDbLine
 62
7
  6
CONTINUOUS
 10
16.7820652102
 20
13.9874473208
 11
16.7719935744
 21
14.0949364198
  0
LINE
  5
2E0
100
AcDbEntity
  8
0
100
AcDbLine
 62
7
  6
CONTINUOUS
 10
16.710858748
 20
14.1789884403
 11
15.1450550582
 21
14.1789884403
  0
LINE
  5
2E1
100
AcDbEntity
  8
0
100
AcDbLine
 62
7
  6
CONTINUOUS
 10
16.7672369492
 20
14.1110248697
 11
16.7415113196
 21
14.1634481911
  0
ARC
  5
2E2
100
AcDbEntity
  8
0
100
AcDbCircle
 62
7
  6
CONTINUOUS
 10
5.3292567443
 20
5.4634532301
 40
0.025
100
AcDbArc
 50
195.0
 51
270.0
  0
ARC
  5
2E3
100
AcDbEntity
  8
0
100
AcDbCircle
 62
7
  6
CONTINUOUS
 10
5.3730217789
 20
5.3001198974
 40
0.025
100
AcDbArc
 50
195.0000016065
 51
270.0000004158
  0
ARC
  5
2E4
100
AcDbEntity
  8
0
100
AcDbCircle
 62
7
  6
CONTINUOUS
 10
5.3553672762
 20
5.6557851465
 40
0.1
100
AcDbArc
 50
180.0
 51
195.0
  0
ARC
  5
2E5
100
AcDbEntity
  8
0
100
AcDbCircle
 62
7
  6
CONTINUOUS
 10
5.2803672762
 20
5.7401198968
 40
0.025
100
AcDbArc
 50
90.0
 51
180.0
  0
ARC
  5
2E6
100
AcDbEntity
  8
0
100
AcDbCircle
 62
7
  6
CONTINUOUS
 10
6.8877127732
 20
5.3001198968
 40
0.025
100
AcDbArc
 50
270.0
 51
345.0
  0
ARC
  5
2E7
100
AcDbEntity
  8
0
100
AcDbCircle
 62
7
  6
CONTINUOUS
 10
6.931477808
 20
5.4634532301
 40
0.025
100
AcDbArc
 50
270.0
 51
345.0
  0
ARC
  5
2E8
100
AcDbEntity
  8
0
100
AcDbCircle
 62
7
  6
CONTINUOUS
 10
6.9053672762
 20
5.6557851465
 40
0.1
100
AcDbArc
 50
345.0
 51
360.0
  0
ARC
  5
2E9
100
AcDbEntity
  8
0
100
AcDbCircle
 62
7
  6
CONTINUOUS
 10
6.9803672762
 20
5.7401198968
 40
0.025
100
AcDbArc
 50
0.0
 51
90.0
  0
ARC
  5
2EA
100
AcDbEntity
  8
0
100
AcDbCircle
 62
7
  6
CONTINUOUS
 10
13.7366897925
 20
5.2564580378
 40
0.0408333333
100
AcDbArc
 50
193.0
 51
270.0
  0
ARC
  5
2EB
100
AcDbEntity
  8
0
100
AcDbCircle
 62
7
  6
CONTINUOUS
 10
13.8840207214
 20
5.2564580378
 40
0.0408333333
100
AcDbArc
 50
270.0
 51
347.0
  0
ARC
  5
2EC
100
AcDbEntity
  8
0
100
AcDbCircle
 62
7
  6
CONTINUOUS
 10
14.2366897925
 20
5.2564580378
 40
0.0408333333
100
AcDbArc
 50
193.0
 51
270.0
  0
ARC
  5
2ED
100
AcDbEntity
  8
0
100
AcDbCircle
 62
7
  6
CONTINUOUS
 10
14.3840207214
 20
5.2564580378
 40
0.0408333333
100
AcDbArc
 50
270.0
 51
347.0
  0
ARC
  5
2EE
100
AcDbEntity
  8
0
100
AcDbCircle
 62
7
  6
CONTINUOUS
 10
14.7366897925
 20
5.2564580378
 40
0.0408333333
100
AcDbArc
 50
193.0
 51
270.0
  0
ARC
  5
2EF
100
AcDbEntity
  8
0
100
AcDbCircle
 62
7
  6
CONTINUOUS
 10
14.8840207214
 20
5.2564580378
 40
0.0408333333
100
AcDbArc
 50
270.0
 51
347.0
  0
ARC
  5
2F0
100
AcDbEntity
  8
0
100
AcDbCircle
 62
7
  6
CONTINUOUS
 10
15.2366897925
 20
5.2564580378
 40
0.0408333333
100
AcDbArc
 50
193.0
 51
270.0
  0
ARC
  5
2F1
100
AcDbEntity
  8
0
100
AcDbCircle
 62
7
  6
CONTINUOUS
 10
15.3840207214
 20
5.2564580378
 40
0.0408333333
100
AcDbArc
 50
270.0
 51
347.0
  0
ARC
  5
2F2
100
AcDbEntity
  8
0
100
AcDbCircle
 62
7
  6
CONTINUOUS
 10
13.6340207214
 20
5.3381247044
 40
0.0408333333
100
AcDbArc
 50
13.0
 51
90.0
  0
ARC
  5
2F3
100
AcDbEntity
  8
0
100
AcDbCircle
 62
7
  6
CONTINUOUS
 10
13.9866897925
 20
5.3381247044
 40
0.0408333333
100
AcDbArc
 50
90.0
 51
167.0
  0
ARC
  5
2F4
100
AcDbEntity
  8
0
100
AcDbCircle
 62
7
  6
CONTINUOUS
 10
14.1340207214
 20
5.3381247044
 40
0.0408333333
100
AcDbArc
 50
13.0
 51
90.0
  0
ARC
  5
2F5
100
AcDbEntity
  8
0
100
AcDbCircle
 62
7
  6
CONTINUOUS
 10
14.4866897925
 20
5.3381247044
 40
0.0408333333
100
AcDbArc
 50
90.0
 51
167.0
  0
ARC
  5
2F6
100
AcDbEntity
  8
0
100
AcDbCircle
 62
7
  6
CONTINUOUS
 10
14.6340207214
 20
5.3381247044
 40
0.0408333333
100
AcDbArc
 50
13.0
 51
90.0
  0
ARC
  5
2F7
100
AcDbEntity
  8
0
100
AcDbCircle
 62
7
  6
CONTINUOUS
 10
14.9866897925
 20
5.3381247044
 40
0.0408333333
100
AcDbArc
 50
90.0
 51
167.0
  0
ARC
  5
2F8
100
AcDbEntity
  8
0
100
AcDbCircle
 62
7
  6
CONTINUOUS
 10
15.1340207214
 20
5.3381247044
 40
0.0408333333
100
AcDbArc
 50
13.0
 51
90.0
  0
ARC
  5
2F9
100
AcDbEntity
  8
0
100
AcDbCircle
 62
7
  6
CONTINUOUS
 10
15.4866897925
 20
5.3381247044
 40
0.0408333333
100
AcDbArc
 50
90.0
 51
167.0
  0
ARC
  5
2FA
100
AcDbEntity
  8
0
100
AcDbCircle
 62
7
  6
CONTINUOUS
 10
17.3840207214
 20
5.2564580378
 40
0.0408333333
100
AcDbArc
 50
270.0
 51
347.0
  0
ARC
  5
2FB
100
AcDbEntity
  8
0
100
AcDbCircle
 62
7
  6
CONTINUOUS
 10
17.2366897925
 20
5.2564580378
 40
0.0408333333
100
AcDbArc
 50
193.0
 51
270.0
  0
ARC
  5
2FC
100
AcDbEntity
  8
0
100
AcDbCircle
 62
7
  6
CONTINUOUS
 10
16.8840207214
 20
5.2564580378
 40
0.0408333333
100
AcDbArc
 50
270.0
 51
347.0
  0
ARC
  5
2FD
100
AcDbEntity
  8
0
100
AcDbCircle
 62
7
  6
CONTINUOUS
 10
16.7366897925
 20
5.2564580378
 40
0.0408333333
100
AcDbArc
 50
193.0
 51
270.0
  0
ARC
  5
2FE
100
AcDbEntity
  8
0
100
AcDbCircle
 62
7
  6
CONTINUOUS
 10
16.3840207214
 20
5.2564580378
 40
0.0408333333
100
AcDbArc
 50
270.0
 51
347.0
  0
ARC
  5
2FF
100
AcDbEntity
  8
0
100
AcDbCircle
 62
7
  6
CONTINUOUS
 10
16.2366897925
 20
5.2564580378
 40
0.0408333333
100
AcDbArc
 50
193.0
 51
270.0
  0
ARC
  5
300
100
AcDbEntity
  8
0
100
AcDbCircle
 62
7
  6
CONTINUOUS
 10
15.8840207214
 20
5.2564580378
 40
0.0408333333
100
AcDbArc
 50
270.0
 51
347.0
  0
ARC
  5
301
100
AcDbEntity
  8
0
100
AcDbCircle
 62
7
  6
CONTINUOUS
 10
15.7366897925
 20
5.2564580378
 40
0.0408333333
100
AcDbArc
 50
193.0
 51
270.0
  0
ARC
  5
302
100
AcDbEntity
  8
0
100
AcDbCircle
 62
7
  6
CONTINUOUS
 10
17.4866897925
 20
5.3381247044
 40
0.0408333333
100
AcDbArc
 50
90.0
 51
167.0
  0
ARC
  5
303
100
AcDbEntity
  8
0
100
AcDbCircle
 62
7
  6
CONTINUOUS
 10
17.1340207214
 20
5.3381247044
 40
0.0408333333
100
AcDbArc
 50
13.0
 51
90.0
  0
ARC
  5
304
100
AcDbEntity
  8
0
100
AcDbCircle
 62
7
  6
CONTINUOUS
 10
16.9866897925
 20
5.3381247044
 40
0.0408333333
100
AcDbArc
 50
90.0
 51
167.0
  0
ARC
  5
305
100
AcDbEntity
  8
0
100
AcDbCircle
 62
7
  6
CONTINUOUS
 10
16.6340207214
 20
5.3381247044
 40
0.0408333333
100
AcDbArc
 50
13.0
 51
90.0
  0
ARC
  5
306
100
AcDbEntity
  8
0
100
AcDbCircle
 62
7
  6
CONTINUOUS
 10
16.4866897925
 20
5.3381247044
 40
0.0408333333
100
AcDbArc
 50
90.0
 51
167.0
  0
ARC
  5
307
100
AcDbEntity
  8
0
100
AcDbCircle
 62
7
  6
CONTINUOUS
 10
16.1340207214
 20
5.3381247044
 40
0.0408333333
100
AcDbArc
 50
13.0
 51
90.0
  0
ARC
  5
308
100
AcDbEntity
  8
0
100
AcDbCircle
 62
7
  6
CONTINUOUS
 10
15.9866897925
 20
5.3381247044
 40
0.0408333333
100
AcDbArc
 50
90.0
 51
167.0
  0
ARC
  5
309
100
AcDbEntity
  8
0
100
AcDbCircle
 62
7
  6
CONTINUOUS
 10
15.6340207214
 20
5.3381247044
 40
0.0408333333
100
AcDbArc
 50
13.0
 51
90.0
  0
SPLINE
  5
30A
100
AcDbEntity
  8
0
100
AcDbSpline
 62
7
  6
CONTINUOUS
 70
0
 71
3
 72
15
 73
11
 74
0
 42
0.0000001
 43
0.0000001
 44
0.0000000001
 40
0.0
 40
0.0
 40
0.0
 40
0.0
 40
0.1295687776
 40
0.2645760732
 40
0.4012660591
 40
0.5362716602
 40
0.6662156454
 40
0.7881006961
 40
0.8998141002
 40
1.0
 40
1.0
 40
1.0
 40
1.0
 10
16.710858748
 20
14.1789884403
 30
0.0
 10
16.7124070096
 20
14.1789884403
 30
0.0
 10
16.7155709658
 20
14.1787732069
 30
0.0
 10
16.7202934829
 20
14.1778893214
 30
0.0
 10
16.7249497864
 20
14.1764618674
 30
0.0
 10
16.7293616462
 20
14.1745465467
 30
0.0
 10
16.7333678321
 20
14.1722178681
 30
0.0
 10
16.736819916
 20
14.1695565402
 30
0.0
 10
16.7395857626
 20
14.1666604878
 30
0.0
 10
16.7409839214
 20
14.1645229155
 30
0.0
 10
16.7415113196
 20
14.1634481911
 30
0.0
  0
SPLINE
  5
30B
100
AcDbEntity
  8
0
100
AcDbSpline
 62
7
  6
CONTINUOUS
 70
0
 71
3
 72
15
 73
11
 74
0
 42
0.0000001
 43
0.0000001
 44
0.0000000001
 40
0.0
 40
0.0
 40
0.0
 40
0.0
 40
0.0996458492
 40
0.2028718319
 40
0.3125941299
 40
0.4308567592
 40
0.5588145046
 40
0.6968307196
 40
0.8443981794
 40
1.0
 40
1.0
 40
1.0
 40
1.0
 10
15.1287955649
 20
14.1708293845
 30
0.0
 10
15.1289856801
 20
14.1714446243
 30
0.0
 10
15.1295243217
 20
14.1726555652
 30
0.0
 10
15.1307553112
 20
14.1742765078
 30
0.0
 10
15.1323786955
 20
14.1756916755
 30
0.0
 10
15.134362854
 20
14.1768757367
 30
0.0
 10
15.1366703931
 20
14.1778143689
 30
0.0
 10
15.1392620102
 20
14.1784930902
 30
0.0
 10
15.1420888907
 20
14.1789007552
 30
0.0
 10
15.1440495085
 20
14.1789884403
 30
0.0
 10
15.1450550582
 20
14.1789884403
 30
0.0
  0
SPLINE
  5
30C
100
AcDbEntity
  8
0
100
AcDbSpline
 62
7
  6
CONTINUOUS
 70
0
 71
3
 72
11
 73
7
 74
0
 42
0.0000001
 43
0.0000001
 44
0.0000000001
 40
0.0
 40
0.0
 40
0.0
 40
0.0
 40
0.2336938367
 40
0.4747275587
 40
0.7289543663
 40
1.0
 40
1.0
 40
1.0
 40
1.0
 10
14.1605302713
 20
11.037521746
 30
0.0
 10
14.1603554167
 20
11.0369558918
 30
0.0
 10
14.160125106
 20
11.035763745
 30
0.0
 10
14.1601674031
 20
11.0339044673
 30
0.0
 10
14.160585208
 20
11.0319972905
 30
0.0
 10
14.1610866708
 20
11.0307572184
 30
0.0
 10
14.1613892864
 20
11.0301405526
 30
0.0
  0
SPLINE
  5
30D
100
AcDbEntity
  8
0
100
AcDbSpline
 62
7
  6
CONTINUOUS
 70
0
 71
3
 72
9
 73
5
 74
0
 42
0.0000001
 43
0.0000001
 44
0.0000000001
 40
0.0
 40
0.0
 40
0.0
 40
0.0
 40
0.5176005225
 40
1.0
 40
1.0
 40
1.0
 40
1.0
 10
16.7672369492
 20
14.1110248697
 30
0.0
 10
16.7685173919
 20
14.1084156017
 30
0.0
 10
16.7706191379
 20
14.1031776669
 30
0.0
 10
16.7717408648
 20
14.0976334521
 30
0.0
 10
16.7719935744
 20
14.0949364198
 30
0.0
  0
SPLINE
  5
30E
100
AcDbEntity
  8
0
100
AcDbSpline
 62
7
  6
CONTINUOUS
 70
0
 71
3
 72
14
 73
10
 74
0
 42
0.0000001
 43
0.0000001
 44
0.0000000001
 40
0.0
 40
0.0
 40
0.0
 40
0.0
 40
0.1556295959
 40
0.3032651538
 40
0.5688238872
 40
0.6871316025
 40
0.7968672377
 40
0.9001624745
 40
1.0
 40
1.0
 40
1.0
 40
1.0
 10
15.797210282
 20
10.8426215455
 30
0.0
 10
15.7982154344
 20
10.8426215455
 30
0.0
 10
15.8001764241
 20
10.8427093613
 30
0.0
 10
15.8038142757
 20
10.8432340493
 30
0.0
 10
15.8071348745
 20
10.8442781336
 30
0.0
 10
15.8098851066
 20
10.8459167656
 30
0.0
 10
15.8115089504
 20
10.8473311138
 30
0.0
 10
15.8127403819
 20
10.8489525356
 30
0.0
 10
15.8132786904
 20
10.8501647518
 30
0.0
 10
15.8134685585
 20
10.8507809768
 30
0.0
  0
SPLINE
  5
30F
100
AcDbEntity
  8
0
100
AcDbSpline
 62
7
  6
CONTINUOUS
 70
0
 71
3
 72
15
 73
11
 74
0
 42
0.0000001
 43
0.0000001
 44
0.0000000001
 40
0.0
 40
0.0
 40
0.0
 40
0.0
 40
0.1102072198
 40
0.2287226563
 40
0.3536320331
 40
0.4829519765
 40
0.6145655787
 40
0.7462244794
 40
0.8755866948
 40
1.0
 40
1.0
 40
1.0
 40
1.0
 10
14.2935727609
 20
10.8541396822
 30
0.0
 10
14.2943280954
 20
10.8532888487
 30
0.0
 10
14.2960307219
 20
10.8516407267
 30
0.0
 10
14.298948089
 20
10.8494337739
 30
0.0
 10
14.3022591622
 20
10.8474589925
 30
0.0
 10
14.3058709237
 20
10.8457646861
 30
0.0
 10
14.3096923556
 20
10.8443968833
 30
0.0
 10
14.3136244422
 20
10.8433878414
 30
0.0
 10
14.3175612213
 20
10.8427705597
 30
0.0
 10
14.3201825601
 20
10.8426215455
 30
0.0
 10
14.3214669565
 20
10.8426215455
 30
0.0
  0
SPLINE
  5
310
100
AcDbEntity
  8
0
100
AcDbSpline
 62
7
  6
CONTINUOUS
 70
0
 71
3
 72
9
 73
5
 74
0
 42
0.0000001
 43
0.0000001
 44
0.0000000001
 40
0.0
 40
0.0
 40
0.0
 40
0.0
 40
0.4813568146
 40
1.0
 40
1.0
 40
1.0
 40
1.0
 10
14.1871149161
 20
10.9777172312
 30
0.0
 10
14.1884970002
 20
10.9749008397
 30
0.0
 10
14.1918440255
 20
10.969277493
 30
0.0
 10
14.1959043049
 20
10.9641566257
 30
0.0
 10
14.1981484198
 20
10.9616287813
 30
0.0
  0
SPLINE
  5
311
100
AcDbEntity
  8
0
100
AcDbSpline
 62
7
  6
CONTINUOUS
 70
0
 71
3
 72
9
 73
5
 74
0
 42
0.0000001
 43
0.0000001
 44
0.0000000001
 40
0.0
 40
0.0
 40
0.0
 40
0.0
 40
0.4823994775
 40
1.0
 40
1.0
 40
1.0
 40
1.0
 10
15.8037282808
 20
10.9616287813
 30
0.0
 10
15.8034755712
 20
10.9643258136
 30
0.0
 10
15.8023538442
 20
10.9698700284
 30
0.0
 10
15.8002520983
 20
10.9751079632
 30
0.0
 10
15.7989716556
 20
10.9777172312
 30
0.0
  0
SPLINE
  5
312
100
AcDbEntity
  8
0
100
AcDbSpline
 62
7
  6
CONTINUOUS
 70
0
 71
3
 72
15
 73
11
 74
0
 42
0.0000001
 43
0.0000001
 44
0.0000000001
 40
0.0
 40
0.0
 40
0.0
 40
0.0
 40
0.1001858998
 40
0.2118993039
 40
0.3337843546
 40
0.4637283398
 40
0.5987339409
 40
0.7354239268
 40
0.8704312224
 40
1.0
 40
1.0
 40
1.0
 40
1.0
 10
15.7732460259
 20
11.0301405526
 30
0.0
 10
15.7727186278
 20
11.031215277
 30
0.0
 10
15.771320469
 20
11.0333528492
 30
0.0
 10
15.7685546224
 20
11.0362489017
 30
0.0
 10
15.7651025385
 20
11.0389102296
 30
0.0
 10
15.7610963525
 20
11.0412389082
 30
0.0
 10
15.7566844928
 20
11.0431542289
 30
0.0
 10
15.7520281893
 20
11.0445816829
 30
0.0
 10
15.7473056722
 20
11.0454655684
 30
0.0
 10
15.744141716
 20
11.0456808018
 30
0.0
 10
15.7425934544
 20
11.0456808018
 30
0.0
  0
SPLINE
  5
313
100
AcDbEntity
  8
0
100
AcDbSpline
 62
7
  6
CONTINUOUS
 70
0
 71
3
 72
15
 73
11
 74
0
 42
0.0000001
 43
0.0000001
 44
0.0000000001
 40
0.0
 40
0.0
 40
0.0
 40
0.0
 40
0.1556018206
 40
0.3031692804
 40
0.4411854954
 40
0.5691432408
 40
0.6874058701
 40
0.7971281681
 40
0.9003541508
 40
1.0
 40
1.0
 40
1.0
 40
1.0
 10
14.1767897646
 20
11.0456808018
 30
0.0
 10
14.1757842149
 20
11.0456808018
 30
0.0
 10
14.1738235971
 20
11.0455931166
 30
0.0
 10
14.1709967166
 20
11.0451854517
 30
0.0
 10
14.1684050994
 20
11.0445067304
 30
0.0
 10
14.1660975604
 20
11.0435680982
 30
0.0
 10
14.1641134018
 20
11.042384037
 30
0.0
 10
14.1624900176
 20
11.0409688693
 30
0.0
 10
14.1612590281
 20
11.0393479267
 30
0.0
 10
14.1607203865
 20
11.0381369858
 30
0.0
 10
14.1605302713
 20
11.037521746
 30
0.0
  0
ENDSEC
  0
SECTION
  2
OBJECTS
  0
DICTIONARY
  5
C
100
AcDbDictionary
280
0
281
1
  3
ACAD_GROUP
350
D
  3
ACAD_MLINESTYLE
350
17
  3
ACAD_LAYOUT
350
1A
  3
ACAD_PLOTSETTINGS
350
19
  3
ACAD_PLOTSTYLENAME
350
E
  0
DICTIONARY
  5
D
102
{ACAD_REACTORS
330
C
102
}
100
AcDbDictionary
280
0
281
1
  0
ACDBDICTIONARYWDFLT
  5
E
102
{ACAD_REACTORS
330
C
102
}
100
AcDbDictionary
281
1
  3
Normal
350
F
100
AcDbDictionaryWithDefault
340
F
  0
DICTIONARY
  5
17
102
{ACAD_REACTORS
330
C
102
}
100
AcDbDictionary
280
0
281
1
  3
Standard
350
18
  0
DICTIONARY
  5
19
102
{ACAD_REACTORS
330
C
102
}
100
AcDbDictionary
281
1
  0
DICTIONARY
  5
1A
102
{ACAD_REACTORS
330
C
102
}
100
AcDbDictionary
281
1
  3
Model
350
314
  3
Layout1
350
315
  0
ACDBPLACEHOLDER
  5
F
102
{ACAD_REACTORS
330
E
102
}
  0
MLINESTYLE
  5
18
102
{ACAD_REACTORS
330
17
102
}
100
AcDbMlineStyle
  2
STANDARD
 70
0
  3

 62
256
 51
90.0
 52
90.0
 71
2
 49
0.5
 62
256
  6
BYLAYER
 49
-0.5
 62
256
  6
BYLAYER
  0
LAYOUT
  5
314
102
{ACAD_REACTORS
330
1A
102
}
100
AcDbPlotSettings
  1

  2
none_device
  4
ANSI_C_(22.00_x_17.00_Inches)
  6

 40
0.0
 41
0.0
 42
0.0
 43
0.0
 44
558.8
 45
431.8
 46
0.0
 47
0.0
 48
0.0
 49
0.0
140
0.0
141
0.0
142
1.0
143
1.0
 70
1024
 72
0
 73
0
 74
0
  7

 75
0
147
1.0
148
0.0
149
0.0
100
AcDbLayout
  1
Model
 70
0
 71
0
 10
0.0
 20
0.0
 11
22.0
 21
17.0
 12
0.0
 22
0.0
 32
0.0
 14
0.0
 24
0.0
 34
0.0
 15
0.0
 25
0.0
 35
0.0
146
0.0
 13
0.0
 23
0.0
 33
0.0
 16
1.0
 26
0.0
 36
0.0
 17
0.0
 27
1.0
 37
0.0
 76
0
330
216
345
0
346
0
  0
LAYOUT
  5
315
102
{ACAD_REACTORS
330
1A
102
}
100
AcDbPlotSettings
  1

  2
none_device
  4
ANSI_C_(22.00_x_17.00_Inches)
  6

 40
0.0
 41
0.0
 42
0.0
 43
0.0
 44
558.8
 45
431.8
 46
0.0
 47
0.0
 48
0.0
 49
0.0
140
0.0
141
0.0
142
1.0
143
1.0
 70
0
 72
0
 73
0
 74
0
  7

 75
0
147
1.0
148
0.0
149
0.0
100
AcDbLayout
  1
Layout1
 70
0
 71
1
 10
0.0
 20
0.0
 11
22.0
 21
17.0
 12
0.0
 22
0.0
 32
0.0
 14
0.0
 24
0.0
 34
0.0
 15
0.0
 25
0.0
 35
0.0
146
0.0
 13
0.0
 23
0.0
 33
0.0
 16
1.0
 26
0.0
 36
0.0
 17
0.0
 27
1.0
 37
0.0
 76
0
330
217
345
0
346
0
  0
ENDSEC
  0
EOF