999
DXF file: _cgs_temp_output.dxf
999
Pro/ENGINEER 2015110 by Parametric Technology Corporation
  0
SECTION
  2
HEADER
  9
$ACADVER
  1
AC1021
  9
$DWGCODEPAGE
  3
ANSI_1252
  9
$EXTMAX
 10
22.0
 20
17.0
 30
0.0
  9
$EXTMIN
 10
0.0
 20
0.0
 30
0.0
  9
$LIMMIN
 10
0.0
 20
0.0
  9
$LIMMAX
 10
22.0
 20
17.0
  9
$VIEWCTR
 10
11.0
 20
8.5
  9
$VIEWSIZE
 40
17.0
  9
$CLAYER
  8
0
  9
$LTSCALE
 40
1.21
  9
$CELTYPE
  6
BYLAYER
  9
$DIMSCALE
 40
1.0
  9
$DIMASZ
 40
0.1875
  9
$DIMEXO
 40
0.0625
  9
$DIMDLI
 40
0.836
  9
$DIMEXE
 40
0.125
  9
$DIMCEN
 40
0.198
  9
$DIMLFAC
 40
1.0
  9
$DIMBLK
  1
_CLOSED
  9
$DIMALT
 70
0
  9
$DIMALTF
 40
25.4
  9
$DIMTXT
 40
0.15625
  9
$DIMTOL
 70
0
  9
$DIMLIM
 70
0
  9
$DIMTFAC
 40
1.0
  9
$DIMGAP
 40
0.09
  9
$DIMDSEP
 70
46
  9
$AUNITS
 70
0
  9
$PDMODE
 70
3
  9
$PDSIZE
 40
0.3125
  9
$HANDSEED
  5
2A5
  9
$TILEMODE
 70
1
  9
$MEASUREMENT
 70
0
  9
$INSUNITS
 70
1
  0
ENDSEC
  0
SECTION
  2
CLASSES
  0
CLASS
  1
ACDBDICTIONARYWDFLT
  2
AcDbDictionaryWithDefault
  3
AutoCAD 2000
 90
0
 91
1
280
0
281
0
  0
CLASS
  1
ACDBPLACEHOLDER
  2
AcDbPlaceHolder
  3
AutoCAD 2000
 90
0
 91
1
280
0
281
0
  0
CLASS
  1
LAYOUT
  2
AcDbLayout
  3
AutoCAD 2000
 90
0
 91
0
280
0
281
0
  0
ENDSEC
  0
SECTION
  2
TABLES
  0
TABLE
  2
VPORT
  5
8
100
AcDbSymbolTable
 70
2
  0
VPORT
  5
1F4
100
AcDbSymbolTableRecord
100
AcDbViewportTableRecord
  2
*ACTIVE
 70
0
 10
0.0
 20
0.0
 11
1.0
 21
1.0
 12
11.0
 22
8.5
 13
0.0
 23
0.0
 14
1.0
 24
1.0
 15
0.0
 25
0.0
 16
0.0
 26
0.0
 36
1.0
 17
0.0
 27
0.0
 37
0.0
 40
17.0
 41
1.2941176471
 42
50.0
 43
0.0
 44
0.0
 50
0.0
 51
0.0
 71
0
 72
100
 73
1
 74
1
 75
0
 76
0
 77
0
 78
0
  0
ENDTAB
  0
TABLE
  2
LTYPE
  5
5
100
AcDbSymbolTable
 70
6
  0
LTYPE
  5
14
100
AcDbSymbolTableRecord
100
AcDbLinetypeTableRecord
  2
BYBLOCK
 70
0
  3

 72
65
 73
0
 40
0.0
  0
LTYPE
  5
15
100
AcDbSymbolTableRecord
100
AcDbLinetypeTableRecord
  2
BYLAYER
 70
0
  3

 72
65
 73
0
 40
0.0
  0
LTYPE
  5
16
100
AcDbSymbolTableRecord
100
AcDbLinetypeTableRecord
  2
CONTINUOUS
 70
64
  3
Solid line
 72
65
 73
0
 40
0.0
  0
LTYPE
  5
1F5
100
AcDbSymbolTableRecord
100
AcDbLinetypeTableRecord
  2
CENTER
 70
64
  3
____ _ ____ _ ____ _ ____ _ ____ _ ____ _ ____
 72
65
 73
4
 40
0.6
 49
0.375
 74
0
 49
-0.075
 74
0
 49
0.075
 74
0
 49
-0.075
 74
0
  0
LTYPE
  5
1F6
100
AcDbSymbolTableRecord
100
AcDbLinetypeTableRecord
  2
HIDDEN
 70
64
  3
- - - - - - - - - - - - - - - - - - - -
 72
65
 73
2
 40
0.2
 49
0.1
 74
0
 49
-0.1
 74
0
  0
LTYPE
  5
1F7
100
AcDbSymbolTableRecord
100
AcDbLinetypeTableRecord
  2
PHANTOM
 70
64
  3
_____ _ _ _____ _ _ _____ _ _ _____
 72
65
 73
6
 40
0.8
 49
0.45
 74
0
 49
-0.05
 74
0
 49
0.1
 74
0
 49
-0.05
 74
0
 49
0.1
 74
0
 49
-0.05
 74
0
  0
LTYPE
  5
1F8
100
AcDbSymbolTableRecord
100
AcDbLinetypeTableRecord
  2
DOT
 70
64
  3
. . . . . . . . . . . . . . . . . . . .
 72
65
 73
2
 40
0.2
 49
0.1
 74
0
 49
-0.1
 74
0
  0
LTYPE
  5
1F9
100
AcDbSymbolTableRecord
100
AcDbLinetypeTableRecord
  2
DASHED
 70
64
  3
- - - - - - - - - - - - - - - - - - - -
 72
65
 73
2
 40
0.2
 49
0.1
 74
0
 49
-0.1
 74
0
  0
ENDTAB
  0
TABLE
  2
LAYER
  5
2
100
AcDbSymbolTable
 70
36
  0
LAYER
  5
10
100
AcDbSymbolTableRecord
100
AcDbLayerTableRecord
  2
0
 70
0
 62
7
  6
CONTINUOUS
370
-3
390
F
  0
LAYER
  5
1FA
100
AcDbSymbolTableRecord
100
AcDbLayerTableRecord
  2
DEFAULT_1
 70
0
 62
7
  6
CENTER
370
-3
390
F
  0
LAYER
  5
1FB
100
AcDbSymbolTableRecord
100
AcDbLayerTableRecord
  2
DEFAULT_2
 70
0
 62
8
  6
HIDDEN
370
-3
390
F
  0
LAYER
  5
1FC
100
AcDbSymbolTableRecord
100
AcDbLayerTableRecord
  2
DEFAULT_3
 70
0
 62
7
  6
PHANTOM
370
-3
390
F
  0
LAYER
  5
1FD
100
AcDbSymbolTableRecord
100
AcDbLayerTableRecord
  2
01_ALL_DTM_PLN
 70
0
 62
7
  6
CONTINUOUS
370
-3
390
F
  0
LAYER
  5
1FE
100
AcDbSymbolTableRecord
100
AcDbLayerTableRecord
  2
01__ASM_ALL_DTM_PLN
 70
0
 62
7
  6
CONTINUOUS
370
-3
390
F
  0
LAYER
  5
1FF
100
AcDbSymbolTableRecord
100
AcDbLayerTableRecord
  2
01__ASM_DEF_DTM_PLN
 70
0
 62
7
  6
CONTINUOUS
370
-3
390
F
  0
LAYER
  5
200
100
AcDbSymbolTableRecord
100
AcDbLayerTableRecord
  2
01___PRT_ALL_DTM_PLN
 70
0
 62
7
  6
CONTINUOUS
370
-3
390
F
  0
LAYER
  5
201
100
AcDbSymbolTableRecord
100
AcDbLayerTableRecord
  2
01___PRT_DEF_DTM_PLN
 70
0
 62
7
  6
CONTINUOUS
370
-3
390
F
  0
LAYER
  5
202
100
AcDbSymbolTableRecord
100
AcDbLayerTableRecord
  2
02_ALL_AXES
 70
0
 62
7
  6
CONTINUOUS
370
-3
390
F
  0
LAYER
  5
203
100
AcDbSymbolTableRecord
100
AcDbLayerTableRecord
  2
02__ASM_ALL_AXES
 70
0
 62
7
  6
CONTINUOUS
370
-3
390
F
  0
LAYER
  5
204
100
AcDbSymbolTableRecord
100
AcDbLayerTableRecord
  2
02___PRT_ALL_AXES
 70
0
 62
7
  6
CONTINUOUS
370
-3
390
F
  0
LAYER
  5
205
100
AcDbSymbolTableRecord
100
AcDbLayerTableRecord
  2
03_ALL_CURVES
 70
0
 62
7
  6
CONTINUOUS
370
-3
390
F
  0
LAYER
  5
206
100
AcDbSymbolTableRecord
100
AcDbLayerTableRecord
  2
03__ASM_ALL_CURVES
 70
0
 62
7
  6
CONTINUOUS
370
-3
390
F
  0
LAYER
  5
207
100
AcDbSymbolTableRecord
100
AcDbLayerTableRecord
  2
03___PRT_ALL_CURVES
 70
0
 62
7
  6
CONTINUOUS
370
-3
390
F
  0
LAYER
  5
208
100
AcDbSymbolTableRecord
100
AcDbLayerTableRecord
  2
04_ALL_DTM_PNT
 70
0
 62
7
  6
CONTINUOUS
370
-3
390
F
  0
LAYER
  5
209
100
AcDbSymbolTableRecord
100
AcDbLayerTableRecord
  2
04__ASM_ALL_DTM_PNT
 70
0
 62
7
  6
CONTINUOUS
370
-3
390
F
  0
LAYER
  5
20A
100
AcDbSymbolTableRecord
100
AcDbLayerTableRecord
  2
04___PRT_ALL_DTM_PNT
 70
0
 62
7
  6
CONTINUOUS
370
-3
390
F
  0
LAYER
  5
20B
100
AcDbSymbolTableRecord
100
AcDbLayerTableRecord
  2
05_ALL_DTM_CSYS
 70
0
 62
7
  6
CONTINUOUS
370
-3
390
F
  0
LAYER
  5
20C
100
AcDbSymbolTableRecord
100
AcDbLayerTableRecord
  2
05__ASM_ALL_DTM_CSYS
 70
0
 62
7
  6
CONTINUOUS
370
-3
390
F
  0
LAYER
  5
20D
100
AcDbSymbolTableRecord
100
AcDbLayerTableRecord
  2
05__ASM_DEF_DTM_CSYS
 70
0
 62
7
  6
CONTINUOUS
370
-3
390
F
  0
LAYER
  5
20E
100
AcDbSymbolTableRecord
100
AcDbLayerTableRecord
  2
05___PRT_ALL_DTM_CSYS
 70
0
 62
7
  6
CONTINUOUS
370
-3
390
F
  0
LAYER
  5
20F
100
AcDbSymbolTableRecord
100
AcDbLayerTableRecord
  2
05___PRT_DEF_DTM_CSYS
 70
0
 62
7
  6
CONTINUOUS
370
-3
390
F
  0
LAYER
  5
210
100
AcDbSymbolTableRecord
100
AcDbLayerTableRecord
  2
06_ALL_SURFS
 70
0
 62
7
  6
CONTINUOUS
370
-3
390
F
  0
LAYER
  5
211
100
AcDbSymbolTableRecord
100
AcDbLayerTableRecord
  2
06__ASM_ALL_SURFS
 70
0
 62
7
  6
CONTINUOUS
370
-3
390
F
  0
LAYER
  5
212
100
AcDbSymbolTableRecord
100
AcDbLayerTableRecord
  2
06___PRT_ALL_SURFS
 70
0
 62
7
  6
CONTINUOUS
370
-3
390
F
  0
LAYER
  5
213
100
AcDbSymbolTableRecord
100
AcDbLayerTableRecord
  2
07__ASM_ALL_SKELETONS
 70
0
 62
7
  6
CONTINUOUS
370
-3
390
F
  0
ENDTAB
  0
TABLE
  2
STYLE
  5
3
100
AcDbSymbolTable
 70
1
  0
STYLE
  5
11
100
AcDbSymbolTableRecord
100
AcDbTextStyleTableRecord
  2
STANDARD
 70
0
 40
0.0
 41
0.8
 50
0.0
 71
0
 42
0.2
  3
txt
  4

  0
STYLE
  5
214
100
AcDbSymbolTableRecord
100
AcDbTextStyleTableRecord
  2
TEXTSTYLE_1
 70
0
 40
0.0
 41
0.8
 50
0.0
 71
0
 42
0.2
  3
gdt
  4

  0
ENDTAB
  0
TABLE
  2
VIEW
  5
6
100
AcDbSymbolTable
 70
0
  0
ENDTAB
  0
TABLE
  2
UCS
  5
7
100
AcDbSymbolTable
 70
0
  0
ENDTAB
  0
TABLE
  2
APPID
  5
9
100
AcDbSymbolTable
 70
1
  0
APPID
  5
215
100
AcDbSymbolTableRecord
100
AcDbRegAppTableRecord
  2
ACAD
 70
0
  0
ENDTAB
  0
TABLE
  2
BLOCK_RECORD
  5
1
100
AcDbSymbolTable
 70
0
  0
BLOCK_RECORD
  5
216
100
AcDbSymbolTableRecord
100
AcDbBlockTableRecord
  2
*Model_Space
  0
BLOCK_RECORD
  5
217
100
AcDbSymbolTableRecord
100
AcDbBlockTableRecord
  2
*Paper_Space
  0
ENDTAB
  0
TABLE
  2
DIMSTYLE
  5
A
100
AcDbSymbolTable
 70
1
100
AcDbDimStyleTable
 71
0
  0
DIMSTYLE
105
218
100
AcDbSymbolTableRecord
100
AcDbDimStyleTableRecord
  2
STANDARD
 70
0
  3

  4

 40
1.0
 41
0.1875
 42
0.0625
 43
0.38
 44
0.125
 45
0.0
 46
0.0
 47
0.0001
 48
0.0001
140
0.15625
141
0.09
142
0.0
143
25.4
144
1.0
145
0.0
146
1.0
147
0.09
 71
0.0
 72
0.0
 73
1
 74
1
 75
0
 76
0
 77
0
 78
4
170
0
171
2
172
0
173
0
174
0
175
0
176
0
177
0
178
0
270
2
271
4
272
4
273
2
274
2
275
0
280
0
281
0
282
0
283
1
284
4
285
0
286
0
287
3
288
0
340
11
278
46
  0
ENDTAB
  0
ENDSEC
  0
SECTION
  2
BLOCKS
  0
BLOCK
  5
20
100
AcDbEntity
  8
0
100
AcDbBlockBegin
  2
*Model_Space
 70
0
 10
0.0
 20
0.0
 30
0.0
  3
*Model_Space
  1

  0
ENDBLK
  5
21
100
AcDbEntity
  8
0
100
AcDbBlockEnd
  0
BLOCK
  5
1C
100
AcDbEntity
  8
0
100
AcDbBlockBegin
  2
*Paper_Space
 70
0
 10
0.0
 20
0.0
 30
0.0
  3
*Paper_Space
  1

  0
ENDBLK
  5
1D
100
AcDbEntity
  8
0
100
AcDbBlockEnd
  0
ENDSEC
  0
SECTION
  2
ENTITIES
  0
MTEXT
  5
219
100
AcDbEntity
  8
0
100
AcDbMText
 62
7
  6
CONTINUOUS
  7
STANDARD
 71
1
 72
1
 10
15.9560215477
 20
0.9479130325
 30
0.0
 11
1.0
 21
0.0
 31
0.0
 44
0.9
  1
SCALE: 1:2.000
 40
0.3
 41
3.36
  0
LINE
  5
21A
100
AcDbEntity
  8
0
100
AcDbLine
 62
7
  6
CONTINUOUS
 10
0.0
 20
0.0
 11
0.0
 21
17.0
  0
LINE
  5
21B
100
AcDbEntity
  8
0
100
AcDbLine
 62
7
  6
CONTINUOUS
 10
0.0
 20
0.0
 11
22.0
 21
0.0
  0
LINE
  5
21C
100
AcDbEntity
  8
0
100
AcDbLine
 62
7
  6
CONTINUOUS
 10
0.0
 20
17.0
 11
22.0
 21
17.0
  0
LINE
  5
21D
100
AcDbEntity
  8
0
100
AcDbLine
 62
7
  6
CONTINUOUS
 10
22.0
 20
0.0
 11
22.0
 21
17.0
  0
LINE
  5
21E
100
AcDbEntity
  8
0
100
AcDbLine
 62
7
  6
CONTINUOUS
 10
4.2406034966
 20
5.7401986369
 11
4.2406034966
 21
5.5583088731
  0
LINE
  5
21F
100
AcDbEntity
  8
0
100
AcDbLine
 62
7
  6
CONTINUOUS
 10
4.4833574086
 20
5.3000411566
 11
4.6277708445
 21
5.3000411566
  0
LINE
  5
220
100
AcDbEntity
  8
0
100
AcDbLine
 62
7
  6
CONTINUOUS
 10
5.1132786685
 20
5.3000411566
 11
5.2576921043
 21
5.3000411566
  0
LINE
  5
221
100
AcDbEntity
  8
0
100
AcDbLine
 62
7
  6
CONTINUOUS
 10
5.7431999283
 20
5.3000411566
 11
5.8876133642
 21
5.3000411566
  0
LINE
  5
222
100
AcDbEntity
  8
0
100
AcDbLine
 62
7
  6
CONTINUOUS
 10
6.3731211881
 20
5.3000411566
 11
6.517534624
 21
5.3000411566
  0
LINE
  5
223
100
AcDbEntity
  8
0
100
AcDbLine
 62
7
  6
CONTINUOUS
 10
7.003042448
 20
5.3000411566
 11
7.1474558839
 21
5.3000411566
  0
LINE
  5
224
100
AcDbEntity
  8
0
100
AcDbLine
 62
7
  6
CONTINUOUS
 10
7.6329637078
 20
5.3000411566
 11
7.7773771437
 21
5.3000411566
  0
LINE
  5
225
100
AcDbEntity
  8
0
100
AcDbLine
 62
7
  6
CONTINUOUS
 10
4.2406034966
 20
5.5583088731
 11
4.3089546253
 21
5.5583088731
  0
LINE
  5
226
100
AcDbEntity
  8
0
100
AcDbLine
 62
7
  6
CONTINUOUS
 10
4.8021736278
 20
5.5583088731
 11
4.9388758851
 21
5.5583088731
  0
LINE
  5
227
100
AcDbEntity
  8
0
100
AcDbLine
 62
7
  6
CONTINUOUS
 10
5.4320948877
 20
5.5583088731
 11
5.568797145
 21
5.5583088731
  0
LINE
  5
228
100
AcDbEntity
  8
0
100
AcDbLine
 62
7
  6
CONTINUOUS
 10
6.0620161475
 20
5.5583088731
 11
6.1987184048
 21
5.5583088731
  0
LINE
  5
229
100
AcDbEntity
  8
0
100
AcDbLine
 62
7
  6
CONTINUOUS
 10
6.6919374074
 20
5.5583088731
 11
6.8286396647
 21
5.5583088731
  0
LINE
  5
22A
100
AcDbEntity
  8
0
100
AcDbLine
 62
7
  6
CONTINUOUS
 10
7.3218586672
 20
5.5583088731
 11
7.4585609245
 21
5.5583088731
  0
LINE
  5
22B
100
AcDbEntity
  8
0
100
AcDbLine
 62
7
  6
CONTINUOUS
 10
7.951779927
 20
5.5583088731
 11
8.0201310557
 21
5.5583088731
  0
LINE
  5
22C
100
AcDbEntity
  8
0
100
AcDbLine
 62
7
  6
CONTINUOUS
 10
8.0201310557
 20
5.7401986369
 11
4.2406034966
 21
5.7401986369
  0
LINE
  5
22D
100
AcDbEntity
  8
0
100
AcDbLine
 62
7
  6
CONTINUOUS
 10
8.0201310557
 20
5.5583088731
 11
8.0201310557
 21
5.7401986369
  0
LINE
  5
22E
100
AcDbEntity
  8
0
100
AcDbLine
 62
7
  6
CONTINUOUS
 10
4.1811083043
 20
13.3874493562
 11
4.1811083043
 21
11.8126462066
  0
LINE
  5
22F
100
AcDbEntity
  8
0
100
AcDbLine
 62
7
  6
CONTINUOUS
 10
7.9606358634
 20
11.8126462066
 11
4.1811083043
 21
11.8126462066
  0
LINE
  5
230
100
AcDbEntity
  8
0
100
AcDbLine
 62
7
  6
CONTINUOUS
 10
4.1811083043
 20
13.3874493562
 11
7.9606358634
 21
13.3874493562
  0
LINE
  5
231
100
AcDbEntity
  8
0
100
AcDbLine
 62
7
  6
CONTINUOUS
 10
7.9606358634
 20
13.3874493562
 11
7.9606358634
 21
11.8126462066
  0
LINE
  5
232
100
AcDbEntity
  8
0
100
AcDbLine
 62
7
  6
CONTINUOUS
 10
14.7729536821
 20
5.2405459643
 11
14.7729536821
 21
5.6807034446
  0
LINE
  5
233
100
AcDbEntity
  8
0
100
AcDbLine
 62
7
  6
CONTINUOUS
 10
14.7729536821
 20
5.2405459643
 11
16.3477568317
 21
5.2405459643
  0
LINE
  5
234
100
AcDbEntity
  8
0
100
AcDbLine
 62
7
  6
CONTINUOUS
 10
16.3477568317
 20
5.4988136808
 11
14.7729536821
 21
5.4988136808
  0
LINE
  5
235
100
AcDbEntity
  8
0
100
AcDbLine
 62
7
  6
CONTINUOUS
 10
16.3477568317
 20
5.6807034446
 11
14.7729536821
 21
5.6807034446
  0
LINE
  5
236
100
AcDbEntity
  8
0
100
AcDbLine
 62
7
  6
CONTINUOUS
 10
16.3477568317
 20
5.2405459643
 11
16.3477568317
 21
5.6807034446
  0
LINE
  5
237
100
AcDbEntity
  8
0
100
AcDbLine
 62
7
  6
CONTINUOUS
 10
13.5121793625
 20
12.0308152894
 11
13.5676633555
 21
11.9177507991
  0
LINE
  5
238
100
AcDbEntity
  8
0
100
AcDbLine
 62
7
  6
CONTINUOUS
 10
13.893386171
 20
13.2644009738
 11
13.5121793625
 21
12.0308152894
  0
LINE
  5
239
100
AcDbEntity
  8
0
100
AcDbLine
 62
7
  6
CONTINUOUS
 10
14.0541841086
 20
11.7826607587
 11
14.0959378474
 21
11.9177507991
  0
LINE
  5
23A
100
AcDbEntity
  8
0
100
AcDbLine
 62
7
  6
CONTINUOUS
 10
13.8700369814
 20
11.757209012
 11
14.0030505642
 21
11.757209012
  0
LINE
  5
23B
100
AcDbEntity
  8
0
100
AcDbLine
 62
7
  6
CONTINUOUS
 10
14.4502328831
 20
11.757209012
 11
14.5832464659
 21
11.757209012
  0
LINE
  5
23C
100
AcDbEntity
  8
0
100
AcDbLine
 62
7
  6
CONTINUOUS
 10
15.0304287848
 20
11.757209012
 11
15.1634423676
 21
11.757209012
  0
LINE
  5
23D
100
AcDbEntity
  8
0
100
AcDbLine
 62
7
  6
CONTINUOUS
 10
15.6106246866
 20
11.757209012
 11
15.7436382694
 21
11.757209012
  0
LINE
  5
23E
100
AcDbEntity
  8
0
100
AcDbLine
 62
7
  6
CONTINUOUS
 10
16.1908205883
 20
11.757209012
 11
16.3238341711
 21
11.757209012
  0
LINE
  5
23F
100
AcDbEntity
  8
0
100
AcDbLine
 62
7
  6
CONTINUOUS
 10
16.77101649
 20
11.757209012
 11
16.9040300728
 21
11.757209012
  0
LINE
  5
240
100
AcDbEntity
  8
0
100
AcDbLine
 62
7
  6
CONTINUOUS
 10
14.6343800104
 20
11.7826607587
 11
14.6761337491
 21
11.9177507991
  0
LINE
  5
241
100
AcDbEntity
  8
0
100
AcDbLine
 62
7
  6
CONTINUOUS
 10
13.5676633555
 20
11.9177507991
 11
13.630618914
 21
11.9177507991
  0
LINE
  5
242
100
AcDbEntity
  8
0
100
AcDbLine
 62
7
  6
CONTINUOUS
 10
14.0849036988
 20
11.9177507991
 11
14.2108148158
 21
11.9177507991
  0
LINE
  5
243
100
AcDbEntity
  8
0
100
AcDbLine
 62
7
  6
CONTINUOUS
 10
14.6650996005
 20
11.9177507991
 11
14.7910107175
 21
11.9177507991
  0
LINE
  5
244
100
AcDbEntity
  8
0
100
AcDbLine
 62
7
  6
CONTINUOUS
 10
15.2452955023
 20
11.9177507991
 11
15.3712066192
 21
11.9177507991
  0
LINE
  5
245
100
AcDbEntity
  8
0
100
AcDbLine
 62
7
  6
CONTINUOUS
 10
15.825491404
 20
11.9177507991
 11
15.951402521
 21
11.9177507991
  0
LINE
  5
246
100
AcDbEntity
  8
0
100
AcDbLine
 62
7
  6
CONTINUOUS
 10
16.4056873057
 20
11.9177507991
 11
16.5315984227
 21
11.9177507991
  0
LINE
  5
247
100
AcDbEntity
  8
0
100
AcDbLine
 62
7
  6
CONTINUOUS
 10
16.9858832075
 20
11.9177507991
 11
17.048838766
 21
11.9177507991
  0
LINE
  5
248
100
AcDbEntity
  8
0
100
AcDbLine
 62
7
  6
CONTINUOUS
 10
16.9933547729
 20
12.0308152894
 11
13.5121793625
 21
12.0308152894
  0
LINE
  5
249
100
AcDbEntity
  8
0
100
AcDbLine
 62
7
  6
CONTINUOUS
 10
15.2145759121
 20
11.7826607587
 11
15.2563296508
 21
11.9177507991
  0
LINE
  5
24A
100
AcDbEntity
  8
0
100
AcDbLine
 62
7
  6
CONTINUOUS
 10
15.8365255526
 20
11.9177507991
 11
15.795216856
 21
11.7840758081
  0
LINE
  5
24B
100
AcDbEntity
  8
0
100
AcDbLine
 62
7
  6
CONTINUOUS
 10
15.7947718138
 20
11.7826607587
 11
15.7952162435
 21
11.7840759973
  0
LINE
  5
24C
100
AcDbEntity
  8
0
100
AcDbLine
 62
7
  6
CONTINUOUS
 10
13.893386171
 20
13.2644009738
 11
17.3745615814
 21
13.2644009738
  0
LINE
  5
24D
100
AcDbEntity
  8
0
100
AcDbLine
 62
7
  6
CONTINUOUS
 10
16.4167214543
 20
11.9177507991
 11
16.3754127578
 21
11.7840758081
  0
LINE
  5
24E
100
AcDbEntity
  8
0
100
AcDbLine
 62
7
  6
CONTINUOUS
 10
16.3749677156
 20
11.7826607587
 11
16.3754121452
 21
11.7840759973
  0
LINE
  5
24F
100
AcDbEntity
  8
0
100
AcDbLine
 62
7
  6
CONTINUOUS
 10
17.048838766
 20
11.9177507991
 11
16.9933547729
 21
12.0308152894
  0
LINE
  5
250
100
AcDbEntity
  8
0
100
AcDbLine
 62
7
  6
CONTINUOUS
 10
17.3745615814
 20
13.2644009738
 11
16.9933547729
 21
12.0308152894
  0
LINE
  5
251
100
AcDbEntity
  8
0
100
AcDbLine
 62
7
  6
CONTINUOUS
 10
16.996917356
 20
11.9177507991
 11
16.9556086595
 21
11.7840758081
  0
LINE
  5
252
100
AcDbEntity
  8
0
100
AcDbLine
 62
7
  6
CONTINUOUS
 10
17.4300455745
 20
13.1513364835
 11
17.048838766
 21
11.9177507991
  0
LINE
  5
253
100
AcDbEntity
  8
0
100
AcDbLine
 62
7
  6
CONTINUOUS
 10
16.9551636173
 20
11.7826607587
 11
16.9556081187
 21
11.7840759751
  0
LINE
  5
254
100
AcDbEntity
  8
0
100
AcDbLine
 62
7
  6
CONTINUOUS
 10
17.4300455745
 20
13.1513364835
 11
17.3745615814
 21
13.2644009738
  0
ARC
  5
255
100
AcDbEntity
  8
0
100
AcDbCircle
 62
7
  6
CONTINUOUS
 10
4.2996586147
 20
5.5583088731
 40
0.4527559055
100
AcDbArc
 50
331.3145979859
 51
354.0364298817
  0
ARC
  5
256
100
AcDbEntity
  8
0
100
AcDbCircle
 62
7
  6
CONTINUOUS
 10
5.4413908982
 20
5.5583088731
 40
0.4527559055
100
AcDbArc
 50
185.9635701183
 51
208.6854020141
  0
ARC
  5
257
100
AcDbEntity
  8
0
100
AcDbCircle
 62
7
  6
CONTINUOUS
 10
4.9295798746
 20
5.5583088731
 40
0.4527559055
100
AcDbArc
 50
331.3145979859
 51
354.0364298817
  0
ARC
  5
258
100
AcDbEntity
  8
0
100
AcDbCircle
 62
7
  6
CONTINUOUS
 10
6.0713121581
 20
5.5583088731
 40
0.4527559055
100
AcDbArc
 50
185.9635701183
 51
208.6854020141
  0
ARC
  5
259
100
AcDbEntity
  8
0
100
AcDbCircle
 62
7
  6
CONTINUOUS
 10
5.5595011344
 20
5.5583088731
 40
0.4527559055
100
AcDbArc
 50
331.3145979859
 51
354.0364298817
  0
ARC
  5
25A
100
AcDbEntity
  8
0
100
AcDbCircle
 62
7
  6
CONTINUOUS
 10
6.7012334179
 20
5.5583088731
 40
0.4527559055
100
AcDbArc
 50
185.9635701183
 51
208.6854020141
  0
ARC
  5
25B
100
AcDbEntity
  8
0
100
AcDbCircle
 62
7
  6
CONTINUOUS
 10
4.8114696384
 20
5.5583088731
 40
0.4527559055
100
AcDbArc
 50
185.9635701183
 51
208.6854020141
  0
ARC
  5
25C
100
AcDbEntity
  8
0
100
AcDbCircle
 62
7
  6
CONTINUOUS
 10
7.449264914
 20
5.5583088731
 40
0.4527559055
100
AcDbArc
 50
331.3145979859
 51
354.0364298817
  0
ARC
  5
25D
100
AcDbEntity
  8
0
100
AcDbCircle
 62
7
  6
CONTINUOUS
 10
7.9610759376
 20
5.5583088731
 40
0.4527559055
100
AcDbArc
 50
185.9635701183
 51
208.6854020141
  0
ARC
  5
25E
100
AcDbEntity
  8
0
100
AcDbCircle
 62
7
  6
CONTINUOUS
 10
6.8193436541
 20
5.5583088731
 40
0.4527559055
100
AcDbArc
 50
331.3145979859
 51
354.0364298817
  0
ARC
  5
25F
100
AcDbEntity
  8
0
100
AcDbCircle
 62
7
  6
CONTINUOUS
 10
7.3311546777
 20
5.5583088731
 40
0.4527559055
100
AcDbArc
 50
185.9635701183
 51
208.6854020141
  0
ARC
  5
260
100
AcDbEntity
  8
0
100
AcDbCircle
 62
7
  6
CONTINUOUS
 10
6.1894223943
 20
5.5583088731
 40
0.4527559055
100
AcDbArc
 50
331.3145979859
 51
354.0364298817
  0
ARC
  5
261
100
AcDbEntity
  8
0
100
AcDbCircle
 62
7
  6
CONTINUOUS
 10
4.4833574086
 20
5.3787813141
 40
0.0787401575
100
AcDbArc
 50
208.6854020141
 51
270.0
  0
ARC
  5
262
100
AcDbEntity
  8
0
100
AcDbCircle
 62
7
  6
CONTINUOUS
 10
4.6277708445
 20
5.3787813141
 40
0.0787401575
100
AcDbArc
 50
270.0
 51
331.3145979859
  0
ARC
  5
263
100
AcDbEntity
  8
0
100
AcDbCircle
 62
7
  6
CONTINUOUS
 10
5.1132786685
 20
5.3787813141
 40
0.0787401575
100
AcDbArc
 50
208.6854020141
 51
270.0
  0
ARC
  5
264
100
AcDbEntity
  8
0
100
AcDbCircle
 62
7
  6
CONTINUOUS
 10
5.2576921043
 20
5.3787813141
 40
0.0787401575
100
AcDbArc
 50
270.0
 51
331.3145979859
  0
ARC
  5
265
100
AcDbEntity
  8
0
100
AcDbCircle
 62
7
  6
CONTINUOUS
 10
5.7431999283
 20
5.3787813141
 40
0.0787401575
100
AcDbArc
 50
208.6854020141
 51
270.0
  0
ARC
  5
266
100
AcDbEntity
  8
0
100
AcDbCircle
 62
7
  6
CONTINUOUS
 10
5.8876133642
 20
5.3787813141
 40
0.0787401575
100
AcDbArc
 50
270.0
 51
331.3145979859
  0
ARC
  5
267
100
AcDbEntity
  8
0
100
AcDbCircle
 62
7
  6
CONTINUOUS
 10
6.3731211881
 20
5.3787813141
 40
0.0787401575
100
AcDbArc
 50
208.6854020141
 51
270.0
  0
ARC
  5
268
100
AcDbEntity
  8
0
100
AcDbCircle
 62
7
  6
CONTINUOUS
 10
7.7773771437
 20
5.3787813141
 40
0.0787401575
100
AcDbArc
 50
270.0
 51
331.3145979859
  0
ARC
  5
269
100
AcDbEntity
  8
0
100
AcDbCircle
 62
7
  6
CONTINUOUS
 10
7.6329637078
 20
5.3787813141
 40
0.0787401575
100
AcDbArc
 50
208.6854020141
 51
270.0
  0
ARC
  5
26A
100
AcDbEntity
  8
0
100
AcDbCircle
 62
7
  6
CONTINUOUS
 10
7.1474558839
 20
5.3787813141
 40
0.0787401575
100
AcDbArc
 50
270.0
 51
331.3145979859
  0
ARC
  5
26B
100
AcDbEntity
  8
0
100
AcDbCircle
 62
7
  6
CONTINUOUS
 10
7.003042448
 20
5.3787813141
 40
0.0787401575
100
AcDbArc
 50
208.6854020141
 51
270.0
  0
ARC
  5
26C
100
AcDbEntity
  8
0
100
AcDbCircle
 62
7
  6
CONTINUOUS
 10
6.517534624
 20
5.3787813141
 40
0.0787401575
100
AcDbArc
 50
270.0
 51
331.3145979859
  0
ARC
  5
26D
100
AcDbEntity
  8
0
100
AcDbCircle
 62
7
  6
CONTINUOUS
 10
4.3089546253
 20
5.5058154348
 40
0.0524934383
100
AcDbArc
 50
5.9635701183
 51
90.0
  0
ARC
  5
26E
100
AcDbEntity
  8
0
100
AcDbCircle
 62
7
  6
CONTINUOUS
 10
4.8021736278
 20
5.5058154348
 40
0.0524934383
100
AcDbArc
 50
90.0
 51
174.0364298817
  0
ARC
  5
26F
100
AcDbEntity
  8
0
100
AcDbCircle
 62
7
  6
CONTINUOUS
 10
4.9388758851
 20
5.5058154348
 40
0.0524934383
100
AcDbArc
 50
5.9635701183
 51
90.0
  0
ARC
  5
270
100
AcDbEntity
  8
0
100
AcDbCircle
 62
7
  6
CONTINUOUS
 10
5.4320948877
 20
5.5058154348
 40
0.0524934383
100
AcDbArc
 50
90.0
 51
174.0364298817
  0
ARC
  5
271
100
AcDbEntity
  8
0
100
AcDbCircle
 62
7
  6
CONTINUOUS
 10
5.568797145
 20
5.5058154348
 40
0.0524934383
100
AcDbArc
 50
5.9635701183
 51
90.0
  0
ARC
  5
272
100
AcDbEntity
  8
0
100
AcDbCircle
 62
7
  6
CONTINUOUS
 10
6.0620161475
 20
5.5058154348
 40
0.0524934383
100
AcDbArc
 50
90.0
 51
174.0364298817
  0
ARC
  5
273
100
AcDbEntity
  8
0
100
AcDbCircle
 62
7
  6
CONTINUOUS
 10
6.1987184048
 20
5.5058154348
 40
0.0524934383
100
AcDbArc
 50
5.9635701183
 51
90.0
  0
ARC
  5
274
100
AcDbEntity
  8
0
100
AcDbCircle
 62
7
  6
CONTINUOUS
 10
6.6919374074
 20
5.5058154348
 40
0.0524934383
100
AcDbArc
 50
90.0
 51
174.0364298817
  0
ARC
  5
275
100
AcDbEntity
  8
0
100
AcDbCircle
 62
7
  6
CONTINUOUS
 10
6.8286396647
 20
5.5058154348
 40
0.0524934383
100
AcDbArc
 50
5.9635701183
 51
90.0
  0
ARC
  5
276
100
AcDbEntity
  8
0
100
AcDbCircle
 62
7
  6
CONTINUOUS
 10
7.3218586672
 20
5.5058154348
 40
0.0524934383
100
AcDbArc
 50
90.0
 51
174.0364298817
  0
ARC
  5
277
100
AcDbEntity
  8
0
100
AcDbCircle
 62
7
  6
CONTINUOUS
 10
7.4585609245
 20
5.5058154348
 40
0.0524934383
100
AcDbArc
 50
5.9635701183
 51
90.0
  0
ARC
  5
278
100
AcDbEntity
  8
0
100
AcDbCircle
 62
7
  6
CONTINUOUS
 10
7.951779927
 20
5.5058154348
 40
0.0524934383
100
AcDbArc
 50
90.0
 51
174.0364298817
  0
SPLINE
  5
279
100
AcDbEntity
  8
0
100
AcDbSpline
 62
7
  6
CONTINUOUS
 70
0
 71
3
 72
11
 73
7
 74
0
 42
0.0000001
 43
0.0000001
 44
0.0000000001
 40
0.0
 40
0.0
 40
0.0
 40
0.0
 40
0.2022220331
 40
0.4300654438
 40
0.6961870278
 40
1.0
 40
1.0
 40
1.0
 40
1.0
 10
14.0507631978
 20
11.900618878
 30
0.0
 10
14.0515707372
 20
11.903232336
 30
0.0
 10
14.0547275746
 20
11.9084010536
 30
0.0
 10
14.062655641
 20
11.9138292926
 30
0.0
 10
14.0730545693
 20
11.9170994863
 30
0.0
 10
14.0807941428
 20
11.9177507991
 30
0.0
 10
14.0849036988
 20
11.9177507991
 30
0.0
  0
SPLINE
  5
27A
100
AcDbEntity
  8
0
100
AcDbSpline
 62
7
  6
CONTINUOUS
 70
0
 71
3
 72
11
 73
7
 74
0
 42
0.0000001
 43
0.0000001
 44
0.0000000001
 40
0.0
 40
0.0
 40
0.0
 40
0.0
 40
0.2022220331
 40
0.4300654438
 40
0.6961870278
 40
1.0
 40
1.0
 40
1.0
 40
1.0
 10
14.6309590995
 20
11.900618878
 30
0.0
 10
14.631766639
 20
11.903232336
 30
0.0
 10
14.6349234763
 20
11.9084010536
 30
0.0
 10
14.6428515428
 20
11.9138292926
 30
0.0
 10
14.653250471
 20
11.9170994863
 30
0.0
 10
14.6609900445
 20
11.9177507991
 30
0.0
 10
14.6650996005
 20
11.9177507991
 30
0.0
  0
SPLINE
  5
27B
100
AcDbEntity
  8
0
100
AcDbSpline
 62
7
  6
CONTINUOUS
 70
0
 71
3
 72
11
 73
7
 74
0
 42
0.0000001
 43
0.0000001
 44
0.0000000001
 40
0.0
 40
0.0
 40
0.0
 40
0.0
 40
0.2022220331
 40
0.4300654438
 40
0.6961870278
 40
1.0
 40
1.0
 40
1.0
 40
1.0
 10
15.2111550012
 20
11.900618878
 30
0.0
 10
15.2119625407
 20
11.903232336
 30
0.0
 10
15.215119378
 20
11.9084010536
 30
0.0
 10
15.2230474445
 20
11.9138292926
 30
0.0
 10
15.2334463728
 20
11.9170994863
 30
0.0
 10
15.2411859462
 20
11.9177507991
 30
0.0
 10
15.2452955023
 20
11.9177507991
 30
0.0
  0
SPLINE
  5
27C
100
AcDbEntity
  8
0
100
AcDbSpline
 62
7
  6
CONTINUOUS
 70
0
 71
3
 72
11
 73
7
 74
0
 42
0.0000001
 43
0.0000001
 44
0.0000000001
 40
0.0
 40
0.0
 40
0.0
 40
0.0
 40
0.2022220331
 40
0.4300654438
 40
0.6961870278
 40
1.0
 40
1.0
 40
1.0
 40
1.0
 10
15.791350903
 20
11.900618878
 30
0.0
 10
15.7921584424
 20
11.903232336
 30
0.0
 10
15.7953152798
 20
11.9084010536
 30
0.0
 10
15.8032433462
 20
11.9138292926
 30
0.0
 10
15.8136422745
 20
11.9170994863
 30
0.0
 10
15.821381848
 20
11.9177507991
 30
0.0
 10
15.825491404
 20
11.9177507991
 30
0.0
  0
SPLINE
  5
27D
100
AcDbEntity
  8
0
100
AcDbSpline
 62
7
  6
CONTINUOUS
 70
0
 71
3
 72
11
 73
7
 74
0
 42
0.0000001
 43
0.0000001
 44
0.0000000001
 40
0.0
 40
0.0
 40
0.0
 40
0.0
 40
0.2022220331
 40
0.4300654438
 40
0.6961870278
 40
1.0
 40
1.0
 40
1.0
 40
1.0
 10
16.3715468047
 20
11.900618878
 30
0.0
 10
16.3723543442
 20
11.903232336
 30
0.0
 10
16.3755111815
 20
11.9084010536
 30
0.0
 10
16.383439248
 20
11.9138292926
 30
0.0
 10
16.3938381762
 20
11.9170994863
 30
0.0
 10
16.4015777497
 20
11.9177507991
 30
0.0
 10
16.4056873057
 20
11.9177507991
 30
0.0
  0
SPLINE
  5
27E
100
AcDbEntity
  8
0
100
AcDbSpline
 62
7
  6
CONTINUOUS
 70
0
 71
3
 72
11
 73
7
 74
0
 42
0.0000001
 43
0.0000001
 44
0.0000000001
 40
0.0
 40
0.0
 40
0.0
 40
0.0
 40
0.2022220331
 40
0.4300654438
 40
0.6961870278
 40
1.0
 40
1.0
 40
1.0
 40
1.0
 10
16.9517427064
 20
11.900618878
 30
0.0
 10
16.9525502459
 20
11.903232336
 30
0.0
 10
16.9557070832
 20
11.9084010536
 30
0.0
 10
16.9636351497
 20
11.9138292926
 30
0.0
 10
16.974034078
 20
11.9170994863
 30
0.0
 10
16.9817736514
 20
11.9177507991
 30
0.0
 10
16.9858832075
 20
11.9177507991
 30
0.0
  0
SPLINE
  5
27F
100
AcDbEntity
  8
0
100
AcDbSpline
 62
7
  6
CONTINUOUS
 70
0
 71
3
 72
11
 73
7
 74
0
 42
0.0000001
 43
0.0000001
 44
0.0000000001
 40
0.0
 40
0.0
 40
0.0
 40
0.0
 40
0.2600307423
 40
0.5283882481
 40
0.7814357652
 40
1.0
 40
1.0
 40
1.0
 40
1.0
 10
13.630618914
 20
11.9177507991
 30
0.0
 10
13.6367945567
 20
11.9177507991
 30
0.0
 10
13.6493671198
 20
11.9161644826
 30
0.0
 10
13.6670410672
 20
11.9101049734
 30
0.0
 10
13.682232331
 20
11.9010253929
 30
0.0
 10
13.690240782
 20
11.8928716666
 30
0.0
 10
13.6930559513
 20
11.8885105306
 30
0.0
  0
SPLINE
  5
280
100
AcDbEntity
  8
0
100
AcDbSpline
 62
7
  6
CONTINUOUS
 70
0
 71
3
 72
11
 73
7
 74
0
 42
0.0000001
 43
0.0000001
 44
0.0000000001
 40
0.0
 40
0.0
 40
0.0
 40
0.0
 40
0.2600307423
 40
0.5283882481
 40
0.7814357652
 40
1.0
 40
1.0
 40
1.0
 40
1.0
 10
14.2108148158
 20
11.9177507991
 30
0.0
 10
14.2169904584
 20
11.9177507991
 30
0.0
 10
14.2295630215
 20
11.9161644826
 30
0.0
 10
14.2472369689
 20
11.9101049734
 30
0.0
 10
14.2624282327
 20
11.9010253929
 30
0.0
 10
14.2704366838
 20
11.8928716666
 30
0.0
 10
14.2732518531
 20
11.8885105306
 30
0.0
  0
SPLINE
  5
281
100
AcDbEntity
  8
0
100
AcDbSpline
 62
7
  6
CONTINUOUS
 70
0
 71
3
 72
9
 73
5
 74
0
 42
0.0000001
 43
0.0000001
 44
0.0000000001
 40
0.0
 40
0.0
 40
0.0
 40
0.0
 40
0.4753060626
 40
1.0
 40
1.0
 40
1.0
 40
1.0
 10
13.6930559513
 20
11.8885105306
 30
0.0
 10
13.7056645457
 20
11.8689778528
 30
0.0
 10
13.7367180101
 20
11.8307513267
 30
0.0
 10
13.77357289
 20
11.7982975637
 30
0.0
 10
13.7939236305
 20
11.7826607587
 30
0.0
  0
SPLINE
  5
282
100
AcDbEntity
  8
0
100
AcDbSpline
 62
7
  6
CONTINUOUS
 70
0
 71
3
 72
12
 73
8
 74
0
 42
0.0000001
 43
0.0000001
 44
0.0000000001
 40
0.0
 40
0.0
 40
0.0
 40
0.0
 40
0.3031771934
 40
0.5689627599
 40
0.7967048802
 40
0.9002206229
 40
1.0
 40
1.0
 40
1.0
 40
1.0
 10
16.9040300728
 20
11.757209012
 30
0.0
 10
16.9101637802
 20
11.757209012
 30
0.0
 10
16.9217210971
 20
11.7581832943
 30
0.0
 10
16.9372534913
 20
11.7630145146
 30
0.0
 10
16.9474654314
 20
11.7699936822
 30
0.0
 10
16.9528205689
 20
11.7769573311
 30
0.0
 10
16.9545483613
 20
11.7807381236
 30
0.0
 10
16.9551636173
 20
11.7826607587
 30
0.0
  0
SPLINE
  5
283
100
AcDbEntity
  8
0
100
AcDbSpline
 62
7
  6
CONTINUOUS
 70
0
 71
3
 72
11
 73
7
 74
0
 42
0.0000001
 43
0.0000001
 44
0.0000000001
 40
0.0
 40
0.0
 40
0.0
 40
0.0
 40
0.2413698862
 40
0.4964392043
 40
0.75335527
 40
1.0
 40
1.0
 40
1.0
 40
1.0
 10
16.6949031391
 20
11.7826607587
 30
0.0
 10
16.7001031229
 20
11.7786652711
 30
0.0
 10
16.7116196208
 20
11.7714892765
 30
0.0
 10
16.7305612729
 20
11.7635383071
 30
0.0
 10
16.7506168962
 20
11.7584725313
 30
0.0
 10
16.7643154544
 20
11.757209012
 30
0.0
 10
16.77101649
 20
11.757209012
 30
0.0
  0
SPLINE
  5
284
100
AcDbEntity
  8
0
100
AcDbSpline
 62
7
  6
CONTINUOUS
 70
0
 71
3
 72
9
 73
5
 74
0
 42
0.0000001
 43
0.0000001
 44
0.0000000001
 40
0.0
 40
0.0
 40
0.0
 40
0.0
 40
0.475306739
 40
1.0
 40
1.0
 40
1.0
 40
1.0
 10
16.59403546
 20
11.8885105306
 30
0.0
 10
16.6066440687
 20
11.8689778306
 30
0.0
 10
16.6376979028
 20
11.8307516396
 30
0.0
 10
16.6745524307
 20
11.7982975391
 30
0.0
 10
16.6949031391
 20
11.7826607587
 30
0.0
  0
SPLINE
  5
285
100
AcDbEntity
  8
0
100
AcDbSpline
 62
7
  6
CONTINUOUS
 70
0
 71
3
 72
12
 73
8
 74
0
 42
0.0000001
 43
0.0000001
 44
0.0000000001
 40
0.0
 40
0.0
 40
0.0
 40
0.0
 40
0.3031771934
 40
0.5689627599
 40
0.7967048802
 40
0.9002206229
 40
1.0
 40
1.0
 40
1.0
 40
1.0
 10
16.3238341711
 20
11.757209012
 30
0.0
 10
16.3299678784
 20
11.757209012
 30
0.0
 10
16.3415251954
 20
11.7581832943
 30
0.0
 10
16.3570575896
 20
11.7630145146
 30
0.0
 10
16.3672695297
 20
11.7699936822
 30
0.0
 10
16.3726246672
 20
11.7769573311
 30
0.0
 10
16.3743524595
 20
11.7807381236
 30
0.0
 10
16.3749677156
 20
11.7826607587
 30
0.0
  0
SPLINE
  5
286
100
AcDbEntity
  8
0
100
AcDbSpline
 62
7
  6
CONTINUOUS
 70
0
 71
3
 72
11
 73
7
 74
0
 42
0.0000001
 43
0.0000001
 44
0.0000000001
 40
0.0
 40
0.0
 40
0.0
 40
0.0
 40
0.2413698862
 40
0.4964392043
 40
0.75335527
 40
1.0
 40
1.0
 40
1.0
 40
1.0
 10
16.1147072374
 20
11.7826607587
 30
0.0
 10
16.1199072211
 20
11.7786652711
 30
0.0
 10
16.131423719
 20
11.7714892765
 30
0.0
 10
16.1503653712
 20
11.7635383071
 30
0.0
 10
16.1704209944
 20
11.7584725313
 30
0.0
 10
16.1841195527
 20
11.757209012
 30
0.0
 10
16.1908205883
 20
11.757209012
 30
0.0
  0
SPLINE
  5
287
100
AcDbEntity
  8
0
100
AcDbSpline
 62
7
  6
CONTINUOUS
 70
0
 71
3
 72
9
 73
5
 74
0
 42
0.0000001
 43
0.0000001
 44
0.0000000001
 40
0.0
 40
0.0
 40
0.0
 40
0.0
 40
0.4753068025
 40
1.0
 40
1.0
 40
1.0
 40
1.0
 10
16.0138395583
 20
11.8885105306
 30
0.0
 10
16.0264481687
 20
11.868977828
 30
0.0
 10
16.0575020034
 20
11.8307516373
 30
0.0
 10
16.0943565314
 20
11.7982975372
 30
0.0
 10
16.1147072374
 20
11.7826607587
 30
0.0
  0
SPLINE
  5
288
100
AcDbEntity
  8
0
100
AcDbSpline
 62
7
  6
CONTINUOUS
 70
0
 71
3
 72
12
 73
8
 74
0
 42
0.0000001
 43
0.0000001
 44
0.0000000001
 40
0.0
 40
0.0
 40
0.0
 40
0.0
 40
0.3031771934
 40
0.5689627599
 40
0.7967048802
 40
0.9002206229
 40
1.0
 40
1.0
 40
1.0
 40
1.0
 10
15.7436382694
 20
11.757209012
 30
0.0
 10
15.7497719767
 20
11.757209012
 30
0.0
 10
15.7613292936
 20
11.7581832943
 30
0.0
 10
15.7768616878
 20
11.7630145146
 30
0.0
 10
15.787073628
 20
11.7699936822
 30
0.0
 10
15.7924287655
 20
11.7769573311
 30
0.0
 10
15.7941565578
 20
11.7807381236
 30
0.0
 10
15.7947718138
 20
11.7826607587
 30
0.0
  0
SPLINE
  5
289
100
AcDbEntity
  8
0
100
AcDbSpline
 62
7
  6
CONTINUOUS
 70
0
 71
3
 72
11
 73
7
 74
0
 42
0.0000001
 43
0.0000001
 44
0.0000000001
 40
0.0
 40
0.0
 40
0.0
 40
0.0
 40
0.2413698862
 40
0.4964392043
 40
0.75335527
 40
1.0
 40
1.0
 40
1.0
 40
1.0
 10
15.5345113357
 20
11.7826607587
 30
0.0
 10
15.5397113194
 20
11.7786652711
 30
0.0
 10
15.5512278173
 20
11.7714892765
 30
0.0
 10
15.5701694695
 20
11.7635383071
 30
0.0
 10
15.5902250927
 20
11.7584725313
 30
0.0
 10
15.6039236509
 20
11.757209012
 30
0.0
 10
15.6106246866
 20
11.757209012
 30
0.0
  0
SPLINE
  5
28A
100
AcDbEntity
  8
0
100
AcDbSpline
 62
7
  6
CONTINUOUS
 70
0
 71
3
 72
9
 73
5
 74
0
 42
0.0000001
 43
0.0000001
 44
0.0000000001
 40
0.0
 40
0.0
 40
0.0
 40
0.0
 40
0.4753068025
 40
1.0
 40
1.0
 40
1.0
 40
1.0
 10
15.4336436565
 20
11.8885105306
 30
0.0
 10
15.4462522669
 20
11.868977828
 30
0.0
 10
15.4773061017
 20
11.8307516373
 30
0.0
 10
15.5141606297
 20
11.7982975372
 30
0.0
 10
15.5345113357
 20
11.7826607587
 30
0.0
  0
SPLINE
  5
28B
100
AcDbEntity
  8
0
100
AcDbSpline
 62
7
  6
CONTINUOUS
 70
0
 71
3
 72
12
 73
8
 74
0
 42
0.0000001
 43
0.0000001
 44
0.0000000001
 40
0.0
 40
0.0
 40
0.0
 40
0.0
 40
0.3031771934
 40
0.5689627599
 40
0.7967048802
 40
0.9002206229
 40
1.0
 40
1.0
 40
1.0
 40
1.0
 10
15.1634423676
 20
11.757209012
 30
0.0
 10
15.169576075
 20
11.757209012
 30
0.0
 10
15.1811333919
 20
11.7581832943
 30
0.0
 10
15.1966657861
 20
11.7630145146
 30
0.0
 10
15.2068777262
 20
11.7699936822
 30
0.0
 10
15.2122328637
 20
11.7769573311
 30
0.0
 10
15.2139606561
 20
11.7807381236
 30
0.0
 10
15.2145759121
 20
11.7826607587
 30
0.0
  0
SPLINE
  5
28C
100
AcDbEntity
  8
0
100
AcDbSpline
 62
7
  6
CONTINUOUS
 70
0
 71
3
 72
11
 73
7
 74
0
 42
0.0000001
 43
0.0000001
 44
0.0000000001
 40
0.0
 40
0.0
 40
0.0
 40
0.0
 40
0.2413698862
 40
0.4964392043
 40
0.75335527
 40
1.0
 40
1.0
 40
1.0
 40
1.0
 10
14.9543154339
 20
11.7826607587
 30
0.0
 10
14.9595154176
 20
11.7786652711
 30
0.0
 10
14.9710319156
 20
11.7714892765
 30
0.0
 10
14.9899735677
 20
11.7635383071
 30
0.0
 10
15.010029191
 20
11.7584725313
 30
0.0
 10
15.0237277492
 20
11.757209012
 30
0.0
 10
15.0304287848
 20
11.757209012
 30
0.0
  0
SPLINE
  5
28D
100
AcDbEntity
  8
0
100
AcDbSpline
 62
7
  6
CONTINUOUS
 70
0
 71
3
 72
9
 73
5
 74
0
 42
0.0000001
 43
0.0000001
 44
0.0000000001
 40
0.0
 40
0.0
 40
0.0
 40
0.0
 40
0.4753060626
 40
1.0
 40
1.0
 40
1.0
 40
1.0
 10
14.8534477548
 20
11.8885105306
 30
0.0
 10
14.8660563492
 20
11.8689778528
 30
0.0
 10
14.8971098135
 20
11.8307513267
 30
0.0
 10
14.9339646935
 20
11.7982975637
 30
0.0
 10
14.9543154339
 20
11.7826607587
 30
0.0
  0
SPLINE
  5
28E
100
AcDbEntity
  8
0
100
AcDbSpline
 62
7
  6
CONTINUOUS
 70
0
 71
3
 72
12
 73
8
 74
0
 42
0.0000001
 43
0.0000001
 44
0.0000000001
 40
0.0
 40
0.0
 40
0.0
 40
0.0
 40
0.3031771934
 40
0.5689627599
 40
0.7967048802
 40
0.9002206229
 40
1.0
 40
1.0
 40
1.0
 40
1.0
 10
14.5832464659
 20
11.757209012
 30
0.0
 10
14.5893801732
 20
11.757209012
 30
0.0
 10
14.6009374902
 20
11.7581832943
 30
0.0
 10
14.6164698844
 20
11.7630145146
 30
0.0
 10
14.6266818245
 20
11.7699936822
 30
0.0
 10
14.632036962
 20
11.7769573311
 30
0.0
 10
14.6337647543
 20
11.7807381236
 30
0.0
 10
14.6343800104
 20
11.7826607587
 30
0.0
  0
SPLINE
  5
28F
100
AcDbEntity
  8
0
100
AcDbSpline
 62
7
  6
CONTINUOUS
 70
0
 71
3
 72
11
 73
7
 74
0
 42
0.0000001
 43
0.0000001
 44
0.0000000001
 40
0.0
 40
0.0
 40
0.0
 40
0.0
 40
0.2413698862
 40
0.4964392043
 40
0.75335527
 40
1.0
 40
1.0
 40
1.0
 40
1.0
 10
14.3741195322
 20
11.7826607587
 30
0.0
 10
14.3793195159
 20
11.7786652711
 30
0.0
 10
14.3908360138
 20
11.7714892765
 30
0.0
 10
14.409777666
 20
11.7635383071
 30
0.0
 10
14.4298332892
 20
11.7584725313
 30
0.0
 10
14.4435318474
 20
11.757209012
 30
0.0
 10
14.4502328831
 20
11.757209012
 30
0.0
  0
SPLINE
  5
290
100
AcDbEntity
  8
0
100
AcDbSpline
 62
7
  6
CONTINUOUS
 70
0
 71
3
 72
9
 73
5
 74
0
 42
0.0000001
 43
0.0000001
 44
0.0000000001
 40
0.0
 40
0.0
 40
0.0
 40
0.0
 40
0.4753060626
 40
1.0
 40
1.0
 40
1.0
 40
1.0
 10
14.2732518531
 20
11.8885105306
 30
0.0
 10
14.2858604474
 20
11.8689778528
 30
0.0
 10
14.3169139118
 20
11.8307513267
 30
0.0
 10
14.3537687917
 20
11.7982975637
 30
0.0
 10
14.3741195322
 20
11.7826607587
 30
0.0
  0
SPLINE
  5
291
100
AcDbEntity
  8
0
100
AcDbSpline
 62
7
  6
CONTINUOUS
 70
0
 71
3
 72
12
 73
8
 74
0
 42
0.0000001
 43
0.0000001
 44
0.0000000001
 40
0.0
 40
0.0
 40
0.0
 40
0.0
 40
0.3031771934
 40
0.5689627599
 40
0.7967048802
 40
0.9002206229
 40
1.0
 40
1.0
 40
1.0
 40
1.0
 10
14.0030505642
 20
11.757209012
 30
0.0
 10
14.0091842715
 20
11.757209012
 30
0.0
 10
14.0207415884
 20
11.7581832943
 30
0.0
 10
14.0362739826
 20
11.7630145146
 30
0.0
 10
14.0464859228
 20
11.7699936822
 30
0.0
 10
14.0518410603
 20
11.7769573311
 30
0.0
 10
14.0535688526
 20
11.7807381236
 30
0.0
 10
14.0541841086
 20
11.7826607587
 30
0.0
  0
SPLINE
  5
292
100
AcDbEntity
  8
0
100
AcDbSpline
 62
7
  6
CONTINUOUS
 70
0
 71
3
 72
11
 73
7
 74
0
 42
0.0000001
 43
0.0000001
 44
0.0000000001
 40
0.0
 40
0.0
 40
0.0
 40
0.0
 40
0.2413698862
 40
0.4964392043
 40
0.75335527
 40
1.0
 40
1.0
 40
1.0
 40
1.0
 10
13.7939236305
 20
11.7826607587
 30
0.0
 10
13.7991236142
 20
11.7786652711
 30
0.0
 10
13.8106401121
 20
11.7714892765
 30
0.0
 10
13.8295817642
 20
11.7635383071
 30
0.0
 10
13.8496373875
 20
11.7584725313
 30
0.0
 10
13.8633359457
 20
11.757209012
 30
0.0
 10
13.8700369814
 20
11.757209012
 30
0.0
  0
SPLINE
  5
293
100
AcDbEntity
  8
0
100
AcDbSpline
 62
7
  6
CONTINUOUS
 70
0
 71
3
 72
11
 73
7
 74
0
 42
0.0000001
 43
0.0000001
 44
0.0000000001
 40
0.0
 40
0.0
 40
0.0
 40
0.0
 40
0.2600307423
 40
0.5283882481
 40
0.7814357652
 40
1.0
 40
1.0
 40
1.0
 40
1.0
 10
14.7910107175
 20
11.9177507991
 30
0.0
 10
14.7971863602
 20
11.9177507991
 30
0.0
 10
14.8097589232
 20
11.9161644826
 30
0.0
 10
14.8274328707
 20
11.9101049734
 30
0.0
 10
14.8426241345
 20
11.9010253929
 30
0.0
 10
14.8506325855
 20
11.8928716666
 30
0.0
 10
14.8534477548
 20
11.8885105306
 30
0.0
  0
SPLINE
  5
294
100
AcDbEntity
  8
0
100
AcDbSpline
 62
7
  6
CONTINUOUS
 70
0
 71
3
 72
11
 73
7
 74
0
 42
0.0000001
 43
0.0000001
 44
0.0000000001
 40
0.0
 40
0.0
 40
0.0
 40
0.0
 40
0.2600307423
 40
0.5283882481
 40
0.7814357652
 40
1.0
 40
1.0
 40
1.0
 40
1.0
 10
15.3712066192
 20
11.9177507991
 30
0.0
 10
15.3773822619
 20
11.9177507991
 30
0.0
 10
15.389954825
 20
11.9161644826
 30
0.0
 10
15.4076287724
 20
11.9101049734
 30
0.0
 10
15.4228200362
 20
11.9010253929
 30
0.0
 10
15.4308284872
 20
11.8928716666
 30
0.0
 10
15.4336436565
 20
11.8885105306
 30
0.0
  0
SPLINE
  5
295
100
AcDbEntity
  8
0
100
AcDbSpline
 62
7
  6
CONTINUOUS
 70
0
 71
3
 72
11
 73
7
 74
0
 42
0.0000001
 43
0.0000001
 44
0.0000000001
 40
0.0
 40
0.0
 40
0.0
 40
0.0
 40
0.2600307423
 40
0.5283882481
 40
0.7814357652
 40
1.0
 40
1.0
 40
1.0
 40
1.0
 10
15.951402521
 20
11.9177507991
 30
0.0
 10
15.9575781636
 20
11.9177507991
 30
0.0
 10
15.9701507267
 20
11.9161644826
 30
0.0
 10
15.9878246741
 20
11.9101049734
 30
0.0
 10
16.0030159379
 20
11.9010253929
 30
0.0
 10
16.011024389
 20
11.8928716666
 30
0.0
 10
16.0138395583
 20
11.8885105306
 30
0.0
  0
SPLINE
  5
296
100
AcDbEntity
  8
0
100
AcDbSpline
 62
7
  6
CONTINUOUS
 70
0
 71
3
 72
11
 73
7
 74
0
 42
0.0000001
 43
0.0000001
 44
0.0000000001
 40
0.0
 40
0.0
 40
0.0
 40
0.0
 40
0.2600307423
 40
0.5283882481
 40
0.7814357652
 40
1.0
 40
1.0
 40
1.0
 40
1.0
 10
16.5315984227
 20
11.9177507991
 30
0.0
 10
16.5377740654
 20
11.9177507991
 30
0.0
 10
16.5503466284
 20
11.9161644826
 30
0.0
 10
16.5680205759
 20
11.9101049734
 30
0.0
 10
16.5832118397
 20
11.9010253929
 30
0.0
 10
16.5912202907
 20
11.8928716666
 30
0.0
 10
16.59403546
 20
11.8885105306
 30
0.0
  0
SPLINE
  5
297
100
AcDbEntity
  8
0
100
AcDbSpline
 62
7
  6
CONTINUOUS
 70
0
 71
3
 72
11
 73
7
 74
0
 42
0.0000001
 43
0.0000001
 44
0.0000000001
 40
0.0
 40
0.0
 40
0.0
 40
0.0
 40
0.2391548279
 40
0.4828804072
 40
0.735350205
 40
1.0
 40
1.0
 40
1.0
 40
1.0
 10
16.3754127477
 20
11.7840758111
 30
0.0
 10
16.3779105648
 20
11.7921591324
 30
0.0
 10
16.3815551977
 20
11.8089485108
 30
0.0
 10
16.382729738
 20
11.8350486781
 30
0.0
 10
16.379653655
 20
11.8618916253
 30
0.0
 10
16.374929838
 20
11.8796355846
 30
0.0
 10
16.3719483477
 20
11.8885105306
 30
0.0
  0
SPLINE
  5
298
100
AcDbEntity
  8
0
100
AcDbSpline
 62
7
  6
CONTINUOUS
 70
0
 71
3
 72
9
 73
5
 74
0
 42
0.0000001
 43
0.0000001
 44
0.0000000001
 40
0.0
 40
0.0
 40
0.0
 40
0.0
 40
0.517183991
 40
1.0
 40
1.0
 40
1.0
 40
1.0
 10
15.791752446
 20
11.8885105306
 30
0.0
 10
15.7910789844
 20
11.8905152109
 30
0.0
 10
15.7902521678
 20
11.8945858983
 30
0.0
 10
15.7907680642
 20
11.8987326238
 30
0.0
 10
15.791350903
 20
11.900618878
 30
0.0
  0
SPLINE
  5
299
100
AcDbEntity
  8
0
100
AcDbSpline
 62
7
  6
CONTINUOUS
 70
0
 71
3
 72
9
 73
5
 74
0
 42
0.0000001
 43
0.0000001
 44
0.0000000001
 40
0.0
 40
0.0
 40
0.0
 40
0.0
 40
0.517183991
 40
1.0
 40
1.0
 40
1.0
 40
1.0
 10
14.0511647408
 20
11.8885105306
 30
0.0
 10
14.0504912792
 20
11.8905152109
 30
0.0
 10
14.0496644626
 20
11.8945858983
 30
0.0
 10
14.050180359
 20
11.8987326238
 30
0.0
 10
14.0507631978
 20
11.900618878
 30
0.0
  0
SPLINE
  5
29A
100
AcDbEntity
  8
0
100
AcDbSpline
 62
7
  6
CONTINUOUS
 70
0
 71
3
 72
9
 73
5
 74
0
 42
0.0000001
 43
0.0000001
 44
0.0000000001
 40
0.0
 40
0.0
 40
0.0
 40
0.0
 40
0.517183991
 40
1.0
 40
1.0
 40
1.0
 40
1.0
 10
16.3719483477
 20
11.8885105306
 30
0.0
 10
16.3712748862
 20
11.8905152109
 30
0.0
 10
16.3704480695
 20
11.8945858983
 30
0.0
 10
16.3709639659
 20
11.8987326238
 30
0.0
 10
16.3715468047
 20
11.900618878
 30
0.0
  0
SPLINE
  5
29B
100
AcDbEntity
  8
0
100
AcDbSpline
 62
7
  6
CONTINUOUS
 70
0
 71
3
 72
10
 73
6
 74
0
 42
0.0000001
 43
0.0000001
 44
0.0000000001
 40
0.0
 40
0.0
 40
0.0
 40
0.0
 40
0.2394701103
 40
0.483543386
 40
1.0
 40
1.0
 40
1.0
 40
1.0
 10
14.6348250316
 20
11.7840758142
 30
0.0
 10
14.6373225938
 20
11.7921587391
 30
0.0
 10
14.6409643229
 20
11.8089528341
 30
0.0
 10
14.6425743466
 20
11.8443687774
 30
0.0
 10
14.6371709646
 20
11.8712150539
 30
0.0
 10
14.6313606425
 20
11.8885105306
 30
0.0
  0
SPLINE
  5
29C
100
AcDbEntity
  8
0
100
AcDbSpline
 62
7
  6
CONTINUOUS
 70
0
 71
3
 72
9
 73
5
 74
0
 42
0.0000001
 43
0.0000001
 44
0.0000000001
 40
0.0
 40
0.0
 40
0.0
 40
0.0
 40
0.517183991
 40
1.0
 40
1.0
 40
1.0
 40
1.0
 10
16.9521442494
 20
11.8885105306
 30
0.0
 10
16.9514707879
 20
11.8905152109
 30
0.0
 10
16.9506439712
 20
11.8945858983
 30
0.0
 10
16.9511598677
 20
11.8987326238
 30
0.0
 10
16.9517427064
 20
11.900618878
 30
0.0
  0
SPLINE
  5
29D
100
AcDbEntity
  8
0
100
AcDbSpline
 62
7
  6
CONTINUOUS
 70
0
 71
3
 72
11
 73
7
 74
0
 42
0.0000001
 43
0.0000001
 44
0.0000000001
 40
0.0
 40
0.0
 40
0.0
 40
0.0
 40
0.2391548279
 40
0.4828804072
 40
0.735350205
 40
1.0
 40
1.0
 40
1.0
 40
1.0
 10
15.795216846
 20
11.7840758111
 30
0.0
 10
15.7977146631
 20
11.7921591324
 30
0.0
 10
15.801359296
 20
11.8089485108
 30
0.0
 10
15.8025338363
 20
11.8350486781
 30
0.0
 10
15.7994577533
 20
11.8618916253
 30
0.0
 10
15.7947339362
 20
11.8796355846
 30
0.0
 10
15.791752446
 20
11.8885105306
 30
0.0
  0
SPLINE
  5
29E
100
AcDbEntity
  8
0
100
AcDbSpline
 62
7
  6
CONTINUOUS
 70
0
 71
3
 72
11
 73
7
 74
0
 42
0.0000001
 43
0.0000001
 44
0.0000000001
 40
0.0
 40
0.0
 40
0.0
 40
0.0
 40
0.2391548267
 40
0.482880472
 40
0.7353502518
 40
1.0
 40
1.0
 40
1.0
 40
1.0
 10
16.9556086495
 20
11.7840758111
 30
0.0
 10
16.9581064666
 20
11.7921591323
 30
0.0
 10
16.9617510998
 20
11.8089485131
 30
0.0
 10
16.9629256397
 20
11.835048682
 30
0.0
 10
16.959849556
 20
11.8618916293
 30
0.0
 10
16.9551257392
 20
11.8796355861
 30
0.0
 10
16.9521442494
 20
11.8885105306
 30
0.0
  0
SPLINE
  5
29F
100
AcDbEntity
  8
0
100
AcDbSpline
 62
7
  6
CONTINUOUS
 70
0
 71
3
 72
10
 73
6
 74
0
 42
0.0000001
 43
0.0000001
 44
0.0000000001
 40
0.0
 40
0.0
 40
0.0
 40
0.0
 40
0.2394701103
 40
0.483543386
 40
1.0
 40
1.0
 40
1.0
 40
1.0
 10
15.2150209333
 20
11.7840758142
 30
0.0
 10
15.2175184955
 20
11.7921587391
 30
0.0
 10
15.2211602246
 20
11.8089528341
 30
0.0
 10
15.2227702484
 20
11.8443687774
 30
0.0
 10
15.2173668663
 20
11.8712150539
 30
0.0
 10
15.2115565442
 20
11.8885105306
 30
0.0
  0
SPLINE
  5
2A0
100
AcDbEntity
  8
0
100
AcDbSpline
 62
7
  6
CONTINUOUS
 70
0
 71
3
 72
9
 73
5
 74
0
 42
0.0000001
 43
0.0000001
 44
0.0000000001
 40
0.0
 40
0.0
 40
0.0
 40
0.0
 40
0.517183991
 40
1.0
 40
1.0
 40
1.0
 40
1.0
 10
14.6313606425
 20
11.8885105306
 30
0.0
 10
14.630687181
 20
11.8905152109
 30
0.0
 10
14.6298603643
 20
11.8945858983
 30
0.0
 10
14.6303762607
 20
11.8987326238
 30
0.0
 10
14.6309590995
 20
11.900618878
 30
0.0
  0
SPLINE
  5
2A1
100
AcDbEntity
  8
0
100
AcDbSpline
 62
7
  6
CONTINUOUS
 70
0
 71
3
 72
10
 73
6
 74
0
 42
0.0000001
 43
0.0000001
 44
0.0000000001
 40
0.0
 40
0.0
 40
0.0
 40
0.0
 40
0.2394701103
 40
0.483543386
 40
1.0
 40
1.0
 40
1.0
 40
1.0
 10
14.0546291298
 20
11.7840758142
 30
0.0
 10
14.0571266921
 20
11.7921587391
 30
0.0
 10
14.0607684211
 20
11.8089528341
 30
0.0
 10
14.0623784449
 20
11.8443687774
 30
0.0
 10
14.0569750629
 20
11.8712150539
 30
0.0
 10
14.0511647408
 20
11.8885105306
 30
0.0
  0
SPLINE
  5
2A2
100
AcDbEntity
  8
0
100
AcDbSpline
 62
7
  6
CONTINUOUS
 70
0
 71
3
 72
9
 73
5
 74
0
 42
0.0000001
 43
0.0000001
 44
0.0000000001
 40
0.0
 40
0.0
 40
0.0
 40
0.0
 40
0.517183991
 40
1.0
 40
1.0
 40
1.0
 40
1.0
 10
15.2115565442
 20
11.8885105306
 30
0.0
 10
15.2108830827
 20
11.8905152109
 30
0.0
 10
15.210056266
 20
11.8945858983
 30
0.0
 10
15.2105721625
 20
11.8987326238
 30
0.0
 10
15.2111550012
 20
11.900618878
 30
0.0
  0
ENDSEC
  0
SECTION
  2
OBJECTS
  0
DICTIONARY
  5
C
100
AcDbDictionary
280
0
281
1
  3
ACAD_GROUP
350
D
  3
ACAD_MLINESTYLE
350
17
  3
ACAD_LAYOUT
350
1A
  3
ACAD_PLOTSETTINGS
350
19
  3
ACAD_PLOTSTYLENAME
350
E
  0
DICTIONARY
  5
D
102
{ACAD_REACTORS
330
C
102
}
100
AcDbDictionary
280
0
281
1
  0
ACDBDICTIONARYWDFLT
  5
E
102
{ACAD_REACTORS
330
C
102
}
100
AcDbDictionary
281
1
  3
Normal
350
F
100
AcDbDictionaryWithDefault
340
F
  0
DICTIONARY
  5
17
102
{ACAD_REACTORS
330
C
102
}
100
AcDbDictionary
280
0
281
1
  3
Standard
350
18
  0
DICTIONARY
  5
19
102
{ACAD_REACTORS
330
C
102
}
100
AcDbDictionary
281
1
  0
DICTIONARY
  5
1A
102
{ACAD_REACTORS
330
C
102
}
100
AcDbDictionary
281
1
  3
Model
350
2A3
  3
Layout1
350
2A4
  0
ACDBPLACEHOLDER
  5
F
102
{ACAD_REACTORS
330
E
102
}
  0
MLINESTYLE
  5
18
102
{ACAD_REACTORS
330
17
102
}
100
AcDbMlineStyle
  2
STANDARD
 70
0
  3

 62
256
 51
90.0
 52
90.0
 71
2
 49
0.5
 62
256
  6
BYLAYER
 49
-0.5
 62
256
  6
BYLAYER
  0
LAYOUT
  5
2A3
102
{ACAD_REACTORS
330
1A
102
}
100
AcDbPlotSettings
  1

  2
none_device
  4
ANSI_C_(22.00_x_17.00_Inches)
  6

 40
0.0
 41
0.0
 42
0.0
 43
0.0
 44
558.8
 45
431.8
 46
0.0
 47
0.0
 48
0.0
 49
0.0
140
0.0
141
0.0
142
1.0
143
1.0
 70
1024
 72
0
 73
0
 74
0
  7

 75
0
147
1.0
148
0.0
149
0.0
100
AcDbLayout
  1
Model
 70
0
 71
0
 10
0.0
 20
0.0
 11
22.0
 21
17.0
 12
0.0
 22
0.0
 32
0.0
 14
0.0
 24
0.0
 34
0.0
 15
0.0
 25
0.0
 35
0.0
146
0.0
 13
0.0
 23
0.0
 33
0.0
 16
1.0
 26
0.0
 36
0.0
 17
0.0
 27
1.0
 37
0.0
 76
0
330
216
345
0
346
0
  0
LAYOUT
  5
2A4
102
{ACAD_REACTORS
330
1A
102
}
100
AcDbPlotSettings
  1

  2
none_device
  4
ANSI_C_(22.00_x_17.00_Inches)
  6

 40
0.0
 41
0.0
 42
0.0
 43
0.0
 44
558.8
 45
431.8
 46
0.0
 47
0.0
 48
0.0
 49
0.0
140
0.0
141
0.0
142
1.0
143
1.0
 70
0
 72
0
 73
0
 74
0
  7

 75
0
147
1.0
148
0.0
149
0.0
100
AcDbLayout
  1
Layout1
 70
0
 71
1
 10
0.0
 20
0.0
 11
22.0
 21
17.0
 12
0.0
 22
0.0
 32
0.0
 14
0.0
 24
0.0
 34
0.0
 15
0.0
 25
0.0
 35
0.0
146
0.0
 13
0.0
 23
0.0
 33
0.0
 16
1.0
 26
0.0
 36
0.0
 17
0.0
 27
1.0
 37
0.0
 76
0
330
217
345
0
346
0
  0
ENDSEC
  0
EOF