999
DXF file: _cgs_temp_output.dxf
999
Pro/ENGINEER 2016360 by Parametric Technology Corporation
  0
SECTION
  2
HEADER
  9
$ACADVER
  1
AC1021
  9
$DWGCODEPAGE
  3
ANSI_1252
  9
$EXTMAX
 10
22.0
 20
17.0
 30
0.0
  9
$EXTMIN
 10
0.0
 20
0.0
 30
0.0
  9
$LIMMIN
 10
0.0
 20
0.0
  9
$LIMMAX
 10
22.0
 20
17.0
  9
$VIEWCTR
 10
11.0
 20
8.5
  9
$VIEWSIZE
 40
17.0
  9
$CLAYER
  8
0
  9
$LTSCALE
 40
1.21
  9
$CELTYPE
  6
BYLAYER
  9
$DIMSCALE
 40
1.0
  9
$DIMASZ
 40
0.1875
  9
$DIMEXO
 40
0.0625
  9
$DIMDLI
 40
0.836
  9
$DIMEXE
 40
0.125
  9
$DIMCEN
 40
0.198
  9
$DIMLFAC
 40
1.0
  9
$DIMBLK
  1
_CLOSED
  9
$DIMALT
 70
0
  9
$DIMALTF
 40
25.4
  9
$DIMTXT
 40
0.15625
  9
$DIMTOL
 70
0
  9
$DIMLIM
 70
0
  9
$DIMTFAC
 40
1.0
  9
$DIMGAP
 40
0.09
  9
$DIMDSEP
 70
46
  9
$AUNITS
 70
0
  9
$PDMODE
 70
3
  9
$PDSIZE
 40
0.3125
  9
$HANDSEED
  5
316
  9
$TILEMODE
 70
1
  9
$MEASUREMENT
 70
0
  9
$INSUNITS
 70
1
  0
ENDSEC
  0
SECTION
  2
CLASSES
  0
CLASS
  1
ACDBDICTIONARYWDFLT
  2
AcDbDictionaryWithDefault
  3
AutoCAD 2000
 90
0
 91
1
280
0
281
0
  0
CLASS
  1
ACDBPLACEHOLDER
  2
AcDbPlaceHolder
  3
AutoCAD 2000
 90
0
 91
1
280
0
281
0
  0
CLASS
  1
LAYOUT
  2
AcDbLayout
  3
AutoCAD 2000
 90
0
 91
0
280
0
281
0
  0
ENDSEC
  0
SECTION
  2
TABLES
  0
TABLE
  2
VPORT
  5
8
100
AcDbSymbolTable
 70
2
  0
VPORT
  5
1F4
100
AcDbSymbolTableRecord
100
AcDbViewportTableRecord
  2
*ACTIVE
 70
0
 10
0.0
 20
0.0
 11
1.0
 21
1.0
 12
11.0
 22
8.5
 13
0.0
 23
0.0
 14
1.0
 24
1.0
 15
0.0
 25
0.0
 16
0.0
 26
0.0
 36
1.0
 17
0.0
 27
0.0
 37
0.0
 40
17.0
 41
1.2941176471
 42
50.0
 43
0.0
 44
0.0
 50
0.0
 51
0.0
 71
0
 72
100
 73
1
 74
1
 75
0
 76
0
 77
0
 78
0
  0
ENDTAB
  0
TABLE
  2
LTYPE
  5
5
100
AcDbSymbolTable
 70
6
  0
LTYPE
  5
14
100
AcDbSymbolTableRecord
100
AcDbLinetypeTableRecord
  2
BYBLOCK
 70
0
  3

 72
65
 73
0
 40
0.0
  0
LTYPE
  5
15
100
AcDbSymbolTableRecord
100
AcDbLinetypeTableRecord
  2
BYLAYER
 70
0
  3

 72
65
 73
0
 40
0.0
  0
LTYPE
  5
16
100
AcDbSymbolTableRecord
100
AcDbLinetypeTableRecord
  2
CONTINUOUS
 70
64
  3
Solid line
 72
65
 73
0
 40
0.0
  0
LTYPE
  5
1F5
100
AcDbSymbolTableRecord
100
AcDbLinetypeTableRecord
  2
CENTER
 70
64
  3
____ _ ____ _ ____ _ ____ _ ____ _ ____ _ ____
 72
65
 73
4
 40
0.6
 49
0.375
 74
0
 49
-0.075
 74
0
 49
0.075
 74
0
 49
-0.075
 74
0
  0
LTYPE
  5
1F6
100
AcDbSymbolTableRecord
100
AcDbLinetypeTableRecord
  2
HIDDEN
 70
64
  3
- - - - - - - - - - - - - - - - - - - -
 72
65
 73
2
 40
0.2
 49
0.1
 74
0
 49
-0.1
 74
0
  0
LTYPE
  5
1F7
100
AcDbSymbolTableRecord
100
AcDbLinetypeTableRecord
  2
PHANTOM
 70
64
  3
_____ _ _ _____ _ _ _____ _ _ _____
 72
65
 73
6
 40
0.8
 49
0.45
 74
0
 49
-0.05
 74
0
 49
0.1
 74
0
 49
-0.05
 74
0
 49
0.1
 74
0
 49
-0.05
 74
0
  0
LTYPE
  5
1F8
100
AcDbSymbolTableRecord
100
AcDbLinetypeTableRecord
  2
DOT
 70
64
  3
. . . . . . . . . . . . . . . . . . . .
 72
65
 73
2
 40
0.2
 49
0.1
 74
0
 49
-0.1
 74
0
  0
LTYPE
  5
1F9
100
AcDbSymbolTableRecord
100
AcDbLinetypeTableRecord
  2
DASHED
 70
64
  3
- - - - - - - - - - - - - - - - - - - -
 72
65
 73
2
 40
0.2
 49
0.1
 74
0
 49
-0.1
 74
0
  0
ENDTAB
  0
TABLE
  2
LAYER
  5
2
100
AcDbSymbolTable
 70
36
  0
LAYER
  5
10
100
AcDbSymbolTableRecord
100
AcDbLayerTableRecord
  2
0
 70
0
 62
7
  6
CONTINUOUS
370
-3
390
F
  0
LAYER
  5
1FA
100
AcDbSymbolTableRecord
100
AcDbLayerTableRecord
  2
DEFAULT_1
 70
0
 62
7
  6
CENTER
370
-3
390
F
  0
LAYER
  5
1FB
100
AcDbSymbolTableRecord
100
AcDbLayerTableRecord
  2
DEFAULT_2
 70
0
 62
8
  6
HIDDEN
370
-3
390
F
  0
LAYER
  5
1FC
100
AcDbSymbolTableRecord
100
AcDbLayerTableRecord
  2
DEFAULT_3
 70
0
 62
7
  6
PHANTOM
370
-3
390
F
  0
LAYER
  5
1FD
100
AcDbSymbolTableRecord
100
AcDbLayerTableRecord
  2
01_ALL_DTM_PLN
 70
0
 62
7
  6
CONTINUOUS
370
-3
390
F
  0
LAYER
  5
1FE
100
AcDbSymbolTableRecord
100
AcDbLayerTableRecord
  2
01__ASM_ALL_DTM_PLN
 70
0
 62
7
  6
CONTINUOUS
370
-3
390
F
  0
LAYER
  5
1FF
100
AcDbSymbolTableRecord
100
AcDbLayerTableRecord
  2
01__ASM_DEF_DTM_PLN
 70
0
 62
7
  6
CONTINUOUS
370
-3
390
F
  0
LAYER
  5
200
100
AcDbSymbolTableRecord
100
AcDbLayerTableRecord
  2
01___PRT_ALL_DTM_PLN
 70
0
 62
7
  6
CONTINUOUS
370
-3
390
F
  0
LAYER
  5
201
100
AcDbSymbolTableRecord
100
AcDbLayerTableRecord
  2
01___PRT_DEF_DTM_PLN
 70
0
 62
7
  6
CONTINUOUS
370
-3
390
F
  0
LAYER
  5
202
100
AcDbSymbolTableRecord
100
AcDbLayerTableRecord
  2
02_ALL_AXES
 70
0
 62
7
  6
CONTINUOUS
370
-3
390
F
  0
LAYER
  5
203
100
AcDbSymbolTableRecord
100
AcDbLayerTableRecord
  2
02__ASM_ALL_AXES
 70
0
 62
7
  6
CONTINUOUS
370
-3
390
F
  0
LAYER
  5
204
100
AcDbSymbolTableRecord
100
AcDbLayerTableRecord
  2
02___PRT_ALL_AXES
 70
0
 62
7
  6
CONTINUOUS
370
-3
390
F
  0
LAYER
  5
205
100
AcDbSymbolTableRecord
100
AcDbLayerTableRecord
  2
03_ALL_CURVES
 70
0
 62
7
  6
CONTINUOUS
370
-3
390
F
  0
LAYER
  5
206
100
AcDbSymbolTableRecord
100
AcDbLayerTableRecord
  2
03__ASM_ALL_CURVES
 70
0
 62
7
  6
CONTINUOUS
370
-3
390
F
  0
LAYER
  5
207
100
AcDbSymbolTableRecord
100
AcDbLayerTableRecord
  2
03___PRT_ALL_CURVES
 70
0
 62
7
  6
CONTINUOUS
370
-3
390
F
  0
LAYER
  5
208
100
AcDbSymbolTableRecord
100
AcDbLayerTableRecord
  2
04_ALL_DTM_PNT
 70
0
 62
7
  6
CONTINUOUS
370
-3
390
F
  0
LAYER
  5
209
100
AcDbSymbolTableRecord
100
AcDbLayerTableRecord
  2
04__ASM_ALL_DTM_PNT
 70
0
 62
7
  6
CONTINUOUS
370
-3
390
F
  0
LAYER
  5
20A
100
AcDbSymbolTableRecord
100
AcDbLayerTableRecord
  2
04___PRT_ALL_DTM_PNT
 70
0
 62
7
  6
CONTINUOUS
370
-3
390
F
  0
LAYER
  5
20B
100
AcDbSymbolTableRecord
100
AcDbLayerTableRecord
  2
05_ALL_DTM_CSYS
 70
0
 62
7
  6
CONTINUOUS
370
-3
390
F
  0
LAYER
  5
20C
100
AcDbSymbolTableRecord
100
AcDbLayerTableRecord
  2
05__ASM_ALL_DTM_CSYS
 70
0
 62
7
  6
CONTINUOUS
370
-3
390
F
  0
LAYER
  5
20D
100
AcDbSymbolTableRecord
100
AcDbLayerTableRecord
  2
05__ASM_DEF_DTM_CSYS
 70
0
 62
7
  6
CONTINUOUS
370
-3
390
F
  0
LAYER
  5
20E
100
AcDbSymbolTableRecord
100
AcDbLayerTableRecord
  2
05___PRT_ALL_DTM_CSYS
 70
0
 62
7
  6
CONTINUOUS
370
-3
390
F
  0
LAYER
  5
20F
100
AcDbSymbolTableRecord
100
AcDbLayerTableRecord
  2
05___PRT_DEF_DTM_CSYS
 70
0
 62
7
  6
CONTINUOUS
370
-3
390
F
  0
LAYER
  5
210
100
AcDbSymbolTableRecord
100
AcDbLayerTableRecord
  2
06_ALL_SURFS
 70
0
 62
7
  6
CONTINUOUS
370
-3
390
F
  0
LAYER
  5
211
100
AcDbSymbolTableRecord
100
AcDbLayerTableRecord
  2
06__ASM_ALL_SURFS
 70
0
 62
7
  6
CONTINUOUS
370
-3
390
F
  0
LAYER
  5
212
100
AcDbSymbolTableRecord
100
AcDbLayerTableRecord
  2
06___PRT_ALL_SURFS
 70
0
 62
7
  6
CONTINUOUS
370
-3
390
F
  0
LAYER
  5
213
100
AcDbSymbolTableRecord
100
AcDbLayerTableRecord
  2
07__ASM_ALL_SKELETONS
 70
0
 62
7
  6
CONTINUOUS
370
-3
390
F
  0
ENDTAB
  0
TABLE
  2
STYLE
  5
3
100
AcDbSymbolTable
 70
1
  0
STYLE
  5
11
100
AcDbSymbolTableRecord
100
AcDbTextStyleTableRecord
  2
STANDARD
 70
0
 40
0.0
 41
0.8
 50
0.0
 71
0
 42
0.2
  3
txt
  4

  0
STYLE
  5
214
100
AcDbSymbolTableRecord
100
AcDbTextStyleTableRecord
  2
TEXTSTYLE_1
 70
0
 40
0.0
 41
0.8
 50
0.0
 71
0
 42
0.2
  3
gdt
  4

  0
ENDTAB
  0
TABLE
  2
VIEW
  5
6
100
AcDbSymbolTable
 70
0
  0
ENDTAB
  0
TABLE
  2
UCS
  5
7
100
AcDbSymbolTable
 70
0
  0
ENDTAB
  0
TABLE
  2
APPID
  5
9
100
AcDbSymbolTable
 70
1
  0
APPID
  5
215
100
AcDbSymbolTableRecord
100
AcDbRegAppTableRecord
  2
ACAD
 70
0
  0
ENDTAB
  0
TABLE
  2
BLOCK_RECORD
  5
1
100
AcDbSymbolTable
 70
0
  0
BLOCK_RECORD
  5
216
100
AcDbSymbolTableRecord
100
AcDbBlockTableRecord
  2
*Model_Space
  0
BLOCK_RECORD
  5
217
100
AcDbSymbolTableRecord
100
AcDbBlockTableRecord
  2
*Paper_Space
  0
ENDTAB
  0
TABLE
  2
DIMSTYLE
  5
A
100
AcDbSymbolTable
 70
1
100
AcDbDimStyleTable
 71
0
  0
DIMSTYLE
105
218
100
AcDbSymbolTableRecord
100
AcDbDimStyleTableRecord
  2
STANDARD
 70
0
  3

  4

 40
1.0
 41
0.1875
 42
0.0625
 43
0.38
 44
0.125
 45
0.0
 46
0.0
 47
0.0001
 48
0.0001
140
0.15625
141
0.09
142
0.0
143
25.4
144
1.0
145
0.0
146
1.0
147
0.09
 71
0.0
 72
0.0
 73
1
 74
1
 75
0
 76
0
 77
0
 78
4
 79
1
170
0
171
3
172
0
173
0
174
0
175
0
176
0
177
0
178
0
270
2
179
4
271
4
272
4
273
2
274
2
275
0
280
0
281
0
282
0
283
1
284
4
285
0
286
0
287
3
288
0
340
11
278
46
  0
ENDTAB
  0
ENDSEC
  0
SECTION
  2
BLOCKS
  0
BLOCK
  5
20
100
AcDbEntity
  8
0
100
AcDbBlockBegin
  2
*Model_Space
 70
0
 10
0.0
 20
0.0
 30
0.0
  3
*Model_Space
  1

  0
ENDBLK
  5
21
100
AcDbEntity
  8
0
100
AcDbBlockEnd
  0
BLOCK
  5
1C
100
AcDbEntity
  8
0
100
AcDbBlockBegin
  2
*Paper_Space
 70
0
 10
0.0
 20
0.0
 30
0.0
  3
*Paper_Space
  1

  0
ENDBLK
  5
1D
100
AcDbEntity
  8
0
100
AcDbBlockEnd
  0
ENDSEC
  0
SECTION
  2
ENTITIES
  0
MTEXT
  5
219
100
AcDbEntity
  8
0
100
AcDbMText
 62
7
  6
CONTINUOUS
  7
STANDARD
 71
1
 72
1
 10
15.9560215477
 20
0.9479130325
 30
0.0
 11
1.0
 21
0.0
 31
0.0
 44
0.9
  1
SCALE: 1:1.000
 40
0.3
 41
3.36
  0
LINE
  5
21A
100
AcDbEntity
  8
0
100
AcDbLine
 62
7
  6
CONTINUOUS
 10
0.0
 20
0.0
 11
0.0
 21
17.0
  0
LINE
  5
21B
100
AcDbEntity
  8
0
100
AcDbLine
 62
7
  6
CONTINUOUS
 10
0.0
 20
0.0
 11
22.0
 21
0.0
  0
LINE
  5
21C
100
AcDbEntity
  8
0
100
AcDbLine
 62
7
  6
CONTINUOUS
 10
0.0
 20
17.0
 11
22.0
 21
17.0
  0
LINE
  5
21D
100
AcDbEntity
  8
0
100
AcDbLine
 62
7
  6
CONTINUOUS
 10
22.0
 20
0.0
 11
22.0
 21
17.0
  0
LINE
  5
21E
100
AcDbEntity
  8
0
100
AcDbLine
 62
7
  6
CONTINUOUS
 10
5.3178672762
 20
5.7091198968
 11
5.3178672762
 21
5.6402851465
  0
LINE
  5
21F
100
AcDbEntity
  8
0
100
AcDbLine
 62
7
  6
CONTINUOUS
 10
5.398913996
 20
5.3246494206
 11
5.3212746935
 21
5.614403242
  0
LINE
  5
220
100
AcDbEntity
  8
0
100
AcDbLine
 62
7
  6
CONTINUOUS
 10
5.4230621416
 20
5.3061198968
 11
6.8376724107
 21
5.3061198968
  0
LINE
  5
221
100
AcDbEntity
  8
0
100
AcDbLine
 62
7
  6
CONTINUOUS
 10
5.3848347235
 20
5.4487865634
 11
6.8758998288
 21
5.4487865634
  0
LINE
  5
222
100
AcDbEntity
  8
0
100
AcDbLine
 62
7
  6
CONTINUOUS
 10
6.9178672762
 20
5.7341198968
 11
5.3428672762
 21
5.7341198968
  0
LINE
  5
223
100
AcDbEntity
  8
0
100
AcDbLine
 62
7
  6
CONTINUOUS
 10
6.9428672762
 20
5.6402851465
 11
6.9428672762
 21
5.7091198968
  0
LINE
  5
224
100
AcDbEntity
  8
0
100
AcDbLine
 62
7
  6
CONTINUOUS
 10
6.8618205564
 20
5.3246494206
 11
6.9394598588
 21
5.614403242
  0
LINE
  5
225
100
AcDbEntity
  8
0
100
AcDbLine
 62
7
  6
CONTINUOUS
 10
6.8833720839
 20
10.6000477814
 11
5.2583720839
 21
10.6000477814
  0
LINE
  5
226
100
AcDbEntity
  8
0
100
AcDbLine
 62
7
  6
CONTINUOUS
 10
5.2583720839
 20
10.6000477814
 11
5.2583720839
 21
14.6000477814
  0
LINE
  5
227
100
AcDbEntity
  8
0
100
AcDbLine
 62
7
  6
CONTINUOUS
 10
6.8833720839
 20
10.6000477814
 11
6.8833720839
 21
14.6000477814
  0
LINE
  5
228
100
AcDbEntity
  8
0
100
AcDbLine
 62
7
  6
CONTINUOUS
 10
5.2583720839
 20
14.6000477814
 11
6.8833720839
 21
14.6000477814
  0
LINE
  5
229
100
AcDbEntity
  8
0
100
AcDbLine
 62
7
  6
CONTINUOUS
 10
13.5603552569
 20
5.3892913711
 11
13.5603552569
 21
5.6746247044
  0
LINE
  5
22A
100
AcDbEntity
  8
0
100
AcDbLine
 62
7
  6
CONTINUOUS
 10
13.6752686439
 20
5.3616479587
 11
13.69544187
 21
5.2742681168
  0
LINE
  5
22B
100
AcDbEntity
  8
0
100
AcDbLine
 62
7
  6
CONTINUOUS
 10
13.9252686439
 20
5.2742681168
 11
13.94544187
 21
5.3616479587
  0
LINE
  5
22C
100
AcDbEntity
  8
0
100
AcDbLine
 62
7
  6
CONTINUOUS
 10
14.1752686439
 20
5.3616479587
 11
14.19544187
 21
5.2742681168
  0
LINE
  5
22D
100
AcDbEntity
  8
0
100
AcDbLine
 62
7
  6
CONTINUOUS
 10
14.4252686439
 20
5.2742681168
 11
14.44544187
 21
5.3616479587
  0
LINE
  5
22E
100
AcDbEntity
  8
0
100
AcDbLine
 62
7
  6
CONTINUOUS
 10
14.6752686439
 20
5.3616479587
 11
14.69544187
 21
5.2742681168
  0
LINE
  5
22F
100
AcDbEntity
  8
0
100
AcDbLine
 62
7
  6
CONTINUOUS
 10
14.9252686439
 20
5.2742681168
 11
14.94544187
 21
5.3616479587
  0
LINE
  5
230
100
AcDbEntity
  8
0
100
AcDbLine
 62
7
  6
CONTINUOUS
 10
15.1752686439
 20
5.3616479587
 11
15.19544187
 21
5.2742681168
  0
LINE
  5
231
100
AcDbEntity
  8
0
100
AcDbLine
 62
7
  6
CONTINUOUS
 10
13.7301944023
 20
5.2466247044
 11
13.8905161116
 21
5.2466247044
  0
LINE
  5
232
100
AcDbEntity
  8
0
100
AcDbLine
 62
7
  6
CONTINUOUS
 10
14.2301944023
 20
5.2466247044
 11
14.3905161116
 21
5.2466247044
  0
LINE
  5
233
100
AcDbEntity
  8
0
100
AcDbLine
 62
7
  6
CONTINUOUS
 10
14.7301944023
 20
5.2466247044
 11
14.8905161116
 21
5.2466247044
  0
LINE
  5
234
100
AcDbEntity
  8
0
100
AcDbLine
 62
7
  6
CONTINUOUS
 10
15.2301944023
 20
5.2466247044
 11
15.3905161116
 21
5.2466247044
  0
LINE
  5
235
100
AcDbEntity
  8
0
100
AcDbLine
 62
7
  6
CONTINUOUS
 10
15.7301944023
 20
5.2466247044
 11
15.8905161116
 21
5.2466247044
  0
LINE
  5
236
100
AcDbEntity
  8
0
100
AcDbLine
 62
7
  6
CONTINUOUS
 10
16.2301944023
 20
5.2466247044
 11
16.3905161116
 21
5.2466247044
  0
LINE
  5
237
100
AcDbEntity
  8
0
100
AcDbLine
 62
7
  6
CONTINUOUS
 10
16.7301944023
 20
5.2466247044
 11
16.8905161116
 21
5.2466247044
  0
LINE
  5
238
100
AcDbEntity
  8
0
100
AcDbLine
 62
7
  6
CONTINUOUS
 10
17.2301944023
 20
5.2466247044
 11
17.3905161116
 21
5.2466247044
  0
LINE
  5
239
100
AcDbEntity
  8
0
100
AcDbLine
 62
7
  6
CONTINUOUS
 10
15.4252686439
 20
5.2742681168
 11
15.44544187
 21
5.3616479587
  0
LINE
  5
23A
100
AcDbEntity
  8
0
100
AcDbLine
 62
7
  6
CONTINUOUS
 10
13.5603552569
 20
5.3892913711
 11
13.6405161116
 21
5.3892913711
  0
LINE
  5
23B
100
AcDbEntity
  8
0
100
AcDbLine
 62
7
  6
CONTINUOUS
 10
13.9801944023
 20
5.3892913711
 11
14.1405161116
 21
5.3892913711
  0
LINE
  5
23C
100
AcDbEntity
  8
0
100
AcDbLine
 62
7
  6
CONTINUOUS
 10
14.4801944023
 20
5.3892913711
 11
14.6405161116
 21
5.3892913711
  0
LINE
  5
23D
100
AcDbEntity
  8
0
100
AcDbLine
 62
7
  6
CONTINUOUS
 10
14.9801944023
 20
5.3892913711
 11
15.1405161116
 21
5.3892913711
  0
LINE
  5
23E
100
AcDbEntity
  8
0
100
AcDbLine
 62
7
  6
CONTINUOUS
 10
15.4801944023
 20
5.3892913711
 11
15.6405161116
 21
5.3892913711
  0
LINE
  5
23F
100
AcDbEntity
  8
0
100
AcDbLine
 62
7
  6
CONTINUOUS
 10
15.9801944023
 20
5.3892913711
 11
16.1405161116
 21
5.3892913711
  0
LINE
  5
240
100
AcDbEntity
  8
0
100
AcDbLine
 62
7
  6
CONTINUOUS
 10
16.4801944023
 20
5.3892913711
 11
16.6405161116
 21
5.3892913711
  0
LINE
  5
241
100
AcDbEntity
  8
0
100
AcDbLine
 62
7
  6
CONTINUOUS
 10
16.9801944023
 20
5.3892913711
 11
17.1405161116
 21
5.3892913711
  0
LINE
  5
242
100
AcDbEntity
  8
0
100
AcDbLine
 62
7
  6
CONTINUOUS
 10
17.4801944023
 20
5.3892913711
 11
17.5603552569
 21
5.3892913711
  0
LINE
  5
243
100
AcDbEntity
  8
0
100
AcDbLine
 62
7
  6
CONTINUOUS
 10
15.6752686439
 20
5.3616479587
 11
15.69544187
 21
5.2742681168
  0
LINE
  5
244
100
AcDbEntity
  8
0
100
AcDbLine
 62
7
  6
CONTINUOUS
 10
13.5603552569
 20
5.6746247044
 11
17.5603552569
 21
5.6746247044
  0
LINE
  5
245
100
AcDbEntity
  8
0
100
AcDbLine
 62
7
  6
CONTINUOUS
 10
15.9252686439
 20
5.2742681168
 11
15.94544187
 21
5.3616479587
  0
LINE
  5
246
100
AcDbEntity
  8
0
100
AcDbLine
 62
7
  6
CONTINUOUS
 10
16.1752686439
 20
5.3616479587
 11
16.19544187
 21
5.2742681168
  0
LINE
  5
247
100
AcDbEntity
  8
0
100
AcDbLine
 62
7
  6
CONTINUOUS
 10
16.4252686439
 20
5.2742681168
 11
16.44544187
 21
5.3616479587
  0
LINE
  5
248
100
AcDbEntity
  8
0
100
AcDbLine
 62
7
  6
CONTINUOUS
 10
16.6752686439
 20
5.3616479587
 11
16.69544187
 21
5.2742681168
  0
LINE
  5
249
100
AcDbEntity
  8
0
100
AcDbLine
 62
7
  6
CONTINUOUS
 10
16.9252686439
 20
5.2742681168
 11
16.94544187
 21
5.3616479587
  0
LINE
  5
24A
100
AcDbEntity
  8
0
100
AcDbLine
 62
7
  6
CONTINUOUS
 10
17.1752686439
 20
5.3616479587
 11
17.19544187
 21
5.2742681168
  0
LINE
  5
24B
100
AcDbEntity
  8
0
100
AcDbLine
 62
7
  6
CONTINUOUS
 10
17.5603552569
 20
5.3892913711
 11
17.5603552569
 21
5.6746247044
  0
LINE
  5
24C
100
AcDbEntity
  8
0
100
AcDbLine
 62
7
  6
CONTINUOUS
 10
17.4252686439
 20
5.2742681168
 11
17.44544187
 21
5.3616479587
  0
LINE
  5
24D
100
AcDbEntity
  8
0
100
AcDbLine
 62
7
  6
CONTINUOUS
 10
14.2541029769
 20
10.9584171298
 11
14.3352714665
 21
10.8669862883
  0
LWPOLYLINE
  5
24E
100
AcDbEntity
  8
0
100
AcDbPolyline
 62
7
  6
CONTINUOUS
 90
5
 70
0
 10
15.776066443
 20
10.8863289197
 10
15.7861446809
 20
10.8884090364
 10
15.793659414
 20
10.8933466673
 10
15.7983290578
 20
10.8991144099
 10
15.801137512
 20
10.9048779518
  0
LINE
  5
24F
100
AcDbEntity
  8
0
100
AcDbLine
 62
7
  6
CONTINUOUS
 10
14.3631656621
 20
10.8554681515
 11
15.7365275701
 21
10.8554681515
  0
LINE
  5
250
100
AcDbEntity
  8
0
100
AcDbLine
 62
7
  6
CONTINUOUS
 10
14.2220719925
 20
11.0172939466
 11
14.2430694732
 21
10.9745055797
  0
LINE
  5
251
100
AcDbEntity
  8
0
100
AcDbLine
 62
7
  6
CONTINUOUS
 10
15.7598023617
 20
10.8863287911
 11
15.776065222
 21
10.8863287911
  0
LINE
  5
252
100
AcDbEntity
  8
0
100
AcDbLine
 62
7
  6
CONTINUOUS
 10
15.6881435363
 20
11.0328341958
 11
14.2374724707
 21
11.0328341958
  0
LWPOLYLINE
  5
253
100
AcDbEntity
  8
0
100
AcDbPolyline
 62
7
  6
CONTINUOUS
 90
5
 70
0
 10
15.8970996047
 20
11.2779923745
 10
15.9071778426
 20
11.2800724912
 10
15.9146925757
 20
11.2850101221
 10
15.9193622195
 20
11.2907778647
 10
15.9221706737
 20
11.2965414066
  0
LINE
  5
254
100
AcDbEntity
  8
0
100
AcDbLine
 62
7
  6
CONTINUOUS
 10
15.8808355234
 20
11.2779922459
 11
15.8970983837
 21
11.2779922459
  0
LWPOLYLINE
  5
255
100
AcDbEntity
  8
0
100
AcDbPolyline
 62
7
  6
CONTINUOUS
 90
5
 70
0
 10
16.0181327664
 20
11.6696558293
 10
16.0282110043
 20
11.671735946
 10
16.0357257374
 20
11.6766735769
 10
16.0403953812
 20
11.6824413195
 10
16.0432038354
 20
11.6882048614
  0
LINE
  5
256
100
AcDbEntity
  8
0
100
AcDbLine
 62
7
  6
CONTINUOUS
 10
16.0018686851
 20
11.6696557007
 11
16.0181315455
 21
11.6696557007
  0
LINE
  5
257
100
AcDbEntity
  8
0
100
AcDbLine
 62
7
  6
CONTINUOUS
 10
14.2212129963
 20
11.0246751309
 11
15.1894782899
 21
14.1579827694
  0
LWPOLYLINE
  5
258
100
AcDbEntity
  8
0
100
AcDbPolyline
 62
7
  6
CONTINUOUS
 90
5
 70
0
 10
16.1391659281
 20
12.0613192841
 10
16.149244166
 20
12.0633994009
 10
16.1567588991
 20
12.0683370317
 10
16.1614285429
 20
12.0741047743
 10
16.1642369971
 20
12.0798683162
  0
LINE
  5
259
100
AcDbEntity
  8
0
100
AcDbLine
 62
7
  6
CONTINUOUS
 10
16.1229018468
 20
12.0613191555
 11
16.1391647072
 21
12.0613191555
  0
LINE
  5
25A
100
AcDbEntity
  8
0
100
AcDbLine
 62
7
  6
CONTINUOUS
 10
15.7397935885
 20
10.9745055797
 11
15.7187961078
 21
11.0172939466
  0
LWPOLYLINE
  5
25B
100
AcDbEntity
  8
0
100
AcDbPolyline
 62
7
  6
CONTINUOUS
 90
5
 70
0
 10
16.2601990898
 20
12.452982739
 10
16.2702773277
 20
12.4550628557
 10
16.2777920608
 20
12.4600004865
 10
16.2824617046
 20
12.4657682291
 10
16.2852701588
 20
12.471531771
  0
LINE
  5
25C
100
AcDbEntity
  8
0
100
AcDbLine
 62
7
  6
CONTINUOUS
 10
16.2439350085
 20
12.4529826103
 11
16.2601978689
 21
12.4529826103
  0
LINE
  5
25D
100
AcDbEntity
  8
0
100
AcDbLine
 62
7
  6
CONTINUOUS
 10
15.7531172046
 20
10.8669862883
 11
15.7445502137
 21
10.9584171298
  0
LWPOLYLINE
  5
25E
100
AcDbEntity
  8
0
100
AcDbPolyline
 62
7
  6
CONTINUOUS
 90
5
 70
0
 10
16.3812322515
 20
12.8446461938
 10
16.3913104894
 20
12.8467263105
 10
16.3988252225
 20
12.8516639413
 10
16.4034948663
 20
12.8574316839
 10
16.4063033205
 20
12.8631952259
  0
LINE
  5
25F
100
AcDbEntity
  8
0
100
AcDbLine
 62
7
  6
CONTINUOUS
 10
15.8441661087
 20
11.0543030538
 11
15.8439599882
 21
11.1244214647
  0
LINE
  5
260
100
AcDbEntity
  8
0
100
AcDbLine
 62
7
  6
CONTINUOUS
 10
15.843959578
 20
11.1244426373
 11
15.8440298613
 21
11.1291943254
  0
LINE
  5
261
100
AcDbEntity
  8
0
100
AcDbLine
 62
7
  6
CONTINUOUS
 10
15.8440937203
 20
11.0513234183
 11
15.8441658471
 21
11.0543522796
  0
LINE
  5
262
100
AcDbEntity
  8
0
100
AcDbLine
 62
7
  6
CONTINUOUS
 10
16.3649681702
 20
12.8446460652
 11
16.3812310306
 21
12.8446460652
  0
LINE
  5
263
100
AcDbEntity
  8
0
100
AcDbLine
 62
7
  6
CONTINUOUS
 10
15.9651992704
 20
11.4459665086
 11
15.9649931499
 21
11.5160849195
  0
LINE
  5
264
100
AcDbEntity
  8
0
100
AcDbLine
 62
7
  6
CONTINUOUS
 10
15.9649927397
 20
11.5161060921
 11
15.965063023
 21
11.5208577802
  0
LINE
  5
265
100
AcDbEntity
  8
0
100
AcDbLine
 62
7
  6
CONTINUOUS
 10
15.965126882
 20
11.4429868732
 11
15.9651990088
 21
11.4460157344
  0
LWPOLYLINE
  5
266
100
AcDbEntity
  8
0
100
AcDbPolyline
 62
7
  6
CONTINUOUS
 90
5
 70
0
 10
15.8440298613
 20
11.1291943254
 10
15.8449335391
 20
11.1429059761
 10
15.8468854405
 20
11.1584250433
 10
15.849678243
 20
11.1738397564
 10
15.8529256339
 20
11.1873731038
  0
LWPOLYLINE
  5
267
100
AcDbEntity
  8
0
100
AcDbPolyline
 62
7
  6
CONTINUOUS
 90
5
 70
0
 10
15.965063023
 20
11.5208577802
 10
15.9659667008
 20
11.5345694309
 10
15.9679186022
 20
11.5500884981
 10
15.9707114047
 20
11.5655032112
 10
15.9739587956
 20
11.5790365586
  0
LINE
  5
268
100
AcDbEntity
  8
0
100
AcDbLine
 62
7
  6
CONTINUOUS
 10
15.7527840936
 20
10.8636281242
 11
15.7531172046
 21
10.8669862883
  0
LINE
  5
269
100
AcDbEntity
  8
0
100
AcDbLine
 62
7
  6
CONTINUOUS
 10
15.8433276496
 20
11.0438835007
 11
15.8440937203
 21
11.0513234183
  0
LINE
  5
26A
100
AcDbEntity
  8
0
100
AcDbLine
 62
7
  6
CONTINUOUS
 10
16.6231674666
 20
13.6782914241
 11
16.6238979105
 21
13.6797919483
  0
LWPOLYLINE
  5
26B
100
AcDbEntity
  8
0
100
AcDbPolyline
 62
7
  6
CONTINUOUS
 90
5
 70
0
 10
16.5022654132
 20
13.2363096486
 10
16.5123436511
 20
13.2383897653
 10
16.5198583842
 20
13.2433273961
 10
16.524528028
 20
13.2490951387
 10
16.5273364822
 20
13.2548586807
  0
LINE
  5
26C
100
AcDbEntity
  8
0
100
AcDbLine
 62
7
  6
CONTINUOUS
 10
16.0862324321
 20
11.8376299634
 11
16.0860263116
 21
11.9077483743
  0
LINE
  5
26D
100
AcDbEntity
  8
0
100
AcDbLine
 62
7
  6
CONTINUOUS
 10
16.0860259014
 20
11.9077695469
 11
16.0860961847
 21
11.912521235
  0
LINE
  5
26E
100
AcDbEntity
  8
0
100
AcDbLine
 62
7
  6
CONTINUOUS
 10
16.0861600437
 20
11.834650328
 11
16.0862321705
 21
11.8376791892
  0
LWPOLYLINE
  5
26F
100
AcDbEntity
  8
0
100
AcDbPolyline
 62
7
  6
CONTINUOUS
 90
5
 70
0
 10
16.0860961847
 20
11.912521235
 10
16.0869998625
 20
11.9262328857
 10
16.0889517639
 20
11.9417519529
 10
16.0917445664
 20
11.957166666
 10
16.0949919573
 20
11.9707000134
  0
LINE
  5
270
100
AcDbEntity
  8
0
100
AcDbLine
 62
7
  6
CONTINUOUS
 10
15.9643608113
 20
11.4355469555
 11
15.965126882
 21
11.4429868732
  0
LINE
  5
271
100
AcDbEntity
  8
0
100
AcDbLine
 62
7
  6
CONTINUOUS
 10
16.085393973
 20
11.8272104103
 11
16.0861600437
 21
11.834650328
  0
LINE
  5
272
100
AcDbEntity
  8
0
100
AcDbLine
 62
7
  6
CONTINUOUS
 10
15.8418186112
 20
11.0364125359
 11
15.8433276496
 21
11.0438835007
  0
LINE
  5
273
100
AcDbEntity
  8
0
100
AcDbLine
 62
7
  6
CONTINUOUS
 10
15.9628517729
 20
11.4280759908
 11
15.9643608113
 21
11.4355469555
  0
LINE
  5
274
100
AcDbEntity
  8
0
100
AcDbLine
 62
7
  6
CONTINUOUS
 10
16.6215043751
 20
13.6742259824
 11
16.6231674666
 21
13.6782914241
  0
LINE
  5
275
100
AcDbEntity
  8
0
100
AcDbLine
 62
7
  6
CONTINUOUS
 10
16.5004712134
 20
13.2825625276
 11
16.5021343048
 21
13.2866279693
  0
LINE
  5
276
100
AcDbEntity
  8
0
100
AcDbLine
 62
7
  6
CONTINUOUS
 10
16.3794380517
 20
12.8908990727
 11
16.3811011431
 21
12.8949645145
  0
LINE
  5
277
100
AcDbEntity
  8
0
100
AcDbLine
 62
7
  6
CONTINUOUS
 10
16.5021343048
 20
13.2866279693
 11
16.5028647488
 21
13.2881284935
  0
LINE
  5
278
100
AcDbEntity
  8
0
100
AcDbLine
 62
7
  6
CONTINUOUS
 10
16.3811011431
 20
12.8949645145
 11
16.3818315871
 21
12.8964650387
  0
LINE
  5
279
100
AcDbEntity
  8
0
100
AcDbLine
 62
7
  6
CONTINUOUS
 10
16.2072655938
 20
12.2292934182
 11
16.2070594733
 21
12.2994118291
  0
LINE
  5
27A
100
AcDbEntity
  8
0
100
AcDbLine
 62
7
  6
CONTINUOUS
 10
16.2070590631
 20
12.2994330017
 11
16.2071293464
 21
12.3041846898
  0
LINE
  5
27B
100
AcDbEntity
  8
0
100
AcDbLine
 62
7
  6
CONTINUOUS
 10
16.2071932054
 20
12.2263137828
 11
16.2072653322
 21
12.2293426441
  0
LWPOLYLINE
  5
27C
100
AcDbEntity
  8
0
100
AcDbPolyline
 62
7
  6
CONTINUOUS
 90
5
 70
0
 10
16.2071293464
 20
12.3041846898
 10
16.2080330242
 20
12.3178963405
 10
16.2099849256
 20
12.3334154078
 10
16.2127777281
 20
12.3488301208
 10
16.216025119
 20
12.3623634682
  0
LWPOLYLINE
  5
27D
100
AcDbEntity
  8
0
100
AcDbPolyline
 62
7
  6
CONTINUOUS
 90
5
 70
0
 10
16.3281625081
 20
12.6958481446
 10
16.3290661859
 20
12.7095597954
 10
16.3310180873
 20
12.7250788626
 10
16.3338108898
 20
12.7404935757
 10
16.3370582807
 20
12.754026923
  0
LINE
  5
27E
100
AcDbEntity
  8
0
100
AcDbLine
 62
7
  6
CONTINUOUS
 10
16.2064271347
 20
12.2188738651
 11
16.2071932054
 21
12.2263137828
  0
LINE
  5
27F
100
AcDbEntity
  8
0
100
AcDbLine
 62
7
  6
CONTINUOUS
 10
16.3274602964
 20
12.6105373199
 11
16.3282263671
 21
12.6179772376
  0
LINE
  5
280
100
AcDbEntity
  8
0
100
AcDbLine
 62
7
  6
CONTINUOUS
 10
16.0838849346
 20
11.8197394456
 11
16.085393973
 21
11.8272104103
  0
LINE
  5
281
100
AcDbEntity
  8
0
100
AcDbLine
 62
7
  6
CONTINUOUS
 10
16.2049180963
 20
12.2114029004
 11
16.2064271347
 21
12.2188738651
  0
LINE
  5
282
100
AcDbEntity
  8
0
100
AcDbLine
 62
7
  6
CONTINUOUS
 10
16.325951258
 20
12.6030663552
 11
16.3274602964
 21
12.6105373199
  0
LINE
  5
283
100
AcDbEntity
  8
0
100
AcDbLine
 62
7
  6
CONTINUOUS
 10
15.8410046305
 20
11.0335271752
 11
15.8418186112
 21
11.0364125359
  0
LINE
  5
284
100
AcDbEntity
  8
0
100
AcDbLine
 62
7
  6
CONTINUOUS
 10
15.9620377922
 20
11.42519063
 11
15.9628517729
 21
11.4280759908
  0
LINE
  5
285
100
AcDbEntity
  8
0
100
AcDbLine
 62
7
  6
CONTINUOUS
 10
16.0830709539
 20
11.8168540848
 11
16.0838849346
 21
11.8197394456
  0
LINE
  5
286
100
AcDbEntity
  8
0
100
AcDbLine
 62
7
  6
CONTINUOUS
 10
16.2041041156
 20
12.2085175396
 11
16.2049180963
 21
12.2114029004
  0
LINE
  5
287
100
AcDbEntity
  8
0
100
AcDbLine
 62
7
  6
CONTINUOUS
 10
16.3251372773
 20
12.6001809944
 11
16.325951258
 21
12.6030663552
  0
LINE
  5
288
100
AcDbEntity
  8
0
100
AcDbLine
 62
7
  6
CONTINUOUS
 10
16.446170439
 20
12.9918444493
 11
16.4469844197
 21
12.99472981
  0
LINE
  5
289
100
AcDbEntity
  8
0
100
AcDbLine
 62
7
  6
CONTINUOUS
 10
16.5672036007
 20
13.3835079041
 11
16.5680175814
 21
13.3863932648
  0
LINE
  5
28A
100
AcDbEntity
  8
0
100
AcDbLine
 62
7
  6
CONTINUOUS
 10
16.6882367624
 20
13.7751713589
 11
16.6890507431
 21
13.7780567196
  0
LINE
  5
28B
100
AcDbEntity
  8
0
100
AcDbLine
 62
7
  6
CONTINUOUS
 10
15.8529256339
 20
11.1873731038
 11
15.8544097187
 21
11.1924840358
  0
LINE
  5
28C
100
AcDbEntity
  8
0
100
AcDbLine
 62
7
  6
CONTINUOUS
 10
15.9739587956
 20
11.5790365586
 11
15.9754428804
 21
11.5841474907
  0
LINE
  5
28D
100
AcDbEntity
  8
0
100
AcDbLine
 62
7
  6
CONTINUOUS
 10
16.0949919573
 20
11.9707000134
 11
16.0964760421
 21
11.9758109455
  0
LINE
  5
28E
100
AcDbEntity
  8
0
100
AcDbLine
 62
7
  6
CONTINUOUS
 10
16.216025119
 20
12.3623634682
 11
16.2175092038
 21
12.3674744003
  0
LINE
  5
28F
100
AcDbEntity
  8
0
100
AcDbLine
 62
7
  6
CONTINUOUS
 10
16.3370582807
 20
12.754026923
 11
16.3385423655
 21
12.7591378551
  0
LINE
  5
290
100
AcDbEntity
  8
0
100
AcDbLine
 62
7
  6
CONTINUOUS
 10
16.4580914424
 20
13.1456903778
 11
16.4595755272
 21
13.1508013099
  0
LINE
  5
291
100
AcDbEntity
  8
0
100
AcDbLine
 62
7
  6
CONTINUOUS
 10
16.5791246041
 20
13.5373538327
 11
16.5806086889
 21
13.5424647647
  0
LINE
  5
292
100
AcDbEntity
  8
0
100
AcDbLine
 62
7
  6
CONTINUOUS
 10
16.7001577658
 20
13.9290172875
 11
16.7016418506
 21
13.9341282195
  0
LINE
  5
293
100
AcDbEntity
  8
0
100
AcDbLine
 62
7
  6
CONTINUOUS
 10
15.7537633704
 20
10.8667866079
 11
15.7721912889
 21
10.9264193743
  0
LINE
  5
294
100
AcDbEntity
  8
0
100
AcDbLine
 62
7
  6
CONTINUOUS
 10
15.8544159629
 20
11.1924985167
 11
15.8932244507
 21
11.3180828291
  0
LINE
  5
295
100
AcDbEntity
  8
0
100
AcDbLine
 62
7
  6
CONTINUOUS
 10
15.9754491246
 20
11.5841619715
 11
16.0142576124
 21
11.7097462839
  0
LINE
  5
296
100
AcDbEntity
  8
0
100
AcDbLine
 62
7
  6
CONTINUOUS
 10
16.0964822863
 20
11.9758254263
 11
16.1352907741
 21
12.1014097387
  0
LINE
  5
297
100
AcDbEntity
  8
0
100
AcDbLine
 62
7
  6
CONTINUOUS
 10
16.217515448
 20
12.3674888811
 11
16.2563239358
 21
12.4930731935
  0
LINE
  5
298
100
AcDbEntity
  8
0
100
AcDbLine
 62
7
  6
CONTINUOUS
 10
16.3385486097
 20
12.7591523359
 11
16.3773570975
 21
12.8847366483
  0
LINE
  5
299
100
AcDbEntity
  8
0
100
AcDbLine
 62
7
  6
CONTINUOUS
 10
16.4595817714
 20
13.1508157907
 11
16.4983902592
 21
13.2764001032
  0
LINE
  5
29A
100
AcDbEntity
  8
0
100
AcDbLine
 62
7
  6
CONTINUOUS
 10
16.5806149331
 20
13.5424792455
 11
16.6194234209
 21
13.668063558
  0
LINE
  5
29B
100
AcDbEntity
  8
0
100
AcDbLine
 62
7
  6
CONTINUOUS
 10
16.7016480948
 20
13.9341427004
 11
16.7210523382
 21
13.9969348549
  0
LINE
  5
29C
100
AcDbEntity
  8
0
100
AcDbLine
 62
7
  6
CONTINUOUS
 10
15.8022089046
 20
10.9079837671
 11
15.8410173911
 21
11.0335680755
  0
LINE
  5
29D
100
AcDbEntity
  8
0
100
AcDbLine
 62
7
  6
CONTINUOUS
 10
15.9232420663
 20
11.2996472219
 11
15.9620505528
 21
11.4252315303
  0
LINE
  5
29E
100
AcDbEntity
  8
0
100
AcDbLine
 62
7
  6
CONTINUOUS
 10
16.044275228
 20
11.6913106768
 11
16.0830837145
 21
11.8168949851
  0
LINE
  5
29F
100
AcDbEntity
  8
0
100
AcDbLine
 62
7
  6
CONTINUOUS
 10
16.1653083897
 20
12.0829741316
 11
16.2041168762
 21
12.20855844
  0
LINE
  5
2A0
100
AcDbEntity
  8
0
100
AcDbLine
 62
7
  6
CONTINUOUS
 10
16.2863415514
 20
12.4746375864
 11
16.3251500379
 21
12.6002218948
  0
LINE
  5
2A1
100
AcDbEntity
  8
0
100
AcDbLine
 62
7
  6
CONTINUOUS
 10
16.4073747131
 20
12.8663010412
 11
16.4461831996
 21
12.9918853496
  0
LINE
  5
2A2
100
AcDbEntity
  8
0
100
AcDbLine
 62
7
  6
CONTINUOUS
 10
16.5284078748
 20
13.257964496
 11
16.5672163613
 21
13.3835488044
  0
LINE
  5
2A3
100
AcDbEntity
  8
0
100
AcDbLine
 62
7
  6
CONTINUOUS
 10
16.6494410365
 20
13.6496279508
 11
16.6882495231
 21
13.7752122592
  0
LINE
  5
2A4
100
AcDbEntity
  8
0
100
AcDbLine
 62
7
  6
CONTINUOUS
 10
16.6882495231
 20
13.7752122592
 11
16.6882367664
 21
13.775171358
  0
LINE
  5
2A5
100
AcDbEntity
  8
0
100
AcDbLine
 62
7
  6
CONTINUOUS
 10
16.5672163613
 20
13.3835488044
 11
16.5672036047
 21
13.3835079032
  0
LINE
  5
2A6
100
AcDbEntity
  8
0
100
AcDbLine
 62
7
  6
CONTINUOUS
 10
16.4461831996
 20
12.9918853496
 11
16.446170443
 21
12.9918444484
  0
LINE
  5
2A7
100
AcDbEntity
  8
0
100
AcDbLine
 62
7
  6
CONTINUOUS
 10
16.3251500379
 20
12.6002218948
 11
16.3251372813
 21
12.6001809936
  0
LINE
  5
2A8
100
AcDbEntity
  8
0
100
AcDbLine
 62
7
  6
CONTINUOUS
 10
16.2041168762
 20
12.20855844
 11
16.2041041196
 21
12.2085175387
  0
LINE
  5
2A9
100
AcDbEntity
  8
0
100
AcDbLine
 62
7
  6
CONTINUOUS
 10
16.0830837145
 20
11.8168949851
 11
16.0830709579
 21
11.8168540839
  0
LINE
  5
2AA
100
AcDbEntity
  8
0
100
AcDbLine
 62
7
  6
CONTINUOUS
 10
15.9620505528
 20
11.4252315303
 11
15.9620377962
 21
11.4251906291
  0
LINE
  5
2AB
100
AcDbEntity
  8
0
100
AcDbLine
 62
7
  6
CONTINUOUS
 10
15.8410173911
 20
11.0335680755
 11
15.8410046345
 21
11.0335271743
  0
LINE
  5
2AC
100
AcDbEntity
  8
0
100
AcDbLine
 62
7
  6
CONTINUOUS
 10
16.6194222735
 20
13.6680612827
 11
16.6215043751
 21
13.6742259824
  0
LINE
  5
2AD
100
AcDbEntity
  8
0
100
AcDbLine
 62
7
  6
CONTINUOUS
 10
16.4983891118
 20
13.2763978279
 11
16.5004712134
 21
13.2825625276
  0
LINE
  5
2AE
100
AcDbEntity
  8
0
100
AcDbLine
 62
7
  6
CONTINUOUS
 10
16.3773559501
 20
12.884734373
 11
16.3794380517
 21
12.8908990727
  0
LINE
  5
2AF
100
AcDbEntity
  8
0
100
AcDbLine
 62
7
  6
CONTINUOUS
 10
16.2563227884
 20
12.4930709182
 11
16.25840489
 21
12.4992356179
  0
LINE
  5
2B0
100
AcDbEntity
  8
0
100
AcDbLine
 62
7
  6
CONTINUOUS
 10
16.1352896267
 20
12.1014074634
 11
16.1373717283
 21
12.1075721631
  0
LINE
  5
2B1
100
AcDbEntity
  8
0
100
AcDbLine
 62
7
  6
CONTINUOUS
 10
16.014256465
 20
11.7097440086
 11
16.0163385666
 21
11.7159087083
  0
LINE
  5
2B2
100
AcDbEntity
  8
0
100
AcDbLine
 62
7
  6
CONTINUOUS
 10
15.8932233033
 20
11.3180805538
 11
15.8953054049
 21
11.3242452535
  0
LINE
  5
2B3
100
AcDbEntity
  8
0
100
AcDbLine
 62
7
  6
CONTINUOUS
 10
15.7721901416
 20
10.926417099
 11
15.7742722432
 21
10.9325817987
  0
LINE
  5
2B4
100
AcDbEntity
  8
0
100
AcDbLine
 62
7
  6
CONTINUOUS
 10
16.6483696439
 20
13.6465221355
 11
16.6494476103
 21
13.6496494034
  0
LINE
  5
2B5
100
AcDbEntity
  8
0
100
AcDbLine
 62
7
  6
CONTINUOUS
 10
16.5273364822
 20
13.2548586807
 11
16.5284144486
 21
13.2579859486
  0
LINE
  5
2B6
100
AcDbEntity
  8
0
100
AcDbLine
 62
7
  6
CONTINUOUS
 10
16.4063033205
 20
12.8631952259
 11
16.4073812868
 21
12.8663224937
  0
LINE
  5
2B7
100
AcDbEntity
  8
0
100
AcDbLine
 62
7
  6
CONTINUOUS
 10
16.2852701588
 20
12.471531771
 11
16.2863481251
 21
12.4746590389
  0
LINE
  5
2B8
100
AcDbEntity
  8
0
100
AcDbLine
 62
7
  6
CONTINUOUS
 10
16.1642369971
 20
12.0798683162
 11
16.1653149634
 21
12.0829955841
  0
LINE
  5
2B9
100
AcDbEntity
  8
0
100
AcDbLine
 62
7
  6
CONTINUOUS
 10
16.0432038354
 20
11.6882048614
 11
16.0442818017
 21
11.6913321293
  0
LINE
  5
2BA
100
AcDbEntity
  8
0
100
AcDbLine
 62
7
  6
CONTINUOUS
 10
15.9221706737
 20
11.2965414066
 11
15.92324864
 21
11.2996686745
  0
LINE
  5
2BB
100
AcDbEntity
  8
0
100
AcDbLine
 62
7
  6
CONTINUOUS
 10
15.801137512
 20
10.9048779518
 11
15.8022154783
 21
10.9080052197
  0
LINE
  5
2BC
100
AcDbEntity
  8
0
100
AcDbLine
 62
7
  6
CONTINUOUS
 10
16.25840489
 20
12.4992356179
 11
16.2600679814
 21
12.5033010597
  0
LINE
  5
2BD
100
AcDbEntity
  8
0
100
AcDbLine
 62
7
  6
CONTINUOUS
 10
16.1373717283
 20
12.1075721631
 11
16.1390348197
 21
12.1116376049
  0
LINE
  5
2BE
100
AcDbEntity
  8
0
100
AcDbLine
 62
7
  6
CONTINUOUS
 10
16.0163385666
 20
11.7159087083
 11
16.018001658
 21
11.7199741501
  0
LINE
  5
2BF
100
AcDbEntity
  8
0
100
AcDbLine
 62
7
  6
CONTINUOUS
 10
15.8953054049
 20
11.3242452535
 11
15.8969684963
 21
11.3283106953
  0
LINE
  5
2C0
100
AcDbEntity
  8
0
100
AcDbLine
 62
7
  6
CONTINUOUS
 10
16.2600679814
 20
12.5033010597
 11
16.2607984254
 21
12.5048015839
  0
LINE
  5
2C1
100
AcDbEntity
  8
0
100
AcDbLine
 62
7
  6
CONTINUOUS
 10
16.1390348197
 20
12.1116376049
 11
16.1397652637
 21
12.1131381291
  0
LINE
  5
2C2
100
AcDbEntity
  8
0
100
AcDbLine
 62
7
  6
CONTINUOUS
 10
16.018001658
 20
11.7199741501
 11
16.018732102
 21
11.7214746743
  0
LINE
  5
2C3
100
AcDbEntity
  8
0
100
AcDbLine
 62
7
  6
CONTINUOUS
 10
16.4860013319
 20
13.23630952
 11
16.5022641923
 21
13.23630952
  0
LINE
  5
2C4
100
AcDbEntity
  8
0
100
AcDbLine
 62
7
  6
CONTINUOUS
 10
16.3282987555
 20
12.620956873
 11
16.328092635
 21
12.6910752839
  0
LINE
  5
2C5
100
AcDbEntity
  8
0
100
AcDbLine
 62
7
  6
CONTINUOUS
 10
16.4493319172
 20
13.0126203279
 11
16.4491257967
 21
13.0827387387
  0
LINE
  5
2C6
100
AcDbEntity
  8
0
100
AcDbLine
 62
7
  6
CONTINUOUS
 10
16.3280922248
 20
12.6910964565
 11
16.3281625081
 21
12.6958481446
  0
LINE
  5
2C7
100
AcDbEntity
  8
0
100
AcDbLine
 62
7
  6
CONTINUOUS
 10
16.4491253865
 20
13.0827599113
 11
16.4491956698
 21
13.0875115994
  0
LINE
  5
2C8
100
AcDbEntity
  8
0
100
AcDbLine
 62
7
  6
CONTINUOUS
 10
16.3282263671
 20
12.6179772376
 11
16.3282984939
 21
12.6210060989
  0
LINE
  5
2C9
100
AcDbEntity
  8
0
100
AcDbLine
 62
7
  6
CONTINUOUS
 10
16.4492595288
 20
13.0096406924
 11
16.4493316556
 21
13.0126695537
  0
LWPOLYLINE
  5
2CA
100
AcDbEntity
  8
0
100
AcDbPolyline
 62
7
  6
CONTINUOUS
 90
5
 70
0
 10
16.4491956698
 20
13.0875115994
 10
16.4500993476
 20
13.1012232502
 10
16.452051249
 20
13.1167423174
 10
16.4548440515
 20
13.1321570305
 10
16.4580914424
 20
13.1456903778
  0
LINE
  5
2CB
100
AcDbEntity
  8
0
100
AcDbLine
 62
7
  6
CONTINUOUS
 10
16.4484934581
 20
13.0022007748
 11
16.4492595288
 21
13.0096406924
  0
LINE
  5
2CC
100
AcDbEntity
  8
0
100
AcDbLine
 62
7
  6
CONTINUOUS
 10
16.4469844197
 20
12.99472981
 11
16.4484934581
 21
13.0022007748
  0
LINE
  5
2CD
100
AcDbEntity
  8
0
100
AcDbLine
 62
7
  6
CONTINUOUS
 10
16.5680175814
 20
13.3863932648
 11
16.5695266198
 21
13.3938642296
  0
LINE
  5
2CE
100
AcDbEntity
  8
0
100
AcDbLine
 62
7
  6
CONTINUOUS
 10
16.6890507431
 20
13.7780567196
 11
16.6905597815
 21
13.7855276844
  0
LINE
  5
2CF
100
AcDbEntity
  8
0
100
AcDbLine
 62
7
  6
CONTINUOUS
 10
15.7742722432
 20
10.9325817987
 11
15.7759353346
 21
10.9366472404
  0
LINE
  5
2D0
100
AcDbEntity
  8
0
100
AcDbLine
 62
7
  6
CONTINUOUS
 10
15.8969684963
 20
11.3283106953
 11
15.8976989403
 21
11.3298112194
  0
LINE
  5
2D1
100
AcDbEntity
  8
0
100
AcDbLine
 62
7
  6
CONTINUOUS
 10
15.7759353346
 20
10.9366472404
 11
15.7766657786
 21
10.9381477646
  0
LWPOLYLINE
  5
2D2
100
AcDbEntity
  8
0
100
AcDbPolyline
 62
7
  6
CONTINUOUS
 90
5
 70
0
 10
16.6232985749
 20
13.6279731034
 10
16.6333768128
 20
13.6300532201
 10
16.6408915459
 20
13.634990851
 10
16.6455611897
 20
13.6407585936
 10
16.6483696439
 20
13.6465221355
  0
LINE
  5
2D3
100
AcDbEntity
  8
0
100
AcDbLine
 62
7
  6
CONTINUOUS
 10
16.5703650789
 20
13.4042837827
 11
16.5701589584
 21
13.4744021935
  0
LINE
  5
2D4
100
AcDbEntity
  8
0
100
AcDbLine
 62
7
  6
CONTINUOUS
 10
16.5701585482
 20
13.4744233661
 11
16.5702288315
 21
13.4791750543
  0
LINE
  5
2D5
100
AcDbEntity
  8
0
100
AcDbLine
 62
7
  6
CONTINUOUS
 10
16.5702926905
 20
13.4013041472
 11
16.5703648173
 21
13.4043330085
  0
LWPOLYLINE
  5
2D6
100
AcDbEntity
  8
0
100
AcDbPolyline
 62
7
  6
CONTINUOUS
 90
5
 70
0
 10
16.5702288315
 20
13.4791750543
 10
16.5711325093
 20
13.492886705
 10
16.5730844107
 20
13.5084057722
 10
16.5758772132
 20
13.5238204853
 10
16.5791246041
 20
13.5373538327
  0
LINE
  5
2D7
100
AcDbEntity
  8
0
100
AcDbLine
 62
7
  6
CONTINUOUS
 10
16.7213824982
 20
14.0002939268
 11
16.7210493873
 21
13.9969357627
  0
LINE
  5
2D8
100
AcDbEntity
  8
0
100
AcDbLine
 62
7
  6
CONTINUOUS
 10
16.5695266198
 20
13.3938642296
 11
16.5702926905
 21
13.4013041472
  0
LINE
  5
2D9
100
AcDbEntity
  8
0
100
AcDbLine
 62
7
  6
CONTINUOUS
 10
16.6905597815
 20
13.7855276844
 11
16.6913258522
 21
13.792967602
  0
LINE
  5
2DA
100
AcDbEntity
  8
0
100
AcDbLine
 62
7
  6
CONTINUOUS
 10
16.6070344936
 20
13.6279729748
 11
16.623297354
 21
13.6279729748
  0
LINE
  5
2DB
100
AcDbEntity
  8
0
100
AcDbLine
 62
7
  6
CONTINUOUS
 10
16.6913982406
 20
13.7959472375
 11
16.6911921201
 21
13.8660656483
  0
LINE
  5
2DC
100
AcDbEntity
  8
0
100
AcDbLine
 62
7
  6
CONTINUOUS
 10
16.6911917099
 20
13.866086821
 11
16.6912619932
 21
13.8708385091
  0
LINE
  5
2DD
100
AcDbEntity
  8
0
100
AcDbLine
 62
7
  6
CONTINUOUS
 10
16.6913258522
 20
13.792967602
 11
16.691397979
 21
13.7959964633
  0
LWPOLYLINE
  5
2DE
100
AcDbEntity
  8
0
100
AcDbPolyline
 62
7
  6
CONTINUOUS
 90
5
 70
0
 10
16.6912619932
 20
13.8708385091
 10
16.692165671
 20
13.8845501598
 10
16.6941175724
 20
13.900069227
 10
16.6969103749
 20
13.9154839401
 10
16.7001577658
 20
13.9290172875
  0
LINE
  5
2DF
100
AcDbEntity
  8
0
100
AcDbLine
 62
7
  6
CONTINUOUS
 10
16.7213824982
 20
14.0002939268
 11
16.7128155074
 21
14.0917247683
  0
LINE
  5
2E0
100
AcDbEntity
  8
0
100
AcDbLine
 62
7
  6
CONTINUOUS
 10
16.6564088299
 20
14.1661418343
 11
15.2057377644
 21
14.1661418343
  0
LINE
  5
2E1
100
AcDbEntity
  8
0
100
AcDbLine
 62
7
  6
CONTINUOUS
 10
16.7080588821
 20
14.1078132182
 11
16.6870614014
 21
14.1506015851
  0
ARC
  5
2E2
100
AcDbEntity
  8
0
100
AcDbCircle
 62
7
  6
CONTINUOUS
 10
5.3848347235
 20
5.4737865634
 40
0.025
100
AcDbArc
 50
195.0
 51
270.0
  0
ARC
  5
2E3
100
AcDbEntity
  8
0
100
AcDbCircle
 62
7
  6
CONTINUOUS
 10
5.4230621298
 20
5.331119941
 40
0.025
100
AcDbArc
 50
195.0001049594
 51
270.0000271628
  0
ARC
  5
2E4
100
AcDbEntity
  8
0
100
AcDbCircle
 62
7
  6
CONTINUOUS
 10
5.4178672762
 20
5.6402851465
 40
0.1
100
AcDbArc
 50
180.0
 51
195.0
  0
ARC
  5
2E5
100
AcDbEntity
  8
0
100
AcDbCircle
 62
7
  6
CONTINUOUS
 10
5.3428672762
 20
5.7091198968
 40
0.025
100
AcDbArc
 50
90.0
 51
180.0
  0
ARC
  5
2E6
100
AcDbEntity
  8
0
100
AcDbCircle
 62
7
  6
CONTINUOUS
 10
6.8376724107
 20
5.3311198968
 40
0.025
100
AcDbArc
 50
270.0
 51
345.0
  0
ARC
  5
2E7
100
AcDbEntity
  8
0
100
AcDbCircle
 62
7
  6
CONTINUOUS
 10
6.8758998288
 20
5.4737865634
 40
0.025
100
AcDbArc
 50
270.0
 51
345.0
  0
ARC
  5
2E8
100
AcDbEntity
  8
0
100
AcDbCircle
 62
7
  6
CONTINUOUS
 10
6.8428672762
 20
5.6402851465
 40
0.1
100
AcDbArc
 50
345.0
 51
360.0
  0
ARC
  5
2E9
100
AcDbEntity
  8
0
100
AcDbCircle
 62
7
  6
CONTINUOUS
 10
6.9178672762
 20
5.7091198968
 40
0.025
100
AcDbArc
 50
0.0
 51
90.0
  0
ARC
  5
2EA
100
AcDbEntity
  8
0
100
AcDbCircle
 62
7
  6
CONTINUOUS
 10
13.7301944023
 20
5.2822913711
 40
0.0356666667
100
AcDbArc
 50
193.0
 51
270.0
  0
ARC
  5
2EB
100
AcDbEntity
  8
0
100
AcDbCircle
 62
7
  6
CONTINUOUS
 10
13.8905161116
 20
5.2822913711
 40
0.0356666667
100
AcDbArc
 50
270.0
 51
347.0
  0
ARC
  5
2EC
100
AcDbEntity
  8
0
100
AcDbCircle
 62
7
  6
CONTINUOUS
 10
14.2301944023
 20
5.2822913711
 40
0.0356666667
100
AcDbArc
 50
193.0
 51
270.0
  0
ARC
  5
2ED
100
AcDbEntity
  8
0
100
AcDbCircle
 62
7
  6
CONTINUOUS
 10
14.3905161116
 20
5.2822913711
 40
0.0356666667
100
AcDbArc
 50
270.0
 51
347.0
  0
ARC
  5
2EE
100
AcDbEntity
  8
0
100
AcDbCircle
 62
7
  6
CONTINUOUS
 10
14.7301944023
 20
5.2822913711
 40
0.0356666667
100
AcDbArc
 50
193.0
 51
270.0
  0
ARC
  5
2EF
100
AcDbEntity
  8
0
100
AcDbCircle
 62
7
  6
CONTINUOUS
 10
14.8905161116
 20
5.2822913711
 40
0.0356666667
100
AcDbArc
 50
270.0
 51
347.0
  0
ARC
  5
2F0
100
AcDbEntity
  8
0
100
AcDbCircle
 62
7
  6
CONTINUOUS
 10
15.2301944023
 20
5.2822913711
 40
0.0356666667
100
AcDbArc
 50
193.0
 51
270.0
  0
ARC
  5
2F1
100
AcDbEntity
  8
0
100
AcDbCircle
 62
7
  6
CONTINUOUS
 10
15.3905161116
 20
5.2822913711
 40
0.0356666667
100
AcDbArc
 50
270.0
 51
347.0
  0
ARC
  5
2F2
100
AcDbEntity
  8
0
100
AcDbCircle
 62
7
  6
CONTINUOUS
 10
13.6405161116
 20
5.3536247044
 40
0.0356666667
100
AcDbArc
 50
13.0
 51
90.0
  0
ARC
  5
2F3
100
AcDbEntity
  8
0
100
AcDbCircle
 62
7
  6
CONTINUOUS
 10
13.9801944023
 20
5.3536247044
 40
0.0356666667
100
AcDbArc
 50
90.0
 51
167.0
  0
ARC
  5
2F4
100
AcDbEntity
  8
0
100
AcDbCircle
 62
7
  6
CONTINUOUS
 10
14.1405161116
 20
5.3536247044
 40
0.0356666667
100
AcDbArc
 50
13.0
 51
90.0
  0
ARC
  5
2F5
100
AcDbEntity
  8
0
100
AcDbCircle
 62
7
  6
CONTINUOUS
 10
14.4801944023
 20
5.3536247044
 40
0.0356666667
100
AcDbArc
 50
90.0
 51
167.0
  0
ARC
  5
2F6
100
AcDbEntity
  8
0
100
AcDbCircle
 62
7
  6
CONTINUOUS
 10
14.6405161116
 20
5.3536247044
 40
0.0356666667
100
AcDbArc
 50
13.0
 51
90.0
  0
ARC
  5
2F7
100
AcDbEntity
  8
0
100
AcDbCircle
 62
7
  6
CONTINUOUS
 10
14.9801944023
 20
5.3536247044
 40
0.0356666667
100
AcDbArc
 50
90.0
 51
167.0
  0
ARC
  5
2F8
100
AcDbEntity
  8
0
100
AcDbCircle
 62
7
  6
CONTINUOUS
 10
15.1405161116
 20
5.3536247044
 40
0.0356666667
100
AcDbArc
 50
13.0
 51
90.0
  0
ARC
  5
2F9
100
AcDbEntity
  8
0
100
AcDbCircle
 62
7
  6
CONTINUOUS
 10
15.4801944023
 20
5.3536247044
 40
0.0356666667
100
AcDbArc
 50
90.0
 51
167.0
  0
ARC
  5
2FA
100
AcDbEntity
  8
0
100
AcDbCircle
 62
7
  6
CONTINUOUS
 10
17.3905161116
 20
5.2822913711
 40
0.0356666667
100
AcDbArc
 50
270.0
 51
347.0
  0
ARC
  5
2FB
100
AcDbEntity
  8
0
100
AcDbCircle
 62
7
  6
CONTINUOUS
 10
17.2301944023
 20
5.2822913711
 40
0.0356666667
100
AcDbArc
 50
193.0
 51
270.0
  0
ARC
  5
2FC
100
AcDbEntity
  8
0
100
AcDbCircle
 62
7
  6
CONTINUOUS
 10
16.8905161116
 20
5.2822913711
 40
0.0356666667
100
AcDbArc
 50
270.0
 51
347.0
  0
ARC
  5
2FD
100
AcDbEntity
  8
0
100
AcDbCircle
 62
7
  6
CONTINUOUS
 10
16.7301944023
 20
5.2822913711
 40
0.0356666667
100
AcDbArc
 50
193.0
 51
270.0
  0
ARC
  5
2FE
100
AcDbEntity
  8
0
100
AcDbCircle
 62
7
  6
CONTINUOUS
 10
16.3905161116
 20
5.2822913711
 40
0.0356666667
100
AcDbArc
 50
270.0
 51
347.0
  0
ARC
  5
2FF
100
AcDbEntity
  8
0
100
AcDbCircle
 62
7
  6
CONTINUOUS
 10
16.2301944023
 20
5.2822913711
 40
0.0356666667
100
AcDbArc
 50
193.0
 51
270.0
  0
ARC
  5
300
100
AcDbEntity
  8
0
100
AcDbCircle
 62
7
  6
CONTINUOUS
 10
15.8905161116
 20
5.2822913711
 40
0.0356666667
100
AcDbArc
 50
270.0
 51
347.0
  0
ARC
  5
301
100
AcDbEntity
  8
0
100
AcDbCircle
 62
7
  6
CONTINUOUS
 10
15.7301944023
 20
5.2822913711
 40
0.0356666667
100
AcDbArc
 50
193.0
 51
270.0
  0
ARC
  5
302
100
AcDbEntity
  8
0
100
AcDbCircle
 62
7
  6
CONTINUOUS
 10
17.4801944023
 20
5.3536247044
 40
0.0356666667
100
AcDbArc
 50
90.0
 51
167.0
  0
ARC
  5
303
100
AcDbEntity
  8
0
100
AcDbCircle
 62
7
  6
CONTINUOUS
 10
17.1405161116
 20
5.3536247044
 40
0.0356666667
100
AcDbArc
 50
13.0
 51
90.0
  0
ARC
  5
304
100
AcDbEntity
  8
0
100
AcDbCircle
 62
7
  6
CONTINUOUS
 10
16.9801944023
 20
5.3536247044
 40
0.0356666667
100
AcDbArc
 50
90.0
 51
167.0
  0
ARC
  5
305
100
AcDbEntity
  8
0
100
AcDbCircle
 62
7
  6
CONTINUOUS
 10
16.6405161116
 20
5.3536247044
 40
0.0356666667
100
AcDbArc
 50
13.0
 51
90.0
  0
ARC
  5
306
100
AcDbEntity
  8
0
100
AcDbCircle
 62
7
  6
CONTINUOUS
 10
16.4801944023
 20
5.3536247044
 40
0.0356666667
100
AcDbArc
 50
90.0
 51
167.0
  0
ARC
  5
307
100
AcDbEntity
  8
0
100
AcDbCircle
 62
7
  6
CONTINUOUS
 10
16.1405161116
 20
5.3536247044
 40
0.0356666667
100
AcDbArc
 50
13.0
 51
90.0
  0
ARC
  5
308
100
AcDbEntity
  8
0
100
AcDbCircle
 62
7
  6
CONTINUOUS
 10
15.9801944023
 20
5.3536247044
 40
0.0356666667
100
AcDbArc
 50
90.0
 51
167.0
  0
ARC
  5
309
100
AcDbEntity
  8
0
100
AcDbCircle
 62
7
  6
CONTINUOUS
 10
15.6405161116
 20
5.3536247044
 40
0.0356666667
100
AcDbArc
 50
13.0
 51
90.0
  0
SPLINE
  5
30A
100
AcDbEntity
  8
0
100
AcDbSpline
 62
7
  6
CONTINUOUS
 70
0
 71
3
 72
15
 73
11
 74
0
 42
0.0000001
 43
0.0000001
 44
0.0000000001
 40
0.0
 40
0.0
 40
0.0
 40
0.0
 40
0.1295686529
 40
0.2645758774
 40
0.4012660344
 40
0.5362716787
 40
0.6662156922
 40
0.7881008868
 40
0.8998142268
 40
1.0
 40
1.0
 40
1.0
 40
1.0
 10
16.6564088299
 20
14.1661418343
 30
0.0
 10
16.65795709
 20
14.1661418343
 30
0.0
 10
16.661121044
 20
14.1659266032
 30
0.0
 10
16.6658435604
 20
14.1650427151
 30
0.0
 10
16.6704998659
 20
14.1636152619
 30
0.0
 10
16.6749117291
 20
14.1616999417
 30
0.0
 10
16.6789179166
 20
14.1593712601
 30
0.0
 10
16.6823699999
 20
14.1567099298
 30
0.0
 10
16.685135849
 20
14.1538138802
 30
0.0
 10
16.6865340039
 20
14.1516763082
 30
0.0
 10
16.6870614014
 20
14.1506015851
 30
0.0
  0
SPLINE
  5
30B
100
AcDbEntity
  8
0
100
AcDbSpline
 62
7
  6
CONTINUOUS
 70
0
 71
3
 72
15
 73
11
 74
0
 42
0.0000001
 43
0.0000001
 44
0.0000000001
 40
0.0
 40
0.0
 40
0.0
 40
0.0
 40
0.0996459486
 40
0.2028719238
 40
0.312594224
 40
0.4308570039
 40
0.5588149274
 40
0.6968310547
 40
0.8443982974
 40
1.0
 40
1.0
 40
1.0
 40
1.0
 10
15.1894782725
 20
14.1579827781
 30
0.0
 10
15.1896683877
 20
14.1585980186
 30
0.0
 10
15.1902070283
 20
14.1598089606
 30
0.0
 10
15.1914380175
 20
14.1614299043
 30
0.0
 10
15.1930614035
 20
14.1628450717
 30
0.0
 10
15.1950455652
 20
14.1640291318
 30
0.0
 10
15.1973531059
 20
14.1649677634
 30
0.0
 10
15.1999447217
 20
14.1656464869
 30
0.0
 10
15.2027715998
 20
14.1660541503
 30
0.0
 10
15.2047322154
 20
14.1661418343
 30
0.0
 10
15.2057377644
 20
14.1661418343
 30
0.0
  0
SPLINE
  5
30C
100
AcDbEntity
  8
0
100
AcDbSpline
 62
7
  6
CONTINUOUS
 70
0
 71
3
 72
11
 73
7
 74
0
 42
0.0000001
 43
0.0000001
 44
0.0000000001
 40
0.0
 40
0.0
 40
0.0
 40
0.0
 40
0.2336941577
 40
0.4747277915
 40
0.728954396
 40
1.0
 40
1.0
 40
1.0
 40
1.0
 10
14.2212129789
 20
11.0246751396
 30
0.0
 10
14.2210381243
 20
11.0241092846
 30
0.0
 10
14.2208078131
 20
11.0229171374
 30
0.0
 10
14.2208501074
 20
11.0210578594
 30
0.0
 10
14.2212679135
 20
11.0191506835
 30
0.0
 10
14.2217693769
 20
11.0179106123
 30
0.0
 10
14.2220719925
 20
11.0172939466
 30
0.0
  0
SPLINE
  5
30D
100
AcDbEntity
  8
0
100
AcDbSpline
 62
7
  6
CONTINUOUS
 70
0
 71
3
 72
9
 73
5
 74
0
 42
0.0000001
 43
0.0000001
 44
0.0000000001
 40
0.0
 40
0.0
 40
0.0
 40
0.0
 40
0.517600521
 40
1.0
 40
1.0
 40
1.0
 40
1.0
 10
16.7080588821
 20
14.1078132182
 30
0.0
 10
16.7093393249
 20
14.1052039502
 30
0.0
 10
16.7114410708
 20
14.0999660154
 30
0.0
 10
16.7125627978
 20
14.0944218006
 30
0.0
 10
16.7128155074
 20
14.0917247683
 30
0.0
  0
SPLINE
  5
30E
100
AcDbEntity
  8
0
100
AcDbSpline
 62
7
  6
CONTINUOUS
 70
0
 71
3
 72
14
 73
10
 74
0
 42
0.0000001
 43
0.0000001
 44
0.0000000001
 40
0.0
 40
0.0
 40
0.0
 40
0.0
 40
0.1556294835
 40
0.3032648447
 40
0.5688236067
 40
0.687131518
 40
0.7968672938
 40
0.9001625876
 40
1.0
 40
1.0
 40
1.0
 40
1.0
 10
15.7365275701
 20
10.8554681515
 30
0.0
 10
15.7375327218
 20
10.8554681515
 30
0.0
 10
15.7394937095
 20
10.8555559664
 30
0.0
 10
15.7431315596
 20
10.8560806532
 30
0.0
 10
15.7464521579
 20
10.8571247389
 30
0.0
 10
15.7492023934
 20
10.8587633699
 30
0.0
 10
15.7508262382
 20
10.8601777211
 30
0.0
 10
15.7520576697
 20
10.8617991433
 30
0.0
 10
15.7525959801
 20
10.8630113582
 30
0.0
 10
15.7527858482
 20
10.8636275825
 30
0.0
  0
SPLINE
  5
30F
100
AcDbEntity
  8
0
100
AcDbSpline
 62
7
  6
CONTINUOUS
 70
0
 71
3
 72
15
 73
11
 74
0
 42
0.0000001
 43
0.0000001
 44
0.0000000001
 40
0.0
 40
0.0
 40
0.0
 40
0.0
 40
0.1102071076
 40
0.2287223882
 40
0.3536318193
 40
0.4829519659
 40
0.6145657769
 40
0.7462247321
 40
0.875586798
 40
1.0
 40
1.0
 40
1.0
 40
1.0
 10
14.3352714665
 20
10.8669862883
 30
0.0
 10
14.3360268003
 20
10.8661354556
 30
0.0
 10
14.3377294235
 20
10.8644873343
 30
0.0
 10
14.3406467894
 20
10.8622803832
 30
0.0
 10
14.3439578637
 20
10.8603056018
 30
0.0
 10
14.3475696287
 20
10.8586112915
 30
0.0
 10
14.3513910658
 20
10.8572434887
 30
0.0
 10
14.3553231534
 20
10.8562344461
 30
0.0
 10
14.3592599305
 20
10.8556171642
 30
0.0
 10
14.3618812668
 20
10.8554681515
 30
0.0
 10
14.3631656621
 20
10.8554681515
 30
0.0
  0
SPLINE
  5
310
100
AcDbEntity
  8
0
100
AcDbSpline
 62
7
  6
CONTINUOUS
 70
0
 71
3
 72
9
 73
5
 74
0
 42
0.0000001
 43
0.0000001
 44
0.0000000001
 40
0.0
 40
0.0
 40
0.0
 40
0.0
 40
0.4813568161
 40
1.0
 40
1.0
 40
1.0
 40
1.0
 10
14.2430694732
 20
10.9745055797
 30
0.0
 10
14.2444515574
 20
10.9716891882
 30
0.0
 10
14.2477985827
 20
10.9660658415
 30
0.0
 10
14.2518588621
 20
10.9609449742
 30
0.0
 10
14.2541029769
 20
10.9584171298
 30
0.0
  0
SPLINE
  5
311
100
AcDbEntity
  8
0
100
AcDbSpline
 62
7
  6
CONTINUOUS
 70
0
 71
3
 72
15
 73
11
 74
0
 42
0.0000001
 43
0.0000001
 44
0.0000000001
 40
0.0
 40
0.0
 40
0.0
 40
0.0
 40
0.1556017026
 40
0.3031689453
 40
0.4411850726
 40
0.5691429961
 40
0.687405776
 40
0.7971280762
 40
0.9003540514
 40
1.0
 40
1.0
 40
1.0
 40
1.0
 10
14.2374724707
 20
11.0328341958
 30
0.0
 10
14.2364669218
 20
11.0328341958
 30
0.0
 10
14.2345063061
 20
11.0327465117
 30
0.0
 10
14.231679428
 20
11.0323388484
 30
0.0
 10
14.2290878123
 20
11.0316601249
 30
0.0
 10
14.2267802716
 20
11.0307214933
 30
0.0
 10
14.2247961099
 20
11.0295374332
 30
0.0
 10
14.2231727239
 20
11.0281222658
 30
0.0
 10
14.2219417347
 20
11.0265013221
 30
0.0
 10
14.2214030941
 20
11.0252903801
 30
0.0
 10
14.2212129789
 20
11.0246751396
 30
0.0
  0
SPLINE
  5
312
100
AcDbEntity
  8
0
100
AcDbSpline
 62
7
  6
CONTINUOUS
 70
0
 71
3
 72
9
 73
5
 74
0
 42
0.0000001
 43
0.0000001
 44
0.0000000001
 40
0.0
 40
0.0
 40
0.0
 40
0.0
 40
0.482399479
 40
1.0
 40
1.0
 40
1.0
 40
1.0
 10
15.7445502137
 20
10.9584171298
 30
0.0
 10
15.7442975041
 20
10.9611141621
 30
0.0
 10
15.7431757772
 20
10.9666583769
 30
0.0
 10
15.7410740312
 20
10.9718963117
 30
0.0
 10
15.7397935885
 20
10.9745055797
 30
0.0
  0
SPLINE
  5
313
100
AcDbEntity
  8
0
100
AcDbSpline
 62
7
  6
CONTINUOUS
 70
0
 71
3
 72
15
 73
11
 74
0
 42
0.0000001
 43
0.0000001
 44
0.0000000001
 40
0.0
 40
0.0
 40
0.0
 40
0.0
 40
0.1001857732
 40
0.2118991132
 40
0.3337843078
 40
0.4637283213
 40
0.5987339656
 40
0.7354241226
 40
0.8704313471
 40
1.0
 40
1.0
 40
1.0
 40
1.0
 10
15.7187961078
 20
11.0172939466
 30
0.0
 10
15.7182687103
 20
11.0183686697
 30
0.0
 10
15.7168705553
 20
11.0205062417
 30
0.0
 10
15.7141047063
 20
11.0234022913
 30
0.0
 10
15.7106526229
 20
11.0260636216
 30
0.0
 10
15.7066464355
 20
11.0283923032
 30
0.0
 10
15.7022345722
 20
11.0303076233
 30
0.0
 10
15.6975782668
 20
11.0317350766
 30
0.0
 10
15.6928557504
 20
11.0326189647
 30
0.0
 10
15.6896917964
 20
11.0328341958
 30
0.0
 10
15.6881435363
 20
11.0328341958
 30
0.0
  0
ENDSEC
  0
SECTION
  2
OBJECTS
  0
DICTIONARY
  5
C
100
AcDbDictionary
280
0
281
1
  3
ACAD_GROUP
350
D
  3
ACAD_MLINESTYLE
350
17
  3
ACAD_LAYOUT
350
1A
  3
ACAD_PLOTSETTINGS
350
19
  3
ACAD_PLOTSTYLENAME
350
E
  0
DICTIONARY
  5
D
102
{ACAD_REACTORS
330
C
102
}
100
AcDbDictionary
280
0
281
1
  0
ACDBDICTIONARYWDFLT
  5
E
102
{ACAD_REACTORS
330
C
102
}
100
AcDbDictionary
281
1
  3
Normal
350
F
100
AcDbDictionaryWithDefault
340
F
  0
DICTIONARY
  5
17
102
{ACAD_REACTORS
330
C
102
}
100
AcDbDictionary
280
0
281
1
  3
Standard
350
18
  0
DICTIONARY
  5
19
102
{ACAD_REACTORS
330
C
102
}
100
AcDbDictionary
281
1
  0
DICTIONARY
  5
1A
102
{ACAD_REACTORS
330
C
102
}
100
AcDbDictionary
281
1
  3
Model
350
314
  3
Layout1
350
315
  0
ACDBPLACEHOLDER
  5
F
102
{ACAD_REACTORS
330
E
102
}
  0
MLINESTYLE
  5
18
102
{ACAD_REACTORS
330
17
102
}
100
AcDbMlineStyle
  2
STANDARD
 70
0
  3

 62
256
 51
90.0
 52
90.0
 71
2
 49
0.5
 62
256
  6
BYLAYER
 49
-0.5
 62
256
  6
BYLAYER
  0
LAYOUT
  5
314
102
{ACAD_REACTORS
330
1A
102
}
100
AcDbPlotSettings
  1

  2
none_device
  4
ANSI_C_(22.00_x_17.00_Inches)
  6

 40
0.0
 41
0.0
 42
0.0
 43
0.0
 44
558.8
 45
431.8
 46
0.0
 47
0.0
 48
0.0
 49
0.0
140
0.0
141
0.0
142
1.0
143
1.0
 70
1024
 72
0
 73
0
 74
0
  7

 75
0
147
1.0
148
0.0
149
0.0
100
AcDbLayout
  1
Model
 70
0
 71
0
 10
0.0
 20
0.0
 11
22.0
 21
17.0
 12
0.0
 22
0.0
 32
0.0
 14
0.0
 24
0.0
 34
0.0
 15
0.0
 25
0.0
 35
0.0
146
0.0
 13
0.0
 23
0.0
 33
0.0
 16
1.0
 26
0.0
 36
0.0
 17
0.0
 27
1.0
 37
0.0
 76
0
330
216
345
0
346
0
  0
LAYOUT
  5
315
102
{ACAD_REACTORS
330
1A
102
}
100
AcDbPlotSettings
  1

  2
none_device
  4
ANSI_C_(22.00_x_17.00_Inches)
  6

 40
0.0
 41
0.0
 42
0.0
 43
0.0
 44
558.8
 45
431.8
 46
0.0
 47
0.0
 48
0.0
 49
0.0
140
0.0
141
0.0
142
1.0
143
1.0
 70
0
 72
0
 73
0
 74
0
  7

 75
0
147
1.0
148
0.0
149
0.0
100
AcDbLayout
  1
Layout1
 70
0
 71
1
 10
0.0
 20
0.0
 11
22.0
 21
17.0
 12
0.0
 22
0.0
 32
0.0
 14
0.0
 24
0.0
 34
0.0
 15
0.0
 25
0.0
 35
0.0
146
0.0
 13
0.0
 23
0.0
 33
0.0
 16
1.0
 26
0.0
 36
0.0
 17
0.0
 27
1.0
 37
0.0
 76
0
330
217
345
0
346
0
  0
ENDSEC
  0
EOF