999
DXF file: _cgs_temp_output.dxf
999
Pro/ENGINEER 2016360 by Parametric Technology Corporation
  0
SECTION
  2
HEADER
  9
$ACADVER
  1
AC1021
  9
$DWGCODEPAGE
  3
ANSI_1252
  9
$EXTMAX
 10
22.0
 20
17.0
 30
0.0
  9
$EXTMIN
 10
0.0
 20
0.0
 30
0.0
  9
$LIMMIN
 10
0.0
 20
0.0
  9
$LIMMAX
 10
22.0
 20
17.0
  9
$VIEWCTR
 10
11.0
 20
8.5
  9
$VIEWSIZE
 40
17.0
  9
$CLAYER
  8
0
  9
$LTSCALE
 40
1.21
  9
$CELTYPE
  6
BYLAYER
  9
$DIMSCALE
 40
1.0
  9
$DIMASZ
 40
0.1875
  9
$DIMEXO
 40
0.0625
  9
$DIMDLI
 40
0.836
  9
$DIMEXE
 40
0.125
  9
$DIMCEN
 40
0.198
  9
$DIMLFAC
 40
1.0
  9
$DIMBLK
  1
_CLOSED
  9
$DIMALT
 70
0
  9
$DIMALTF
 40
25.4
  9
$DIMTXT
 40
0.15625
  9
$DIMTOL
 70
0
  9
$DIMLIM
 70
0
  9
$DIMTFAC
 40
1.0
  9
$DIMGAP
 40
0.09
  9
$DIMDSEP
 70
46
  9
$AUNITS
 70
0
  9
$PDMODE
 70
3
  9
$PDSIZE
 40
0.3125
  9
$HANDSEED
  5
30E
  9
$TILEMODE
 70
1
  9
$MEASUREMENT
 70
0
  9
$INSUNITS
 70
1
  0
ENDSEC
  0
SECTION
  2
CLASSES
  0
CLASS
  1
ACDBDICTIONARYWDFLT
  2
AcDbDictionaryWithDefault
  3
AutoCAD 2000
 90
0
 91
1
280
0
281
0
  0
CLASS
  1
ACDBPLACEHOLDER
  2
AcDbPlaceHolder
  3
AutoCAD 2000
 90
0
 91
1
280
0
281
0
  0
CLASS
  1
LAYOUT
  2
AcDbLayout
  3
AutoCAD 2000
 90
0
 91
0
280
0
281
0
  0
ENDSEC
  0
SECTION
  2
TABLES
  0
TABLE
  2
VPORT
  5
8
100
AcDbSymbolTable
 70
2
  0
VPORT
  5
1F4
100
AcDbSymbolTableRecord
100
AcDbViewportTableRecord
  2
*ACTIVE
 70
0
 10
0.0
 20
0.0
 11
1.0
 21
1.0
 12
11.0
 22
8.5
 13
0.0
 23
0.0
 14
1.0
 24
1.0
 15
0.0
 25
0.0
 16
0.0
 26
0.0
 36
1.0
 17
0.0
 27
0.0
 37
0.0
 40
17.0
 41
1.2941176471
 42
50.0
 43
0.0
 44
0.0
 50
0.0
 51
0.0
 71
0
 72
100
 73
1
 74
1
 75
0
 76
0
 77
0
 78
0
  0
ENDTAB
  0
TABLE
  2
LTYPE
  5
5
100
AcDbSymbolTable
 70
6
  0
LTYPE
  5
14
100
AcDbSymbolTableRecord
100
AcDbLinetypeTableRecord
  2
BYBLOCK
 70
0
  3

 72
65
 73
0
 40
0.0
  0
LTYPE
  5
15
100
AcDbSymbolTableRecord
100
AcDbLinetypeTableRecord
  2
BYLAYER
 70
0
  3

 72
65
 73
0
 40
0.0
  0
LTYPE
  5
16
100
AcDbSymbolTableRecord
100
AcDbLinetypeTableRecord
  2
CONTINUOUS
 70
64
  3
Solid line
 72
65
 73
0
 40
0.0
  0
LTYPE
  5
1F5
100
AcDbSymbolTableRecord
100
AcDbLinetypeTableRecord
  2
CENTER
 70
64
  3
____ _ ____ _ ____ _ ____ _ ____ _ ____ _ ____
 72
65
 73
4
 40
0.6
 49
0.375
 74
0
 49
-0.075
 74
0
 49
0.075
 74
0
 49
-0.075
 74
0
  0
LTYPE
  5
1F6
100
AcDbSymbolTableRecord
100
AcDbLinetypeTableRecord
  2
HIDDEN
 70
64
  3
- - - - - - - - - - - - - - - - - - - -
 72
65
 73
2
 40
0.2
 49
0.1
 74
0
 49
-0.1
 74
0
  0
LTYPE
  5
1F7
100
AcDbSymbolTableRecord
100
AcDbLinetypeTableRecord
  2
PHANTOM
 70
64
  3
_____ _ _ _____ _ _ _____ _ _ _____
 72
65
 73
6
 40
0.8
 49
0.45
 74
0
 49
-0.05
 74
0
 49
0.1
 74
0
 49
-0.05
 74
0
 49
0.1
 74
0
 49
-0.05
 74
0
  0
LTYPE
  5
1F8
100
AcDbSymbolTableRecord
100
AcDbLinetypeTableRecord
  2
DOT
 70
64
  3
. . . . . . . . . . . . . . . . . . . .
 72
65
 73
2
 40
0.2
 49
0.1
 74
0
 49
-0.1
 74
0
  0
LTYPE
  5
1F9
100
AcDbSymbolTableRecord
100
AcDbLinetypeTableRecord
  2
DASHED
 70
64
  3
- - - - - - - - - - - - - - - - - - - -
 72
65
 73
2
 40
0.2
 49
0.1
 74
0
 49
-0.1
 74
0
  0
ENDTAB
  0
TABLE
  2
LAYER
  5
2
100
AcDbSymbolTable
 70
36
  0
LAYER
  5
10
100
AcDbSymbolTableRecord
100
AcDbLayerTableRecord
  2
0
 70
0
 62
7
  6
CONTINUOUS
370
-3
390
F
  0
LAYER
  5
1FA
100
AcDbSymbolTableRecord
100
AcDbLayerTableRecord
  2
DEFAULT_1
 70
0
 62
7
  6
CENTER
370
-3
390
F
  0
LAYER
  5
1FB
100
AcDbSymbolTableRecord
100
AcDbLayerTableRecord
  2
DEFAULT_2
 70
0
 62
8
  6
HIDDEN
370
-3
390
F
  0
LAYER
  5
1FC
100
AcDbSymbolTableRecord
100
AcDbLayerTableRecord
  2
DEFAULT_3
 70
0
 62
7
  6
PHANTOM
370
-3
390
F
  0
LAYER
  5
1FD
100
AcDbSymbolTableRecord
100
AcDbLayerTableRecord
  2
01_ALL_DTM_PLN
 70
0
 62
7
  6
CONTINUOUS
370
-3
390
F
  0
LAYER
  5
1FE
100
AcDbSymbolTableRecord
100
AcDbLayerTableRecord
  2
01__ASM_ALL_DTM_PLN
 70
0
 62
7
  6
CONTINUOUS
370
-3
390
F
  0
LAYER
  5
1FF
100
AcDbSymbolTableRecord
100
AcDbLayerTableRecord
  2
01__ASM_DEF_DTM_PLN
 70
0
 62
7
  6
CONTINUOUS
370
-3
390
F
  0
LAYER
  5
200
100
AcDbSymbolTableRecord
100
AcDbLayerTableRecord
  2
01___PRT_ALL_DTM_PLN
 70
0
 62
7
  6
CONTINUOUS
370
-3
390
F
  0
LAYER
  5
201
100
AcDbSymbolTableRecord
100
AcDbLayerTableRecord
  2
01___PRT_DEF_DTM_PLN
 70
0
 62
7
  6
CONTINUOUS
370
-3
390
F
  0
LAYER
  5
202
100
AcDbSymbolTableRecord
100
AcDbLayerTableRecord
  2
02_ALL_AXES
 70
0
 62
7
  6
CONTINUOUS
370
-3
390
F
  0
LAYER
  5
203
100
AcDbSymbolTableRecord
100
AcDbLayerTableRecord
  2
02__ASM_ALL_AXES
 70
0
 62
7
  6
CONTINUOUS
370
-3
390
F
  0
LAYER
  5
204
100
AcDbSymbolTableRecord
100
AcDbLayerTableRecord
  2
02___PRT_ALL_AXES
 70
0
 62
7
  6
CONTINUOUS
370
-3
390
F
  0
LAYER
  5
205
100
AcDbSymbolTableRecord
100
AcDbLayerTableRecord
  2
03_ALL_CURVES
 70
0
 62
7
  6
CONTINUOUS
370
-3
390
F
  0
LAYER
  5
206
100
AcDbSymbolTableRecord
100
AcDbLayerTableRecord
  2
03__ASM_ALL_CURVES
 70
0
 62
7
  6
CONTINUOUS
370
-3
390
F
  0
LAYER
  5
207
100
AcDbSymbolTableRecord
100
AcDbLayerTableRecord
  2
03___PRT_ALL_CURVES
 70
0
 62
7
  6
CONTINUOUS
370
-3
390
F
  0
LAYER
  5
208
100
AcDbSymbolTableRecord
100
AcDbLayerTableRecord
  2
04_ALL_DTM_PNT
 70
0
 62
7
  6
CONTINUOUS
370
-3
390
F
  0
LAYER
  5
209
100
AcDbSymbolTableRecord
100
AcDbLayerTableRecord
  2
04__ASM_ALL_DTM_PNT
 70
0
 62
7
  6
CONTINUOUS
370
-3
390
F
  0
LAYER
  5
20A
100
AcDbSymbolTableRecord
100
AcDbLayerTableRecord
  2
04___PRT_ALL_DTM_PNT
 70
0
 62
7
  6
CONTINUOUS
370
-3
390
F
  0
LAYER
  5
20B
100
AcDbSymbolTableRecord
100
AcDbLayerTableRecord
  2
05_ALL_DTM_CSYS
 70
0
 62
7
  6
CONTINUOUS
370
-3
390
F
  0
LAYER
  5
20C
100
AcDbSymbolTableRecord
100
AcDbLayerTableRecord
  2
05__ASM_ALL_DTM_CSYS
 70
0
 62
7
  6
CONTINUOUS
370
-3
390
F
  0
LAYER
  5
20D
100
AcDbSymbolTableRecord
100
AcDbLayerTableRecord
  2
05__ASM_DEF_DTM_CSYS
 70
0
 62
7
  6
CONTINUOUS
370
-3
390
F
  0
LAYER
  5
20E
100
AcDbSymbolTableRecord
100
AcDbLayerTableRecord
  2
05___PRT_ALL_DTM_CSYS
 70
0
 62
7
  6
CONTINUOUS
370
-3
390
F
  0
LAYER
  5
20F
100
AcDbSymbolTableRecord
100
AcDbLayerTableRecord
  2
05___PRT_DEF_DTM_CSYS
 70
0
 62
7
  6
CONTINUOUS
370
-3
390
F
  0
LAYER
  5
210
100
AcDbSymbolTableRecord
100
AcDbLayerTableRecord
  2
06_ALL_SURFS
 70
0
 62
7
  6
CONTINUOUS
370
-3
390
F
  0
LAYER
  5
211
100
AcDbSymbolTableRecord
100
AcDbLayerTableRecord
  2
06__ASM_ALL_SURFS
 70
0
 62
7
  6
CONTINUOUS
370
-3
390
F
  0
LAYER
  5
212
100
AcDbSymbolTableRecord
100
AcDbLayerTableRecord
  2
06___PRT_ALL_SURFS
 70
0
 62
7
  6
CONTINUOUS
370
-3
390
F
  0
LAYER
  5
213
100
AcDbSymbolTableRecord
100
AcDbLayerTableRecord
  2
07__ASM_ALL_SKELETONS
 70
0
 62
7
  6
CONTINUOUS
370
-3
390
F
  0
ENDTAB
  0
TABLE
  2
STYLE
  5
3
100
AcDbSymbolTable
 70
1
  0
STYLE
  5
11
100
AcDbSymbolTableRecord
100
AcDbTextStyleTableRecord
  2
STANDARD
 70
0
 40
0.0
 41
0.8
 50
0.0
 71
0
 42
0.2
  3
txt
  4

  0
STYLE
  5
214
100
AcDbSymbolTableRecord
100
AcDbTextStyleTableRecord
  2
TEXTSTYLE_1
 70
0
 40
0.0
 41
0.8
 50
0.0
 71
0
 42
0.2
  3
gdt
  4

  0
ENDTAB
  0
TABLE
  2
VIEW
  5
6
100
AcDbSymbolTable
 70
0
  0
ENDTAB
  0
TABLE
  2
UCS
  5
7
100
AcDbSymbolTable
 70
0
  0
ENDTAB
  0
TABLE
  2
APPID
  5
9
100
AcDbSymbolTable
 70
1
  0
APPID
  5
215
100
AcDbSymbolTableRecord
100
AcDbRegAppTableRecord
  2
ACAD
 70
0
  0
ENDTAB
  0
TABLE
  2
BLOCK_RECORD
  5
1
100
AcDbSymbolTable
 70
0
  0
BLOCK_RECORD
  5
216
100
AcDbSymbolTableRecord
100
AcDbBlockTableRecord
  2
*Model_Space
  0
BLOCK_RECORD
  5
217
100
AcDbSymbolTableRecord
100
AcDbBlockTableRecord
  2
*Paper_Space
  0
ENDTAB
  0
TABLE
  2
DIMSTYLE
  5
A
100
AcDbSymbolTable
 70
1
100
AcDbDimStyleTable
 71
0
  0
DIMSTYLE
105
218
100
AcDbSymbolTableRecord
100
AcDbDimStyleTableRecord
  2
STANDARD
 70
0
  3

  4

 40
1.0
 41
0.1875
 42
0.0625
 43
0.38
 44
0.125
 45
0.0
 46
0.0
 47
0.0001
 48
0.0001
140
0.15625
141
0.09
142
0.0
143
25.4
144
1.0
145
0.0
146
1.0
147
0.09
 71
0.0
 72
0.0
 73
1
 74
1
 75
0
 76
0
 77
0
 78
4
 79
1
170
0
171
3
172
0
173
0
174
0
175
0
176
0
177
0
178
0
270
2
179
4
271
4
272
4
273
2
274
2
275
0
280
0
281
0
282
0
283
1
284
4
285
0
286
0
287
3
288
0
340
11
278
46
  0
ENDTAB
  0
ENDSEC
  0
SECTION
  2
BLOCKS
  0
BLOCK
  5
20
100
AcDbEntity
  8
0
100
AcDbBlockBegin
  2
*Model_Space
 70
0
 10
0.0
 20
0.0
 30
0.0
  3
*Model_Space
  1

  0
ENDBLK
  5
21
100
AcDbEntity
  8
0
100
AcDbBlockEnd
  0
BLOCK
  5
1C
100
AcDbEntity
  8
0
100
AcDbBlockBegin
  2
*Paper_Space
 70
0
 10
0.0
 20
0.0
 30
0.0
  3
*Paper_Space
  1

  0
ENDBLK
  5
1D
100
AcDbEntity
  8
0
100
AcDbBlockEnd
  0
ENDSEC
  0
SECTION
  2
ENTITIES
  0
MTEXT
  5
219
100
AcDbEntity
  8
0
100
AcDbMText
 62
7
  6
CONTINUOUS
  7
STANDARD
 71
1
 72
1
 10
15.9560215477
 20
0.9479130325
 30
0.0
 11
1.0
 21
0.0
 31
0.0
 44
0.9
  1
SCALE: 1:1.000
 40
0.3
 41
3.36
  0
LINE
  5
21A
100
AcDbEntity
  8
0
100
AcDbLine
 62
7
  6
CONTINUOUS
 10
0.0
 20
0.0
 11
0.0
 21
17.0
  0
LINE
  5
21B
100
AcDbEntity
  8
0
100
AcDbLine
 62
7
  6
CONTINUOUS
 10
0.0
 20
0.0
 11
22.0
 21
0.0
  0
LINE
  5
21C
100
AcDbEntity
  8
0
100
AcDbLine
 62
7
  6
CONTINUOUS
 10
0.0
 20
17.0
 11
22.0
 21
17.0
  0
LINE
  5
21D
100
AcDbEntity
  8
0
100
AcDbLine
 62
7
  6
CONTINUOUS
 10
22.0
 20
0.0
 11
22.0
 21
17.0
  0
LINE
  5
21E
100
AcDbEntity
  8
0
100
AcDbLine
 62
7
  6
CONTINUOUS
 10
5.3491172762
 20
5.7146198968
 11
5.3491172762
 21
5.6430351465
  0
LINE
  5
21F
100
AcDbEntity
  8
0
100
AcDbLine
 62
7
  6
CONTINUOUS
 10
5.4323745768
 20
5.3191494206
 11
5.3525246935
 21
5.617153242
  0
LINE
  5
220
100
AcDbEntity
  8
0
100
AcDbLine
 62
7
  6
CONTINUOUS
 10
5.4565227225
 20
5.3006198968
 11
6.8042118299
 21
5.3006198968
  0
LINE
  5
221
100
AcDbEntity
  8
0
100
AcDbLine
 62
7
  6
CONTINUOUS
 10
5.417312824
 20
5.4469532301
 11
6.8434217284
 21
5.4469532301
  0
LINE
  5
222
100
AcDbEntity
  8
0
100
AcDbLine
 62
7
  6
CONTINUOUS
 10
6.8866172762
 20
5.7396198968
 11
5.3741172762
 21
5.7396198968
  0
LINE
  5
223
100
AcDbEntity
  8
0
100
AcDbLine
 62
7
  6
CONTINUOUS
 10
6.9116172762
 20
5.6430351465
 11
6.9116172762
 21
5.7146198968
  0
LINE
  5
224
100
AcDbEntity
  8
0
100
AcDbLine
 62
7
  6
CONTINUOUS
 10
6.8283599755
 20
5.3191494206
 11
6.9082098588
 21
5.617153242
  0
LINE
  5
225
100
AcDbEntity
  8
0
100
AcDbLine
 62
7
  6
CONTINUOUS
 10
6.8521220839
 20
10.6000477814
 11
5.2896220839
 21
10.6000477814
  0
LINE
  5
226
100
AcDbEntity
  8
0
100
AcDbLine
 62
7
  6
CONTINUOUS
 10
5.2896220839
 20
10.6000477814
 11
5.2896220839
 21
14.6000477814
  0
LINE
  5
227
100
AcDbEntity
  8
0
100
AcDbLine
 62
7
  6
CONTINUOUS
 10
6.8521220839
 20
10.6000477814
 11
6.8521220839
 21
14.6000477814
  0
LINE
  5
228
100
AcDbEntity
  8
0
100
AcDbLine
 62
7
  6
CONTINUOUS
 10
5.2896220839
 20
14.6000477814
 11
6.8521220839
 21
14.6000477814
  0
LINE
  5
229
100
AcDbEntity
  8
0
100
AcDbLine
 62
7
  6
CONTINUOUS
 10
13.5603552569
 20
5.3874580378
 11
13.5603552569
 21
5.6801247044
  0
LINE
  5
22A
100
AcDbEntity
  8
0
100
AcDbLine
 62
7
  6
CONTINUOUS
 10
13.6750094085
 20
5.3591041638
 11
13.6957011053
 21
5.2694785784
  0
LINE
  5
22B
100
AcDbEntity
  8
0
100
AcDbLine
 62
7
  6
CONTINUOUS
 10
13.9250094085
 20
5.2694785784
 11
13.9457011053
 21
5.3591041638
  0
LINE
  5
22C
100
AcDbEntity
  8
0
100
AcDbLine
 62
7
  6
CONTINUOUS
 10
14.1750094085
 20
5.3591041638
 11
14.1957011053
 21
5.2694785784
  0
LINE
  5
22D
100
AcDbEntity
  8
0
100
AcDbLine
 62
7
  6
CONTINUOUS
 10
14.4250094085
 20
5.2694785784
 11
14.4457011053
 21
5.3591041638
  0
LINE
  5
22E
100
AcDbEntity
  8
0
100
AcDbLine
 62
7
  6
CONTINUOUS
 10
14.6750094085
 20
5.3591041638
 11
14.6957011053
 21
5.2694785784
  0
LINE
  5
22F
100
AcDbEntity
  8
0
100
AcDbLine
 62
7
  6
CONTINUOUS
 10
14.9250094085
 20
5.2694785784
 11
14.9457011053
 21
5.3591041638
  0
LINE
  5
230
100
AcDbEntity
  8
0
100
AcDbLine
 62
7
  6
CONTINUOUS
 10
15.1750094085
 20
5.3591041638
 11
15.1957011053
 21
5.2694785784
  0
LINE
  5
231
100
AcDbEntity
  8
0
100
AcDbLine
 62
7
  6
CONTINUOUS
 10
13.7313468102
 20
5.2411247044
 11
13.8893637037
 21
5.2411247044
  0
LINE
  5
232
100
AcDbEntity
  8
0
100
AcDbLine
 62
7
  6
CONTINUOUS
 10
14.2313468102
 20
5.2411247044
 11
14.3893637037
 21
5.2411247044
  0
LINE
  5
233
100
AcDbEntity
  8
0
100
AcDbLine
 62
7
  6
CONTINUOUS
 10
14.7313468102
 20
5.2411247044
 11
14.8893637037
 21
5.2411247044
  0
LINE
  5
234
100
AcDbEntity
  8
0
100
AcDbLine
 62
7
  6
CONTINUOUS
 10
15.2313468102
 20
5.2411247044
 11
15.3893637037
 21
5.2411247044
  0
LINE
  5
235
100
AcDbEntity
  8
0
100
AcDbLine
 62
7
  6
CONTINUOUS
 10
15.7313468102
 20
5.2411247044
 11
15.8893637037
 21
5.2411247044
  0
LINE
  5
236
100
AcDbEntity
  8
0
100
AcDbLine
 62
7
  6
CONTINUOUS
 10
16.2313468102
 20
5.2411247044
 11
16.3893637037
 21
5.2411247044
  0
LINE
  5
237
100
AcDbEntity
  8
0
100
AcDbLine
 62
7
  6
CONTINUOUS
 10
16.7313468102
 20
5.2411247044
 11
16.8893637037
 21
5.2411247044
  0
LINE
  5
238
100
AcDbEntity
  8
0
100
AcDbLine
 62
7
  6
CONTINUOUS
 10
17.2313468102
 20
5.2411247044
 11
17.3893637037
 21
5.2411247044
  0
LINE
  5
239
100
AcDbEntity
  8
0
100
AcDbLine
 62
7
  6
CONTINUOUS
 10
15.4250094085
 20
5.2694785784
 11
15.4457011053
 21
5.3591041638
  0
LINE
  5
23A
100
AcDbEntity
  8
0
100
AcDbLine
 62
7
  6
CONTINUOUS
 10
13.5603552569
 20
5.3874580378
 11
13.6393637037
 21
5.3874580378
  0
LINE
  5
23B
100
AcDbEntity
  8
0
100
AcDbLine
 62
7
  6
CONTINUOUS
 10
13.9813468102
 20
5.3874580378
 11
14.1393637037
 21
5.3874580378
  0
LINE
  5
23C
100
AcDbEntity
  8
0
100
AcDbLine
 62
7
  6
CONTINUOUS
 10
14.4813468102
 20
5.3874580378
 11
14.6393637037
 21
5.3874580378
  0
LINE
  5
23D
100
AcDbEntity
  8
0
100
AcDbLine
 62
7
  6
CONTINUOUS
 10
14.9813468102
 20
5.3874580378
 11
15.1393637037
 21
5.3874580378
  0
LINE
  5
23E
100
AcDbEntity
  8
0
100
AcDbLine
 62
7
  6
CONTINUOUS
 10
15.4813468102
 20
5.3874580378
 11
15.6393637037
 21
5.3874580378
  0
LINE
  5
23F
100
AcDbEntity
  8
0
100
AcDbLine
 62
7
  6
CONTINUOUS
 10
15.9813468102
 20
5.3874580378
 11
16.1393637037
 21
5.3874580378
  0
LINE
  5
240
100
AcDbEntity
  8
0
100
AcDbLine
 62
7
  6
CONTINUOUS
 10
16.4813468102
 20
5.3874580378
 11
16.6393637037
 21
5.3874580378
  0
LINE
  5
241
100
AcDbEntity
  8
0
100
AcDbLine
 62
7
  6
CONTINUOUS
 10
16.9813468102
 20
5.3874580378
 11
17.1393637037
 21
5.3874580378
  0
LINE
  5
242
100
AcDbEntity
  8
0
100
AcDbLine
 62
7
  6
CONTINUOUS
 10
17.4813468102
 20
5.3874580378
 11
17.5603552569
 21
5.3874580378
  0
LINE
  5
243
100
AcDbEntity
  8
0
100
AcDbLine
 62
7
  6
CONTINUOUS
 10
15.6750094085
 20
5.3591041638
 11
15.6957011053
 21
5.2694785784
  0
LINE
  5
244
100
AcDbEntity
  8
0
100
AcDbLine
 62
7
  6
CONTINUOUS
 10
13.5603552569
 20
5.6801247044
 11
17.5603552569
 21
5.6801247044
  0
LINE
  5
245
100
AcDbEntity
  8
0
100
AcDbLine
 62
7
  6
CONTINUOUS
 10
15.9250094085
 20
5.2694785784
 11
15.9457011053
 21
5.3591041638
  0
LINE
  5
246
100
AcDbEntity
  8
0
100
AcDbLine
 62
7
  6
CONTINUOUS
 10
16.1750094085
 20
5.3591041638
 11
16.1957011053
 21
5.2694785784
  0
LINE
  5
247
100
AcDbEntity
  8
0
100
AcDbLine
 62
7
  6
CONTINUOUS
 10
16.4250094085
 20
5.2694785784
 11
16.4457011053
 21
5.3591041638
  0
LINE
  5
248
100
AcDbEntity
  8
0
100
AcDbLine
 62
7
  6
CONTINUOUS
 10
16.6750094085
 20
5.3591041638
 11
16.6957011053
 21
5.2694785784
  0
LINE
  5
249
100
AcDbEntity
  8
0
100
AcDbLine
 62
7
  6
CONTINUOUS
 10
16.9250094085
 20
5.2694785784
 11
16.9457011053
 21
5.3591041638
  0
LINE
  5
24A
100
AcDbEntity
  8
0
100
AcDbLine
 62
7
  6
CONTINUOUS
 10
17.1750094085
 20
5.3591041638
 11
17.1957011053
 21
5.2694785784
  0
LINE
  5
24B
100
AcDbEntity
  8
0
100
AcDbLine
 62
7
  6
CONTINUOUS
 10
17.5603552569
 20
5.3874580378
 11
17.5603552569
 21
5.6801247044
  0
LINE
  5
24C
100
AcDbEntity
  8
0
100
AcDbLine
 62
7
  6
CONTINUOUS
 10
17.4250094085
 20
5.2694785784
 11
17.4457011053
 21
5.3591041638
  0
LINE
  5
24D
100
AcDbEntity
  8
0
100
AcDbLine
 62
7
  6
CONTINUOUS
 10
14.2831720878
 20
10.958986939
 11
14.3668698414
 21
10.8647070517
  0
LWPOLYLINE
  5
24E
100
AcDbEntity
  8
0
100
AcDbPolyline
 62
7
  6
CONTINUOUS
 90
6
 70
0
 10
15.7481258302
 20
10.8823262183
 10
15.7494257897
 20
10.8823590469
 10
15.7587316024
 20
10.8846326505
 10
15.7659305853
 20
10.8895177728
 10
15.7708169844
 20
10.8957493796
 10
15.7736478696
 20
10.9018740463
  0
LINE
  5
24F
100
AcDbEntity
  8
0
100
AcDbLine
 62
7
  6
CONTINUOUS
 10
14.394764037
 20
10.853188915
 11
15.708297322
 21
10.853188915
  0
LINE
  5
250
100
AcDbEntity
  8
0
100
AcDbLine
 62
7
  6
CONTINUOUS
 10
14.2503022383
 20
11.0195731831
 11
14.2721385841
 21
10.9750753888
  0
LINE
  5
251
100
AcDbEntity
  8
0
100
AcDbLine
 62
7
  6
CONTINUOUS
 10
15.7310395483
 20
10.8823261726
 11
15.7481343217
 21
10.8823261726
  0
LINE
  5
252
100
AcDbEntity
  8
0
100
AcDbLine
 62
7
  6
CONTINUOUS
 10
15.6588074699
 20
11.0351134323
 11
14.2657027165
 21
11.0351134323
  0
LWPOLYLINE
  5
253
100
AcDbEntity
  8
0
100
AcDbPolyline
 62
7
  6
CONTINUOUS
 90
6
 70
0
 10
15.8691589919
 20
11.2739896732
 10
15.8704589514
 20
11.2740225017
 10
15.8797647641
 20
11.2762961053
 10
15.886963747
 20
11.2811812276
 10
15.8918501461
 20
11.2874128344
 10
15.8946810313
 20
11.2935375011
  0
LINE
  5
254
100
AcDbEntity
  8
0
100
AcDbLine
 62
7
  6
CONTINUOUS
 10
15.85207271
 20
11.2739896274
 11
15.8691674834
 21
11.2739896274
  0
LWPOLYLINE
  5
255
100
AcDbEntity
  8
0
100
AcDbPolyline
 62
7
  6
CONTINUOUS
 90
6
 70
0
 10
15.9901921536
 20
11.665653128
 10
15.9914921131
 20
11.6656859565
 10
16.0007979258
 20
11.6679595601
 10
16.0079969087
 20
11.6728446824
 10
16.0128833078
 20
11.6790762892
 10
16.015714193
 20
11.6852009559
  0
LINE
  5
256
100
AcDbEntity
  8
0
100
AcDbLine
 62
7
  6
CONTINUOUS
 10
15.9731058717
 20
11.6656530822
 11
15.9902006452
 21
11.6656530822
  0
LINE
  5
257
100
AcDbEntity
  8
0
100
AcDbLine
 62
7
  6
CONTINUOUS
 10
14.249443242
 20
11.0269543674
 11
15.2177085357
 21
14.1602620059
  0
LWPOLYLINE
  5
258
100
AcDbEntity
  8
0
100
AcDbPolyline
 62
7
  6
CONTINUOUS
 90
6
 70
0
 10
16.1112253153
 20
12.0573165828
 10
16.1125252748
 20
12.0573494114
 10
16.1218310875
 20
12.0596230149
 10
16.1290300704
 20
12.0645081372
 10
16.1339164695
 20
12.070739744
 10
16.1367473548
 20
12.0768644107
  0
LINE
  5
259
100
AcDbEntity
  8
0
100
AcDbLine
 62
7
  6
CONTINUOUS
 10
16.0941390334
 20
12.057316537
 11
16.1112338069
 21
12.057316537
  0
LINE
  5
25A
100
AcDbEntity
  8
0
100
AcDbLine
 62
7
  6
CONTINUOUS
 10
15.7112963873
 20
10.9750753888
 11
15.6894600414
 21
11.0195731831
  0
LWPOLYLINE
  5
25B
100
AcDbEntity
  8
0
100
AcDbPolyline
 62
7
  6
CONTINUOUS
 90
6
 70
0
 10
16.232258477
 20
12.4489800376
 10
16.2335584365
 20
12.4490128662
 10
16.2428642492
 20
12.4512864698
 10
16.2500632322
 20
12.4561715921
 10
16.2549496312
 20
12.4624031988
 10
16.2577805165
 20
12.4685278655
  0
LINE
  5
25C
100
AcDbEntity
  8
0
100
AcDbLine
 62
7
  6
CONTINUOUS
 10
16.2151721951
 20
12.4489799919
 11
16.2322669686
 21
12.4489799919
  0
LINE
  5
25D
100
AcDbEntity
  8
0
100
AcDbLine
 62
7
  6
CONTINUOUS
 10
15.7248869565
 20
10.8647070517
 11
15.7160530125
 21
10.958986939
  0
LINE
  5
25E
100
AcDbEntity
  8
0
100
AcDbLine
 62
7
  6
CONTINUOUS
 10
15.8160452906
 20
11.0499831446
 11
15.8158338725
 21
11.1219036642
  0
LINE
  5
25F
100
AcDbEntity
  8
0
100
AcDbLine
 62
7
  6
CONTINUOUS
 10
15.815833397
 20
11.1219251536
 11
15.8159090879
 21
11.1268942624
  0
LINE
  5
260
100
AcDbEntity
  8
0
100
AcDbLine
 62
7
  6
CONTINUOUS
 10
15.8159645887
 20
11.0467666139
 11
15.8160450272
 21
11.0500327076
  0
LINE
  5
261
100
AcDbEntity
  8
0
100
AcDbLine
 62
7
  6
CONTINUOUS
 10
15.7245538833
 20
10.8613488761
 11
15.7248869565
 21
10.8647070517
  0
LWPOLYLINE
  5
262
100
AcDbEntity
  8
0
100
AcDbPolyline
 62
7
  6
CONTINUOUS
 90
6
 70
0
 10
16.3532916387
 20
12.8406434924
 10
16.3545915982
 20
12.840676321
 10
16.3638974109
 20
12.8429499246
 10
16.3710963939
 20
12.8478350469
 10
16.3759827929
 20
12.8540666536
 10
16.3788136782
 20
12.8601913204
  0
LINE
  5
263
100
AcDbEntity
  8
0
100
AcDbLine
 62
7
  6
CONTINUOUS
 10
16.3362053568
 20
12.8406434467
 11
16.3533001303
 21
12.8406434467
  0
LINE
  5
264
100
AcDbEntity
  8
0
100
AcDbLine
 62
7
  6
CONTINUOUS
 10
15.9370784523
 20
11.4416465994
 11
15.9368670342
 21
11.513567119
  0
LINE
  5
265
100
AcDbEntity
  8
0
100
AcDbLine
 62
7
  6
CONTINUOUS
 10
15.9368665587
 20
11.5135886085
 11
15.9369422496
 21
11.5185577172
  0
LINE
  5
266
100
AcDbEntity
  8
0
100
AcDbLine
 62
7
  6
CONTINUOUS
 10
15.9369977504
 20
11.4384300687
 11
15.937078189
 21
11.4416961624
  0
LWPOLYLINE
  5
267
100
AcDbEntity
  8
0
100
AcDbPolyline
 62
7
  6
CONTINUOUS
 90
5
 70
0
 10
15.8159090879
 20
11.1268942624
 10
15.8168322746
 20
11.1407911871
 10
15.8188088214
 20
11.1564852652
 10
15.8216313648
 20
11.172074802
 10
15.8249160218
 20
11.1857891554
  0
LWPOLYLINE
  5
268
100
AcDbEntity
  8
0
100
AcDbPolyline
 62
7
  6
CONTINUOUS
 90
5
 70
0
 10
15.9369422496
 20
11.5185577172
 10
15.9378654364
 20
11.5324546419
 10
15.9398419831
 20
11.54814872
 10
15.9426645265
 20
11.5637382568
 10
15.9459491835
 20
11.5774526102
  0
LINE
  5
269
100
AcDbEntity
  8
0
100
AcDbLine
 62
7
  6
CONTINUOUS
 10
15.8151646511
 20
11.0390334417
 11
15.8159645887
 21
11.0467666139
  0
LINE
  5
26A
100
AcDbEntity
  8
0
100
AcDbLine
 62
7
  6
CONTINUOUS
 10
16.5947435156
 20
13.6753343307
 11
16.5954878111
 21
13.6768607767
  0
LINE
  5
26B
100
AcDbEntity
  8
0
100
AcDbLine
 62
7
  6
CONTINUOUS
 10
16.4737103538
 20
13.2836708759
 11
16.4744546494
 21
13.2851973219
  0
LINE
  5
26C
100
AcDbEntity
  8
0
100
AcDbLine
 62
7
  6
CONTINUOUS
 10
16.058111614
 20
11.8333100542
 11
16.0579001959
 21
11.9052305738
  0
LINE
  5
26D
100
AcDbEntity
  8
0
100
AcDbLine
 62
7
  6
CONTINUOUS
 10
16.0578997205
 20
11.9052520633
 11
16.0579754113
 21
11.910221172
  0
LINE
  5
26E
100
AcDbEntity
  8
0
100
AcDbLine
 62
7
  6
CONTINUOUS
 10
16.0580309122
 20
11.8300935236
 11
16.0581113507
 21
11.8333596173
  0
LWPOLYLINE
  5
26F
100
AcDbEntity
  8
0
100
AcDbPolyline
 62
7
  6
CONTINUOUS
 90
5
 70
0
 10
16.0579754113
 20
11.910221172
 10
16.0588985981
 20
11.9241180967
 10
16.0608751448
 20
11.9398121748
 10
16.0636976882
 20
11.9554017116
 10
16.0669823452
 20
11.969116065
  0
LINE
  5
270
100
AcDbEntity
  8
0
100
AcDbLine
 62
7
  6
CONTINUOUS
 10
15.9361978128
 20
11.4306968966
 11
15.9369977504
 21
11.4384300687
  0
LINE
  5
271
100
AcDbEntity
  8
0
100
AcDbLine
 62
7
  6
CONTINUOUS
 10
16.0572309746
 20
11.8223603514
 11
16.0580309122
 21
11.8300935236
  0
LINE
  5
272
100
AcDbEntity
  8
0
100
AcDbLine
 62
7
  6
CONTINUOUS
 10
15.8136004075
 20
11.0312402165
 11
15.8151646511
 21
11.0390334417
  0
LINE
  5
273
100
AcDbEntity
  8
0
100
AcDbLine
 62
7
  6
CONTINUOUS
 10
15.9346335692
 20
11.4229036713
 11
15.9361978128
 21
11.4306968966
  0
LINE
  5
274
100
AcDbEntity
  8
0
100
AcDbLine
 62
7
  6
CONTINUOUS
 10
16.5909130316
 20
13.6648794816
 11
16.5930579495
 21
13.6712227555
  0
LINE
  5
275
100
AcDbEntity
  8
0
100
AcDbLine
 62
7
  6
CONTINUOUS
 10
16.4698798699
 20
13.2732160268
 11
16.4720247878
 21
13.2795593007
  0
LINE
  5
276
100
AcDbEntity
  8
0
100
AcDbLine
 62
7
  6
CONTINUOUS
 10
16.5930579495
 20
13.6712227555
 11
16.5947435156
 21
13.6753343307
  0
LINE
  5
277
100
AcDbEntity
  8
0
100
AcDbLine
 62
7
  6
CONTINUOUS
 10
16.4720247878
 20
13.2795593007
 11
16.4737103538
 21
13.2836708759
  0
LINE
  5
278
100
AcDbEntity
  8
0
100
AcDbLine
 62
7
  6
CONTINUOUS
 10
16.3509916261
 20
12.8878958458
 11
16.3526771921
 21
12.8920074211
  0
LINE
  5
279
100
AcDbEntity
  8
0
100
AcDbLine
 62
7
  6
CONTINUOUS
 10
16.3526771921
 20
12.8920074211
 11
16.3534214877
 21
12.8935338671
  0
LINE
  5
27A
100
AcDbEntity
  8
0
100
AcDbLine
 62
7
  6
CONTINUOUS
 10
16.2316440304
 20
12.5003439663
 11
16.232388326
 21
12.5018704123
  0
LWPOLYLINE
  5
27B
100
AcDbEntity
  8
0
100
AcDbPolyline
 62
7
  6
CONTINUOUS
 90
6
 70
0
 10
16.4743248005
 20
13.2323069472
 10
16.4756247599
 20
13.2323397758
 10
16.4849305726
 20
13.2346133794
 10
16.4921295556
 20
13.2394985017
 10
16.4970159546
 20
13.2457301084
 10
16.4998468399
 20
13.2518547752
  0
LINE
  5
27C
100
AcDbEntity
  8
0
100
AcDbLine
 62
7
  6
CONTINUOUS
 10
16.1791447757
 20
12.224973509
 11
16.1789333577
 21
12.2968940286
  0
LINE
  5
27D
100
AcDbEntity
  8
0
100
AcDbLine
 62
7
  6
CONTINUOUS
 10
16.3001779374
 20
12.6166369639
 11
16.2999665194
 21
12.6885574834
  0
LINE
  5
27E
100
AcDbEntity
  8
0
100
AcDbLine
 62
7
  6
CONTINUOUS
 10
16.1789328822
 20
12.2969155181
 11
16.179008573
 21
12.3018846268
  0
LINE
  5
27F
100
AcDbEntity
  8
0
100
AcDbLine
 62
7
  6
CONTINUOUS
 10
16.2999660439
 20
12.6885789729
 11
16.3000417347
 21
12.6935480816
  0
LINE
  5
280
100
AcDbEntity
  8
0
100
AcDbLine
 62
7
  6
CONTINUOUS
 10
16.1790640739
 20
12.2217569784
 11
16.1791445124
 21
12.2250230721
  0
LINE
  5
281
100
AcDbEntity
  8
0
100
AcDbLine
 62
7
  6
CONTINUOUS
 10
16.3000972356
 20
12.6134204332
 11
16.3001776741
 21
12.6166865269
  0
LWPOLYLINE
  5
282
100
AcDbEntity
  8
0
100
AcDbPolyline
 62
7
  6
CONTINUOUS
 90
5
 70
0
 10
16.179008573
 20
12.3018846268
 10
16.1799317598
 20
12.3157815515
 10
16.1819083065
 20
12.3314756296
 10
16.1847308499
 20
12.3470651664
 10
16.1880155069
 20
12.3607795199
  0
LWPOLYLINE
  5
283
100
AcDbEntity
  8
0
100
AcDbPolyline
 62
7
  6
CONTINUOUS
 90
5
 70
0
 10
16.3000417347
 20
12.6935480816
 10
16.3009649215
 20
12.7074450063
 10
16.3029414682
 20
12.7231390844
 10
16.3057640116
 20
12.7387286212
 10
16.3090486686
 20
12.7524429747
  0
LINE
  5
284
100
AcDbEntity
  8
0
100
AcDbLine
 62
7
  6
CONTINUOUS
 10
16.1782641363
 20
12.2140238062
 11
16.1790640739
 21
12.2217569784
  0
LINE
  5
285
100
AcDbEntity
  8
0
100
AcDbLine
 62
7
  6
CONTINUOUS
 10
16.299297298
 20
12.605687261
 11
16.3000972356
 21
12.6134204332
  0
LINE
  5
286
100
AcDbEntity
  8
0
100
AcDbLine
 62
7
  6
CONTINUOUS
 10
16.0556667309
 20
11.8145671262
 11
16.0572309746
 21
11.8223603514
  0
LINE
  5
287
100
AcDbEntity
  8
0
100
AcDbLine
 62
7
  6
CONTINUOUS
 10
16.1766998926
 20
12.206230581
 11
16.1782641363
 21
12.2140238062
  0
LINE
  5
288
100
AcDbEntity
  8
0
100
AcDbLine
 62
7
  6
CONTINUOUS
 10
16.2977330543
 20
12.5978940358
 11
16.299297298
 21
12.605687261
  0
LINE
  5
289
100
AcDbEntity
  8
0
100
AcDbLine
 62
7
  6
CONTINUOUS
 10
16.418766216
 20
12.9895574906
 11
16.4203304597
 21
12.9973507158
  0
LINE
  5
28A
100
AcDbEntity
  8
0
100
AcDbLine
 62
7
  6
CONTINUOUS
 10
15.8127084522
 20
11.0280642951
 11
15.8136004075
 21
11.0312402165
  0
LINE
  5
28B
100
AcDbEntity
  8
0
100
AcDbLine
 62
7
  6
CONTINUOUS
 10
15.9337416139
 20
11.4197277499
 11
15.9346335692
 21
11.4229036713
  0
LINE
  5
28C
100
AcDbEntity
  8
0
100
AcDbLine
 62
7
  6
CONTINUOUS
 10
16.0547747756
 20
11.8113912047
 11
16.0556667309
 21
11.8145671262
  0
LINE
  5
28D
100
AcDbEntity
  8
0
100
AcDbLine
 62
7
  6
CONTINUOUS
 10
16.1758079373
 20
12.2030546595
 11
16.1766998926
 21
12.206230581
  0
LINE
  5
28E
100
AcDbEntity
  8
0
100
AcDbLine
 62
7
  6
CONTINUOUS
 10
16.296841099
 20
12.5947181143
 11
16.2977330543
 21
12.5978940358
  0
LINE
  5
28F
100
AcDbEntity
  8
0
100
AcDbLine
 62
7
  6
CONTINUOUS
 10
16.4178742607
 20
12.9863815691
 11
16.418766216
 21
12.9895574906
  0
LINE
  5
290
100
AcDbEntity
  8
0
100
AcDbLine
 62
7
  6
CONTINUOUS
 10
16.5389074224
 20
13.3780450239
 11
16.5397993777
 21
13.3812209454
  0
LINE
  5
291
100
AcDbEntity
  8
0
100
AcDbLine
 62
7
  6
CONTINUOUS
 10
16.6599405841
 20
13.7697084787
 11
16.6608325394
 21
13.7728844002
  0
LINE
  5
292
100
AcDbEntity
  8
0
100
AcDbLine
 62
7
  6
CONTINUOUS
 10
15.8249160218
 20
11.1857891554
 11
15.8264584982
 21
11.1911076201
  0
LINE
  5
293
100
AcDbEntity
  8
0
100
AcDbLine
 62
7
  6
CONTINUOUS
 10
15.9459491835
 20
11.5774526102
 11
15.9474916599
 21
11.5827710749
  0
LINE
  5
294
100
AcDbEntity
  8
0
100
AcDbLine
 62
7
  6
CONTINUOUS
 10
16.0669823452
 20
11.969116065
 11
16.0685248216
 21
11.9744345297
  0
LINE
  5
295
100
AcDbEntity
  8
0
100
AcDbLine
 62
7
  6
CONTINUOUS
 10
16.1880155069
 20
12.3607795199
 11
16.1895579833
 21
12.3660979845
  0
LINE
  5
296
100
AcDbEntity
  8
0
100
AcDbLine
 62
7
  6
CONTINUOUS
 10
16.3090486686
 20
12.7524429747
 11
16.310591145
 21
12.7577614393
  0
LINE
  5
297
100
AcDbEntity
  8
0
100
AcDbLine
 62
7
  6
CONTINUOUS
 10
16.4300818303
 20
13.1441064295
 11
16.4316243067
 21
13.1494248941
  0
LINE
  5
298
100
AcDbEntity
  8
0
100
AcDbLine
 62
7
  6
CONTINUOUS
 10
16.551114992
 20
13.5357698843
 11
16.5526574684
 21
13.5410883489
  0
LINE
  5
299
100
AcDbEntity
  8
0
100
AcDbLine
 62
7
  6
CONTINUOUS
 10
16.6721481537
 20
13.9274333391
 11
16.6736906301
 21
13.9327518038
  0
LINE
  5
29A
100
AcDbEntity
  8
0
100
AcDbLine
 62
7
  6
CONTINUOUS
 10
15.7255331223
 20
10.8645073714
 11
15.7436820818
 21
10.9232374258
  0
LINE
  5
29B
100
AcDbEntity
  8
0
100
AcDbLine
 62
7
  6
CONTINUOUS
 10
15.8264646739
 20
11.1911219923
 11
15.8647152435
 21
11.3149008807
  0
LINE
  5
29C
100
AcDbEntity
  8
0
100
AcDbLine
 62
7
  6
CONTINUOUS
 10
15.9474978356
 20
11.5827854471
 11
15.9857484052
 21
11.7065643355
  0
LINE
  5
29D
100
AcDbEntity
  8
0
100
AcDbLine
 62
7
  6
CONTINUOUS
 10
16.0685309973
 20
11.9744489019
 11
16.1067815669
 21
12.0982277903
  0
LINE
  5
29E
100
AcDbEntity
  8
0
100
AcDbLine
 62
7
  6
CONTINUOUS
 10
16.189564159
 20
12.3661123567
 11
16.2278147286
 21
12.4898912451
  0
LINE
  5
29F
100
AcDbEntity
  8
0
100
AcDbLine
 62
7
  6
CONTINUOUS
 10
16.3105973207
 20
12.7577758115
 11
16.3488478903
 21
12.8815546999
  0
LINE
  5
2A0
100
AcDbEntity
  8
0
100
AcDbLine
 62
7
  6
CONTINUOUS
 10
16.4316304824
 20
13.1494392663
 11
16.469881052
 21
13.2732181547
  0
LINE
  5
2A1
100
AcDbEntity
  8
0
100
AcDbLine
 62
7
  6
CONTINUOUS
 10
16.5526636441
 20
13.5411027212
 11
16.5909142137
 21
13.6648816095
  0
LINE
  5
2A2
100
AcDbEntity
  8
0
100
AcDbLine
 62
7
  6
CONTINUOUS
 10
16.6736968058
 20
13.932766176
 11
16.6928220901
 21
13.9946556184
  0
LINE
  5
2A3
100
AcDbEntity
  8
0
100
AcDbLine
 62
7
  6
CONTINUOUS
 10
15.7744711781
 20
10.9043280062
 11
15.8127217464
 21
11.0281068904
  0
LINE
  5
2A4
100
AcDbEntity
  8
0
100
AcDbLine
 62
7
  6
CONTINUOUS
 10
15.8955043398
 20
11.295991461
 11
15.9337549081
 21
11.4197703452
  0
LINE
  5
2A5
100
AcDbEntity
  8
0
100
AcDbLine
 62
7
  6
CONTINUOUS
 10
16.0165375016
 20
11.6876549158
 11
16.0547880698
 21
11.8114338
  0
LINE
  5
2A6
100
AcDbEntity
  8
0
100
AcDbLine
 62
7
  6
CONTINUOUS
 10
16.1375706633
 20
12.0793183706
 11
16.1758212315
 21
12.2030972548
  0
LINE
  5
2A7
100
AcDbEntity
  8
0
100
AcDbLine
 62
7
  6
CONTINUOUS
 10
16.258603825
 20
12.4709818254
 11
16.2968543932
 21
12.5947607096
  0
LINE
  5
2A8
100
AcDbEntity
  8
0
100
AcDbLine
 62
7
  6
CONTINUOUS
 10
16.3796369867
 20
12.8626452803
 11
16.4178875549
 21
12.9864241644
  0
LINE
  5
2A9
100
AcDbEntity
  8
0
100
AcDbLine
 62
7
  6
CONTINUOUS
 10
16.5006701484
 20
13.2543087351
 11
16.5389207166
 21
13.3780876193
  0
LINE
  5
2AA
100
AcDbEntity
  8
0
100
AcDbLine
 62
7
  6
CONTINUOUS
 10
16.6217033101
 20
13.6459721899
 11
16.6599538783
 21
13.7697510741
  0
LINE
  5
2AB
100
AcDbEntity
  8
0
100
AcDbLine
 62
7
  6
CONTINUOUS
 10
16.6208800016
 20
13.64351823
 11
16.6217190338
 21
13.6460236988
  0
LINE
  5
2AC
100
AcDbEntity
  8
0
100
AcDbLine
 62
7
  6
CONTINUOUS
 10
16.4998468399
 20
13.2518547752
 11
16.5006858721
 21
13.254360244
  0
LINE
  5
2AD
100
AcDbEntity
  8
0
100
AcDbLine
 62
7
  6
CONTINUOUS
 10
16.3788136782
 20
12.8601913204
 11
16.3796527104
 21
12.8626967892
  0
LINE
  5
2AE
100
AcDbEntity
  8
0
100
AcDbLine
 62
7
  6
CONTINUOUS
 10
16.2577805165
 20
12.4685278655
 11
16.2586195487
 21
12.4710333344
  0
LINE
  5
2AF
100
AcDbEntity
  8
0
100
AcDbLine
 62
7
  6
CONTINUOUS
 10
16.1367473548
 20
12.0768644107
 11
16.137586387
 21
12.0793698796
  0
LINE
  5
2B0
100
AcDbEntity
  8
0
100
AcDbLine
 62
7
  6
CONTINUOUS
 10
16.015714193
 20
11.6852009559
 11
16.0165532252
 21
11.6877064248
  0
LINE
  5
2B1
100
AcDbEntity
  8
0
100
AcDbLine
 62
7
  6
CONTINUOUS
 10
15.8946810313
 20
11.2935375011
 11
15.8955200635
 21
11.29604297
  0
LINE
  5
2B2
100
AcDbEntity
  8
0
100
AcDbLine
 62
7
  6
CONTINUOUS
 10
15.7736478696
 20
10.9018740463
 11
15.7744869018
 21
10.9043795152
  0
LINE
  5
2B3
100
AcDbEntity
  8
0
100
AcDbLine
 62
7
  6
CONTINUOUS
 10
16.3488467082
 20
12.881552572
 11
16.3509916261
 21
12.8878958458
  0
LINE
  5
2B4
100
AcDbEntity
  8
0
100
AcDbLine
 62
7
  6
CONTINUOUS
 10
16.2278135465
 20
12.4898891172
 11
16.2299584644
 21
12.496232391
  0
LINE
  5
2B5
100
AcDbEntity
  8
0
100
AcDbLine
 62
7
  6
CONTINUOUS
 10
16.1067803848
 20
12.0982256624
 11
16.1089253027
 21
12.1045689362
  0
LINE
  5
2B6
100
AcDbEntity
  8
0
100
AcDbLine
 62
7
  6
CONTINUOUS
 10
15.9857472231
 20
11.7065622076
 11
15.987892141
 21
11.7129054814
  0
LINE
  5
2B7
100
AcDbEntity
  8
0
100
AcDbLine
 62
7
  6
CONTINUOUS
 10
15.8647140614
 20
11.3148987528
 11
15.8668589793
 21
11.3212420266
  0
LINE
  5
2B8
100
AcDbEntity
  8
0
100
AcDbLine
 62
7
  6
CONTINUOUS
 10
15.7436808997
 20
10.9232352979
 11
15.7458258176
 21
10.9295785718
  0
LINE
  5
2B9
100
AcDbEntity
  8
0
100
AcDbLine
 62
7
  6
CONTINUOUS
 10
16.2299584644
 20
12.496232391
 11
16.2316440304
 21
12.5003439663
  0
LINE
  5
2BA
100
AcDbEntity
  8
0
100
AcDbLine
 62
7
  6
CONTINUOUS
 10
16.1089253027
 20
12.1045689362
 11
16.1106108687
 21
12.1086805115
  0
LINE
  5
2BB
100
AcDbEntity
  8
0
100
AcDbLine
 62
7
  6
CONTINUOUS
 10
15.987892141
 20
11.7129054814
 11
15.989577707
 21
11.7170170567
  0
LINE
  5
2BC
100
AcDbEntity
  8
0
100
AcDbLine
 62
7
  6
CONTINUOUS
 10
15.8668589793
 20
11.3212420266
 11
15.8685445453
 21
11.3253536018
  0
LINE
  5
2BD
100
AcDbEntity
  8
0
100
AcDbLine
 62
7
  6
CONTINUOUS
 10
16.1106108687
 20
12.1086805115
 11
16.1113551643
 21
12.1102069575
  0
LINE
  5
2BE
100
AcDbEntity
  8
0
100
AcDbLine
 62
7
  6
CONTINUOUS
 10
15.989577707
 20
11.7170170567
 11
15.9903220026
 21
11.7185435027
  0
LINE
  5
2BF
100
AcDbEntity
  8
0
100
AcDbLine
 62
7
  6
CONTINUOUS
 10
16.4572385185
 20
13.2323069015
 11
16.474333292
 21
13.2323069015
  0
LINE
  5
2C0
100
AcDbEntity
  8
0
100
AcDbLine
 62
7
  6
CONTINUOUS
 10
16.4212110991
 20
13.0083004187
 11
16.4209996811
 21
13.0802209382
  0
LINE
  5
2C1
100
AcDbEntity
  8
0
100
AcDbLine
 62
7
  6
CONTINUOUS
 10
16.4209992056
 20
13.0802424277
 11
16.4210748964
 21
13.0852115364
  0
LINE
  5
2C2
100
AcDbEntity
  8
0
100
AcDbLine
 62
7
  6
CONTINUOUS
 10
16.4211303973
 20
13.005083888
 11
16.4212108358
 21
13.0083499817
  0
LWPOLYLINE
  5
2C3
100
AcDbEntity
  8
0
100
AcDbPolyline
 62
7
  6
CONTINUOUS
 90
5
 70
0
 10
16.4210748964
 20
13.0852115364
 10
16.4219980832
 20
13.0991084611
 10
16.4239746299
 20
13.1148025392
 10
16.4267971733
 20
13.130392076
 10
16.4300818303
 20
13.1441064295
  0
LINE
  5
2C4
100
AcDbEntity
  8
0
100
AcDbLine
 62
7
  6
CONTINUOUS
 10
16.4203304597
 20
12.9973507158
 11
16.4211303973
 21
13.005083888
  0
LINE
  5
2C5
100
AcDbEntity
  8
0
100
AcDbLine
 62
7
  6
CONTINUOUS
 10
16.5413636214
 20
13.3890141706
 11
16.542163559
 21
13.3967473428
  0
LINE
  5
2C6
100
AcDbEntity
  8
0
100
AcDbLine
 62
7
  6
CONTINUOUS
 10
16.5397993777
 20
13.3812209454
 11
16.5413636214
 21
13.3890141706
  0
LINE
  5
2C7
100
AcDbEntity
  8
0
100
AcDbLine
 62
7
  6
CONTINUOUS
 10
16.6608325394
 20
13.7728844002
 11
16.6623967831
 21
13.7806776254
  0
LINE
  5
2C8
100
AcDbEntity
  8
0
100
AcDbLine
 62
7
  6
CONTINUOUS
 10
15.7458258176
 20
10.9295785718
 11
15.7475113836
 21
10.933690147
  0
LINE
  5
2C9
100
AcDbEntity
  8
0
100
AcDbLine
 62
7
  6
CONTINUOUS
 10
15.8685445453
 20
11.3253536018
 11
15.8692888409
 21
11.3268800478
  0
LINE
  5
2CA
100
AcDbEntity
  8
0
100
AcDbLine
 62
7
  6
CONTINUOUS
 10
15.7475113836
 20
10.933690147
 11
15.7482556792
 21
10.935216593
  0
LINE
  5
2CB
100
AcDbEntity
  8
0
100
AcDbLine
 62
7
  6
CONTINUOUS
 10
16.5422442608
 20
13.3999638735
 11
16.5420328428
 21
13.471884393
  0
LINE
  5
2CC
100
AcDbEntity
  8
0
100
AcDbLine
 62
7
  6
CONTINUOUS
 10
16.5420323673
 20
13.4719058825
 11
16.5421080581
 21
13.4768749912
  0
LINE
  5
2CD
100
AcDbEntity
  8
0
100
AcDbLine
 62
7
  6
CONTINUOUS
 10
16.542163559
 20
13.3967473428
 11
16.5422439975
 21
13.4000134365
  0
LWPOLYLINE
  5
2CE
100
AcDbEntity
  8
0
100
AcDbPolyline
 62
7
  6
CONTINUOUS
 90
5
 70
0
 10
16.5421080581
 20
13.4768749912
 10
16.5430312449
 20
13.490771916
 10
16.5450077916
 20
13.506465994
 10
16.547830335
 20
13.5220555309
 10
16.551114992
 20
13.5357698843
  0
LWPOLYLINE
  5
2CF
100
AcDbEntity
  8
0
100
AcDbPolyline
 62
7
  6
CONTINUOUS
 90
5
 70
0
 10
16.6631412198
 20
13.8685384461
 10
16.6640644066
 20
13.8824353708
 10
16.6660409533
 20
13.8981294488
 10
16.6688634967
 20
13.9137189857
 10
16.6721481537
 20
13.9274333391
  0
LINE
  5
2D0
100
AcDbEntity
  8
0
100
AcDbLine
 62
7
  6
CONTINUOUS
 10
16.6931522501
 20
13.9980146902
 11
16.692819177
 21
13.9946565146
  0
LINE
  5
2D1
100
AcDbEntity
  8
0
100
AcDbLine
 62
7
  6
CONTINUOUS
 10
16.6623967831
 20
13.7806776254
 11
16.6631967207
 21
13.7884107976
  0
LWPOLYLINE
  5
2D2
100
AcDbEntity
  8
0
100
AcDbPolyline
 62
7
  6
CONTINUOUS
 90
6
 70
0
 10
16.5953579622
 20
13.623970402
 10
16.5966579216
 20
13.6240032306
 10
16.6059637343
 20
13.6262768342
 10
16.6131627173
 20
13.6311619565
 10
16.6180491163
 20
13.6373935633
 10
16.6208800016
 20
13.64351823
  0
LINE
  5
2D3
100
AcDbEntity
  8
0
100
AcDbLine
 62
7
  6
CONTINUOUS
 10
16.5782716802
 20
13.6239703563
 11
16.5953664537
 21
13.6239703563
  0
LINE
  5
2D4
100
AcDbEntity
  8
0
100
AcDbLine
 62
7
  6
CONTINUOUS
 10
16.6632774225
 20
13.7916273283
 11
16.6630660045
 21
13.8635478479
  0
LINE
  5
2D5
100
AcDbEntity
  8
0
100
AcDbLine
 62
7
  6
CONTINUOUS
 10
16.663065529
 20
13.8635693373
 11
16.6631412198
 21
13.8685384461
  0
LINE
  5
2D6
100
AcDbEntity
  8
0
100
AcDbLine
 62
7
  6
CONTINUOUS
 10
16.6631967207
 20
13.7884107976
 11
16.6632771592
 21
13.7916768913
  0
LINE
  5
2D7
100
AcDbEntity
  8
0
100
AcDbLine
 62
7
  6
CONTINUOUS
 10
16.6931522501
 20
13.9980146902
 11
16.6843183061
 21
14.0922945775
  0
LINE
  5
2D8
100
AcDbEntity
  8
0
100
AcDbLine
 62
7
  6
CONTINUOUS
 10
16.6270727635
 20
14.1684210709
 11
15.2339680101
 21
14.1684210709
  0
LINE
  5
2D9
100
AcDbEntity
  8
0
100
AcDbLine
 62
7
  6
CONTINUOUS
 10
16.6795616809
 20
14.1083830273
 11
16.657725335
 21
14.1528808216
  0
ARC
  5
2DA
100
AcDbEntity
  8
0
100
AcDbCircle
 62
7
  6
CONTINUOUS
 10
5.417312824
 20
5.4719532301
 40
0.025
100
AcDbArc
 50
195.0
 51
270.0
  0
ARC
  5
2DB
100
AcDbEntity
  8
0
100
AcDbCircle
 62
7
  6
CONTINUOUS
 10
5.4565227183
 20
5.3256199123
 40
0.025
100
AcDbArc
 50
195.0000369112
 51
270.000009553
  0
ARC
  5
2DC
100
AcDbEntity
  8
0
100
AcDbCircle
 62
7
  6
CONTINUOUS
 10
5.4491172762
 20
5.6430351465
 40
0.1
100
AcDbArc
 50
180.0
 51
195.0
  0
ARC
  5
2DD
100
AcDbEntity
  8
0
100
AcDbCircle
 62
7
  6
CONTINUOUS
 10
5.3741172762
 20
5.7146198968
 40
0.025
100
AcDbArc
 50
90.0
 51
180.0
  0
ARC
  5
2DE
100
AcDbEntity
  8
0
100
AcDbCircle
 62
7
  6
CONTINUOUS
 10
6.8042118299
 20
5.3256198968
 40
0.025
100
AcDbArc
 50
270.0
 51
345.0
  0
ARC
  5
2DF
100
AcDbEntity
  8
0
100
AcDbCircle
 62
7
  6
CONTINUOUS
 10
6.8434217284
 20
5.4719532301
 40
0.025
100
AcDbArc
 50
270.0
 51
345.0
  0
ARC
  5
2E0
100
AcDbEntity
  8
0
100
AcDbCircle
 62
7
  6
CONTINUOUS
 10
6.8116172762
 20
5.6430351465
 40
0.1
100
AcDbArc
 50
345.0
 51
360.0
  0
ARC
  5
2E1
100
AcDbEntity
  8
0
100
AcDbCircle
 62
7
  6
CONTINUOUS
 10
6.8866172762
 20
5.7146198968
 40
0.025
100
AcDbArc
 50
0.0
 51
90.0
  0
ARC
  5
2E2
100
AcDbEntity
  8
0
100
AcDbCircle
 62
7
  6
CONTINUOUS
 10
13.7313468102
 20
5.2777080378
 40
0.0365833333
100
AcDbArc
 50
193.0
 51
270.0
  0
ARC
  5
2E3
100
AcDbEntity
  8
0
100
AcDbCircle
 62
7
  6
CONTINUOUS
 10
13.8893637037
 20
5.2777080378
 40
0.0365833333
100
AcDbArc
 50
270.0
 51
347.0
  0
ARC
  5
2E4
100
AcDbEntity
  8
0
100
AcDbCircle
 62
7
  6
CONTINUOUS
 10
14.2313468102
 20
5.2777080378
 40
0.0365833333
100
AcDbArc
 50
193.0
 51
270.0
  0
ARC
  5
2E5
100
AcDbEntity
  8
0
100
AcDbCircle
 62
7
  6
CONTINUOUS
 10
14.3893637037
 20
5.2777080378
 40
0.0365833333
100
AcDbArc
 50
270.0
 51
347.0
  0
ARC
  5
2E6
100
AcDbEntity
  8
0
100
AcDbCircle
 62
7
  6
CONTINUOUS
 10
14.7313468102
 20
5.2777080378
 40
0.0365833333
100
AcDbArc
 50
193.0
 51
270.0
  0
ARC
  5
2E7
100
AcDbEntity
  8
0
100
AcDbCircle
 62
7
  6
CONTINUOUS
 10
14.8893637037
 20
5.2777080378
 40
0.0365833333
100
AcDbArc
 50
270.0
 51
347.0
  0
ARC
  5
2E8
100
AcDbEntity
  8
0
100
AcDbCircle
 62
7
  6
CONTINUOUS
 10
15.2313468102
 20
5.2777080378
 40
0.0365833333
100
AcDbArc
 50
193.0
 51
270.0
  0
ARC
  5
2E9
100
AcDbEntity
  8
0
100
AcDbCircle
 62
7
  6
CONTINUOUS
 10
15.3893637037
 20
5.2777080378
 40
0.0365833333
100
AcDbArc
 50
270.0
 51
347.0
  0
ARC
  5
2EA
100
AcDbEntity
  8
0
100
AcDbCircle
 62
7
  6
CONTINUOUS
 10
13.6393637037
 20
5.3508747044
 40
0.0365833333
100
AcDbArc
 50
13.0
 51
90.0
  0
ARC
  5
2EB
100
AcDbEntity
  8
0
100
AcDbCircle
 62
7
  6
CONTINUOUS
 10
13.9813468102
 20
5.3508747044
 40
0.0365833333
100
AcDbArc
 50
90.0
 51
167.0
  0
ARC
  5
2EC
100
AcDbEntity
  8
0
100
AcDbCircle
 62
7
  6
CONTINUOUS
 10
14.1393637037
 20
5.3508747044
 40
0.0365833333
100
AcDbArc
 50
13.0
 51
90.0
  0
ARC
  5
2ED
100
AcDbEntity
  8
0
100
AcDbCircle
 62
7
  6
CONTINUOUS
 10
14.4813468102
 20
5.3508747044
 40
0.0365833333
100
AcDbArc
 50
90.0
 51
167.0
  0
ARC
  5
2EE
100
AcDbEntity
  8
0
100
AcDbCircle
 62
7
  6
CONTINUOUS
 10
14.6393637037
 20
5.3508747044
 40
0.0365833333
100
AcDbArc
 50
13.0
 51
90.0
  0
ARC
  5
2EF
100
AcDbEntity
  8
0
100
AcDbCircle
 62
7
  6
CONTINUOUS
 10
14.9813468102
 20
5.3508747044
 40
0.0365833333
100
AcDbArc
 50
90.0
 51
167.0
  0
ARC
  5
2F0
100
AcDbEntity
  8
0
100
AcDbCircle
 62
7
  6
CONTINUOUS
 10
15.1393637037
 20
5.3508747044
 40
0.0365833333
100
AcDbArc
 50
13.0
 51
90.0
  0
ARC
  5
2F1
100
AcDbEntity
  8
0
100
AcDbCircle
 62
7
  6
CONTINUOUS
 10
15.4813468102
 20
5.3508747044
 40
0.0365833333
100
AcDbArc
 50
90.0
 51
167.0
  0
ARC
  5
2F2
100
AcDbEntity
  8
0
100
AcDbCircle
 62
7
  6
CONTINUOUS
 10
17.3893637037
 20
5.2777080378
 40
0.0365833333
100
AcDbArc
 50
270.0
 51
347.0
  0
ARC
  5
2F3
100
AcDbEntity
  8
0
100
AcDbCircle
 62
7
  6
CONTINUOUS
 10
17.2313468102
 20
5.2777080378
 40
0.0365833333
100
AcDbArc
 50
193.0
 51
270.0
  0
ARC
  5
2F4
100
AcDbEntity
  8
0
100
AcDbCircle
 62
7
  6
CONTINUOUS
 10
16.8893637037
 20
5.2777080378
 40
0.0365833333
100
AcDbArc
 50
270.0
 51
347.0
  0
ARC
  5
2F5
100
AcDbEntity
  8
0
100
AcDbCircle
 62
7
  6
CONTINUOUS
 10
16.7313468102
 20
5.2777080378
 40
0.0365833333
100
AcDbArc
 50
193.0
 51
270.0
  0
ARC
  5
2F6
100
AcDbEntity
  8
0
100
AcDbCircle
 62
7
  6
CONTINUOUS
 10
16.3893637037
 20
5.2777080378
 40
0.0365833333
100
AcDbArc
 50
270.0
 51
347.0
  0
ARC
  5
2F7
100
AcDbEntity
  8
0
100
AcDbCircle
 62
7
  6
CONTINUOUS
 10
16.2313468102
 20
5.2777080378
 40
0.0365833333
100
AcDbArc
 50
193.0
 51
270.0
  0
ARC
  5
2F8
100
AcDbEntity
  8
0
100
AcDbCircle
 62
7
  6
CONTINUOUS
 10
15.8893637037
 20
5.2777080378
 40
0.0365833333
100
AcDbArc
 50
270.0
 51
347.0
  0
ARC
  5
2F9
100
AcDbEntity
  8
0
100
AcDbCircle
 62
7
  6
CONTINUOUS
 10
15.7313468102
 20
5.2777080378
 40
0.0365833333
100
AcDbArc
 50
193.0
 51
270.0
  0
ARC
  5
2FA
100
AcDbEntity
  8
0
100
AcDbCircle
 62
7
  6
CONTINUOUS
 10
17.4813468102
 20
5.3508747044
 40
0.0365833333
100
AcDbArc
 50
90.0
 51
167.0
  0
ARC
  5
2FB
100
AcDbEntity
  8
0
100
AcDbCircle
 62
7
  6
CONTINUOUS
 10
17.1393637037
 20
5.3508747044
 40
0.0365833333
100
AcDbArc
 50
13.0
 51
90.0
  0
ARC
  5
2FC
100
AcDbEntity
  8
0
100
AcDbCircle
 62
7
  6
CONTINUOUS
 10
16.9813468102
 20
5.3508747044
 40
0.0365833333
100
AcDbArc
 50
90.0
 51
167.0
  0
ARC
  5
2FD
100
AcDbEntity
  8
0
100
AcDbCircle
 62
7
  6
CONTINUOUS
 10
16.6393637037
 20
5.3508747044
 40
0.0365833333
100
AcDbArc
 50
13.0
 51
90.0
  0
ARC
  5
2FE
100
AcDbEntity
  8
0
100
AcDbCircle
 62
7
  6
CONTINUOUS
 10
16.4813468102
 20
5.3508747044
 40
0.0365833333
100
AcDbArc
 50
90.0
 51
167.0
  0
ARC
  5
2FF
100
AcDbEntity
  8
0
100
AcDbCircle
 62
7
  6
CONTINUOUS
 10
16.1393637037
 20
5.3508747044
 40
0.0365833333
100
AcDbArc
 50
13.0
 51
90.0
  0
ARC
  5
300
100
AcDbEntity
  8
0
100
AcDbCircle
 62
7
  6
CONTINUOUS
 10
15.9813468102
 20
5.3508747044
 40
0.0365833333
100
AcDbArc
 50
90.0
 51
167.0
  0
ARC
  5
301
100
AcDbEntity
  8
0
100
AcDbCircle
 62
7
  6
CONTINUOUS
 10
15.6393637037
 20
5.3508747044
 40
0.0365833333
100
AcDbArc
 50
13.0
 51
90.0
  0
SPLINE
  5
302
100
AcDbEntity
  8
0
100
AcDbSpline
 62
7
  6
CONTINUOUS
 70
0
 71
3
 72
15
 73
11
 74
0
 42
0.0000001
 43
0.0000001
 44
0.0000000001
 40
0.0
 40
0.0
 40
0.0
 40
0.0
 40
0.1295686023
 40
0.2645757981
 40
0.4012660244
 40
0.536271686
 40
0.6662157106
 40
0.788100963
 40
0.8998142776
 40
1.0
 40
1.0
 40
1.0
 40
1.0
 10
16.6270727635
 20
14.1684210709
 30
0.0
 10
16.628621023
 20
14.1684210709
 30
0.0
 10
16.6317849762
 20
14.1682058407
 30
0.0
 10
16.6365074923
 20
14.1673219516
 30
0.0
 10
16.6411637985
 20
14.1658944986
 30
0.0
 10
16.6455756632
 20
14.1639791787
 30
0.0
 10
16.6495818512
 20
14.1616504959
 30
0.0
 10
16.6530339343
 20
14.1589891647
 30
0.0
 10
16.6557997844
 20
14.1560931162
 30
0.0
 10
16.6571979378
 20
14.1539555442
 30
0.0
 10
16.657725335
 20
14.1528808216
 30
0.0
  0
SPLINE
  5
303
100
AcDbEntity
  8
0
100
AcDbSpline
 62
7
  6
CONTINUOUS
 70
0
 71
3
 72
15
 73
11
 74
0
 42
0.0000001
 43
0.0000001
 44
0.0000000001
 40
0.0
 40
0.0
 40
0.0
 40
0.0
 40
0.0996459888
 40
0.2028719609
 40
0.3125942617
 40
0.4308571018
 40
0.5588150967
 40
0.6968311891
 40
0.8443983448
 40
1.0
 40
1.0
 40
1.0
 40
1.0
 10
15.2177085189
 20
14.1602620145
 30
0.0
 10
15.2178986341
 20
14.1608772553
 30
0.0
 10
15.2184372743
 20
14.1620881977
 30
0.0
 10
15.2196682634
 20
14.1637091419
 30
0.0
 10
15.22129165
 20
14.1651243091
 30
0.0
 10
15.223275813
 20
14.1663083688
 30
0.0
 10
15.2255833544
 20
14.1672470002
 30
0.0
 10
15.2281749696
 20
14.1679257245
 30
0.0
 10
15.2310018467
 20
14.1683333873
 30
0.0
 10
15.2329624615
 20
14.1684210709
 30
0.0
 10
15.2339680101
 20
14.1684210709
 30
0.0
  0
SPLINE
  5
304
100
AcDbEntity
  8
0
100
AcDbSpline
 62
7
  6
CONTINUOUS
 70
0
 71
3
 72
11
 73
7
 74
0
 42
0.0000001
 43
0.0000001
 44
0.0000000001
 40
0.0
 40
0.0
 40
0.0
 40
0.0
 40
0.2336942877
 40
0.4747278858
 40
0.7289544081
 40
1.0
 40
1.0
 40
1.0
 40
1.0
 10
14.2494432253
 20
11.026954376
 30
0.0
 10
14.2492683706
 20
11.0263885206
 30
0.0
 10
14.2490380593
 20
11.0251963733
 30
0.0
 10
14.2490803524
 20
11.0233370952
 30
0.0
 10
14.249498159
 20
11.0214299196
 30
0.0
 10
14.2499996227
 20
11.0201898489
 30
0.0
 10
14.2503022383
 20
11.0195731831
 30
0.0
  0
SPLINE
  5
305
100
AcDbEntity
  8
0
100
AcDbSpline
 62
7
  6
CONTINUOUS
 70
0
 71
3
 72
9
 73
5
 74
0
 42
0.0000001
 43
0.0000001
 44
0.0000000001
 40
0.0
 40
0.0
 40
0.0
 40
0.0
 40
0.5176005204
 40
1.0
 40
1.0
 40
1.0
 40
1.0
 10
16.6795616809
 20
14.1083830273
 30
0.0
 10
16.6808421236
 20
14.1057737593
 30
0.0
 10
16.6829438696
 20
14.1005358245
 30
0.0
 10
16.6840655965
 20
14.0949916097
 30
0.0
 10
16.6843183061
 20
14.0922945775
 30
0.0
  0
SPLINE
  5
306
100
AcDbEntity
  8
0
100
AcDbSpline
 62
7
  6
CONTINUOUS
 70
0
 71
3
 72
14
 73
10
 74
0
 42
0.0000001
 43
0.0000001
 44
0.0000000001
 40
0.0
 40
0.0
 40
0.0
 40
0.0
 40
0.1556294389
 40
0.303264722
 40
0.5688234953
 40
0.6871314843
 40
0.7968673161
 40
0.9001626327
 40
1.0
 40
1.0
 40
1.0
 40
1.0
 10
15.708297322
 20
10.853188915
 30
0.0
 10
15.7093024733
 20
10.853188915
 30
0.0
 10
15.7112634603
 20
10.8532767295
 30
0.0
 10
15.7149013098
 20
10.8538014158
 30
0.0
 10
15.7182219079
 20
10.8548455021
 30
0.0
 10
15.7209721448
 20
10.8564841327
 30
0.0
 10
15.72259599
 20
10.8578984851
 30
0.0
 10
15.7238274214
 20
10.8595199074
 30
0.0
 10
15.7243657327
 20
10.8607321218
 30
0.0
 10
15.7245556007
 20
10.8613483459
 30
0.0
  0
SPLINE
  5
307
100
AcDbEntity
  8
0
100
AcDbSpline
 62
7
  6
CONTINUOUS
 70
0
 71
3
 72
15
 73
11
 74
0
 42
0.0000001
 43
0.0000001
 44
0.0000000001
 40
0.0
 40
0.0
 40
0.0
 40
0.0
 40
0.1102070628
 40
0.2287222812
 40
0.3536317341
 40
0.4829519617
 40
0.6145658554
 40
0.7462248322
 40
0.8755868389
 40
1.0
 40
1.0
 40
1.0
 40
1.0
 10
14.3668698414
 20
10.8647070517
 30
0.0
 10
14.3676251749
 20
10.8638562194
 30
0.0
 10
14.3693277968
 20
10.8622080984
 30
0.0
 10
14.3722451622
 20
10.860001148
 30
0.0
 10
14.3755562369
 20
10.8580263665
 30
0.0
 10
14.3791680034
 20
10.8563320548
 30
0.0
 10
14.3829894425
 20
10.8549642519
 30
0.0
 10
14.3869215305
 20
10.8539552091
 30
0.0
 10
14.3908583068
 20
10.8533379271
 30
0.0
 10
14.3934796421
 20
10.853188915
 30
0.0
 10
14.394764037
 20
10.853188915
 30
0.0
  0
SPLINE
  5
308
100
AcDbEntity
  8
0
100
AcDbSpline
 62
7
  6
CONTINUOUS
 70
0
 71
3
 72
9
 73
5
 74
0
 42
0.0000001
 43
0.0000001
 44
0.0000000001
 40
0.0
 40
0.0
 40
0.0
 40
0.0
 40
0.4813568167
 40
1.0
 40
1.0
 40
1.0
 40
1.0
 10
14.2721385841
 20
10.9750753888
 30
0.0
 10
14.2735206683
 20
10.9722589973
 30
0.0
 10
14.2768676936
 20
10.9666356506
 30
0.0
 10
14.280927973
 20
10.9615147833
 30
0.0
 10
14.2831720878
 20
10.958986939
 30
0.0
  0
SPLINE
  5
309
100
AcDbEntity
  8
0
100
AcDbSpline
 62
7
  6
CONTINUOUS
 70
0
 71
3
 72
15
 73
11
 74
0
 42
0.0000001
 43
0.0000001
 44
0.0000000001
 40
0.0
 40
0.0
 40
0.0
 40
0.0
 40
0.1001857224
 40
0.211899037
 40
0.3337842894
 40
0.463728314
 40
0.5987339756
 40
0.7354242019
 40
0.8704313977
 40
1.0
 40
1.0
 40
1.0
 40
1.0
 10
15.6894600414
 20
11.0195731831
 30
0.0
 10
15.6889326442
 20
11.0206479057
 30
0.0
 10
15.6875344908
 20
11.0227854777
 30
0.0
 10
15.6847686407
 20
11.0256815262
 30
0.0
 10
15.6813165576
 20
11.0283428574
 30
0.0
 10
15.6773103696
 20
11.0306715402
 30
0.0
 10
15.6728985049
 20
11.0325868601
 30
0.0
 10
15.6682421987
 20
11.0340143131
 30
0.0
 10
15.6635196826
 20
11.0348982022
 30
0.0
 10
15.6603557294
 20
11.0351134323
 30
0.0
 10
15.6588074699
 20
11.0351134323
 30
0.0
  0
SPLINE
  5
30A
100
AcDbEntity
  8
0
100
AcDbSpline
 62
7
  6
CONTINUOUS
 70
0
 71
3
 72
15
 73
11
 74
0
 42
0.0000001
 43
0.0000001
 44
0.0000000001
 40
0.0
 40
0.0
 40
0.0
 40
0.0
 40
0.1556016552
 40
0.3031688109
 40
0.4411849033
 40
0.5691428982
 40
0.6874057383
 40
0.7971280391
 40
0.9003540112
 40
1.0
 40
1.0
 40
1.0
 40
1.0
 10
14.2657027165
 20
11.0351134323
 30
0.0
 10
14.2646971679
 20
11.0351134323
 30
0.0
 10
14.2627365531
 20
11.0350257487
 30
0.0
 10
14.2599096759
 20
11.034618086
 30
0.0
 10
14.2573180608
 20
11.0339393617
 30
0.0
 10
14.2550105193
 20
11.0330007302
 30
0.0
 10
14.2530263564
 20
11.0318166706
 30
0.0
 10
14.2514029697
 20
11.0304015034
 30
0.0
 10
14.2501719807
 20
11.0287805592
 30
0.0
 10
14.2496333405
 20
11.0275696168
 30
0.0
 10
14.2494432253
 20
11.026954376
 30
0.0
  0
SPLINE
  5
30B
100
AcDbEntity
  8
0
100
AcDbSpline
 62
7
  6
CONTINUOUS
 70
0
 71
3
 72
9
 73
5
 74
0
 42
0.0000001
 43
0.0000001
 44
0.0000000001
 40
0.0
 40
0.0
 40
0.0
 40
0.0
 40
0.4823994796
 40
1.0
 40
1.0
 40
1.0
 40
1.0
 10
15.7160530125
 20
10.958986939
 30
0.0
 10
15.7158003029
 20
10.9616839712
 30
0.0
 10
15.7146785759
 20
10.967228186
 30
0.0
 10
15.71257683
 20
10.9724661208
 30
0.0
 10
15.7112963873
 20
10.9750753888
 30
0.0
  0
ENDSEC
  0
SECTION
  2
OBJECTS
  0
DICTIONARY
  5
C
100
AcDbDictionary
280
0
281
1
  3
ACAD_GROUP
350
D
  3
ACAD_MLINESTYLE
350
17
  3
ACAD_LAYOUT
350
1A
  3
ACAD_PLOTSETTINGS
350
19
  3
ACAD_PLOTSTYLENAME
350
E
  0
DICTIONARY
  5
D
102
{ACAD_REACTORS
330
C
102
}
100
AcDbDictionary
280
0
281
1
  0
ACDBDICTIONARYWDFLT
  5
E
102
{ACAD_REACTORS
330
C
102
}
100
AcDbDictionary
281
1
  3
Normal
350
F
100
AcDbDictionaryWithDefault
340
F
  0
DICTIONARY
  5
17
102
{ACAD_REACTORS
330
C
102
}
100
AcDbDictionary
280
0
281
1
  3
Standard
350
18
  0
DICTIONARY
  5
19
102
{ACAD_REACTORS
330
C
102
}
100
AcDbDictionary
281
1
  0
DICTIONARY
  5
1A
102
{ACAD_REACTORS
330
C
102
}
100
AcDbDictionary
281
1
  3
Model
350
30C
  3
Layout1
350
30D
  0
ACDBPLACEHOLDER
  5
F
102
{ACAD_REACTORS
330
E
102
}
  0
MLINESTYLE
  5
18
102
{ACAD_REACTORS
330
17
102
}
100
AcDbMlineStyle
  2
STANDARD
 70
0
  3

 62
256
 51
90.0
 52
90.0
 71
2
 49
0.5
 62
256
  6
BYLAYER
 49
-0.5
 62
256
  6
BYLAYER
  0
LAYOUT
  5
30C
102
{ACAD_REACTORS
330
1A
102
}
100
AcDbPlotSettings
  1

  2
none_device
  4
ANSI_C_(22.00_x_17.00_Inches)
  6

 40
0.0
 41
0.0
 42
0.0
 43
0.0
 44
558.8
 45
431.8
 46
0.0
 47
0.0
 48
0.0
 49
0.0
140
0.0
141
0.0
142
1.0
143
1.0
 70
1024
 72
0
 73
0
 74
0
  7

 75
0
147
1.0
148
0.0
149
0.0
100
AcDbLayout
  1
Model
 70
0
 71
0
 10
0.0
 20
0.0
 11
22.0
 21
17.0
 12
0.0
 22
0.0
 32
0.0
 14
0.0
 24
0.0
 34
0.0
 15
0.0
 25
0.0
 35
0.0
146
0.0
 13
0.0
 23
0.0
 33
0.0
 16
1.0
 26
0.0
 36
0.0
 17
0.0
 27
1.0
 37
0.0
 76
0
330
216
345
0
346
0
  0
LAYOUT
  5
30D
102
{ACAD_REACTORS
330
1A
102
}
100
AcDbPlotSettings
  1

  2
none_device
  4
ANSI_C_(22.00_x_17.00_Inches)
  6

 40
0.0
 41
0.0
 42
0.0
 43
0.0
 44
558.8
 45
431.8
 46
0.0
 47
0.0
 48
0.0
 49
0.0
140
0.0
141
0.0
142
1.0
143
1.0
 70
0
 72
0
 73
0
 74
0
  7

 75
0
147
1.0
148
0.0
149
0.0
100
AcDbLayout
  1
Layout1
 70
0
 71
1
 10
0.0
 20
0.0
 11
22.0
 21
17.0
 12
0.0
 22
0.0
 32
0.0
 14
0.0
 24
0.0
 34
0.0
 15
0.0
 25
0.0
 35
0.0
146
0.0
 13
0.0
 23
0.0
 33
0.0
 16
1.0
 26
0.0
 36
0.0
 17
0.0
 27
1.0
 37
0.0
 76
0
330
217
345
0
346
0
  0
ENDSEC
  0
EOF