999
DXF file: _cgs_temp_output.dxf
999
Pro/ENGINEER 2016360 by Parametric Technology Corporation
  0
SECTION
  2
HEADER
  9
$ACADVER
  1
AC1021
  9
$DWGCODEPAGE
  3
ANSI_1252
  9
$EXTMAX
 10
22.0
 20
17.0
 30
0.0
  9
$EXTMIN
 10
0.0
 20
0.0
 30
0.0
  9
$LIMMIN
 10
0.0
 20
0.0
  9
$LIMMAX
 10
22.0
 20
17.0
  9
$VIEWCTR
 10
11.0
 20
8.5
  9
$VIEWSIZE
 40
17.0
  9
$CLAYER
  8
0
  9
$LTSCALE
 40
1.21
  9
$CELTYPE
  6
BYLAYER
  9
$DIMSCALE
 40
1.0
  9
$DIMASZ
 40
0.1875
  9
$DIMEXO
 40
0.0625
  9
$DIMDLI
 40
0.836
  9
$DIMEXE
 40
0.125
  9
$DIMCEN
 40
0.198
  9
$DIMLFAC
 40
1.0
  9
$DIMBLK
  1
_CLOSED
  9
$DIMALT
 70
0
  9
$DIMALTF
 40
25.4
  9
$DIMTXT
 40
0.15625
  9
$DIMTOL
 70
0
  9
$DIMLIM
 70
0
  9
$DIMTFAC
 40
1.0
  9
$DIMGAP
 40
0.09
  9
$DIMDSEP
 70
46
  9
$AUNITS
 70
0
  9
$PDMODE
 70
3
  9
$PDSIZE
 40
0.3125
  9
$HANDSEED
  5
27A
  9
$TILEMODE
 70
1
  9
$MEASUREMENT
 70
0
  9
$INSUNITS
 70
1
  0
ENDSEC
  0
SECTION
  2
CLASSES
  0
CLASS
  1
ACDBDICTIONARYWDFLT
  2
AcDbDictionaryWithDefault
  3
AutoCAD 2000
 90
0
 91
1
280
0
281
0
  0
CLASS
  1
ACDBPLACEHOLDER
  2
AcDbPlaceHolder
  3
AutoCAD 2000
 90
0
 91
1
280
0
281
0
  0
CLASS
  1
LAYOUT
  2
AcDbLayout
  3
AutoCAD 2000
 90
0
 91
0
280
0
281
0
  0
ENDSEC
  0
SECTION
  2
TABLES
  0
TABLE
  2
VPORT
  5
8
100
AcDbSymbolTable
 70
2
  0
VPORT
  5
1F4
100
AcDbSymbolTableRecord
100
AcDbViewportTableRecord
  2
*ACTIVE
 70
0
 10
0.0
 20
0.0
 11
1.0
 21
1.0
 12
11.0
 22
8.5
 13
0.0
 23
0.0
 14
1.0
 24
1.0
 15
0.0
 25
0.0
 16
0.0
 26
0.0
 36
1.0
 17
0.0
 27
0.0
 37
0.0
 40
17.0
 41
1.2941176471
 42
50.0
 43
0.0
 44
0.0
 50
0.0
 51
0.0
 71
0
 72
100
 73
1
 74
1
 75
0
 76
0
 77
0
 78
0
  0
ENDTAB
  0
TABLE
  2
LTYPE
  5
5
100
AcDbSymbolTable
 70
6
  0
LTYPE
  5
14
100
AcDbSymbolTableRecord
100
AcDbLinetypeTableRecord
  2
BYBLOCK
 70
0
  3

 72
65
 73
0
 40
0.0
  0
LTYPE
  5
15
100
AcDbSymbolTableRecord
100
AcDbLinetypeTableRecord
  2
BYLAYER
 70
0
  3

 72
65
 73
0
 40
0.0
  0
LTYPE
  5
16
100
AcDbSymbolTableRecord
100
AcDbLinetypeTableRecord
  2
CONTINUOUS
 70
64
  3
Solid line
 72
65
 73
0
 40
0.0
  0
LTYPE
  5
1F5
100
AcDbSymbolTableRecord
100
AcDbLinetypeTableRecord
  2
CENTER
 70
64
  3
____ _ ____ _ ____ _ ____ _ ____ _ ____ _ ____
 72
65
 73
4
 40
0.6
 49
0.375
 74
0
 49
-0.075
 74
0
 49
0.075
 74
0
 49
-0.075
 74
0
  0
LTYPE
  5
1F6
100
AcDbSymbolTableRecord
100
AcDbLinetypeTableRecord
  2
HIDDEN
 70
64
  3
- - - - - - - - - - - - - - - - - - - -
 72
65
 73
2
 40
0.2
 49
0.1
 74
0
 49
-0.1
 74
0
  0
LTYPE
  5
1F7
100
AcDbSymbolTableRecord
100
AcDbLinetypeTableRecord
  2
PHANTOM
 70
64
  3
_____ _ _ _____ _ _ _____ _ _ _____
 72
65
 73
6
 40
0.8
 49
0.45
 74
0
 49
-0.05
 74
0
 49
0.1
 74
0
 49
-0.05
 74
0
 49
0.1
 74
0
 49
-0.05
 74
0
  0
LTYPE
  5
1F8
100
AcDbSymbolTableRecord
100
AcDbLinetypeTableRecord
  2
DOT
 70
64
  3
. . . . . . . . . . . . . . . . . . . .
 72
65
 73
2
 40
0.2
 49
0.1
 74
0
 49
-0.1
 74
0
  0
LTYPE
  5
1F9
100
AcDbSymbolTableRecord
100
AcDbLinetypeTableRecord
  2
DASHED
 70
64
  3
- - - - - - - - - - - - - - - - - - - -
 72
65
 73
2
 40
0.2
 49
0.1
 74
0
 49
-0.1
 74
0
  0
ENDTAB
  0
TABLE
  2
LAYER
  5
2
100
AcDbSymbolTable
 70
36
  0
LAYER
  5
10
100
AcDbSymbolTableRecord
100
AcDbLayerTableRecord
  2
0
 70
0
 62
7
  6
CONTINUOUS
370
-3
390
F
  0
LAYER
  5
1FA
100
AcDbSymbolTableRecord
100
AcDbLayerTableRecord
  2
DEFAULT_1
 70
0
 62
7
  6
CENTER
370
-3
390
F
  0
LAYER
  5
1FB
100
AcDbSymbolTableRecord
100
AcDbLayerTableRecord
  2
DEFAULT_2
 70
0
 62
8
  6
HIDDEN
370
-3
390
F
  0
LAYER
  5
1FC
100
AcDbSymbolTableRecord
100
AcDbLayerTableRecord
  2
DEFAULT_3
 70
0
 62
7
  6
PHANTOM
370
-3
390
F
  0
LAYER
  5
1FD
100
AcDbSymbolTableRecord
100
AcDbLayerTableRecord
  2
01_ALL_DTM_PLN
 70
0
 62
7
  6
CONTINUOUS
370
-3
390
F
  0
LAYER
  5
1FE
100
AcDbSymbolTableRecord
100
AcDbLayerTableRecord
  2
01__ASM_ALL_DTM_PLN
 70
0
 62
7
  6
CONTINUOUS
370
-3
390
F
  0
LAYER
  5
1FF
100
AcDbSymbolTableRecord
100
AcDbLayerTableRecord
  2
01__ASM_DEF_DTM_PLN
 70
0
 62
7
  6
CONTINUOUS
370
-3
390
F
  0
LAYER
  5
200
100
AcDbSymbolTableRecord
100
AcDbLayerTableRecord
  2
01___PRT_ALL_DTM_PLN
 70
0
 62
7
  6
CONTINUOUS
370
-3
390
F
  0
LAYER
  5
201
100
AcDbSymbolTableRecord
100
AcDbLayerTableRecord
  2
01___PRT_DEF_DTM_PLN
 70
0
 62
7
  6
CONTINUOUS
370
-3
390
F
  0
LAYER
  5
202
100
AcDbSymbolTableRecord
100
AcDbLayerTableRecord
  2
02_ALL_AXES
 70
0
 62
7
  6
CONTINUOUS
370
-3
390
F
  0
LAYER
  5
203
100
AcDbSymbolTableRecord
100
AcDbLayerTableRecord
  2
02__ASM_ALL_AXES
 70
0
 62
7
  6
CONTINUOUS
370
-3
390
F
  0
LAYER
  5
204
100
AcDbSymbolTableRecord
100
AcDbLayerTableRecord
  2
02___PRT_ALL_AXES
 70
0
 62
7
  6
CONTINUOUS
370
-3
390
F
  0
LAYER
  5
205
100
AcDbSymbolTableRecord
100
AcDbLayerTableRecord
  2
03_ALL_CURVES
 70
0
 62
7
  6
CONTINUOUS
370
-3
390
F
  0
LAYER
  5
206
100
AcDbSymbolTableRecord
100
AcDbLayerTableRecord
  2
03__ASM_ALL_CURVES
 70
0
 62
7
  6
CONTINUOUS
370
-3
390
F
  0
LAYER
  5
207
100
AcDbSymbolTableRecord
100
AcDbLayerTableRecord
  2
03___PRT_ALL_CURVES
 70
0
 62
7
  6
CONTINUOUS
370
-3
390
F
  0
LAYER
  5
208
100
AcDbSymbolTableRecord
100
AcDbLayerTableRecord
  2
04_ALL_DTM_PNT
 70
0
 62
7
  6
CONTINUOUS
370
-3
390
F
  0
LAYER
  5
209
100
AcDbSymbolTableRecord
100
AcDbLayerTableRecord
  2
04__ASM_ALL_DTM_PNT
 70
0
 62
7
  6
CONTINUOUS
370
-3
390
F
  0
LAYER
  5
20A
100
AcDbSymbolTableRecord
100
AcDbLayerTableRecord
  2
04___PRT_ALL_DTM_PNT
 70
0
 62
7
  6
CONTINUOUS
370
-3
390
F
  0
LAYER
  5
20B
100
AcDbSymbolTableRecord
100
AcDbLayerTableRecord
  2
05_ALL_DTM_CSYS
 70
0
 62
7
  6
CONTINUOUS
370
-3
390
F
  0
LAYER
  5
20C
100
AcDbSymbolTableRecord
100
AcDbLayerTableRecord
  2
05__ASM_ALL_DTM_CSYS
 70
0
 62
7
  6
CONTINUOUS
370
-3
390
F
  0
LAYER
  5
20D
100
AcDbSymbolTableRecord
100
AcDbLayerTableRecord
  2
05__ASM_DEF_DTM_CSYS
 70
0
 62
7
  6
CONTINUOUS
370
-3
390
F
  0
LAYER
  5
20E
100
AcDbSymbolTableRecord
100
AcDbLayerTableRecord
  2
05___PRT_ALL_DTM_CSYS
 70
0
 62
7
  6
CONTINUOUS
370
-3
390
F
  0
LAYER
  5
20F
100
AcDbSymbolTableRecord
100
AcDbLayerTableRecord
  2
05___PRT_DEF_DTM_CSYS
 70
0
 62
7
  6
CONTINUOUS
370
-3
390
F
  0
LAYER
  5
210
100
AcDbSymbolTableRecord
100
AcDbLayerTableRecord
  2
06_ALL_SURFS
 70
0
 62
7
  6
CONTINUOUS
370
-3
390
F
  0
LAYER
  5
211
100
AcDbSymbolTableRecord
100
AcDbLayerTableRecord
  2
06__ASM_ALL_SURFS
 70
0
 62
7
  6
CONTINUOUS
370
-3
390
F
  0
LAYER
  5
212
100
AcDbSymbolTableRecord
100
AcDbLayerTableRecord
  2
06___PRT_ALL_SURFS
 70
0
 62
7
  6
CONTINUOUS
370
-3
390
F
  0
LAYER
  5
213
100
AcDbSymbolTableRecord
100
AcDbLayerTableRecord
  2
07__ASM_ALL_SKELETONS
 70
0
 62
7
  6
CONTINUOUS
370
-3
390
F
  0
LAYER
  5
214
100
AcDbSymbolTableRecord
100
AcDbLayerTableRecord
  2
ASM0001
 70
0
 62
7
  6
CONTINUOUS
370
-3
390
F
  0
LAYER
  5
215
100
AcDbSymbolTableRecord
100
AcDbLayerTableRecord
  2
COLOR2
 70
0
 62
7
  6
CONTINUOUS
370
-3
390
F
  0
LAYER
  5
216
100
AcDbSymbolTableRecord
100
AcDbLayerTableRecord
  2
NONE
 70
0
 62
7
  6
CONTINUOUS
370
-3
390
F
  0
LAYER
  5
217
100
AcDbSymbolTableRecord
100
AcDbLayerTableRecord
  2
NONE_1
 70
0
 62
7
  6
CONTINUOUS
370
-3
390
F
  0
LAYER
  5
218
100
AcDbSymbolTableRecord
100
AcDbLayerTableRecord
  2
NONE_2
 70
0
 62
7
  6
CONTINUOUS
370
-3
390
F
  0
LAYER
  5
219
100
AcDbSymbolTableRecord
100
AcDbLayerTableRecord
  2
_2519
 70
0
 62
7
  6
CONTINUOUS
370
-3
390
F
  0
LAYER
  5
21A
100
AcDbSymbolTableRecord
100
AcDbLayerTableRecord
  2
_2519_1
 70
0
 62
7
  6
CONTINUOUS
370
-3
390
F
  0
LAYER
  5
21B
100
AcDbSymbolTableRecord
100
AcDbLayerTableRecord
  2
_630
 70
0
 62
7
  6
CONTINUOUS
370
-3
390
F
  0
LAYER
  5
21C
100
AcDbSymbolTableRecord
100
AcDbLayerTableRecord
  2
_630_1
 70
0
 62
7
  6
CONTINUOUS
370
-3
390
F
  0
LAYER
  5
21D
100
AcDbSymbolTableRecord
100
AcDbLayerTableRecord
  2
_948
 70
0
 62
7
  6
CONTINUOUS
370
-3
390
F
  0
LAYER
  5
21E
100
AcDbSymbolTableRecord
100
AcDbLayerTableRecord
  2
_948_1
 70
0
 62
7
  6
CONTINUOUS
370
-3
390
F
  0
LAYER
  5
21F
100
AcDbSymbolTableRecord
100
AcDbLayerTableRecord
  2
___SHELL
 70
0
 62
7
  6
CONTINUOUS
370
-3
390
F
  0
ENDTAB
  0
TABLE
  2
STYLE
  5
3
100
AcDbSymbolTable
 70
1
  0
STYLE
  5
11
100
AcDbSymbolTableRecord
100
AcDbTextStyleTableRecord
  2
STANDARD
 70
0
 40
0.0
 41
0.8
 50
0.0
 71
0
 42
0.2
  3
txt
  4

  0
STYLE
  5
220
100
AcDbSymbolTableRecord
100
AcDbTextStyleTableRecord
  2
TEXTSTYLE_1
 70
0
 40
0.0
 41
0.8
 50
0.0
 71
0
 42
0.2
  3
gdt
  4

  0
ENDTAB
  0
TABLE
  2
VIEW
  5
6
100
AcDbSymbolTable
 70
0
  0
ENDTAB
  0
TABLE
  2
UCS
  5
7
100
AcDbSymbolTable
 70
0
  0
ENDTAB
  0
TABLE
  2
APPID
  5
9
100
AcDbSymbolTable
 70
1
  0
APPID
  5
221
100
AcDbSymbolTableRecord
100
AcDbRegAppTableRecord
  2
ACAD
 70
0
  0
ENDTAB
  0
TABLE
  2
BLOCK_RECORD
  5
1
100
AcDbSymbolTable
 70
0
  0
BLOCK_RECORD
  5
222
100
AcDbSymbolTableRecord
100
AcDbBlockTableRecord
  2
*Model_Space
  0
BLOCK_RECORD
  5
223
100
AcDbSymbolTableRecord
100
AcDbBlockTableRecord
  2
*Paper_Space
  0
ENDTAB
  0
TABLE
  2
DIMSTYLE
  5
A
100
AcDbSymbolTable
 70
1
100
AcDbDimStyleTable
 71
0
  0
DIMSTYLE
105
224
100
AcDbSymbolTableRecord
100
AcDbDimStyleTableRecord
  2
STANDARD
 70
0
  3

  4

 40
1.0
 41
0.1875
 42
0.0625
 43
0.38
 44
0.125
 45
0.0
 46
0.0
 47
0.0001
 48
0.0001
140
0.15625
141
0.09
142
0.0
143
25.4
144
1.0
145
0.0
146
1.0
147
0.09
 71
0.0
 72
0.0
 73
1
 74
1
 75
0
 76
0
 77
0
 78
4
 79
1
170
0
171
3
172
0
173
0
174
0
175
0
176
0
177
0
178
0
270
2
179
4
271
4
272
4
273
2
274
2
275
0
280
0
281
0
282
0
283
1
284
4
285
0
286
0
287
3
288
0
340
11
278
46
  0
ENDTAB
  0
ENDSEC
  0
SECTION
  2
BLOCKS
  0
BLOCK
  5
20
100
AcDbEntity
  8
0
100
AcDbBlockBegin
  2
*Model_Space
 70
0
 10
0.0
 20
0.0
 30
0.0
  3
*Model_Space
  1

  0
ENDBLK
  5
21
100
AcDbEntity
  8
0
100
AcDbBlockEnd
  0
BLOCK
  5
1C
100
AcDbEntity
  8
0
100
AcDbBlockBegin
  2
*Paper_Space
 70
0
 10
0.0
 20
0.0
 30
0.0
  3
*Paper_Space
  1

  0
ENDBLK
  5
1D
100
AcDbEntity
  8
0
100
AcDbBlockEnd
  0
ENDSEC
  0
SECTION
  2
ENTITIES
  0
MTEXT
  5
225
100
AcDbEntity
  8
0
100
AcDbMText
 62
7
  6
CONTINUOUS
  7
STANDARD
 71
1
 72
1
 10
15.9560215477
 20
0.9479130325
 30
0.0
 11
1.0
 21
0.0
 31
0.0
 44
0.9
  1
SCALE: 1:1.000
 40
0.3
 41
3.36
  0
LINE
  5
226
100
AcDbEntity
  8
0
100
AcDbLine
 62
7
  6
CONTINUOUS
 10
0.0
 20
0.0
 11
0.0
 21
17.0
  0
LINE
  5
227
100
AcDbEntity
  8
0
100
AcDbLine
 62
7
  6
CONTINUOUS
 10
0.0
 20
0.0
 11
22.0
 21
0.0
  0
LINE
  5
228
100
AcDbEntity
  8
0
100
AcDbLine
 62
7
  6
CONTINUOUS
 10
0.0
 20
17.0
 11
22.0
 21
17.0
  0
LINE
  5
229
100
AcDbEntity
  8
0
100
AcDbLine
 62
7
  6
CONTINUOUS
 10
22.0
 20
0.0
 11
22.0
 21
17.0
  0
LINE
  5
22A
100
AcDbEntity
  8
0
100
AcDbLine
 62
7
  6
CONTINUOUS
 10
6.7209672762
 20
3.7505349593
 11
6.1753672762
 21
3.7505349593
  0
LINE
  5
22B
100
AcDbEntity
  8
0
100
AcDbLine
 62
7
  6
CONTINUOUS
 10
6.0853672762
 20
3.7505349593
 11
5.5397672762
 21
3.7505349593
  0
LINE
  5
22C
100
AcDbEntity
  8
0
100
AcDbLine
 62
7
  6
CONTINUOUS
 10
6.1553672762
 20
3.7855349593
 11
6.1053672762
 21
3.7855349593
  0
LINE
  5
22D
100
AcDbEntity
  8
0
100
AcDbLine
 62
7
  6
CONTINUOUS
 10
5.4807672762
 20
7.2348201642
 11
5.4807672762
 21
3.8095497544
  0
LINE
  5
22E
100
AcDbEntity
  8
0
100
AcDbLine
 62
7
  6
CONTINUOUS
 10
6.1053672762
 20
7.2738349593
 11
6.1053672762
 21
3.7705349593
  0
LINE
  5
22F
100
AcDbEntity
  8
0
100
AcDbLine
 62
7
  6
CONTINUOUS
 10
6.1553672762
 20
7.2738201033
 11
6.1553672762
 21
3.7705498153
  0
LINE
  5
230
100
AcDbEntity
  8
0
100
AcDbLine
 62
7
  6
CONTINUOUS
 10
6.7799672762
 20
3.8095497544
 11
6.7799672762
 21
7.2348201642
  0
LINE
  5
231
100
AcDbEntity
  8
0
100
AcDbLine
 62
7
  6
CONTINUOUS
 10
6.1553672762
 20
7.2588349593
 11
6.1053672762
 21
7.2588349593
  0
LINE
  5
232
100
AcDbEntity
  8
0
100
AcDbLine
 62
7
  6
CONTINUOUS
 10
6.7209672762
 20
7.2938349593
 11
6.1753672762
 21
7.2938349593
  0
LINE
  5
233
100
AcDbEntity
  8
0
100
AcDbLine
 62
7
  6
CONTINUOUS
 10
6.0853672762
 20
7.2938349593
 11
5.5397672762
 21
7.2938349593
  0
LINE
  5
234
100
AcDbEntity
  8
0
100
AcDbLine
 62
7
  6
CONTINUOUS
 10
5.4802720839
 20
10.8283977814
 11
6.0258720839
 21
10.8283977814
  0
LINE
  5
235
100
AcDbEntity
  8
0
100
AcDbLine
 62
7
  6
CONTINUOUS
 10
6.1158720839
 20
10.8283977814
 11
6.6614720839
 21
10.8283977814
  0
LINE
  5
236
100
AcDbEntity
  8
0
100
AcDbLine
 62
7
  6
CONTINUOUS
 10
6.0458720839
 20
10.8633977814
 11
6.0958720839
 21
10.8633977814
  0
LINE
  5
237
100
AcDbEntity
  8
0
100
AcDbLine
 62
7
  6
CONTINUOUS
 10
5.4212720839
 20
14.3126977814
 11
5.4212720839
 21
10.8873977814
  0
LINE
  5
238
100
AcDbEntity
  8
0
100
AcDbLine
 62
7
  6
CONTINUOUS
 10
6.0458720839
 20
10.8483977814
 11
6.0458720839
 21
14.3516977814
  0
LINE
  5
239
100
AcDbEntity
  8
0
100
AcDbLine
 62
7
  6
CONTINUOUS
 10
6.0958720839
 20
14.3516977814
 11
6.0958720839
 21
10.8483977814
  0
LINE
  5
23A
100
AcDbEntity
  8
0
100
AcDbLine
 62
7
  6
CONTINUOUS
 10
6.7204720839
 20
10.8873977814
 11
6.7204720839
 21
14.3126977814
  0
LINE
  5
23B
100
AcDbEntity
  8
0
100
AcDbLine
 62
7
  6
CONTINUOUS
 10
6.0958720839
 20
14.3366977814
 11
6.0458720839
 21
14.3366977814
  0
LINE
  5
23C
100
AcDbEntity
  8
0
100
AcDbLine
 62
7
  6
CONTINUOUS
 10
6.6614720839
 20
14.3716977814
 11
6.1158720839
 21
14.3716977814
  0
LINE
  5
23D
100
AcDbEntity
  8
0
100
AcDbLine
 62
7
  6
CONTINUOUS
 10
6.0258720839
 20
14.3716977814
 11
5.4802720839
 21
14.3716977814
  0
LINE
  5
23E
100
AcDbEntity
  8
03__ASM_ALL_CURVES
100
AcDbLine
 62
7
  6
CONTINUOUS
 10
15.5603552569
 20
6.9306769375
 11
15.5603552569
 21
6.412689767
  0
LINE
  5
23F
100
AcDbEntity
  8
03__ASM_ALL_CURVES
100
AcDbLine
 62
7
  6
CONTINUOUS
 10
15.5603552569
 20
3.9947025964
 11
15.5603552569
 21
4.512689767
  0
LINE
  5
240
100
AcDbEntity
  8
0
100
AcDbLine
 62
7
  6
CONTINUOUS
 10
16.0150910915
 20
10.7391549929
 11
15.5125602132
 21
10.7391549929
  0
LINE
  5
241
100
AcDbEntity
  8
0
100
AcDbLine
 62
7
  6
CONTINUOUS
 10
15.4296647237
 20
10.7391549929
 11
14.9271338454
 21
10.7391549929
  0
LINE
  5
242
100
AcDbEntity
  8
0
100
AcDbLine
 62
7
  6
CONTINUOUS
 10
16.0694336902
 20
11.5608049929
 11
16.009601568
 21
11.5608049929
  0
LINE
  5
243
100
AcDbEntity
  8
03__ASM_ALL_CURVES
100
AcDbLine
 62
7
  6
CONTINUOUS
 10
16.5050795327
 20
11.5982895344
 11
16.3375701164
 21
11.8605101542
  0
LINE
  5
244
100
AcDbEntity
  8
03__ASM_ALL_CURVES
100
AcDbLine
 62
7
  6
CONTINUOUS
 10
15.6094844393
 20
13.4233204514
 11
15.7198117947
 21
13.1013344628
  0
LINE
  5
245
100
AcDbEntity
  8
0
100
AcDbLine
 62
7
  6
CONTINUOUS
 10
16.0694336902
 20
13.4608049929
 11
16.009601568
 21
13.4608049929
  0
LINE
  5
246
100
AcDbEntity
  8
0
100
AcDbLine
 62
7
  6
CONTINUOUS
 10
16.0150910915
 20
14.2824549929
 11
15.5125602132
 21
14.2824549929
  0
LINE
  5
247
100
AcDbEntity
  8
0
100
AcDbLine
 62
7
  6
CONTINUOUS
 10
15.4296647237
 20
14.2824549929
 11
14.9271338454
 21
14.2824549929
  0
ARC
  5
248
100
AcDbEntity
  8
03__ASM_ALL_CURVES
100
AcDbCircle
 62
40
  6
DOT
 10
5.5397672762
 20
3.8095349593
 40
0.059
100
AcDbArc
 50
180.0000000004
 51
270.0
  0
ARC
  5
249
100
AcDbEntity
  8
0
100
AcDbCircle
 62
7
  6
CONTINUOUS
 10
5.5397672762
 20
7.2348349593
 40
0.059
100
AcDbArc
 50
90.0
 51
179.9999999996
  0
ARC
  5
24A
100
AcDbEntity
  8
0
100
AcDbCircle
 62
7
  6
CONTINUOUS
 10
5.5397672762
 20
3.8095349593
 40
0.059
100
AcDbArc
 50
180.0000000004
 51
270.0
  0
ARC
  5
24B
100
AcDbEntity
  8
0
100
AcDbCircle
 62
7
  6
CONTINUOUS
 10
6.7209672762
 20
7.2348349593
 40
0.059
100
AcDbArc
 50
0.0000000004
 51
90.0
  0
ARC
  5
24C
100
AcDbEntity
  8
0
100
AcDbCircle
 62
7
  6
CONTINUOUS
 10
6.7209672762
 20
3.8095349593
 40
0.059
100
AcDbArc
 50
270.0
 51
359.9999999996
  0
ARC
  5
24D
100
AcDbEntity
  8
0
100
AcDbCircle
 62
7
  6
CONTINUOUS
 10
6.0853672762
 20
3.7705349593
 40
0.02
100
AcDbArc
 50
270.0
 51
359.9999999991
  0
ARC
  5
24E
100
AcDbEntity
  8
0
100
AcDbCircle
 62
7
  6
CONTINUOUS
 10
6.0853672762
 20
7.2738349593
 40
0.02
100
AcDbArc
 50
0.0000000009
 51
90.0
  0
ARC
  5
24F
100
AcDbEntity
  8
0
100
AcDbCircle
 62
7
  6
CONTINUOUS
 10
6.1753672762
 20
7.2738349593
 40
0.02
100
AcDbArc
 50
90.0
 51
179.9999999991
  0
ARC
  5
250
100
AcDbEntity
  8
0
100
AcDbCircle
 62
7
  6
CONTINUOUS
 10
6.1753672762
 20
3.7705349593
 40
0.02
100
AcDbArc
 50
180.0000000009
 51
270.0
  0
ARC
  5
251
100
AcDbEntity
  8
0
100
AcDbCircle
 62
7
  6
CONTINUOUS
 10
5.4802720839
 20
10.8873977814
 40
0.059
100
AcDbArc
 50
180.0000000004
 51
270.0
  0
ARC
  5
252
100
AcDbEntity
  8
0
100
AcDbCircle
 62
7
  6
CONTINUOUS
 10
5.4802720839
 20
14.3126977814
 40
0.059
100
AcDbArc
 50
90.0
 51
179.9999999996
  0
ARC
  5
253
100
AcDbEntity
  8
0
100
AcDbCircle
 62
7
  6
CONTINUOUS
 10
6.6614720839
 20
10.8873977814
 40
0.059
100
AcDbArc
 50
270.0
 51
359.9999999996
  0
ARC
  5
254
100
AcDbEntity
  8
0
100
AcDbCircle
 62
7
  6
CONTINUOUS
 10
6.6614720839
 20
14.3126977814
 40
0.059
100
AcDbArc
 50
0.0000000004
 51
90.0
  0
ARC
  5
255
100
AcDbEntity
  8
0
100
AcDbCircle
 62
7
  6
CONTINUOUS
 10
6.0258720839
 20
14.3516977814
 40
0.02
100
AcDbArc
 50
0.0000000009
 51
90.0
  0
ARC
  5
256
100
AcDbEntity
  8
0
100
AcDbCircle
 62
7
  6
CONTINUOUS
 10
6.0258720839
 20
10.8483977814
 40
0.02
100
AcDbArc
 50
270.0
 51
359.9999999991
  0
ARC
  5
257
100
AcDbEntity
  8
0
100
AcDbCircle
 62
7
  6
CONTINUOUS
 10
6.1158720839
 20
14.3516977814
 40
0.02
100
AcDbArc
 50
90.0
 51
179.9999999991
  0
ARC
  5
258
100
AcDbEntity
  8
0
100
AcDbCircle
 62
7
  6
CONTINUOUS
 10
6.1158720839
 20
10.8483977814
 40
0.02
100
AcDbArc
 50
180.0000000009
 51
270.0
  0
CIRCLE
  5
259
100
AcDbEntity
  8
0
100
AcDbCircle
 62
7
  6
CONTINUOUS
 10
15.5603552569
 20
5.462689767
 40
1.77165
  0
CIRCLE
  5
25A
100
AcDbEntity
  8
0
100
AcDbCircle
 62
7
  6
CONTINUOUS
 10
15.5603552569
 20
5.462689767
 40
1.6
  0
CIRCLE
  5
25B
100
AcDbEntity
  8
0
100
AcDbCircle
 62
7
  6
CONTINUOUS
 10
15.5603552569
 20
5.462689767
 40
0.95
  0
CIRCLE
  5
25C
100
AcDbEntity
  8
0
100
AcDbCircle
 62
7
  6
CONTINUOUS
 10
15.5603552569
 20
5.462689767
 40
0.7874
  0
ARC
  5
25D
100
AcDbEntity
  8
0
100
AcDbCircle
 62
7
  6
CONTINUOUS
 10
15.0954184701
 20
13.1976689702
 40
1.5452199122
100
AcDbArc
 50
25.2717208982
 51
26.1367581874
  0
ARC
  5
25E
100
AcDbEntity
  8
0
100
AcDbCircle
 62
7
  6
CONTINUOUS
 10
16.4043468684
 20
11.7843445343
 40
1.4856754392
100
AcDbArc
 50
206.1368590786
 51
206.6419441623
  0
ARC
  5
25F
100
AcDbEntity
  8
0
100
AcDbCircle
 62
7
  6
CONTINUOUS
 10
16.4133390292
 20
12.1433340103
 40
0.6126482306
100
AcDbArc
 50
206.1017641539
 51
208.3923518695
  0
ARC
  5
260
100
AcDbEntity
  8
0
100
AcDbCircle
 62
7
  6
CONTINUOUS
 10
15.4295873023
 20
13.994678098
 40
0.2877769053
100
AcDbArc
 50
81.5914229518
 51
89.9845855475
  0
ARC
  5
261
100
AcDbEntity
  8
0
100
AcDbCircle
 62
7
  6
CONTINUOUS
 10
15.4295902058
 20
11.0268542088
 40
0.2876992255
100
AcDbArc
 50
270.0148403673
 51
278.2772392365
  0
SPLINE
  5
262
100
AcDbEntity
  8
0
100
AcDbSpline
 62
7
  6
CONTINUOUS
 70
0
 71
3
 72
49
 73
45
 74
0
 42
0.0000001
 43
0.0000001
 44
0.0000000001
 40
0.0
 40
0.0
 40
0.0
 40
0.0
 40
0.0090147023
 40
0.0180252877
 40
0.0270944772
 40
0.0362787669
 40
0.0456232856
 40
0.0551626725
 40
0.0649237912
 40
0.0749368715
 40
0.0852389273
 40
0.0958610516
 40
0.1068282154
 40
0.1181611015
 40
0.1298766978
 40
0.1419884363
 40
0.1545059462
 40
0.167434592
 40
0.1807773169
 40
0.1945351001
 40
0.2087054484
 40
0.2232827597
 40
0.2536271373
 40
0.2854933222
 40
0.318777166
 40
0.3533528571
 40
0.3890779262
 40
0.4257940901
 40
0.4633327928
 40
0.50151492
 40
0.5401554162
 40
0.5790636596
 40
0.6180467503
 40
0.6569105901
 40
0.6954628325
 40
0.7335137368
 40
0.7708794428
 40
0.8073829949
 40
0.8428587291
 40
0.8771510877
 40
0.9101175253
 40
0.94164431
 40
0.9716398259
 40
1.0
 40
1.0
 40
1.0
 40
1.0
 10
14.9271338454
 20
14.2824549929
 30
0.0
 10
14.9167509284
 20
14.2824549929
 30
0.0
 10
14.8959756328
 20
14.2814395064
 30
0.0
 10
14.8650551358
 20
14.2768983559
 30
0.0
 10
14.8345112562
 20
14.2694114273
 30
0.0
 10
14.8044175454
 20
14.2590469324
 30
0.0
 10
14.7748392256
 20
14.2459059556
 30
0.0
 10
14.7458430363
 20
14.230095464
 30
0.0
 10
14.7174878361
 20
14.2117119239
 30
0.0
 10
14.6898092422
 20
14.1908369036
 30
0.0
 10
14.6628102853
 20
14.1675468344
 30
0.0
 10
14.6364798421
 20
14.1419066364
 30
0.0
 10
14.6108032212
 20
14.1139798826
 30
0.0
 10
14.5857806032
 20
14.0838129432
 30
0.0
 10
14.5614148476
 20
14.0514492068
 30
0.0
 10
14.5377082761
 20
14.0169329568
 30
0.0
 10
14.5146657149
 20
13.9803098152
 30
0.0
 10
14.4922983034
 20
13.9416249904
 30
0.0
 10
14.4706183357
 20
13.9009259262
 30
0.0
 10
14.4496395002
 20
13.8582623639
 30
0.0
 10
14.429377072
 20
13.813687642
 30
0.0
 10
14.4029875491
 20
13.7509428335
 30
0.0
 10
14.3720365465
 20
13.6680476433
 30
0.0
 10
14.3385391869
 20
13.5632461491
 30
0.0
 10
14.3083622251
 20
13.4523844945
 30
0.0
 10
14.28165102
 20
13.3360766787
 30
0.0
 10
14.2585498387
 20
13.2149741131
 30
0.0
 10
14.2391761896
 20
13.0897673781
 30
0.0
 10
14.2236429834
 20
12.9611770112
 30
0.0
 10
14.2120310814
 20
12.8299494098
 30
0.0
 10
14.2044101927
 20
12.6968503972
 30
0.0
 10
14.2008215486
 20
12.5626593072
 30
0.0
 10
14.2012852561
 20
12.428163884
 30
0.0
 10
14.2058013382
 20
12.294153606
 30
0.0
 10
14.2143394383
 20
12.1614147015
 30
0.0
 10
14.22685725
 20
12.0307242702
 30
0.0
 10
14.2432774631
 20
11.9028439932
 30
0.0
 10
14.2635147323
 20
11.7785143366
 30
0.0
 10
14.2874551701
 20
11.6584495182
 30
0.0
 10
14.314972396
 20
11.5433352045
 30
0.0
 10
14.3459208307
 20
11.4338110419
 30
0.0
 10
14.3801590324
 20
11.3304644071
 30
0.0
 10
14.4175287504
 20
11.2338740901
 30
0.0
 10
14.4452026529
 20
11.1725721556
 30
0.0
 10
14.4595927891
 20
11.1432481413
 30
0.0
  0
SPLINE
  5
263
100
AcDbEntity
  8
0
100
AcDbSpline
 62
7
  6
CONTINUOUS
 70
0
 71
3
 72
23
 73
19
 74
0
 42
0.0000001
 43
0.0000001
 44
0.0000000001
 40
0.0
 40
0.0
 40
0.0
 40
0.0
 40
0.0788457142
 40
0.1551444277
 40
0.2288483091
 40
0.2999303831
 40
0.3684386606
 40
0.4344809128
 40
0.4981920448
 40
0.5597274124
 40
0.6192661227
 40
0.6770350817
 40
0.7332826645
 40
0.7881952656
 40
0.8419916171
 40
0.8949614364
 40
0.9474855254
 40
1.0
 40
1.0
 40
1.0
 40
1.0
 10
14.4595927891
 20
11.1432481413
 30
0.0
 10
14.467121115
 20
11.127907026
 30
0.0
 10
14.4824464208
 20
11.0979676339
 30
0.0
 10
14.5066655411
 20
11.054669482
 30
0.0
 10
14.5317119265
 20
11.0138031335
 30
0.0
 10
14.5575595509
 20
10.975456841
 30
0.0
 10
14.5841961884
 20
10.9397019378
 30
0.0
 10
14.6116196293
 20
10.9065930682
 30
0.0
 10
14.6398288236
 20
10.8761781276
 30
0.0
 10
14.668828393
 20
10.8485157635
 30
0.0
 10
14.698639773
 20
10.8236912494
 30
0.0
 10
14.7292730215
 20
10.8017971831
 30
0.0
 10
14.7607066166
 20
10.7829413163
 30
0.0
 10
14.7928779444
 20
10.7672372607
 30
0.0
 10
14.8257030445
 20
10.7548205806
 30
0.0
 10
14.8590987312
 20
10.7458336428
 30
0.0
 10
14.8929676638
 20
10.7403764078
 30
0.0
 10
14.9157520355
 20
10.7391549929
 30
0.0
 10
14.9271338454
 20
10.7391549929
 30
0.0
  0
SPLINE
  5
264
100
AcDbEntity
  8
0
100
AcDbSpline
 62
7
  6
CONTINUOUS
 70
0
 71
3
 72
43
 73
39
 74
0
 42
0.0000001
 43
0.0000001
 44
0.0000000001
 40
0.0
 40
0.0
 40
0.0
 40
0.0
 40
0.0283402388
 40
0.0584512091
 40
0.0902134307
 40
0.1235070004
 40
0.1582020693
 40
0.1941437628
 40
0.2311652246
 40
0.2690894027
 40
0.3077329031
 40
0.3469034964
 40
0.386404688
 40
0.4260371913
 40
0.4656006086
 40
0.5048955896
 40
0.5437242648
 40
0.5818940273
 40
0.6192168786
 40
0.655514191
 40
0.6906155808
 40
0.7243644457
 40
0.7566170162
 40
0.7872486424
 40
0.8161538948
 40
0.843254028
 40
0.8684995016
 40
0.8804241794
 40
0.8918852883
 40
0.9134361922
 40
0.9235569628
 40
0.9332626622
 40
0.9515163186
 40
0.9684651458
 40
0.9765662209
 40
0.9844827214
 40
0.9922733157
 40
1.0
 40
1.0
 40
1.0
 40
1.0
 10
16.2993966974
 20
13.2549655571
 30
0.0
 10
16.3070968594
 20
13.2392742767
 30
0.0
 10
16.3219355944
 20
13.2063929042
 30
0.0
 10
16.3420190443
 20
13.1544804044
 30
0.0
 10
16.360486639
 20
13.0987444708
 30
0.0
 10
16.37723255
 20
13.0395272178
 30
0.0
 10
16.3921536192
 20
12.9771723569
 30
0.0
 10
16.4051690706
 20
12.9120474653
 30
0.0
 10
16.4161922477
 20
12.8445383942
 30
0.0
 10
16.4251641446
 20
12.7750466788
 30
0.0
 10
16.4320247264
 20
12.7039837837
 30
0.0
 10
16.4367395521
 20
12.6317720965
 30
0.0
 10
16.4392736754
 20
12.5588409715
 30
0.0
 10
16.4396179671
 20
12.4856244852
 30
0.0
 10
16.4377647307
 20
12.412557807
 30
0.0
 10
16.4337304652
 20
12.3400753514
 30
0.0
 10
16.4275342867
 20
12.268607938
 30
0.0
 10
16.4192180809
 20
12.1985801961
 30
0.0
 10
16.4088272418
 20
12.1304080963
 30
0.0
 10
16.3964281634
 20
12.0644960263
 30
0.0
 10
16.382091123
 20
12.0012349057
 30
0.0
 10
16.3659054231
 20
11.9409988472
 30
0.0
 10
16.3479640879
 20
11.8841438686
 30
0.0
 10
16.3283767916
 20
11.8310043871
 30
0.0
 10
16.3072558644
 20
11.7818915614
 30
0.0
 10
16.2847275739
 20
11.73709347
 30
0.0
 10
16.2645184098
 20
11.702946863
 30
0.0
 10
16.2476973284
 20
11.6781036922
 30
0.0
 10
16.2311809345
 20
11.6558416131
 30
0.0
 10
16.2138709641
 20
11.635569553
 30
0.0
 10
16.1957152347
 20
11.6176168086
 30
0.0
 10
16.1780461098
 20
11.6021273854
 30
0.0
 10
16.1554938435
 20
11.5858887985
 30
0.0
 10
16.1315713585
 20
11.573717068
 30
0.0
 10
16.1123603247
 20
11.5669834951
 30
0.0
 10
16.098091497
 20
11.5634230366
 30
0.0
 10
16.0837760234
 20
11.561283946
 30
0.0
 10
16.074199109
 20
11.560806802
 30
0.0
 10
16.0694336854
 20
11.5608064151
 30
0.0
  0
SPLINE
  5
265
100
AcDbEntity
  8
0
100
AcDbSpline
 62
7
  6
CONTINUOUS
 70
0
 71
3
 72
45
 73
41
 74
0
 42
0.0000001
 43
0.0000001
 44
0.0000000001
 40
0.0
 40
0.0
 40
0.0
 40
0.0
 40
0.0276905386
 40
0.0569929461
 40
0.0878077937
 40
0.1200402723
 40
0.1535812825
 40
0.1882988675
 40
0.224050593
 40
0.2606848297
 40
0.2980419108
 40
0.3359551759
 40
0.3742532688
 40
0.4127616313
 40
0.4513039186
 40
0.489703356
 40
0.5277846644
 40
0.5653748277
 40
0.6023056386
 40
0.6384140808
 40
0.6735452564
 40
0.7075530852
 40
0.7403030212
 40
0.771674132
 40
0.8015611059
 40
0.8298788446
 40
0.8565637905
 40
0.8692840179
 40
0.8815860361
 40
0.8934702636
 40
0.9049404661
 40
0.9160033566
 40
0.9266682034
 40
0.9369474503
 40
0.9468578637
 40
0.9656509296
 40
0.9745973432
 40
0.9832799808
 40
0.9917339157
 40
1.0
 40
1.0
 40
1.0
 40
1.0
 10
15.0705901047
 20
11.1298795575
 30
0.0
 10
15.0568850612
 20
11.1578074998
 30
0.0
 10
15.0304408428
 20
11.2161658688
 30
0.0
 10
14.9944993972
 20
11.3080753875
 30
0.0
 10
14.9613265603
 20
11.4064193001
 30
0.0
 10
14.9310856788
 20
11.5106658548
 30
0.0
 10
14.9039281588
 20
11.6202774145
 30
0.0
 10
14.8799916886
 20
11.7346767965
 30
0.0
 10
14.8594059625
 20
11.853253016
 30
0.0
 10
14.8422780113
 20
11.9753713483
 30
0.0
 10
14.8286979961
 20
12.1003767833
 30
0.0
 10
14.8187409854
 20
12.2275970586
 30
0.0
 10
14.8124566755
 20
12.3563459932
 30
0.0
 10
14.8098837392
 20
12.485929042
 30
0.0
 10
14.811029951
 20
12.6156463889
 30
0.0
 10
14.8158959835
 20
12.7447975746
 30
0.0
 10
14.8244484898
 20
12.8726855181
 30
0.0
 10
14.8366487791
 20
12.9986203085
 30
0.0
 10
14.8524247754
 20
13.1219241519
 30
0.0
 10
14.8716984361
 20
13.2419341282
 30
0.0
 10
14.8943626442
 20
13.3580079353
 30
0.0
 10
14.9203018811
 20
13.4695259536
 30
0.0
 10
14.9493790541
 20
13.575897235
 30
0.0
 10
14.9814458765
 20
13.6765612239
 30
0.0
 10
15.0163430195
 20
13.7709942134
 30
0.0
 10
15.053898164
 20
13.8587065793
 30
0.0
 10
15.0877888989
 20
13.9268846358
 30
0.0
 10
15.1161805888
 20
13.9775763856
 30
0.0
 10
15.1376889218
 20
14.0130355272
 30
0.0
 10
15.1597306632
 20
14.0464970221
 30
0.0
 10
15.1822843764
 20
14.077918492
 30
0.0
 10
15.2053289194
 20
14.1072604467
 30
0.0
 10
15.2288433089
 20
14.1344832523
 30
0.0
 10
15.252811275
 20
14.1595511209
 30
0.0
 10
15.2847738886
 20
14.1895115122
 30
0.0
 10
15.3181512527
 20
14.2157223637
 30
0.0
 10
15.3528411874
 20
14.2374814837
 30
0.0
 10
15.3787787833
 20
14.2511817654
 30
0.0
 10
15.4050179793
 20
14.262481669
 30
0.0
 10
15.4228614106
 20
14.2684410526
 30
0.0
 10
15.431792211
 20
14.2709872986
 30
0.0
  0
SPLINE
  5
266
100
AcDbEntity
  8
0
100
AcDbSpline
 62
7
  6
CONTINUOUS
 70
0
 71
3
 72
11
 73
7
 74
0
 42
0.0000001
 43
0.0000001
 44
0.0000000001
 40
0.0
 40
0.0
 40
0.0
 40
0.0
 40
0.2527354843
 40
0.5030241356
 40
0.7517902853
 40
1.0
 40
1.0
 40
1.0
 40
1.0
 10
15.431792211
 20
14.2709872986
 30
0.0
 10
15.4384214648
 20
14.2728773543
 30
0.0
 10
15.4517447562
 20
14.2762040203
 30
0.0
 10
15.4719477584
 20
14.2798032633
 30
0.0
 10
15.4922302209
 20
14.2819714348
 30
0.0
 10
15.5057902291
 20
14.2824549929
 30
0.0
 10
15.5125602132
 20
14.2824549929
 30
0.0
  0
SPLINE
  5
267
100
AcDbEntity
  8
0
100
AcDbSpline
 62
7
  6
CONTINUOUS
 70
0
 71
3
 72
11
 73
7
 74
0
 42
0.0000001
 43
0.0000001
 44
0.0000000001
 40
0.0
 40
0.0
 40
0.0
 40
0.0
 40
0.2482070034
 40
0.4969705037
 40
0.7472591555
 40
1.0
 40
1.0
 40
1.0
 40
1.0
 10
15.5125602132
 20
10.7391549929
 30
0.0
 10
15.5057858103
 20
10.7391549929
 30
0.0
 10
15.4922169432
 20
10.7396391311
 30
0.0
 10
15.4719212828
 20
10.7418100203
 30
0.0
 10
15.4517051777
 20
10.7454139076
 30
0.0
 10
15.438373414
 20
10.748744936
 30
0.0
 10
15.431739963
 20
10.7506374888
 30
0.0
  0
SPLINE
  5
268
100
AcDbEntity
  8
0
100
AcDbSpline
 62
7
  6
CONTINUOUS
 70
0
 71
3
 72
21
 73
17
 74
0
 42
0.0000001
 43
0.0000001
 44
0.0000000001
 40
0.0
 40
0.0
 40
0.0
 40
0.0
 40
0.0495137661
 40
0.1000641883
 40
0.1518669561
 40
0.205109567
 40
0.316497752
 40
0.3749880486
 40
0.4354889507
 40
0.4980971683
 40
0.5628925149
 40
0.629940109
 40
0.6992914936
 40
0.7709843247
 40
0.8450205937
 40
1.0
 40
1.0
 40
1.0
 40
1.0
 10
15.431739963
 20
10.7506374888
 30
0.0
 10
15.423405989
 20
10.7530152083
 30
0.0
 10
15.406756456
 20
10.7585240189
 30
0.0
 10
15.3822350523
 20
10.7688482156
 30
0.0
 10
15.3579706363
 20
10.7812703423
 30
0.0
 10
15.3255237796
 20
10.8008717499
 30
0.0
 10
15.2941921288
 20
10.8243833189
 30
0.0
 10
15.2640841438
 20
10.8512249203
 30
0.0
 10
15.2415016293
 20
10.8736160957
 30
0.0
 10
15.2193060457
 20
10.8979028208
 30
0.0
 10
15.1975095445
 20
10.9240575942
 30
0.0
 10
15.1761279575
 20
10.9520514725
 30
0.0
 10
15.1551763846
 20
10.9818557366
 30
0.0
 10
15.134672738
 20
11.0134383365
 30
0.0
 10
15.107545099
 20
11.0585515036
 30
0.0
 10
15.088575329
 20
11.0939013228
 30
0.0
 10
15.0764112227
 20
11.1181475429
 30
0.0
  0
SPLINE
  5
269
100
AcDbEntity
  8
0
100
AcDbSpline
 62
7
  6
CONTINUOUS
 70
0
 71
3
 72
23
 73
19
 74
0
 42
0.0000001
 43
0.0000001
 44
0.0000000001
 40
0.0
 40
0.0
 40
0.0
 40
0.0
 40
0.0525147424
 40
0.10503861
 40
0.1580081607
 40
0.2118044815
 40
0.2667171935
 40
0.3229648917
 40
0.3807339036
 40
0.4402726379
 40
0.501808016
 40
0.5655191524
 40
0.6315613989
 40
0.7000696697
 40
0.7711517519
 40
0.8448556832
 40
0.92115441
 40
1.0
 40
1.0
 40
1.0
 40
1.0
 10
16.0150910915
 20
14.2824549929
 30
0.0
 10
16.0264729595
 20
14.2824549929
 30
0.0
 10
16.0492573425
 20
14.2812336097
 30
0.0
 10
16.0831262312
 20
14.2757763866
 30
0.0
 10
16.1165217916
 20
14.2667894119
 30
0.0
 10
16.1493468419
 20
14.2543727219
 30
0.0
 10
16.1815182223
 20
14.2386686802
 30
0.0
 10
16.2129518977
 20
14.2198128283
 30
0.0
 10
16.2435851917
 20
14.1979187521
 30
0.0
 10
16.2733965827
 20
14.173094221
 30
0.0
 10
16.3023961441
 20
14.1454318359
 30
0.0
 10
16.3306053269
 20
14.1150168822
 30
0.0
 10
16.3580287682
 20
14.0819080154
 30
0.0
 10
16.3846654096
 20
14.0461531159
 30
0.0
 10
16.4105130395
 20
14.0078068135
 30
0.0
 10
16.4355594264
 20
13.9669404476
 30
0.0
 10
16.4597785379
 20
13.9236423059
 30
0.0
 10
16.4751038338
 20
13.8937029357
 30
0.0
 10
16.4826321479
 20
13.8783618445
 30
0.0
  0
SPLINE
  5
26A
100
AcDbEntity
  8
0
100
AcDbSpline
 62
7
  6
CONTINUOUS
 70
0
 71
3
 72
49
 73
45
 74
0
 42
0.0000001
 43
0.0000001
 44
0.0000000001
 40
0.0
 40
0.0
 40
0.0
 40
0.0
 40
0.0287371477
 40
0.059070691
 40
0.0909014596
 40
0.1241379656
 40
0.1586604474
 40
0.1943257601
 40
0.2309782752
 40
0.2684532137
 40
0.306574598
 40
0.3451605095
 40
0.3840235752
 40
0.4229741776
 40
0.4618212919
 40
0.5003754358
 40
0.5384495129
 40
0.5758622753
 40
0.6124384794
 40
0.6480134312
 40
0.6824329657
 40
0.7155582881
 40
0.747267712
 40
0.7774604762
 40
0.7919651551
 40
0.806065445
 40
0.8197560963
 40
0.8330351525
 40
0.8459038698
 40
0.8583654166
 40
0.8704254325
 40
0.8820938135
 40
0.8933841019
 40
0.9043133538
 40
0.9149022221
 40
0.9251756164
 40
0.9351644928
 40
0.9449054261
 40
0.954427753
 40
0.9637581366
 40
0.9729309351
 40
0.9819908032
 40
0.9909933039
 40
1.0
 40
1.0
 40
1.0
 40
1.0
 10
16.4927505884
 20
13.8573412587
 30
0.0
 10
16.5067881429
 20
13.8276135657
 30
0.0
 10
16.5337620954
 20
13.7656063727
 30
0.0
 10
16.5701443426
 20
13.6681438108
 30
0.0
 10
16.6034045215
 20
13.5641563431
 30
0.0
 10
16.6333919297
 20
13.4542093397
 30
0.0
 10
16.6599714572
 20
13.338886128
 30
0.0
 10
16.6829984419
 20
13.2188227092
 30
0.0
 10
16.7023567753
 20
13.0946960027
 30
0.0
 10
16.7179363994
 20
12.9672091051
 30
0.0
 10
16.7296581585
 20
12.8370900341
 30
0.0
 10
16.7374510193
 20
12.7050866084
 30
0.0
 10
16.7412756014
 20
12.571960132
 30
0.0
 10
16.741108461
 20
12.4384801205
 30
0.0
 10
16.7369502438
 20
12.3054182388
 30
0.0
 10
16.7288267859
 20
12.173543611
 30
0.0
 10
16.7167790369
 20
12.043616522
 30
0.0
 10
16.700879747
 20
11.9163831723
 30
0.0
 10
16.6812094926
 20
11.7925704503
 30
0.0
 10
16.6578809226
 20
11.6728792498
 30
0.0
 10
16.6310112209
 20
11.5579809365
 30
0.0
 10
16.6007416434
 20
11.448508232
 30
0.0
 10
16.5672162747
 20
11.3450571173
 30
0.0
 10
16.5362923293
 20
11.2632554929
 30
0.0
 10
16.5099554894
 20
11.2013528408
 30
0.0
 10
16.4897457495
 20
11.1573813544
 30
0.0
 10
16.4688327647
 20
11.1152995471
 30
0.0
 10
16.4472311721
 20
11.0751590967
 30
0.0
 10
16.424954122
 20
11.0370082061
 30
0.0
 10
16.4020135043
 20
11.0008930295
 30
0.0
 10
16.3784198606
 20
10.9668575884
 30
0.0
 10
16.3541774105
 20
10.9349464928
 30
0.0
 10
16.3292882487
 20
10.9052029806
 30
0.0
 10
16.3037552982
 20
10.8776693664
 30
0.0
 10
16.277577867
 20
10.8523919336
 30
0.0
 10
16.2507415495
 20
10.8294333266
 30
0.0
 10
16.2232358411
 20
10.8088572981
 30
0.0
 10
16.1950648509
 20
10.790739121
 30
0.0
 10
16.1662646345
 20
10.7751588376
 30
0.0
 10
16.1368934571
 20
10.7622114116
 30
0.0
 10
16.1070166603
 20
10.7520016088
 30
0.0
 10
16.0766984802
 20
10.7446274489
 30
0.0
 10
16.0460112041
 20
10.7401550919
 30
0.0
 10
16.0253947687
 20
10.7391549929
 30
0.0
 10
16.0150910915
 20
10.7391549929
 30
0.0
  0
SPLINE
  5
26B
100
AcDbEntity
  8
0
100
AcDbSpline
 62
7
  6
CONTINUOUS
 70
0
 71
3
 72
22
 73
18
 74
0
 42
0.0000001
 43
0.0000001
 44
0.0000000001
 40
0.0
 40
0.0
 40
0.0
 40
0.0
 40
0.0348202096
 40
0.0712611399
 40
0.109946175
 40
0.1515362163
 40
0.1966465871
 40
0.2457168115
 40
0.3573420888
 40
0.42057616
 40
0.4887915263
 40
0.5619712376
 40
0.6400777031
 40
0.7230291937
 40
0.8107261156
 40
0.9030718004
 40
1.0
 40
1.0
 40
1.0
 40
1.0
 10
16.0150910915
 20
11.7234049929
 30
0.0
 10
16.0127859475
 20
11.7234049929
 30
0.0
 10
16.0080650709
 20
11.7236369995
 30
0.0
 10
16.0008560382
 20
11.7247224938
 30
0.0
 10
15.9933555794
 20
11.7266301035
 30
0.0
 10
15.9855308658
 20
11.7294347061
 30
0.0
 10
15.9773590596
 20
11.7332041559
 30
0.0
 10
15.9654896199
 20
11.7399202023
 30
0.0
 10
15.9535084072
 20
11.7487533434
 30
0.0
 10
15.941497105
 20
11.7594689864
 30
0.0
 10
15.931932388
 20
11.7690743691
 30
0.0
 10
15.9222571672
 20
11.7799250209
 30
0.0
 10
15.9125367155
 20
11.792014989
 30
0.0
 10
15.9028172642
 20
11.8053153027
 30
0.0
 10
15.8931496699
 20
11.8198010876
 30
0.0
 10
15.8835815442
 20
11.8354474809
 30
0.0
 10
15.8774374828
 20
11.8463713903
 30
0.0
 10
15.874384996
 20
11.8520156199
 30
0.0
  0
SPLINE
  5
26C
100
AcDbEntity
  8
0
100
AcDbSpline
 62
7
  6
CONTINUOUS
 70
0
 71
3
 72
22
 73
18
 74
0
 42
0.0000001
 43
0.0000001
 44
0.0000000001
 40
0.0
 40
0.0
 40
0.0
 40
0.0
 40
0.0478966488
 40
0.0962600089
 40
0.1455405496
 40
0.1961572357
 40
0.2484906376
 40
0.3028740949
 40
0.3595848385
 40
0.4188533201
 40
0.4808690734
 40
0.5457807511
 40
0.6136992538
 40
0.6847069814
 40
0.7588588048
 40
0.8361552398
 40
1.0
 40
1.0
 40
1.0
 40
1.0
 10
16.0694336949
 20
13.4608035707
 30
0.0
 10
16.0746095889
 20
13.4608039909
 30
0.0
 10
16.0850204708
 20
13.4602421152
 30
0.0
 10
16.1005718417
 20
13.4577136857
 30
0.0
 10
16.1160609501
 20
13.4535094507
 30
0.0
 10
16.131456571
 20
13.447641665
 30
0.0
 10
16.14673109
 20
13.4401221179
 30
0.0
 10
16.161856872
 20
13.4309662866
 30
0.0
 10
16.176810498
 20
13.4201970047
 30
0.0
 10
16.191567493
 20
13.4078352467
 30
0.0
 10
16.2061022635
 20
13.3939015097
 30
0.0
 10
16.2203913583
 20
13.3784202211
 30
0.0
 10
16.2344134406
 20
13.3614187263
 30
0.0
 10
16.2481455692
 20
13.3429243185
 30
0.0
 10
16.2615623553
 20
13.3229671402
 30
0.0
 10
16.2793450073
 20
13.2938951778
 30
0.0
 10
16.2915965858
 20
13.2708605134
 30
0.0
 10
16.2993966974
 20
13.2549655571
 30
0.0
  0
SPLINE
  5
26D
100
AcDbEntity
  8
0
100
AcDbSpline
 62
7
  6
CONTINUOUS
 70
0
 71
3
 72
46
 73
42
 74
0
 42
0.0000001
 43
0.0000001
 44
0.0000000001
 40
0.0
 40
0.0
 40
0.0
 40
0.0
 40
0.028353279
 40
0.0587869246
 40
0.0911537359
 40
0.1252839298
 40
0.1609953482
 40
0.1981004023
 40
0.2364062182
 40
0.275712273
 40
0.3158123666
 40
0.3564963064
 40
0.3975504375
 40
0.4387595892
 40
0.5207680082
 40
0.6008105973
 40
0.6395734728
 40
0.6772213687
 40
0.713557716
 40
0.748391935
 40
0.7815420481
 40
0.8128346504
 40
0.8277337093
 40
0.8421070912
 40
0.8691986668
 40
0.8818854797
 40
0.8939768995
 40
0.9054584396
 40
0.9163171197
 40
0.9265397873
 40
0.9361137535
 40
0.9450278432
 40
0.9532801048
 40
0.9608963553
 40
0.967907966
 40
0.9743452901
 40
0.9802424912
 40
0.9856704196
 40
0.9907171355
 40
0.9954675386
 40
1.0
 40
1.0
 40
1.0
 40
1.0
 10
15.863172323
 20
11.8737891164
 30
0.0
 10
15.8568064181
 20
11.8867614666
 30
0.0
 10
15.8444827948
 20
11.9140928105
 30
0.0
 10
15.8277232101
 20
11.9574409501
 30
0.0
 10
15.8121878367
 20
12.0043541936
 30
0.0
 10
15.7980049265
 20
12.0544922191
 30
0.0
 10
15.7853058368
 20
12.1075113846
 30
0.0
 10
15.774182845
 20
12.1630540036
 30
0.0
 10
15.7647243333
 20
12.2207604243
 30
0.0
 10
15.7569938832
 20
12.2802623835
 30
0.0
 10
15.7510475992
 20
12.3411864149
 30
0.0
 10
15.7469256867
 20
12.403153338
 30
0.0
 10
15.744654275
 20
12.4657815668
 30
0.0
 10
15.7441189433
 20
12.5495105732
 30
0.0
 10
15.7480573021
 20
12.6530913461
 30
0.0
 10
15.7581416448
 20
12.755010498
 30
0.0
 10
15.7698904145
 20
12.8338892541
 30
0.0
 10
15.780306561
 20
12.8904109083
 30
0.0
 10
15.7923344136
 20
12.9445631291
 30
0.0
 10
15.8058916376
 20
12.9959876055
 30
0.0
 10
15.8208581931
 20
13.0443362545
 30
0.0
 10
15.834619009
 20
13.0823784719
 30
0.0
 10
15.8462673839
 20
13.1109669929
 30
0.0
 10
15.8578410801
 20
13.1372605288
 30
0.0
 10
15.8700577941
 20
13.1620325421
 30
0.0
 10
15.8829653553
 20
13.1851077283
 30
0.0
 10
15.8925702346
 20
13.2009004983
 30
0.0
 10
15.902276402
 20
13.2155257025
 30
0.0
 10
15.912046626
 20
13.2289473001
 30
0.0
 10
15.9218178179
 20
13.2411456406
 30
0.0
 10
15.9315275993
 20
13.2521008548
 30
0.0
 10
15.9411156534
 20
13.2617963524
 30
0.0
 10
15.9505353183
 20
13.2702231316
 30
0.0
 10
15.9597233462
 20
13.2774176804
 30
0.0
 10
15.9686277914
 20
13.2834320281
 30
0.0
 10
15.97720152
 20
13.2883213507
 30
0.0
 10
15.9854175539
 20
13.2921487904
 30
0.0
 10
15.993279618
 20
13.2949792807
 30
0.0
 10
16.0008125578
 20
13.2968929042
 30
0.0
 10
16.0080468842
 20
13.2979751588
 30
0.0
 10
16.0127811396
 20
13.2982049929
 30
0.0
 10
16.0150910915
 20
13.2982049929
 30
0.0
  0
SPLINE
  5
26E
100
AcDbEntity
  8
0
100
AcDbSpline
 62
7
  6
CONTINUOUS
 70
0
 71
3
 72
43
 73
39
 74
0
 42
0.0000001
 43
0.0000001
 44
0.0000000001
 40
0.0
 40
0.0
 40
0.0
 40
0.0
 40
0.0283402388
 40
0.0584512091
 40
0.0902134307
 40
0.1235070004
 40
0.1582020693
 40
0.1941437628
 40
0.2311652246
 40
0.2690894027
 40
0.3077329031
 40
0.3469034964
 40
0.386404688
 40
0.4260371913
 40
0.4656006086
 40
0.5048955896
 40
0.5437242648
 40
0.5818940273
 40
0.6192168786
 40
0.655514191
 40
0.6906155808
 40
0.7243644457
 40
0.7566170162
 40
0.7872486424
 40
0.8161538948
 40
0.843254028
 40
0.8684995016
 40
0.8804241794
 40
0.8918852883
 40
0.9134361922
 40
0.9235569628
 40
0.9332626622
 40
0.9515163186
 40
0.9684651458
 40
0.9765662209
 40
0.9844827214
 40
0.9922733157
 40
1.0
 40
1.0
 40
1.0
 40
1.0
 10
15.8394706829
 20
11.7666444288
 30
0.0
 10
15.831770521
 20
11.7823357091
 30
0.0
 10
15.8169317859
 20
11.8152170816
 30
0.0
 10
15.7968483361
 20
11.8671295814
 30
0.0
 10
15.7783807413
 20
11.922865515
 30
0.0
 10
15.7616348304
 20
11.9820827681
 30
0.0
 10
15.7467137611
 20
12.044437629
 30
0.0
 10
15.7336983097
 20
12.1095625205
 30
0.0
 10
15.7226751327
 20
12.1770715916
 30
0.0
 10
15.7137032358
 20
12.246563307
 30
0.0
 10
15.706842654
 20
12.3176262021
 30
0.0
 10
15.7021278283
 20
12.3898378893
 30
0.0
 10
15.699593705
 20
12.4627690144
 30
0.0
 10
15.6992494133
 20
12.5359855006
 30
0.0
 10
15.7011026497
 20
12.6090521788
 30
0.0
 10
15.7051369152
 20
12.6815346344
 30
0.0
 10
15.7113330937
 20
12.7530020478
 30
0.0
 10
15.7196492995
 20
12.8230297897
 30
0.0
 10
15.7300401386
 20
12.8912018895
 30
0.0
 10
15.742439217
 20
12.9571139595
 30
0.0
 10
15.7567762574
 20
13.0203750801
 30
0.0
 10
15.7729619572
 20
13.0806111386
 30
0.0
 10
15.7909032925
 20
13.1374661172
 30
0.0
 10
15.8104905888
 20
13.1906055987
 30
0.0
 10
15.831611516
 20
13.2397184244
 30
0.0
 10
15.8541398064
 20
13.2845165158
 30
0.0
 10
15.8743489706
 20
13.3186631228
 30
0.0
 10
15.8911700519
 20
13.3435062936
 30
0.0
 10
15.9076864458
 20
13.3657683727
 30
0.0
 10
15.9249964162
 20
13.3860404328
 30
0.0
 10
15.9431521456
 20
13.4039931772
 30
0.0
 10
15.9608212705
 20
13.4194826004
 30
0.0
 10
15.9833735368
 20
13.4357211873
 30
0.0
 10
16.0072960219
 20
13.4478929178
 30
0.0
 10
16.0265070556
 20
13.4546264907
 30
0.0
 10
16.0407758834
 20
13.4581869492
 30
0.0
 10
16.055091357
 20
13.4603260398
 30
0.0
 10
16.0646682714
 20
13.4608031838
 30
0.0
 10
16.0694336949
 20
13.4608035707
 30
0.0
  0
SPLINE
  5
26F
100
AcDbEntity
  8
0
100
AcDbSpline
 62
7
  6
CONTINUOUS
 70
0
 71
3
 72
63
 73
59
 74
0
 42
0.0000001
 43
0.0000001
 44
0.0000000001
 40
0.0
 40
0.0
 40
0.0
 40
0.0
 40
0.0145268406
 40
0.0284241904
 40
0.0416806928
 40
0.0542932303
 40
0.0662718163
 40
0.0776338566
 40
0.0884054099
 40
0.0986225299
 40
0.1083321831
 40
0.1175956073
 40
0.1264879135
 40
0.1350971492
 40
0.1435236115
 40
0.1518756046
 40
0.1602651765
 40
0.1688024422
 40
0.1775906742
 40
0.1867225551
 40
0.1962770649
 40
0.2063201303
 40
0.2169039502
 40
0.2280678312
 40
0.2398411395
 40
0.2522426394
 40
0.2652827796
 40
0.2789657605
 40
0.2932882359
 40
0.3082420934
 40
0.3238149779
 40
0.3399891928
 40
0.3567443783
 40
0.374056833
 40
0.3918992123
 40
0.4102426129
 40
0.4290552952
 40
0.4483032274
 40
0.4679513395
 40
0.4879622387
 40
0.5289146714
 40
0.5708407671
 40
0.6134040022
 40
0.6562584424
 40
0.699054247
 40
0.7414424601
 40
0.7830796283
 40
0.8236332312
 40
0.8434055101
 40
0.8627900698
 40
0.8817506274
 40
0.9002528366
 40
0.9182634751
 40
0.9357532664
 40
0.9526965656
 40
0.9690689428
 40
0.9848449895
 40
1.0
 40
1.0
 40
1.0
 40
1.0
 10
15.6821275727
 20
11.2574819375
 30
0.0
 10
15.6899400853
 20
11.2415617108
 30
0.0
 10
15.7058367406
 20
11.2107049076
 30
0.0
 10
15.7310848133
 20
11.1665094272
 30
0.0
 10
15.7571510954
 20
11.1255317167
 30
0.0
 10
15.7839744009
 20
11.0878835768
 30
0.0
 10
15.8114868262
 20
11.0536518116
 30
0.0
 10
15.8396307378
 20
11.0229155795
 30
0.0
 10
15.8683453279
 20
10.9957477035
 30
0.0
 10
15.8975640398
 20
10.9722110849
 30
0.0
 10
15.9272278807
 20
10.9523731996
 30
0.0
 10
15.9572696714
 20
10.9362892823
 30
0.0
 10
15.9876192014
 20
10.9240052933
 30
0.0
 10
16.0182051282
 20
10.9155737355
 30
0.0
 10
16.0489422652
 20
10.9110234161
 30
0.0
 10
16.0797419972
 20
10.9103745433
 30
0.0
 10
16.11050999
 20
10.9136382718
 30
0.0
 10
16.1411551578
 20
10.9207898545
 30
0.0
 10
16.1715925257
 20
10.9318026145
 30
0.0
 10
16.2017426715
 20
10.9466375158
 30
0.0
 10
16.2315391316
 20
10.965238511
 30
0.0
 10
16.2609127523
 20
10.9875572656
 30
0.0
 10
16.2897998918
 20
11.0135330129
 30
0.0
 10
16.3181413536
 20
11.043097575
 30
0.0
 10
16.3458695022
 20
11.0761839111
 30
0.0
 10
16.3729249932
 20
11.1127101757
 30
0.0
 10
16.399247455
 20
11.1525893144
 30
0.0
 10
16.42477111
 20
11.1957296033
 30
0.0
 10
16.4494407943
 20
11.2420260271
 30
0.0
 10
16.4731972373
 20
11.2913693359
 30
0.0
 10
16.495980911
 20
11.3436431658
 30
0.0
 10
16.5177421227
 20
11.3987209441
 30
0.0
 10
16.5384259459
 20
11.4564720856
 30
0.0
 10
16.5579818735
 20
11.5167584806
 30
0.0
 10
16.5763665763
 20
11.5794346839
 30
0.0
 10
16.5935320025
 20
11.6443512983
 30
0.0
 10
16.60943803
 20
11.7113521462
 30
0.0
 10
16.6240484413
 20
11.7802758495
 30
0.0
 10
16.6373241432
 20
11.8509577874
 30
0.0
 10
16.6533289133
 20
11.9480619144
 30
0.0
 10
16.6697177928
 20
12.0726326122
 30
0.0
 10
16.6835075823
 20
12.2251844952
 30
0.0
 10
16.691431992
 20
12.3804781912
 30
0.0
 10
16.6934150548
 20
12.5370218563
 30
0.0
 10
16.6894385924
 20
12.6933139841
 30
0.0
 10
16.6795406338
 20
12.8478556295
 30
0.0
 10
16.6638155781
 20
12.9991620828
 30
0.0
 10
16.6458366632
 20
13.1223717796
 30
0.0
 10
16.628587722
 20
13.2181455199
 30
0.0
 10
16.6144155888
 20
13.2876700576
 30
0.0
 10
16.5989323948
 20
13.3553249304
 30
0.0
 10
16.5821797648
 20
13.4209476392
 30
0.0
 10
16.5641952624
 20
13.4843798956
 30
0.0
 10
16.5450212254
 20
13.5454717808
 30
0.0
 10
16.5247044162
 20
13.6040813337
 30
0.0
 10
16.5032890988
 20
13.6600654919
 30
0.0
 10
16.4808361939
 20
13.7132800313
 30
0.0
 10
16.464890149
 20
13.7475193989
 30
0.0
 10
16.4567398076
 20
13.7641280483
 30
0.0
  0
SPLINE
  5
270
100
AcDbEntity
  8
0
100
AcDbSpline
 62
7
  6
CONTINUOUS
 70
0
 71
3
 72
23
 73
19
 74
0
 42
0.0000001
 43
0.0000001
 44
0.0000000001
 40
0.0
 40
0.0
 40
0.0
 40
0.0
 40
0.0426829453
 40
0.0875289815
 40
0.1347828797
 40
0.1846291626
 40
0.2372064646
 40
0.2926059494
 40
0.35087881
 40
0.4120480488
 40
0.4761025611
 40
0.5430077739
 40
0.6127109015
 40
0.6851343514
 40
0.7601874007
 40
0.8377654232
 40
0.9177461781
 40
1.0
 40
1.0
 40
1.0
 40
1.0
 10
15.3099269475
 20
14.2108271151
 30
0.0
 10
15.2988224298
 20
14.2048758282
 30
0.0
 10
15.2766775094
 20
14.1914726186
 30
0.0
 10
15.2446675597
 20
14.1677664824
 30
0.0
 10
15.2131749981
 20
14.140063281
 30
0.0
 10
15.1822687367
 20
14.1084405369
 30
0.0
 10
15.152020557
 20
14.0729697761
 30
0.0
 10
15.1224972667
 20
14.0337383282
 30
0.0
 10
15.0937633114
 20
13.9908410754
 30
0.0
 10
15.0658909861
 20
13.9443766814
 30
0.0
 10
15.0389415884
 20
13.8944583401
 30
0.0
 10
15.0129786171
 20
13.8412049417
 30
0.0
 10
14.9880683751
 20
13.7847420105
 30
0.0
 10
14.9642654445
 20
13.7252068518
 30
0.0
 10
14.9416290265
 20
13.6627414916
 30
0.0
 10
14.9202158372
 20
13.59749529
 30
0.0
 10
14.9000732049
 20
13.5296270255
 30
0.0
 10
14.8876923151
 20
13.483361664
 30
0.0
 10
14.8817132594
 20
13.4598305159
 30
0.0
  0
SPLINE
  5
271
100
AcDbEntity
  8
0
100
AcDbSpline
 62
7
  6
CONTINUOUS
 70
0
 71
3
 72
23
 73
19
 74
0
 42
0.0000001
 43
0.0000001
 44
0.0000000001
 40
0.0
 40
0.0
 40
0.0
 40
0.0
 40
0.057643664
 40
0.1171892356
 40
0.1783953961
 40
0.2410058361
 40
0.3047531668
 40
0.3693607875
 40
0.434545442
 40
0.500019411
 40
0.5654928355
 40
0.6306755286
 40
0.6952801923
 40
0.7590230665
 40
0.8216279648
 40
0.8828266646
 40
0.9423649093
 40
1.0
 40
1.0
 40
1.0
 40
1.0
 10
14.8817132594
 20
13.4598305159
 30
0.0
 10
14.8726473751
 20
13.4241508572
 30
0.0
 10
14.8556029707
 20
13.3512558914
 30
0.0
 10
14.8335627902
 20
13.2394570934
 30
0.0
 10
14.8147150199
 20
13.1238609674
 30
0.0
 10
14.7991592979
 20
13.005070972
 30
0.0
 10
14.7869757824
 20
12.8837053166
 30
0.0
 10
14.7782309558
 20
12.7603961148
 30
0.0
 10
14.7729670274
 20
12.6357860808
 30
0.0
 10
14.771216387
 20
12.5105244452
 30
0.0
 10
14.7729825459
 20
12.3852642693
 30
0.0
 10
14.7782626277
 20
12.2606584199
 30
0.0
 10
14.7870220414
 20
12.1373562418
 30
0.0
 10
14.7992220893
 20
12.0160005686
 30
0.0
 10
14.8147911798
 20
11.8972235583
 30
0.0
 10
14.8336549051
 20
11.7816431881
 30
0.0
 10
14.8557076774
 20
11.6698620649
 30
0.0
 10
14.8727630541
 20
11.5969800728
 30
0.0
 10
14.8818336783
 20
11.5613072683
 30
0.0
  0
SPLINE
  5
272
100
AcDbEntity
  8
0
100
AcDbSpline
 62
7
  6
CONTINUOUS
 70
0
 71
3
 72
13
 73
9
 74
0
 42
0.0000001
 43
0.0000001
 44
0.0000000001
 40
0.0
 40
0.0
 40
0.0
 40
0.0
 40
0.2701410019
 40
0.4005011659
 40
0.5275409088
 40
0.7711460493
 40
0.8874808877
 40
1.0
 40
1.0
 40
1.0
 40
1.0
 10
14.8818336783
 20
11.5613072683
 30
0.0
 10
14.8915247929
 20
11.5231942093
 30
0.0
 10
14.9070498941
 20
11.4669705857
 30
0.0
 10
14.930051742
 20
11.3936929134
 30
0.0
 10
14.9535669965
 20
11.3246486606
 30
0.0
 10
14.9789395394
 20
11.2584080275
 30
0.0
 10
15.0063044003
 20
11.1952993862
 30
0.0
 10
15.0204853722
 20
11.1651451625
 30
0.0
 10
15.0277014631
 20
11.1504403153
 30
0.0
  0
SPLINE
  5
273
100
AcDbEntity
  8
0
100
AcDbSpline
 62
7
  6
CONTINUOUS
 70
0
 71
3
 72
15
 73
11
 74
0
 42
0.0000001
 43
0.0000001
 44
0.0000000001
 40
0.0
 40
0.0
 40
0.0
 40
0.0
 40
0.1520492761
 40
0.296207513
 40
0.4323329335
 40
0.5604751649
 40
0.680857126
 40
0.793844578
 40
0.8999779599
 40
1.0
 40
1.0
 40
1.0
 40
1.0
 10
15.0277014631
 20
11.1504403153
 30
0.0
 10
15.0377365626
 20
11.1299909325
 30
0.0
 10
15.0582094138
 20
11.0905960338
 30
0.0
 10
15.0910540714
 20
11.0347358026
 30
0.0
 10
15.12512247
 20
10.9838626271
 30
0.0
 10
15.1602972469
 20
10.9381588348
 30
0.0
 10
15.1964665639
 20
10.8977722283
 30
0.0
 10
15.2335287837
 20
10.8628372016
 30
0.0
 10
15.271359525
 20
10.8334742171
 30
0.0
 10
15.2977413861
 20
10.8172585126
 30
0.0
 10
15.3109722908
 20
10.8102242212
 30
0.0
  0
SPLINE
  5
274
100
AcDbEntity
  8
0
100
AcDbSpline
 62
7
  6
CONTINUOUS
 70
0
 71
3
 72
63
 73
59
 74
0
 42
0.0000001
 43
0.0000001
 44
0.0000000001
 40
0.0
 40
0.0
 40
0.0
 40
0.0
 40
0.0145268406
 40
0.0284241904
 40
0.0416806928
 40
0.0542932303
 40
0.0662718163
 40
0.0776338566
 40
0.0884054099
 40
0.0986225299
 40
0.1083321831
 40
0.1175956073
 40
0.1264879135
 40
0.1350971492
 40
0.1435236115
 40
0.1518756046
 40
0.1602651765
 40
0.1688024422
 40
0.1775906742
 40
0.1867225551
 40
0.1962770649
 40
0.2063201303
 40
0.2169039502
 40
0.2280678312
 40
0.2398411395
 40
0.2522426394
 40
0.2652827796
 40
0.2789657605
 40
0.2932882359
 40
0.3082420934
 40
0.3238149779
 40
0.3399891928
 40
0.3567443783
 40
0.374056833
 40
0.3918992123
 40
0.4102426129
 40
0.4290552952
 40
0.4483032274
 40
0.4679513395
 40
0.4879622387
 40
0.5289146714
 40
0.5708407671
 40
0.6134040022
 40
0.6562584424
 40
0.699054247
 40
0.7414424601
 40
0.7830796283
 40
0.8236332312
 40
0.8434055101
 40
0.8627900698
 40
0.8817506274
 40
0.9002528366
 40
0.9182634751
 40
0.9357532664
 40
0.9526965656
 40
0.9690689428
 40
0.9848449895
 40
1.0
 40
1.0
 40
1.0
 40
1.0
 10
16.4567398076
 20
13.7641280483
 30
0.0
 10
16.4489272951
 20
13.780048275
 30
0.0
 10
16.4330306398
 20
13.8109050782
 30
0.0
 10
16.407782567
 20
13.8551005586
 30
0.0
 10
16.3817162849
 20
13.8960782691
 30
0.0
 10
16.3548929794
 20
13.933726409
 30
0.0
 10
16.3273805542
 20
13.9679581742
 30
0.0
 10
16.2992366426
 20
13.9986944063
 30
0.0
 10
16.2705220524
 20
14.0258622823
 30
0.0
 10
16.2413033405
 20
14.0493989009
 30
0.0
 10
16.2116394997
 20
14.0692367862
 30
0.0
 10
16.1815977089
 20
14.0853207035
 30
0.0
 10
16.1512481789
 20
14.0976046925
 30
0.0
 10
16.1206622522
 20
14.1060362503
 30
0.0
 10
16.0899251152
 20
14.1105865697
 30
0.0
 10
16.0591253832
 20
14.1112354425
 30
0.0
 10
16.0283573903
 20
14.107971714
 30
0.0
 10
15.9977122226
 20
14.1008201314
 30
0.0
 10
15.9672748547
 20
14.0898073713
 30
0.0
 10
15.9371247088
 20
14.07497247
 30
0.0
 10
15.9073282487
 20
14.0563714748
 30
0.0
 10
15.877954628
 20
14.0340527202
 30
0.0
 10
15.8490674886
 20
14.008076973
 30
0.0
 10
15.8207260267
 20
13.9785124108
 30
0.0
 10
15.7929978781
 20
13.9454260747
 30
0.0
 10
15.7659423871
 20
13.9088998101
 30
0.0
 10
15.7396199254
 20
13.8690206714
 30
0.0
 10
15.7140962703
 20
13.8258803825
 30
0.0
 10
15.6894265861
 20
13.7795839588
 30
0.0
 10
15.6656701431
 20
13.7302406499
 30
0.0
 10
15.6428864694
 20
13.67796682
 30
0.0
 10
15.6211252576
 20
13.6228890417
 30
0.0
 10
15.6004414345
 20
13.5651379002
 30
0.0
 10
15.5808855068
 20
13.5048515053
 30
0.0
 10
15.5625008041
 20
13.4421753019
 30
0.0
 10
15.5453353779
 20
13.3772586875
 30
0.0
 10
15.5294293504
 20
13.3102578396
 30
0.0
 10
15.514818939
 20
13.2413341363
 30
0.0
 10
15.5015432372
 20
13.1706521984
 30
0.0
 10
15.4855384671
 20
13.0735480714
 30
0.0
 10
15.4691495876
 20
12.9489773737
 30
0.0
 10
15.4553597981
 20
12.7964254907
 30
0.0
 10
15.4474353884
 20
12.6411317946
 30
0.0
 10
15.4454523256
 20
12.4845881295
 30
0.0
 10
15.4494287879
 20
12.3282960017
 30
0.0
 10
15.4593267465
 20
12.1737543564
 30
0.0
 10
15.4750518023
 20
12.022447903
 30
0.0
 10
15.4930307172
 20
11.8992382062
 30
0.0
 10
15.5102796584
 20
11.8034644659
 30
0.0
 10
15.5244517916
 20
11.7339399282
 30
0.0
 10
15.5399349856
 20
11.6662850554
 30
0.0
 10
15.5566876156
 20
11.6006623466
 30
0.0
 10
15.5746721179
 20
11.5372300903
 30
0.0
 10
15.5938461549
 20
11.476138205
 30
0.0
 10
15.6141629642
 20
11.4175286522
 30
0.0
 10
15.6355782816
 20
11.3615444939
 30
0.0
 10
15.6580311864
 20
11.3083299545
 30
0.0
 10
15.6739772314
 20
11.2740905869
 30
0.0
 10
15.6821275727
 20
11.2574819375
 30
0.0
  0
SPLINE
  5
275
100
AcDbEntity
  8
0
100
AcDbSpline
 62
7
  6
CONTINUOUS
 70
0
 71
3
 72
22
 73
18
 74
0
 42
0.0000001
 43
0.0000001
 44
0.0000000001
 40
0.0
 40
0.0
 40
0.0
 40
0.0
 40
0.0478968548
 40
0.0962608684
 40
0.1455423237
 40
0.1961599124
 40
0.2484939387
 40
0.3028778009
 40
0.359588842
 40
0.4188574857
 40
0.4808732088
 40
0.5457847314
 40
0.6137028469
 40
0.6847097943
 40
0.7588605288
 40
0.8361561168
 40
1.0
 40
1.0
 40
1.0
 40
1.0
 10
16.009601568
 20
11.5608060138
 30
0.0
 10
16.004425649
 20
11.5608056113
 30
0.0
 10
15.9940146699
 20
11.5613675669
 30
0.0
 10
15.9784631283
 20
11.5638961902
 30
0.0
 10
15.9629737806
 20
11.5681005889
 30
0.0
 10
15.9475779219
 20
11.5739685088
 30
0.0
 10
15.9323031846
 20
11.5814881082
 30
0.0
 10
15.9171773203
 20
11.5906441076
 30
0.0
 10
15.9022237163
 20
11.6014135978
 30
0.0
 10
15.8874667905
 20
11.6137755235
 30
0.0
 10
15.8729320582
 20
11.6277093108
 30
0.0
 10
15.8586430789
 20
11.6431906383
 30
0.0
 10
15.8446211525
 20
11.6601920903
 30
0.0
 10
15.830889193
 20
11.6786863337
 30
0.0
 10
15.8174725483
 20
11.6986432688
 30
0.0
 10
15.7996900937
 20
11.7277150182
 30
0.0
 10
15.7874386348
 20
11.750749549
 30
0.0
 10
15.7796385608
 20
11.7666444288
 30
0.0
  0
SPLINE
  5
276
100
AcDbEntity
  8
0
100
AcDbSpline
 62
7
  6
CONTINUOUS
 70
0
 71
3
 72
22
 73
18
 74
0
 42
0.0000001
 43
0.0000001
 44
0.0000000001
 40
0.0
 40
0.0
 40
0.0
 40
0.0
 40
0.0478966488
 40
0.0962600089
 40
0.1455405496
 40
0.1961572357
 40
0.2484906376
 40
0.3028740949
 40
0.3595848385
 40
0.4188533201
 40
0.4808690734
 40
0.5457807511
 40
0.6136992538
 40
0.6847069814
 40
0.7588588048
 40
0.8361552398
 40
1.0
 40
1.0
 40
1.0
 40
1.0
 10
16.0694336854
 20
11.5608064151
 30
0.0
 10
16.0642577915
 20
11.560805995
 30
0.0
 10
16.0538469096
 20
11.5613678707
 30
0.0
 10
16.0382955387
 20
11.5638963001
 30
0.0
 10
16.0228064303
 20
11.5681005351
 30
0.0
 10
16.0074108093
 20
11.5739683209
 30
0.0
 10
15.9921362903
 20
11.5814878679
 30
0.0
 10
15.9770105084
 20
11.5906436992
 30
0.0
 10
15.9620568824
 20
11.6014129811
 30
0.0
 10
15.9472998873
 20
11.6137747391
 30
0.0
 10
15.9327651169
 20
11.6277084761
 30
0.0
 10
15.9184760221
 20
11.6431897647
 30
0.0
 10
15.9044539398
 20
11.6601912596
 30
0.0
 10
15.8907218112
 20
11.6786856673
 30
0.0
 10
15.8773050251
 20
11.6986428456
 30
0.0
 10
15.8595223731
 20
11.727714808
 30
0.0
 10
15.8472707946
 20
11.7507494724
 30
0.0
 10
15.8394706829
 20
11.7666444288
 30
0.0
  0
SPLINE
  5
277
100
AcDbEntity
  8
0
100
AcDbSpline
 62
7
  6
CONTINUOUS
 70
0
 71
3
 72
43
 73
39
 74
0
 42
0.0000001
 43
0.0000001
 44
0.0000000001
 40
0.0
 40
0.0
 40
0.0
 40
0.0
 40
0.0283403383
 40
0.0584514871
 40
0.0902138197
 40
0.1235073636
 40
0.1582023395
 40
0.1941441287
 40
0.2311660313
 40
0.2690905635
 40
0.307733833
 40
0.3469038365
 40
0.3864044416
 40
0.4260364506
 40
0.4655994522
 40
0.5048940882
 40
0.5437225116
 40
0.58189213
 40
0.6192149145
 40
0.6555122803
 40
0.6906137526
 40
0.7243628113
 40
0.7566155541
 40
0.7872474434
 40
0.8161529009
 40
0.8432533006
 40
0.8684989648
 40
0.8804237548
 40
0.8918849665
 40
0.9134360074
 40
0.9235568454
 40
0.9332626016
 40
0.9515163182
 40
0.9684651779
 40
0.9765662474
 40
0.9844827304
 40
0.99227331
 40
1.0
 40
1.0
 40
1.0
 40
1.0
 10
15.7796385608
 20
11.7666444288
 30
0.0
 10
15.7719383691
 20
11.7823357696
 30
0.0
 10
15.7570995857
 20
11.8152173225
 30
0.0
 10
15.7370160336
 20
11.86713006
 30
0.0
 10
15.7185483856
 20
11.9228661696
 30
0.0
 10
15.7018024986
 20
11.9820834461
 30
0.0
 10
15.6868813989
 20
12.0444383076
 30
0.0
 10
15.6738659135
 20
12.1095634961
 30
0.0
 10
15.6628427413
 20
12.1770731488
 30
0.0
 10
15.6538708079
 20
12.2465652333
 30
0.0
 10
15.6470101926
 20
12.3176278619
 30
0.0
 10
15.6422955245
 20
12.3898387149
 30
0.0
 10
15.6397613988
 20
12.4627688327
 30
0.0
 10
15.6394170582
 20
12.5359844216
 30
0.0
 10
15.6412702284
 20
12.6090503515
 30
0.0
 10
15.6453043217
 20
12.6815322172
 30
0.0
 10
15.6515004446
 20
12.7529992005
 30
0.0
 10
15.6598163946
 20
12.8230267109
 30
0.0
 10
15.6702072302
 20
12.8911987361
 30
0.0
 10
15.682606045
 20
12.9571109238
 30
0.0
 10
15.6969431673
 20
13.0203722562
 30
0.0
 10
15.7131286508
 20
13.080608683
 30
0.0
 10
15.7310701596
 20
13.1374640342
 30
0.0
 10
15.7506573212
 20
13.190604009
 30
0.0
 10
15.7717784971
 20
13.2397172404
 30
0.0
 10
15.7943067482
 20
13.2845158293
 30
0.0
 10
15.8145161564
 20
13.3186627187
 30
0.0
 10
15.8313373155
 20
13.3435061494
 30
0.0
 10
15.8478537833
 20
13.3657684582
 30
0.0
 10
15.865163925
 20
13.3860406348
 30
0.0
 10
15.8833197495
 20
13.4039935224
 30
0.0
 10
15.9009889456
 20
13.4194830525
 30
0.0
 10
15.9235413546
 20
13.4357216174
 30
0.0
 10
15.9474638955
 20
13.4478933724
 30
0.0
 10
15.9666749544
 20
13.4546269154
 30
0.0
 10
15.9809437661
 20
13.4581873577
 30
0.0
 10
15.995259225
 20
13.460326468
 30
0.0
 10
16.0048361393
 20
13.4608036013
 30
0.0
 10
16.009601568
 20
13.460803972
 30
0.0
  0
ENDSEC
  0
SECTION
  2
OBJECTS
  0
DICTIONARY
  5
C
100
AcDbDictionary
280
0
281
1
  3
ACAD_GROUP
350
D
  3
ACAD_MLINESTYLE
350
17
  3
ACAD_LAYOUT
350
1A
  3
ACAD_PLOTSETTINGS
350
19
  3
ACAD_PLOTSTYLENAME
350
E
  0
DICTIONARY
  5
D
102
{ACAD_REACTORS
330
C
102
}
100
AcDbDictionary
280
0
281
1
  0
ACDBDICTIONARYWDFLT
  5
E
102
{ACAD_REACTORS
330
C
102
}
100
AcDbDictionary
281
1
  3
Normal
350
F
100
AcDbDictionaryWithDefault
340
F
  0
DICTIONARY
  5
17
102
{ACAD_REACTORS
330
C
102
}
100
AcDbDictionary
280
0
281
1
  3
Standard
350
18
  0
DICTIONARY
  5
19
102
{ACAD_REACTORS
330
C
102
}
100
AcDbDictionary
281
1
  0
DICTIONARY
  5
1A
102
{ACAD_REACTORS
330
C
102
}
100
AcDbDictionary
281
1
  3
Model
350
278
  3
Layout1
350
279
  0
ACDBPLACEHOLDER
  5
F
102
{ACAD_REACTORS
330
E
102
}
  0
MLINESTYLE
  5
18
102
{ACAD_REACTORS
330
17
102
}
100
AcDbMlineStyle
  2
STANDARD
 70
0
  3

 62
256
 51
90.0
 52
90.0
 71
2
 49
0.5
 62
256
  6
BYLAYER
 49
-0.5
 62
256
  6
BYLAYER
  0
LAYOUT
  5
278
102
{ACAD_REACTORS
330
1A
102
}
100
AcDbPlotSettings
  1

  2
none_device
  4
ANSI_C_(22.00_x_17.00_Inches)
  6

 40
0.0
 41
0.0
 42
0.0
 43
0.0
 44
558.8
 45
431.8
 46
0.0
 47
0.0
 48
0.0
 49
0.0
140
0.0
141
0.0
142
1.0
143
1.0
 70
1024
 72
0
 73
0
 74
0
  7

 75
0
147
1.0
148
0.0
149
0.0
100
AcDbLayout
  1
Model
 70
0
 71
0
 10
0.0
 20
0.0
 11
22.0
 21
17.0
 12
0.0
 22
0.0
 32
0.0
 14
0.0
 24
0.0
 34
0.0
 15
0.0
 25
0.0
 35
0.0
146
0.0
 13
0.0
 23
0.0
 33
0.0
 16
1.0
 26
0.0
 36
0.0
 17
0.0
 27
1.0
 37
0.0
 76
0
330
222
345
0
346
0
  0
LAYOUT
  5
279
102
{ACAD_REACTORS
330
1A
102
}
100
AcDbPlotSettings
  1

  2
none_device
  4
ANSI_C_(22.00_x_17.00_Inches)
  6

 40
0.0
 41
0.0
 42
0.0
 43
0.0
 44
558.8
 45
431.8
 46
0.0
 47
0.0
 48
0.0
 49
0.0
140
0.0
141
0.0
142
1.0
143
1.0
 70
0
 72
0
 73
0
 74
0
  7

 75
0
147
1.0
148
0.0
149
0.0
100
AcDbLayout
  1
Layout1
 70
0
 71
1
 10
0.0
 20
0.0
 11
22.0
 21
17.0
 12
0.0
 22
0.0
 32
0.0
 14
0.0
 24
0.0
 34
0.0
 15
0.0
 25
0.0
 35
0.0
146
0.0
 13
0.0
 23
0.0
 33
0.0
 16
1.0
 26
0.0
 36
0.0
 17
0.0
 27
1.0
 37
0.0
 76
0
330
223
345
0
346
0
  0
ENDSEC
  0
EOF