999
DXF file: _cgs_temp_output.dxf
999
Pro/ENGINEER 2016360 by Parametric Technology Corporation
  0
SECTION
  2
HEADER
  9
$ACADVER
  1
AC1021
  9
$DWGCODEPAGE
  3
ANSI_1252
  9
$EXTMAX
 10
22.0
 20
17.0
 30
0.0
  9
$EXTMIN
 10
0.0
 20
0.0
 30
0.0
  9
$LIMMIN
 10
0.0
 20
0.0
  9
$LIMMAX
 10
22.0
 20
17.0
  9
$VIEWCTR
 10
11.0
 20
8.5
  9
$VIEWSIZE
 40
17.0
  9
$CLAYER
  8
0
  9
$LTSCALE
 40
1.21
  9
$CELTYPE
  6
BYLAYER
  9
$DIMSCALE
 40
1.0
  9
$DIMASZ
 40
0.1875
  9
$DIMEXO
 40
0.0625
  9
$DIMDLI
 40
0.836
  9
$DIMEXE
 40
0.125
  9
$DIMCEN
 40
0.198
  9
$DIMLFAC
 40
1.0
  9
$DIMBLK
  1
_CLOSED
  9
$DIMALT
 70
0
  9
$DIMALTF
 40
25.4
  9
$DIMTXT
 40
0.15625
  9
$DIMTOL
 70
0
  9
$DIMLIM
 70
0
  9
$DIMTFAC
 40
1.0
  9
$DIMGAP
 40
0.09
  9
$DIMDSEP
 70
46
  9
$AUNITS
 70
0
  9
$PDMODE
 70
3
  9
$PDSIZE
 40
0.3125
  9
$HANDSEED
  5
348
  9
$TILEMODE
 70
1
  9
$MEASUREMENT
 70
0
  9
$INSUNITS
 70
1
  0
ENDSEC
  0
SECTION
  2
CLASSES
  0
CLASS
  1
ACDBDICTIONARYWDFLT
  2
AcDbDictionaryWithDefault
  3
AutoCAD 2000
 90
0
 91
1
280
0
281
0
  0
CLASS
  1
ACDBPLACEHOLDER
  2
AcDbPlaceHolder
  3
AutoCAD 2000
 90
0
 91
1
280
0
281
0
  0
CLASS
  1
LAYOUT
  2
AcDbLayout
  3
AutoCAD 2000
 90
0
 91
0
280
0
281
0
  0
ENDSEC
  0
SECTION
  2
TABLES
  0
TABLE
  2
VPORT
  5
8
100
AcDbSymbolTable
 70
2
  0
VPORT
  5
1F4
100
AcDbSymbolTableRecord
100
AcDbViewportTableRecord
  2
*ACTIVE
 70
0
 10
0.0
 20
0.0
 11
1.0
 21
1.0
 12
11.0
 22
8.5
 13
0.0
 23
0.0
 14
1.0
 24
1.0
 15
0.0
 25
0.0
 16
0.0
 26
0.0
 36
1.0
 17
0.0
 27
0.0
 37
0.0
 40
17.0
 41
1.2941176471
 42
50.0
 43
0.0
 44
0.0
 50
0.0
 51
0.0
 71
0
 72
100
 73
1
 74
1
 75
0
 76
0
 77
0
 78
0
  0
ENDTAB
  0
TABLE
  2
LTYPE
  5
5
100
AcDbSymbolTable
 70
6
  0
LTYPE
  5
14
100
AcDbSymbolTableRecord
100
AcDbLinetypeTableRecord
  2
BYBLOCK
 70
0
  3

 72
65
 73
0
 40
0.0
  0
LTYPE
  5
15
100
AcDbSymbolTableRecord
100
AcDbLinetypeTableRecord
  2
BYLAYER
 70
0
  3

 72
65
 73
0
 40
0.0
  0
LTYPE
  5
16
100
AcDbSymbolTableRecord
100
AcDbLinetypeTableRecord
  2
CONTINUOUS
 70
64
  3
Solid line
 72
65
 73
0
 40
0.0
  0
LTYPE
  5
1F5
100
AcDbSymbolTableRecord
100
AcDbLinetypeTableRecord
  2
CENTER
 70
64
  3
____ _ ____ _ ____ _ ____ _ ____ _ ____ _ ____
 72
65
 73
4
 40
0.6
 49
0.375
 74
0
 49
-0.075
 74
0
 49
0.075
 74
0
 49
-0.075
 74
0
  0
LTYPE
  5
1F6
100
AcDbSymbolTableRecord
100
AcDbLinetypeTableRecord
  2
HIDDEN
 70
64
  3
- - - - - - - - - - - - - - - - - - - -
 72
65
 73
2
 40
0.2
 49
0.1
 74
0
 49
-0.1
 74
0
  0
LTYPE
  5
1F7
100
AcDbSymbolTableRecord
100
AcDbLinetypeTableRecord
  2
PHANTOM
 70
64
  3
_____ _ _ _____ _ _ _____ _ _ _____
 72
65
 73
6
 40
0.8
 49
0.45
 74
0
 49
-0.05
 74
0
 49
0.1
 74
0
 49
-0.05
 74
0
 49
0.1
 74
0
 49
-0.05
 74
0
  0
LTYPE
  5
1F8
100
AcDbSymbolTableRecord
100
AcDbLinetypeTableRecord
  2
DOT
 70
64
  3
. . . . . . . . . . . . . . . . . . . .
 72
65
 73
2
 40
0.2
 49
0.1
 74
0
 49
-0.1
 74
0
  0
LTYPE
  5
1F9
100
AcDbSymbolTableRecord
100
AcDbLinetypeTableRecord
  2
DASHED
 70
64
  3
- - - - - - - - - - - - - - - - - - - -
 72
65
 73
2
 40
0.2
 49
0.1
 74
0
 49
-0.1
 74
0
  0
ENDTAB
  0
TABLE
  2
LAYER
  5
2
100
AcDbSymbolTable
 70
36
  0
LAYER
  5
10
100
AcDbSymbolTableRecord
100
AcDbLayerTableRecord
  2
0
 70
0
 62
7
  6
CONTINUOUS
370
-3
390
F
  0
LAYER
  5
1FA
100
AcDbSymbolTableRecord
100
AcDbLayerTableRecord
  2
DEFAULT_1
 70
0
 62
7
  6
CENTER
370
-3
390
F
  0
LAYER
  5
1FB
100
AcDbSymbolTableRecord
100
AcDbLayerTableRecord
  2
DEFAULT_2
 70
0
 62
8
  6
HIDDEN
370
-3
390
F
  0
LAYER
  5
1FC
100
AcDbSymbolTableRecord
100
AcDbLayerTableRecord
  2
DEFAULT_3
 70
0
 62
7
  6
PHANTOM
370
-3
390
F
  0
LAYER
  5
1FD
100
AcDbSymbolTableRecord
100
AcDbLayerTableRecord
  2
01_ALL_DTM_PLN
 70
0
 62
7
  6
CONTINUOUS
370
-3
390
F
  0
LAYER
  5
1FE
100
AcDbSymbolTableRecord
100
AcDbLayerTableRecord
  2
01__ASM_ALL_DTM_PLN
 70
0
 62
7
  6
CONTINUOUS
370
-3
390
F
  0
LAYER
  5
1FF
100
AcDbSymbolTableRecord
100
AcDbLayerTableRecord
  2
01__ASM_DEF_DTM_PLN
 70
0
 62
7
  6
CONTINUOUS
370
-3
390
F
  0
LAYER
  5
200
100
AcDbSymbolTableRecord
100
AcDbLayerTableRecord
  2
01___PRT_ALL_DTM_PLN
 70
0
 62
7
  6
CONTINUOUS
370
-3
390
F
  0
LAYER
  5
201
100
AcDbSymbolTableRecord
100
AcDbLayerTableRecord
  2
01___PRT_DEF_DTM_PLN
 70
0
 62
7
  6
CONTINUOUS
370
-3
390
F
  0
LAYER
  5
202
100
AcDbSymbolTableRecord
100
AcDbLayerTableRecord
  2
02_ALL_AXES
 70
0
 62
7
  6
CONTINUOUS
370
-3
390
F
  0
LAYER
  5
203
100
AcDbSymbolTableRecord
100
AcDbLayerTableRecord
  2
02__ASM_ALL_AXES
 70
0
 62
7
  6
CONTINUOUS
370
-3
390
F
  0
LAYER
  5
204
100
AcDbSymbolTableRecord
100
AcDbLayerTableRecord
  2
02___PRT_ALL_AXES
 70
0
 62
7
  6
CONTINUOUS
370
-3
390
F
  0
LAYER
  5
205
100
AcDbSymbolTableRecord
100
AcDbLayerTableRecord
  2
03_ALL_CURVES
 70
0
 62
7
  6
CONTINUOUS
370
-3
390
F
  0
LAYER
  5
206
100
AcDbSymbolTableRecord
100
AcDbLayerTableRecord
  2
03__ASM_ALL_CURVES
 70
0
 62
7
  6
CONTINUOUS
370
-3
390
F
  0
LAYER
  5
207
100
AcDbSymbolTableRecord
100
AcDbLayerTableRecord
  2
03___PRT_ALL_CURVES
 70
0
 62
7
  6
CONTINUOUS
370
-3
390
F
  0
LAYER
  5
208
100
AcDbSymbolTableRecord
100
AcDbLayerTableRecord
  2
04_ALL_DTM_PNT
 70
0
 62
7
  6
CONTINUOUS
370
-3
390
F
  0
LAYER
  5
209
100
AcDbSymbolTableRecord
100
AcDbLayerTableRecord
  2
04__ASM_ALL_DTM_PNT
 70
0
 62
7
  6
CONTINUOUS
370
-3
390
F
  0
LAYER
  5
20A
100
AcDbSymbolTableRecord
100
AcDbLayerTableRecord
  2
04___PRT_ALL_DTM_PNT
 70
0
 62
7
  6
CONTINUOUS
370
-3
390
F
  0
LAYER
  5
20B
100
AcDbSymbolTableRecord
100
AcDbLayerTableRecord
  2
05_ALL_DTM_CSYS
 70
0
 62
7
  6
CONTINUOUS
370
-3
390
F
  0
LAYER
  5
20C
100
AcDbSymbolTableRecord
100
AcDbLayerTableRecord
  2
05__ASM_ALL_DTM_CSYS
 70
0
 62
7
  6
CONTINUOUS
370
-3
390
F
  0
LAYER
  5
20D
100
AcDbSymbolTableRecord
100
AcDbLayerTableRecord
  2
05__ASM_DEF_DTM_CSYS
 70
0
 62
7
  6
CONTINUOUS
370
-3
390
F
  0
LAYER
  5
20E
100
AcDbSymbolTableRecord
100
AcDbLayerTableRecord
  2
05___PRT_ALL_DTM_CSYS
 70
0
 62
7
  6
CONTINUOUS
370
-3
390
F
  0
LAYER
  5
20F
100
AcDbSymbolTableRecord
100
AcDbLayerTableRecord
  2
05___PRT_DEF_DTM_CSYS
 70
0
 62
7
  6
CONTINUOUS
370
-3
390
F
  0
LAYER
  5
210
100
AcDbSymbolTableRecord
100
AcDbLayerTableRecord
  2
06_ALL_SURFS
 70
0
 62
7
  6
CONTINUOUS
370
-3
390
F
  0
LAYER
  5
211
100
AcDbSymbolTableRecord
100
AcDbLayerTableRecord
  2
06__ASM_ALL_SURFS
 70
0
 62
7
  6
CONTINUOUS
370
-3
390
F
  0
LAYER
  5
212
100
AcDbSymbolTableRecord
100
AcDbLayerTableRecord
  2
06___PRT_ALL_SURFS
 70
0
 62
7
  6
CONTINUOUS
370
-3
390
F
  0
LAYER
  5
213
100
AcDbSymbolTableRecord
100
AcDbLayerTableRecord
  2
07__ASM_ALL_SKELETONS
 70
0
 62
7
  6
CONTINUOUS
370
-3
390
F
  0
ENDTAB
  0
TABLE
  2
STYLE
  5
3
100
AcDbSymbolTable
 70
1
  0
STYLE
  5
11
100
AcDbSymbolTableRecord
100
AcDbTextStyleTableRecord
  2
STANDARD
 70
0
 40
0.0
 41
0.8
 50
0.0
 71
0
 42
0.2
  3
txt
  4

  0
STYLE
  5
214
100
AcDbSymbolTableRecord
100
AcDbTextStyleTableRecord
  2
TEXTSTYLE_1
 70
0
 40
0.0
 41
0.8
 50
0.0
 71
0
 42
0.2
  3
gdt
  4

  0
ENDTAB
  0
TABLE
  2
VIEW
  5
6
100
AcDbSymbolTable
 70
0
  0
ENDTAB
  0
TABLE
  2
UCS
  5
7
100
AcDbSymbolTable
 70
0
  0
ENDTAB
  0
TABLE
  2
APPID
  5
9
100
AcDbSymbolTable
 70
1
  0
APPID
  5
215
100
AcDbSymbolTableRecord
100
AcDbRegAppTableRecord
  2
ACAD
 70
0
  0
ENDTAB
  0
TABLE
  2
BLOCK_RECORD
  5
1
100
AcDbSymbolTable
 70
0
  0
BLOCK_RECORD
  5
216
100
AcDbSymbolTableRecord
100
AcDbBlockTableRecord
  2
*Model_Space
  0
BLOCK_RECORD
  5
217
100
AcDbSymbolTableRecord
100
AcDbBlockTableRecord
  2
*Paper_Space
  0
ENDTAB
  0
TABLE
  2
DIMSTYLE
  5
A
100
AcDbSymbolTable
 70
1
100
AcDbDimStyleTable
 71
0
  0
DIMSTYLE
105
218
100
AcDbSymbolTableRecord
100
AcDbDimStyleTableRecord
  2
STANDARD
 70
0
  3

  4

 40
1.0
 41
0.1875
 42
0.0625
 43
0.38
 44
0.125
 45
0.0
 46
0.0
 47
0.0001
 48
0.0001
140
0.15625
141
0.09
142
0.0
143
25.4
144
1.0
145
0.0
146
1.0
147
0.09
 71
0.0
 72
0.0
 73
1
 74
1
 75
0
 76
0
 77
0
 78
4
 79
1
170
0
171
3
172
0
173
0
174
0
175
0
176
0
177
0
178
0
270
2
179
4
271
4
272
4
273
2
274
2
275
0
280
0
281
0
282
0
283
1
284
4
285
0
286
0
287
3
288
0
340
11
278
46
  0
ENDTAB
  0
ENDSEC
  0
SECTION
  2
BLOCKS
  0
BLOCK
  5
20
100
AcDbEntity
  8
0
100
AcDbBlockBegin
  2
*Model_Space
 70
0
 10
0.0
 20
0.0
 30
0.0
  3
*Model_Space
  1

  0
ENDBLK
  5
21
100
AcDbEntity
  8
0
100
AcDbBlockEnd
  0
BLOCK
  5
1C
100
AcDbEntity
  8
0
100
AcDbBlockBegin
  2
*Paper_Space
 70
0
 10
0.0
 20
0.0
 30
0.0
  3
*Paper_Space
  1

  0
ENDBLK
  5
1D
100
AcDbEntity
  8
0
100
AcDbBlockEnd
  0
ENDSEC
  0
SECTION
  2
ENTITIES
  0
MTEXT
  5
219
100
AcDbEntity
  8
0
100
AcDbMText
 62
7
  6
CONTINUOUS
  7
STANDARD
 71
1
 72
1
 10
15.9560215477
 20
0.9479130325
 30
0.0
 11
1.0
 21
0.0
 31
0.0
 44
0.9
  1
SCALE: 1:1.000
 40
0.3
 41
3.36
  0
LINE
  5
21A
100
AcDbEntity
  8
0
100
AcDbLine
 62
7
  6
CONTINUOUS
 10
0.0
 20
0.0
 11
0.0
 21
17.0
  0
LINE
  5
21B
100
AcDbEntity
  8
0
100
AcDbLine
 62
7
  6
CONTINUOUS
 10
0.0
 20
0.0
 11
22.0
 21
0.0
  0
LINE
  5
21C
100
AcDbEntity
  8
0
100
AcDbLine
 62
7
  6
CONTINUOUS
 10
0.0
 20
17.0
 11
22.0
 21
17.0
  0
LINE
  5
21D
100
AcDbEntity
  8
0
100
AcDbLine
 62
7
  6
CONTINUOUS
 10
22.0
 20
0.0
 11
22.0
 21
17.0
  0
LINE
  5
21E
100
AcDbEntity
  8
0
100
AcDbLine
 62
7
  6
CONTINUOUS
 10
5.5053672762
 20
5.6476198968
 11
5.5053672762
 21
5.6077634576
  0
LINE
  5
21F
100
AcDbEntity
  8
0
100
AcDbLine
 62
7
  6
CONTINUOUS
 10
5.5537050212
 20
5.3869961204
 11
5.5079302697
 21
5.5852683521
  0
LINE
  5
220
100
AcDbEntity
  8
0
100
AcDbLine
 62
7
  6
CONTINUOUS
 10
5.5780642728
 20
5.3676198968
 11
6.6826702795
 21
5.3676198968
  0
LINE
  5
221
100
AcDbEntity
  8
0
100
AcDbLine
 62
7
  6
CONTINUOUS
 10
5.5545926734
 20
5.4692865634
 11
6.706141879
 21
5.4692865634
  0
LINE
  5
222
100
AcDbEntity
  8
0
100
AcDbLine
 62
7
  6
CONTINUOUS
 10
6.7303672762
 20
5.6726198968
 11
5.5303672762
 21
5.6726198968
  0
LINE
  5
223
100
AcDbEntity
  8
0
100
AcDbLine
 62
7
  6
CONTINUOUS
 10
6.7553672762
 20
5.6077634576
 11
6.7553672762
 21
5.6476198968
  0
LINE
  5
224
100
AcDbEntity
  8
0
100
AcDbLine
 62
7
  6
CONTINUOUS
 10
6.7070295311
 20
5.3869961204
 11
6.7528042826
 21
5.5852683521
  0
LINE
  5
225
100
AcDbEntity
  8
0
100
AcDbLine
 62
7
  6
CONTINUOUS
 10
6.6958720839
 20
10.6000477814
 11
5.4458720839
 21
10.6000477814
  0
LINE
  5
226
100
AcDbEntity
  8
0
100
AcDbLine
 62
7
  6
CONTINUOUS
 10
5.4458720839
 20
10.6000477814
 11
5.4458720839
 21
14.6000477814
  0
LINE
  5
227
100
AcDbEntity
  8
0
100
AcDbLine
 62
7
  6
CONTINUOUS
 10
6.6958720839
 20
10.6000477814
 11
6.6958720839
 21
14.6000477814
  0
LINE
  5
228
100
AcDbEntity
  8
0
100
AcDbLine
 62
7
  6
CONTINUOUS
 10
5.4458720839
 20
14.6000477814
 11
6.6958720839
 21
14.6000477814
  0
LINE
  5
229
100
AcDbEntity
  8
0
100
AcDbLine
 62
7
  6
CONTINUOUS
 10
13.5603552569
 20
5.4097913711
 11
13.5603552569
 21
5.6131247044
  0
LINE
  5
22A
100
AcDbEntity
  8
0
100
AcDbLine
 62
7
  6
CONTINUOUS
 10
13.7173083862
 20
5.3275009281
 11
13.7173083862
 21
5.3081247044
  0
LINE
  5
22B
100
AcDbEntity
  8
0
100
AcDbLine
 62
7
  6
CONTINUOUS
 10
13.6781673668
 20
5.3900922104
 11
13.6925431471
 21
5.3278238651
  0
LINE
  5
22C
100
AcDbEntity
  8
0
100
AcDbLine
 62
7
  6
CONTINUOUS
 10
13.9034021274
 20
5.3275009281
 11
13.9034021271
 21
5.3081247044
  0
LINE
  5
22D
100
AcDbEntity
  8
0
100
AcDbLine
 62
7
  6
CONTINUOUS
 10
13.9281673668
 20
5.3278238651
 11
13.9425431471
 21
5.3900922104
  0
LINE
  5
22E
100
AcDbEntity
  8
0
100
AcDbLine
 62
7
  6
CONTINUOUS
 10
14.2173083862
 20
5.3275009281
 11
14.2173083862
 21
5.3081247044
  0
LINE
  5
22F
100
AcDbEntity
  8
0
100
AcDbLine
 62
7
  6
CONTINUOUS
 10
14.1781673668
 20
5.3900922104
 11
14.1925431471
 21
5.3278238651
  0
LINE
  5
230
100
AcDbEntity
  8
0
100
AcDbLine
 62
7
  6
CONTINUOUS
 10
14.4034021274
 20
5.3275009281
 11
14.4034021271
 21
5.3081247044
  0
LINE
  5
231
100
AcDbEntity
  8
0
100
AcDbLine
 62
7
  6
CONTINUOUS
 10
14.4281673668
 20
5.3278238651
 11
14.4425431471
 21
5.3900922104
  0
LINE
  5
232
100
AcDbEntity
  8
0
100
AcDbLine
 62
7
  6
CONTINUOUS
 10
14.7173083862
 20
5.3275009281
 11
14.7173083862
 21
5.3081247044
  0
LINE
  5
233
100
AcDbEntity
  8
0
100
AcDbLine
 62
7
  6
CONTINUOUS
 10
14.6781673668
 20
5.3900922104
 11
14.6925431471
 21
5.3278238651
  0
LINE
  5
234
100
AcDbEntity
  8
0
100
AcDbLine
 62
7
  6
CONTINUOUS
 10
14.9034021274
 20
5.3275009281
 11
14.9034021271
 21
5.3081247044
  0
LINE
  5
235
100
AcDbEntity
  8
0
100
AcDbLine
 62
7
  6
CONTINUOUS
 10
14.9281673668
 20
5.3278238651
 11
14.9425431471
 21
5.3900922104
  0
LINE
  5
236
100
AcDbEntity
  8
0
100
AcDbLine
 62
7
  6
CONTINUOUS
 10
15.1781673668
 20
5.3900922104
 11
15.1925431471
 21
5.3278238651
  0
LINE
  5
237
100
AcDbEntity
  8
0
100
AcDbLine
 62
7
  6
CONTINUOUS
 10
15.2173083862
 20
5.3275009281
 11
15.2173083862
 21
5.3081247044
  0
LINE
  5
238
100
AcDbEntity
  8
0
100
AcDbLine
 62
7
  6
CONTINUOUS
 10
15.4034021274
 20
5.3275009281
 11
15.4034021271
 21
5.3081247044
  0
LINE
  5
239
100
AcDbEntity
  8
0
100
AcDbLine
 62
7
  6
CONTINUOUS
 10
13.7173083862
 20
5.3081247044
 11
13.9034021277
 21
5.3081247044
  0
LINE
  5
23A
100
AcDbEntity
  8
0
100
AcDbLine
 62
7
  6
CONTINUOUS
 10
14.2173083862
 20
5.3081247044
 11
14.4034021277
 21
5.3081247044
  0
LINE
  5
23B
100
AcDbEntity
  8
0
100
AcDbLine
 62
7
  6
CONTINUOUS
 10
14.7173083862
 20
5.3081247044
 11
14.9034021277
 21
5.3081247044
  0
LINE
  5
23C
100
AcDbEntity
  8
0
100
AcDbLine
 62
7
  6
CONTINUOUS
 10
15.2173083862
 20
5.3081247044
 11
15.4034021277
 21
5.3081247044
  0
LINE
  5
23D
100
AcDbEntity
  8
0
100
AcDbLine
 62
7
  6
CONTINUOUS
 10
15.7173083862
 20
5.3081247044
 11
15.9034021277
 21
5.3081247044
  0
LINE
  5
23E
100
AcDbEntity
  8
0
100
AcDbLine
 62
7
  6
CONTINUOUS
 10
16.2173083862
 20
5.3081247044
 11
16.4034021277
 21
5.3081247044
  0
LINE
  5
23F
100
AcDbEntity
  8
0
100
AcDbLine
 62
7
  6
CONTINUOUS
 10
16.7173083862
 20
5.3081247044
 11
16.9034021277
 21
5.3081247044
  0
LINE
  5
240
100
AcDbEntity
  8
0
100
AcDbLine
 62
7
  6
CONTINUOUS
 10
17.2173083862
 20
5.3081247044
 11
17.4034021277
 21
5.3081247044
  0
LINE
  5
241
100
AcDbEntity
  8
0
100
AcDbLine
 62
7
  6
CONTINUOUS
 10
15.4281673668
 20
5.3278238651
 11
15.4425431471
 21
5.3900922104
  0
LINE
  5
242
100
AcDbEntity
  8
0
100
AcDbLine
 62
7
  6
CONTINUOUS
 10
13.5603552569
 20
5.4097913711
 11
13.6534021277
 21
5.4097913711
  0
LINE
  5
243
100
AcDbEntity
  8
0
100
AcDbLine
 62
7
  6
CONTINUOUS
 10
13.9673083862
 20
5.4097913711
 11
14.1534021277
 21
5.4097913711
  0
LINE
  5
244
100
AcDbEntity
  8
0
100
AcDbLine
 62
7
  6
CONTINUOUS
 10
14.4673083862
 20
5.4097913711
 11
14.6534021277
 21
5.4097913711
  0
LINE
  5
245
100
AcDbEntity
  8
0
100
AcDbLine
 62
7
  6
CONTINUOUS
 10
14.9673083862
 20
5.4097913711
 11
15.1534021277
 21
5.4097913711
  0
LINE
  5
246
100
AcDbEntity
  8
0
100
AcDbLine
 62
7
  6
CONTINUOUS
 10
15.4673083862
 20
5.4097913711
 11
15.6534021277
 21
5.4097913711
  0
LINE
  5
247
100
AcDbEntity
  8
0
100
AcDbLine
 62
7
  6
CONTINUOUS
 10
15.9673083862
 20
5.4097913711
 11
16.1534021277
 21
5.4097913711
  0
LINE
  5
248
100
AcDbEntity
  8
0
100
AcDbLine
 62
7
  6
CONTINUOUS
 10
16.4673083862
 20
5.4097913711
 11
16.6534021277
 21
5.4097913711
  0
LINE
  5
249
100
AcDbEntity
  8
0
100
AcDbLine
 62
7
  6
CONTINUOUS
 10
16.9673083862
 20
5.4097913711
 11
17.1534021277
 21
5.4097913711
  0
LINE
  5
24A
100
AcDbEntity
  8
0
100
AcDbLine
 62
7
  6
CONTINUOUS
 10
17.4673083862
 20
5.4097913711
 11
17.5603552569
 21
5.4097913711
  0
LINE
  5
24B
100
AcDbEntity
  8
0
100
AcDbLine
 62
7
  6
CONTINUOUS
 10
15.6781673668
 20
5.3900922104
 11
15.6925431471
 21
5.3278238651
  0
LINE
  5
24C
100
AcDbEntity
  8
0
100
AcDbLine
 62
7
  6
CONTINUOUS
 10
15.7173083862
 20
5.3275009281
 11
15.7173083862
 21
5.3081247044
  0
LINE
  5
24D
100
AcDbEntity
  8
0
100
AcDbLine
 62
7
  6
CONTINUOUS
 10
13.5603552569
 20
5.6131247044
 11
17.5603552569
 21
5.6131247044
  0
LINE
  5
24E
100
AcDbEntity
  8
0
100
AcDbLine
 62
7
  6
CONTINUOUS
 10
15.9034021274
 20
5.3275009281
 11
15.9034021271
 21
5.3081247044
  0
LINE
  5
24F
100
AcDbEntity
  8
0
100
AcDbLine
 62
7
  6
CONTINUOUS
 10
15.9281673668
 20
5.3278238651
 11
15.9425431471
 21
5.3900922104
  0
LINE
  5
250
100
AcDbEntity
  8
0
100
AcDbLine
 62
7
  6
CONTINUOUS
 10
16.2173083862
 20
5.3275009281
 11
16.2173083862
 21
5.3081247044
  0
LINE
  5
251
100
AcDbEntity
  8
0
100
AcDbLine
 62
7
  6
CONTINUOUS
 10
16.1781673668
 20
5.3900922104
 11
16.1925431471
 21
5.3278238651
  0
LINE
  5
252
100
AcDbEntity
  8
0
100
AcDbLine
 62
7
  6
CONTINUOUS
 10
16.4034021274
 20
5.3275009281
 11
16.4034021271
 21
5.3081247044
  0
LINE
  5
253
100
AcDbEntity
  8
0
100
AcDbLine
 62
7
  6
CONTINUOUS
 10
16.4281673668
 20
5.3278238651
 11
16.4425431471
 21
5.3900922104
  0
LINE
  5
254
100
AcDbEntity
  8
0
100
AcDbLine
 62
7
  6
CONTINUOUS
 10
16.6781673668
 20
5.3900922104
 11
16.6925431471
 21
5.3278238651
  0
LINE
  5
255
100
AcDbEntity
  8
0
100
AcDbLine
 62
7
  6
CONTINUOUS
 10
16.7173083862
 20
5.3275009281
 11
16.7173083862
 21
5.3081247044
  0
LINE
  5
256
100
AcDbEntity
  8
0
100
AcDbLine
 62
7
  6
CONTINUOUS
 10
16.9034021274
 20
5.3275009281
 11
16.9034021271
 21
5.3081247044
  0
LINE
  5
257
100
AcDbEntity
  8
0
100
AcDbLine
 62
7
  6
CONTINUOUS
 10
16.9281673668
 20
5.3278238651
 11
16.9425431471
 21
5.3900922104
  0
LINE
  5
258
100
AcDbEntity
  8
0
100
AcDbLine
 62
7
  6
CONTINUOUS
 10
17.1781673668
 20
5.3900922104
 11
17.1925431471
 21
5.3278238651
  0
LINE
  5
259
100
AcDbEntity
  8
0
100
AcDbLine
 62
7
  6
CONTINUOUS
 10
17.2173083862
 20
5.3275009281
 11
17.2173083862
 21
5.3081247044
  0
LINE
  5
25A
100
AcDbEntity
  8
0
100
AcDbLine
 62
7
  6
CONTINUOUS
 10
17.4034021274
 20
5.3275009281
 11
17.4034021271
 21
5.3081247044
  0
LINE
  5
25B
100
AcDbEntity
  8
0
100
AcDbLine
 62
7
  6
CONTINUOUS
 10
17.5603552569
 20
5.4097913711
 11
17.5603552569
 21
5.6131247044
  0
LINE
  5
25C
100
AcDbEntity
  8
0
100
AcDbLine
 62
7
  6
CONTINUOUS
 10
17.4281673668
 20
5.3278238651
 11
17.4425431471
 21
5.3900922104
  0
LINE
  5
25D
100
AcDbEntity
  8
0
100
AcDbLine
 62
7
  6
CONTINUOUS
 10
14.4205193063
 20
10.9530495962
 11
14.4705306116
 21
10.892998614
  0
LINE
  5
25E
100
AcDbEntity
  8
0
100
AcDbLine
 62
7
  6
CONTINUOUS
 10
14.4988775276
 20
10.8809541602
 11
15.5595245835
 21
10.8809541602
  0
LINE
  5
25F
100
AcDbEntity
  8
0
100
AcDbLine
 62
7
  6
CONTINUOUS
 10
15.5887544234
 20
10.9310853432
 11
15.5988530493
 21
10.9310853432
  0
LINE
  5
260
100
AcDbEntity
  8
0
100
AcDbLine
 62
7
  6
CONTINUOUS
 10
14.3991388014
 20
10.9918079379
 11
14.411296684
 21
10.967032778
  0
LINE
  5
261
100
AcDbEntity
  8
0
100
AcDbLine
 62
7
  6
CONTINUOUS
 10
15.5198124724
 20
11.0073481871
 11
14.4145392796
 21
11.0073481871
  0
LINE
  5
262
100
AcDbEntity
  8
0
100
AcDbLine
 62
7
  6
CONTINUOUS
 10
15.7097875851
 20
11.322748798
 11
15.719886211
 21
11.322748798
  0
LINE
  5
263
100
AcDbEntity
  8
0
100
AcDbLine
 62
7
  6
CONTINUOUS
 10
15.8308207468
 20
11.7144122528
 11
15.8409193727
 21
11.7144122528
  0
LINE
  5
264
100
AcDbEntity
  8
0
100
AcDbLine
 62
7
  6
CONTINUOUS
 10
14.3982798051
 20
10.9991891222
 11
15.3665450988
 21
14.1324967607
  0
LINE
  5
265
100
AcDbEntity
  8
0
100
AcDbLine
 62
7
  6
CONTINUOUS
 10
15.5626229265
 20
10.967032778
 11
15.5504650439
 21
10.9918079379
  0
LINE
  5
266
100
AcDbEntity
  8
0
100
AcDbLine
 62
7
  6
CONTINUOUS
 10
15.9518539085
 20
12.1060757076
 11
15.9619525344
 21
12.1060757076
  0
LINE
  5
267
100
AcDbEntity
  8
0
100
AcDbLine
 62
7
  6
CONTINUOUS
 10
15.5760503806
 20
10.892998614
 11
15.5671242021
 21
10.9530495962
  0
LINE
  5
268
100
AcDbEntity
  8
0
100
AcDbLine
 62
7
  6
CONTINUOUS
 10
16.0728870702
 20
12.4977391624
 11
16.0829856962
 21
12.4977391624
  0
LINE
  5
269
100
AcDbEntity
  8
0
100
AcDbLine
 62
7
  6
CONTINUOUS
 10
15.6693781369
 20
11.1036023917
 11
15.6671014547
 21
11.1536379208
  0
LINE
  5
26A
100
AcDbEntity
  8
0
100
AcDbLine
 62
7
  6
CONTINUOUS
 10
15.6693842336
 20
11.1034408071
 11
15.6693781369
 21
11.1036023917
  0
LINE
  5
26B
100
AcDbEntity
  8
0
100
AcDbLine
 62
7
  6
CONTINUOUS
 10
15.7904112986
 20
11.4952658465
 11
15.7881346164
 21
11.5453013757
  0
LWPOLYLINE
  5
26C
100
AcDbEntity
  8
0
100
AcDbPolyline
 62
7
  6
CONTINUOUS
 90
6
 70
0
 10
15.6671007642
 20
11.1536548635
 10
15.6670227931
 20
11.1561247642
 10
15.667290278
 20
11.1670835802
 10
15.6685621556
 20
11.1802502291
 10
15.6707453028
 20
11.1935730337
 10
15.673420631
 20
11.204913778
  0
LINE
  5
26D
100
AcDbEntity
  8
0
100
AcDbLine
 62
7
  6
CONTINUOUS
 10
15.6234372626
 20
10.9527472102
 11
15.6231988608
 21
10.9489540938
  0
LINE
  5
26E
100
AcDbEntity
  8
0
100
AcDbLine
 62
7
  6
CONTINUOUS
 10
15.5757826159
 20
10.8891136692
 11
15.5760503806
 21
10.892998614
  0
LINE
  5
26F
100
AcDbEntity
  8
0
100
AcDbLine
 62
7
  6
CONTINUOUS
 10
15.7904173953
 20
11.4951042619
 11
15.7904112986
 21
11.4952658465
  0
LWPOLYLINE
  5
270
100
AcDbEntity
  8
0
100
AcDbPolyline
 62
7
  6
CONTINUOUS
 90
6
 70
0
 10
15.7881339259
 20
11.5453183183
 10
15.7880559548
 20
11.547788219
 10
15.7883234397
 20
11.5587470351
 10
15.7895953173
 20
11.5719136839
 10
15.7917784645
 20
11.5852364885
 10
15.7944537927
 20
11.5965772328
  0
LINE
  5
271
100
AcDbEntity
  8
0
100
AcDbLine
 62
7
  6
CONTINUOUS
 10
15.6684842904
 20
11.0985194455
 11
15.6682510211
 21
11.094743729
  0
LINE
  5
272
100
AcDbEntity
  8
0
100
AcDbLine
 62
7
  6
CONTINUOUS
 10
15.7895174521
 20
11.4901829003
 11
15.7892841828
 21
11.4864071838
  0
LINE
  5
273
100
AcDbEntity
  8
0
100
AcDbLine
 62
7
  6
CONTINUOUS
 10
15.7444704243
 20
11.344410665
 11
15.7442320225
 21
11.3406175486
  0
LINE
  5
274
100
AcDbEntity
  8
0
100
AcDbLine
 62
7
  6
CONTINUOUS
 10
16.4485966942
 20
13.7117170854
 11
16.4489345402
 21
13.7123394626
  0
LINE
  5
275
100
AcDbEntity
  8
0
100
AcDbLine
 62
7
  6
CONTINUOUS
 10
16.3275635325
 20
13.3200536306
 11
16.3279013785
 21
13.3206760077
  0
LINE
  5
276
100
AcDbEntity
  8
0
100
AcDbLine
 62
7
  6
CONTINUOUS
 10
16.1939202319
 20
12.8894026172
 11
16.2040188579
 21
12.8894026172
  0
LINE
  5
277
100
AcDbEntity
  8
0
100
AcDbLine
 62
7
  6
CONTINUOUS
 10
15.9114444603
 20
11.8869293013
 11
15.9091677781
 21
11.9369648305
  0
LINE
  5
278
100
AcDbEntity
  8
0
100
AcDbLine
 62
7
  6
CONTINUOUS
 10
15.911450557
 20
11.8867677167
 11
15.9114444603
 21
11.8869293013
  0
LWPOLYLINE
  5
279
100
AcDbEntity
  8
0
100
AcDbPolyline
 62
7
  6
CONTINUOUS
 90
6
 70
0
 10
15.9091670876
 20
11.9369817731
 10
15.9090891165
 20
11.9394516738
 10
15.9093566014
 20
11.9504104899
 10
15.910628479
 20
11.9635771387
 10
15.9128116262
 20
11.9768999433
 10
15.9154869544
 20
11.9882406876
  0
LINE
  5
27A
100
AcDbEntity
  8
0
100
AcDbLine
 62
7
  6
CONTINUOUS
 10
15.9105506138
 20
11.8818463551
 11
15.9103173445
 21
11.8780706386
  0
LINE
  5
27B
100
AcDbEntity
  8
0
100
AcDbLine
 62
7
  6
CONTINUOUS
 10
15.865503586
 20
11.7360741199
 11
15.8652651842
 21
11.7322810035
  0
LINE
  5
27C
100
AcDbEntity
  8
0
100
AcDbLine
 62
7
  6
CONTINUOUS
 10
15.6685558202
 20
11.0989702391
 11
15.6693842336
 21
11.1034408071
  0
LINE
  5
27D
100
AcDbEntity
  8
0
100
AcDbLine
 62
7
  6
CONTINUOUS
 10
15.7895889819
 20
11.4906336939
 11
15.7904173953
 21
11.4951042619
  0
LWPOLYLINE
  5
27E
100
AcDbEntity
  8
0
100
AcDbPolyline
 62
7
  6
CONTINUOUS
 90
3
 70
0
 10
16.4455402057
 20
13.703645953
 10
16.4473804684
 20
13.7089530283
 10
16.4485966942
 20
13.7117170854
  0
LINE
  5
27F
100
AcDbEntity
  8
0
100
AcDbLine
 62
7
  6
CONTINUOUS
 10
16.2065303708
 20
12.9283901758
 11
16.2068682168
 21
12.9290125529
  0
LINE
  5
280
100
AcDbEntity
  8
0
100
AcDbLine
 62
7
  6
CONTINUOUS
 10
16.0854972091
 20
12.536726721
 11
16.0858350551
 21
12.5373490981
  0
LINE
  5
281
100
AcDbEntity
  8
0
100
AcDbLine
 62
7
  6
CONTINUOUS
 10
16.032477622
 20
12.2785927561
 11
16.0302009398
 21
12.3286282853
  0
LINE
  5
282
100
AcDbEntity
  8
0
100
AcDbLine
 62
7
  6
CONTINUOUS
 10
16.0324837187
 20
12.2784311715
 11
16.032477622
 21
12.2785927561
  0
LWPOLYLINE
  5
283
100
AcDbEntity
  8
0
100
AcDbPolyline
 62
7
  6
CONTINUOUS
 90
6
 70
0
 10
16.0302002493
 20
12.3286452279
 10
16.0301222782
 20
12.3311151286
 10
16.0303897631
 20
12.3420739447
 10
16.0316616407
 20
12.3552405935
 10
16.0338447879
 20
12.3685633981
 10
16.0365201161
 20
12.3799041424
  0
LINE
  5
284
100
AcDbEntity
  8
0
100
AcDbLine
 62
7
  6
CONTINUOUS
 10
16.0315837755
 20
12.2735098099
 11
16.0313505062
 21
12.2697340934
  0
LINE
  5
285
100
AcDbEntity
  8
0
100
AcDbLine
 62
7
  6
CONTINUOUS
 10
15.9865367477
 20
12.1277375747
 11
15.9862983459
 21
12.1239444583
  0
LINE
  5
286
100
AcDbEntity
  8
0
100
AcDbLine
 62
7
  6
CONTINUOUS
 10
16.1075699094
 20
12.5194010295
 11
16.1073315076
 21
12.5156079131
  0
LINE
  5
287
100
AcDbEntity
  8
0
100
AcDbLine
 62
7
  6
CONTINUOUS
 10
15.9106221436
 20
11.8822971488
 11
15.911450557
 21
11.8867677167
  0
LINE
  5
288
100
AcDbEntity
  8
0
100
AcDbLine
 62
7
  6
CONTINUOUS
 10
16.0316553053
 20
12.2739606036
 11
16.0324837187
 21
12.2784311715
  0
LINE
  5
289
100
AcDbEntity
  8
0
100
AcDbLine
 62
7
  6
CONTINUOUS
 10
16.152688467
 20
12.6656240584
 11
16.1535168804
 21
12.6700946263
  0
LINE
  5
28A
100
AcDbEntity
  8
0
100
AcDbLine
 62
7
  6
CONTINUOUS
 10
15.673420631
 20
11.204913778
 11
15.6742891859
 21
11.2078768861
  0
LINE
  5
28B
100
AcDbEntity
  8
0
100
AcDbLine
 62
7
  6
CONTINUOUS
 10
15.7944537927
 20
11.5965772328
 11
15.7953223476
 21
11.5995403409
  0
LINE
  5
28C
100
AcDbEntity
  8
0
100
AcDbLine
 62
7
  6
CONTINUOUS
 10
15.9154869544
 20
11.9882406876
 11
15.9163555093
 21
11.9912037957
  0
LINE
  5
28D
100
AcDbEntity
  8
0
100
AcDbLine
 62
7
  6
CONTINUOUS
 10
16.0365201161
 20
12.3799041424
 11
16.037388671
 21
12.3828672505
  0
LINE
  5
28E
100
AcDbEntity
  8
0
100
AcDbLine
 62
7
  6
CONTINUOUS
 10
16.1575532778
 20
12.7715675973
 11
16.1584218328
 21
12.7745307053
  0
LINE
  5
28F
100
AcDbEntity
  8
0
100
AcDbLine
 62
7
  6
CONTINUOUS
 10
16.2785864395
 20
13.1632310521
 11
16.2794549945
 21
13.1661941601
  0
LINE
  5
290
100
AcDbEntity
  8
0
100
AcDbLine
 62
7
  6
CONTINUOUS
 10
16.3996196012
 20
13.5548945069
 11
16.4004881562
 21
13.557857615
  0
LINE
  5
291
100
AcDbEntity
  8
0
100
AcDbLine
 62
7
  6
CONTINUOUS
 10
16.5206527629
 20
13.9465579617
 11
16.5215213179
 21
13.9495210698
  0
LINE
  5
292
100
AcDbEntity
  8
0
100
AcDbLine
 62
7
  6
CONTINUOUS
 10
15.6682510211
 20
11.094743729
 11
15.6682179661
 21
11.0946340515
  0
LINE
  5
293
100
AcDbEntity
  8
0
100
AcDbLine
 62
7
  6
CONTINUOUS
 10
15.7892841828
 20
11.4864071838
 11
15.7892511278
 21
11.4862975063
  0
LINE
  5
294
100
AcDbEntity
  8
0
100
AcDbLine
 62
7
  6
CONTINUOUS
 10
15.9103173445
 20
11.8780706386
 11
15.9102842896
 21
11.8779609611
  0
LINE
  5
295
100
AcDbEntity
  8
0
100
AcDbLine
 62
7
  6
CONTINUOUS
 10
16.0313505062
 20
12.2697340934
 11
16.0313174513
 21
12.269624416
  0
LINE
  5
296
100
AcDbEntity
  8
0
100
AcDbLine
 62
7
  6
CONTINUOUS
 10
16.1523836679
 20
12.6613975482
 11
16.152350613
 21
12.6612878708
  0
LINE
  5
297
100
AcDbEntity
  8
0
100
AcDbLine
 62
7
  6
CONTINUOUS
 10
16.2734168296
 20
13.0530610031
 11
16.2733837747
 21
13.0529513256
  0
LINE
  5
298
100
AcDbEntity
  8
0
100
AcDbLine
 62
7
  6
CONTINUOUS
 10
16.3944499913
 20
13.4447244579
 11
16.3944169364
 21
13.4446147804
  0
LINE
  5
299
100
AcDbEntity
  8
0
100
AcDbLine
 62
7
  6
CONTINUOUS
 10
16.5154831531
 20
13.8363879127
 11
16.5154500981
 21
13.8362782352
  0
LINE
  5
29A
100
AcDbEntity
  8
0
100
AcDbLine
 62
7
  6
CONTINUOUS
 10
15.5769032854
 20
10.8927350465
 11
15.5983075711
 21
10.9619993404
  0
LINE
  5
29B
100
AcDbEntity
  8
0
100
AcDbLine
 62
7
  6
CONTINUOUS
 10
15.6742937057
 20
11.2078905622
 11
15.7193407328
 21
11.3536627952
  0
LINE
  5
29C
100
AcDbEntity
  8
0
100
AcDbLine
 62
7
  6
CONTINUOUS
 10
15.7953268674
 20
11.599554017
 11
15.8403738945
 21
11.74532625
  0
LINE
  5
29D
100
AcDbEntity
  8
0
100
AcDbLine
 62
7
  6
CONTINUOUS
 10
15.9163600292
 20
11.9912174718
 11
15.9614070562
 21
12.1369897048
  0
LINE
  5
29E
100
AcDbEntity
  8
0
100
AcDbLine
 62
7
  6
CONTINUOUS
 10
16.0373931909
 20
12.3828809267
 11
16.0824402179
 21
12.5286531596
  0
LINE
  5
29F
100
AcDbEntity
  8
0
100
AcDbLine
 62
7
  6
CONTINUOUS
 10
16.1584263526
 20
12.7745443815
 11
16.2034733796
 21
12.9203166144
  0
LINE
  5
2A0
100
AcDbEntity
  8
0
100
AcDbLine
 62
7
  6
CONTINUOUS
 10
16.2794595143
 20
13.1662078363
 11
16.3245065413
 21
13.3119800692
  0
LINE
  5
2A1
100
AcDbEntity
  8
0
100
AcDbLine
 62
7
  6
CONTINUOUS
 10
16.400492676
 20
13.5578712911
 11
16.445539703
 21
13.7036435241
  0
LINE
  5
2A2
100
AcDbEntity
  8
0
100
AcDbLine
 62
7
  6
CONTINUOUS
 10
16.5215258377
 20
13.9495347459
 11
16.5440493516
 21
14.0224208636
  0
LINE
  5
2A3
100
AcDbEntity
  8
0
100
AcDbLine
 62
7
  6
CONTINUOUS
 10
15.62317094
 20
10.9488618214
 11
15.6682179661
 21
11.0946340515
  0
LINE
  5
2A4
100
AcDbEntity
  8
0
100
AcDbLine
 62
7
  6
CONTINUOUS
 10
15.7442041017
 20
11.3405252762
 11
15.7892511278
 21
11.4862975063
  0
LINE
  5
2A5
100
AcDbEntity
  8
0
100
AcDbLine
 62
7
  6
CONTINUOUS
 10
15.8652372634
 20
11.732188731
 11
15.9102842896
 21
11.8779609611
  0
LINE
  5
2A6
100
AcDbEntity
  8
0
100
AcDbLine
 62
7
  6
CONTINUOUS
 10
15.9862704251
 20
12.1238521858
 11
16.0313174513
 21
12.269624416
  0
LINE
  5
2A7
100
AcDbEntity
  8
0
100
AcDbLine
 62
7
  6
CONTINUOUS
 10
16.1073035868
 20
12.5155156406
 11
16.152350613
 21
12.6612878708
  0
LINE
  5
2A8
100
AcDbEntity
  8
0
100
AcDbLine
 62
7
  6
CONTINUOUS
 10
16.2283367485
 20
12.9071790955
 11
16.2733837747
 21
13.0529513256
  0
LINE
  5
2A9
100
AcDbEntity
  8
0
100
AcDbLine
 62
7
  6
CONTINUOUS
 10
16.3493699102
 20
13.2988425503
 11
16.3944169364
 21
13.4446147804
  0
LINE
  5
2AA
100
AcDbEntity
  8
0
100
AcDbLine
 62
7
  6
CONTINUOUS
 10
16.4704030719
 20
13.6905060051
 11
16.5154500981
 21
13.8362782352
  0
LWPOLYLINE
  5
2AB
100
AcDbEntity
  8
0
100
AcDbPolyline
 62
7
  6
CONTINUOUS
 90
3
 70
0
 10
16.324507044
 20
13.3119824981
 10
16.3263473067
 20
13.3172895735
 10
16.3275635325
 20
13.3200536306
  0
LWPOLYLINE
  5
2AC
100
AcDbEntity
  8
0
100
AcDbPolyline
 62
7
  6
CONTINUOUS
 90
3
 70
0
 10
16.2034738823
 20
12.9203190433
 10
16.205314145
 20
12.9256261187
 10
16.2065303708
 20
12.9283901758
  0
LWPOLYLINE
  5
2AD
100
AcDbEntity
  8
0
100
AcDbPolyline
 62
7
  6
CONTINUOUS
 90
3
 70
0
 10
16.0824407206
 20
12.5286555885
 10
16.0842809833
 20
12.5339626639
 10
16.0854972091
 20
12.536726721
  0
LWPOLYLINE
  5
2AE
100
AcDbEntity
  8
0
100
AcDbPolyline
 62
7
  6
CONTINUOUS
 90
3
 70
0
 10
15.9614075589
 20
12.1369921337
 10
15.9632478216
 20
12.1422992091
 10
15.9644640474
 20
12.1450632661
  0
LWPOLYLINE
  5
2AF
100
AcDbEntity
  8
0
100
AcDbPolyline
 62
7
  6
CONTINUOUS
 90
3
 70
0
 10
15.8403743972
 20
11.7453286789
 10
15.8422146599
 20
11.7506357543
 10
15.8434308857
 20
11.7533998113
  0
LWPOLYLINE
  5
2B0
100
AcDbEntity
  8
0
100
AcDbPolyline
 62
7
  6
CONTINUOUS
 90
3
 70
0
 10
15.7193412355
 20
11.3536652241
 10
15.7211814982
 20
11.3589722995
 10
15.722397724
 20
11.3617363565
  0
LWPOLYLINE
  5
2B1
100
AcDbEntity
  8
0
100
AcDbPolyline
 62
7
  6
CONTINUOUS
 90
3
 70
0
 10
15.5983080738
 20
10.9620017693
 10
15.6001483365
 20
10.9673088446
 10
15.6013645623
 20
10.9700729017
  0
LINE
  5
2B2
100
AcDbEntity
  8
0
100
AcDbLine
 62
7
  6
CONTINUOUS
 10
15.9644640474
 20
12.1450632661
 11
15.9648018934
 21
12.1456856433
  0
LINE
  5
2B3
100
AcDbEntity
  8
0
100
AcDbLine
 62
7
  6
CONTINUOUS
 10
16.1535107837
 20
12.6702562109
 11
16.1512341015
 21
12.7202917401
  0
LINE
  5
2B4
100
AcDbEntity
  8
0
100
AcDbLine
 62
7
  6
CONTINUOUS
 10
16.1535168804
 20
12.6700946263
 11
16.1535107837
 21
12.6702562109
  0
LWPOLYLINE
  5
2B5
100
AcDbEntity
  8
0
100
AcDbPolyline
 62
7
  6
CONTINUOUS
 90
6
 70
0
 10
16.151233411
 20
12.7203086827
 10
16.1511554399
 20
12.7227785835
 10
16.1514229248
 20
12.7337373995
 10
16.1526948024
 20
12.7469040483
 10
16.1548779496
 20
12.7602268529
 10
16.1575532778
 20
12.7715675973
  0
LINE
  5
2B6
100
AcDbEntity
  8
0
100
AcDbLine
 62
7
  6
CONTINUOUS
 10
16.1526169372
 20
12.6651732647
 11
16.1523836679
 21
12.6613975482
  0
LINE
  5
2B7
100
AcDbEntity
  8
0
100
AcDbLine
 62
7
  6
CONTINUOUS
 10
16.2736500989
 20
13.0568367195
 11
16.2734168296
 21
13.0530610031
  0
LINE
  5
2B8
100
AcDbEntity
  8
0
100
AcDbLine
 62
7
  6
CONTINUOUS
 10
16.2286030711
 20
12.9110644843
 11
16.2283646693
 21
12.9072713679
  0
LINE
  5
2B9
100
AcDbEntity
  8
0
100
AcDbLine
 62
7
  6
CONTINUOUS
 10
16.2737216287
 20
13.0572875132
 11
16.2745500421
 21
13.0617580811
  0
LINE
  5
2BA
100
AcDbEntity
  8
0
100
AcDbLine
 62
7
  6
CONTINUOUS
 10
16.3947547904
 20
13.448950968
 11
16.3955832038
 21
13.453421536
  0
LINE
  5
2BB
100
AcDbEntity
  8
0
100
AcDbLine
 62
7
  6
CONTINUOUS
 10
16.5157879521
 20
13.8406144228
 11
16.5166163655
 21
13.8450849908
  0
LINE
  5
2BC
100
AcDbEntity
  8
0
100
AcDbLine
 62
7
  6
CONTINUOUS
 10
15.8434308857
 20
11.7533998113
 11
15.8437687317
 21
11.7540221885
  0
LINE
  5
2BD
100
AcDbEntity
  8
0
100
AcDbLine
 62
7
  6
CONTINUOUS
 10
15.722397724
 20
11.3617363565
 11
15.72273557
 21
11.3623587337
  0
LINE
  5
2BE
100
AcDbEntity
  8
0
100
AcDbLine
 62
7
  6
CONTINUOUS
 10
16.3149533936
 20
13.281066072
 11
16.3250520196
 21
13.281066072
  0
LINE
  5
2BF
100
AcDbEntity
  8
0
100
AcDbLine
 62
7
  6
CONTINUOUS
 10
16.2745439454
 20
13.0619196657
 11
16.2722672632
 21
13.1119551949
  0
LINE
  5
2C0
100
AcDbEntity
  8
0
100
AcDbLine
 62
7
  6
CONTINUOUS
 10
16.2745500421
 20
13.0617580811
 11
16.2745439454
 21
13.0619196657
  0
LWPOLYLINE
  5
2C1
100
AcDbEntity
  8
0
100
AcDbPolyline
 62
7
  6
CONTINUOUS
 90
6
 70
0
 10
16.2722665727
 20
13.1119721375
 10
16.2721886016
 20
13.1144420383
 10
16.2724560865
 20
13.1254008543
 10
16.2737279641
 20
13.1385675031
 10
16.2759111113
 20
13.1518903077
 10
16.2785864395
 20
13.1632310521
  0
LINE
  5
2C2
100
AcDbEntity
  8
0
100
AcDbLine
 62
7
  6
CONTINUOUS
 10
16.3946832606
 20
13.4485001743
 11
16.3944499913
 21
13.4447244579
  0
LINE
  5
2C3
100
AcDbEntity
  8
0
100
AcDbLine
 62
7
  6
CONTINUOUS
 10
16.3496362328
 20
13.3027279391
 11
16.3493978311
 21
13.2989348227
  0
LINE
  5
2C4
100
AcDbEntity
  8
0
100
AcDbLine
 62
7
  6
CONTINUOUS
 10
16.4706693945
 20
13.6943913939
 11
16.4704309928
 21
13.6905982775
  0
LINE
  5
2C5
100
AcDbEntity
  8
0
100
AcDbLine
 62
7
  6
CONTINUOUS
 10
15.6013645623
 20
10.9700729017
 11
15.6017024083
 21
10.9706952789
  0
LINE
  5
2C6
100
AcDbEntity
  8
0
100
AcDbLine
 62
7
  6
CONTINUOUS
 10
16.3955771071
 20
13.4535831205
 11
16.3933004249
 21
13.5036186497
  0
LINE
  5
2C7
100
AcDbEntity
  8
0
100
AcDbLine
 62
7
  6
CONTINUOUS
 10
16.3955832038
 20
13.453421536
 11
16.3955771071
 21
13.4535831205
  0
LWPOLYLINE
  5
2C8
100
AcDbEntity
  8
0
100
AcDbPolyline
 62
7
  6
CONTINUOUS
 90
6
 70
0
 10
16.3932997344
 20
13.5036355924
 10
16.3932217634
 20
13.5061054931
 10
16.3934892482
 20
13.5170643091
 10
16.3947611258
 20
13.5302309579
 10
16.396944273
 20
13.5435537626
 10
16.3996196012
 20
13.5548945069
  0
LINE
  5
2C9
100
AcDbEntity
  8
0
100
AcDbLine
 62
7
  6
CONTINUOUS
 10
16.5157164223
 20
13.8401636292
 11
16.5154831531
 21
13.8363879127
  0
LINE
  5
2CA
100
AcDbEntity
  8
0
100
AcDbLine
 62
7
  6
CONTINUOUS
 10
16.5443156742
 20
14.0263062525
 11
16.5440479095
 21
14.0224213077
  0
LINE
  5
2CB
100
AcDbEntity
  8
0
100
AcDbLine
 62
7
  6
CONTINUOUS
 10
16.5166102689
 20
13.8452465754
 11
16.5143335866
 21
13.8952821045
  0
LINE
  5
2CC
100
AcDbEntity
  8
0
100
AcDbLine
 62
7
  6
CONTINUOUS
 10
16.5166163655
 20
13.8450849908
 11
16.5166102689
 21
13.8452465754
  0
LWPOLYLINE
  5
2CD
100
AcDbEntity
  8
0
100
AcDbPolyline
 62
7
  6
CONTINUOUS
 90
6
 70
0
 10
16.5143328961
 20
13.8952990472
 10
16.5142549251
 20
13.8977689479
 10
16.5145224099
 20
13.9087277639
 10
16.5157942875
 20
13.9218944128
 10
16.5179774347
 20
13.9352172174
 10
16.5206527629
 20
13.9465579617
  0
LINE
  5
2CE
100
AcDbEntity
  8
0
100
AcDbLine
 62
7
  6
CONTINUOUS
 10
16.4359865553
 20
13.6727295269
 11
16.4460851813
 21
13.6727295269
  0
LINE
  5
2CF
100
AcDbEntity
  8
0
100
AcDbLine
 62
7
  6
CONTINUOUS
 10
16.5443156742
 20
14.0263062525
 11
16.5353894957
 21
14.0863572347
  0
LINE
  5
2D0
100
AcDbEntity
  8
0
100
AcDbLine
 62
7
  6
CONTINUOUS
 10
16.488077766
 20
14.1406558256
 11
15.3828045732
 21
14.1406558256
  0
LINE
  5
2D1
100
AcDbEntity
  8
0
100
AcDbLine
 62
7
  6
CONTINUOUS
 10
16.5308882201
 20
14.1003404165
 11
16.5187303375
 21
14.1251155764
  0
ARC
  5
2D2
100
AcDbEntity
  8
0
100
AcDbCircle
 62
7
  6
CONTINUOUS
 10
5.5545926734
 20
5.4942865634
 40
0.025
100
AcDbArc
 50
193.0
 51
270.0
  0
ARC
  5
2D3
100
AcDbEntity
  8
0
100
AcDbCircle
 62
7
  6
CONTINUOUS
 10
5.5780642728
 20
5.3926198968
 40
0.025
100
AcDbArc
 50
193.0
 51
270.0
  0
ARC
  5
2D4
100
AcDbEntity
  8
0
100
AcDbCircle
 62
7
  6
CONTINUOUS
 10
5.6053672762
 20
5.6077634576
 40
0.1
100
AcDbArc
 50
180.0
 51
193.0
  0
ARC
  5
2D5
100
AcDbEntity
  8
0
100
AcDbCircle
 62
7
  6
CONTINUOUS
 10
5.5303672762
 20
5.6476198968
 40
0.025
100
AcDbArc
 50
90.0
 51
180.0
  0
ARC
  5
2D6
100
AcDbEntity
  8
0
100
AcDbCircle
 62
7
  6
CONTINUOUS
 10
6.706141879
 20
5.4942865634
 40
0.025
100
AcDbArc
 50
270.0
 51
347.0
  0
ARC
  5
2D7
100
AcDbEntity
  8
0
100
AcDbCircle
 62
7
  6
CONTINUOUS
 10
6.6826702795
 20
5.3926198968
 40
0.025
100
AcDbArc
 50
270.0
 51
347.0
  0
ARC
  5
2D8
100
AcDbEntity
  8
0
100
AcDbCircle
 62
7
  6
CONTINUOUS
 10
6.6553672762
 20
5.6077634576
 40
0.1
100
AcDbArc
 50
347.0
 51
360.0
  0
ARC
  5
2D9
100
AcDbEntity
  8
0
100
AcDbCircle
 62
7
  6
CONTINUOUS
 10
6.7303672762
 20
5.6476198968
 40
0.025
100
AcDbArc
 50
0.0
 51
90.0
  0
ARC
  5
2DA
100
AcDbEntity
  8
0
100
AcDbCircle
 62
7
  6
CONTINUOUS
 10
13.7173083862
 20
5.3335413711
 40
0.0254166667
100
AcDbArc
 50
193.0
 51
270.0
  0
ARC
  5
2DB
100
AcDbEntity
  8
0
100
AcDbCircle
 62
7
  6
CONTINUOUS
 10
13.9034021277
 20
5.3335413711
 40
0.0254166667
100
AcDbArc
 50
270.0
 51
347.0
  0
ARC
  5
2DC
100
AcDbEntity
  8
0
100
AcDbCircle
 62
7
  6
CONTINUOUS
 10
14.2173083862
 20
5.3335413711
 40
0.0254166667
100
AcDbArc
 50
193.0
 51
270.0
  0
ARC
  5
2DD
100
AcDbEntity
  8
0
100
AcDbCircle
 62
7
  6
CONTINUOUS
 10
14.4034021277
 20
5.3335413711
 40
0.0254166667
100
AcDbArc
 50
270.0
 51
347.0
  0
ARC
  5
2DE
100
AcDbEntity
  8
0
100
AcDbCircle
 62
7
  6
CONTINUOUS
 10
14.7173083862
 20
5.3335413711
 40
0.0254166667
100
AcDbArc
 50
193.0
 51
270.0
  0
ARC
  5
2DF
100
AcDbEntity
  8
0
100
AcDbCircle
 62
7
  6
CONTINUOUS
 10
14.9034021277
 20
5.3335413711
 40
0.0254166667
100
AcDbArc
 50
270.0
 51
347.0
  0
ARC
  5
2E0
100
AcDbEntity
  8
0
100
AcDbCircle
 62
7
  6
CONTINUOUS
 10
15.4034021277
 20
5.3335413711
 40
0.0254166667
100
AcDbArc
 50
270.0
 51
347.0
  0
ARC
  5
2E1
100
AcDbEntity
  8
0
100
AcDbCircle
 62
7
  6
CONTINUOUS
 10
15.2173083862
 20
5.3335413711
 40
0.0254166667
100
AcDbArc
 50
193.0
 51
270.0
  0
ARC
  5
2E2
100
AcDbEntity
  8
0
100
AcDbCircle
 62
7
  6
CONTINUOUS
 10
13.6534021277
 20
5.3843747044
 40
0.0254166667
100
AcDbArc
 50
13.0
 51
90.0
  0
ARC
  5
2E3
100
AcDbEntity
  8
0
100
AcDbCircle
 62
7
  6
CONTINUOUS
 10
13.9673083862
 20
5.3843747044
 40
0.0254166667
100
AcDbArc
 50
90.0
 51
167.0
  0
ARC
  5
2E4
100
AcDbEntity
  8
0
100
AcDbCircle
 62
7
  6
CONTINUOUS
 10
14.1534021277
 20
5.3843747044
 40
0.0254166667
100
AcDbArc
 50
13.0
 51
90.0
  0
ARC
  5
2E5
100
AcDbEntity
  8
0
100
AcDbCircle
 62
7
  6
CONTINUOUS
 10
14.4673083862
 20
5.3843747044
 40
0.0254166667
100
AcDbArc
 50
90.0
 51
167.0
  0
ARC
  5
2E6
100
AcDbEntity
  8
0
100
AcDbCircle
 62
7
  6
CONTINUOUS
 10
14.6534021277
 20
5.3843747044
 40
0.0254166667
100
AcDbArc
 50
13.0
 51
90.0
  0
ARC
  5
2E7
100
AcDbEntity
  8
0
100
AcDbCircle
 62
7
  6
CONTINUOUS
 10
14.9673083862
 20
5.3843747044
 40
0.0254166667
100
AcDbArc
 50
90.0
 51
167.0
  0
ARC
  5
2E8
100
AcDbEntity
  8
0
100
AcDbCircle
 62
7
  6
CONTINUOUS
 10
15.4673083862
 20
5.3843747044
 40
0.0254166667
100
AcDbArc
 50
90.0
 51
167.0
  0
ARC
  5
2E9
100
AcDbEntity
  8
0
100
AcDbCircle
 62
7
  6
CONTINUOUS
 10
15.1534021277
 20
5.3843747044
 40
0.0254166667
100
AcDbArc
 50
13.0
 51
90.0
  0
ARC
  5
2EA
100
AcDbEntity
  8
0
100
AcDbCircle
 62
7
  6
CONTINUOUS
 10
17.4034021277
 20
5.3335413711
 40
0.0254166667
100
AcDbArc
 50
270.0
 51
347.0
  0
ARC
  5
2EB
100
AcDbEntity
  8
0
100
AcDbCircle
 62
7
  6
CONTINUOUS
 10
17.2173083862
 20
5.3335413711
 40
0.0254166667
100
AcDbArc
 50
193.0
 51
270.0
  0
ARC
  5
2EC
100
AcDbEntity
  8
0
100
AcDbCircle
 62
7
  6
CONTINUOUS
 10
16.9034021277
 20
5.3335413711
 40
0.0254166667
100
AcDbArc
 50
270.0
 51
347.0
  0
ARC
  5
2ED
100
AcDbEntity
  8
0
100
AcDbCircle
 62
7
  6
CONTINUOUS
 10
16.7173083862
 20
5.3335413711
 40
0.0254166667
100
AcDbArc
 50
193.0
 51
270.0
  0
ARC
  5
2EE
100
AcDbEntity
  8
0
100
AcDbCircle
 62
7
  6
CONTINUOUS
 10
16.4034021277
 20
5.3335413711
 40
0.0254166667
100
AcDbArc
 50
270.0
 51
347.0
  0
ARC
  5
2EF
100
AcDbEntity
  8
0
100
AcDbCircle
 62
7
  6
CONTINUOUS
 10
16.2173083862
 20
5.3335413711
 40
0.0254166667
100
AcDbArc
 50
193.0
 51
270.0
  0
ARC
  5
2F0
100
AcDbEntity
  8
0
100
AcDbCircle
 62
7
  6
CONTINUOUS
 10
15.9034021277
 20
5.3335413711
 40
0.0254166667
100
AcDbArc
 50
270.0
 51
347.0
  0
ARC
  5
2F1
100
AcDbEntity
  8
0
100
AcDbCircle
 62
7
  6
CONTINUOUS
 10
15.7173083862
 20
5.3335413711
 40
0.0254166667
100
AcDbArc
 50
193.0
 51
270.0
  0
ARC
  5
2F2
100
AcDbEntity
  8
0
100
AcDbCircle
 62
7
  6
CONTINUOUS
 10
17.4673083862
 20
5.3843747044
 40
0.0254166667
100
AcDbArc
 50
90.0
 51
167.0
  0
ARC
  5
2F3
100
AcDbEntity
  8
0
100
AcDbCircle
 62
7
  6
CONTINUOUS
 10
17.1534021277
 20
5.3843747044
 40
0.0254166667
100
AcDbArc
 50
13.0
 51
90.0
  0
ARC
  5
2F4
100
AcDbEntity
  8
0
100
AcDbCircle
 62
7
  6
CONTINUOUS
 10
16.9673083862
 20
5.3843747044
 40
0.0254166667
100
AcDbArc
 50
90.0
 51
167.0
  0
ARC
  5
2F5
100
AcDbEntity
  8
0
100
AcDbCircle
 62
7
  6
CONTINUOUS
 10
16.6534021277
 20
5.3843747044
 40
0.0254166667
100
AcDbArc
 50
13.0
 51
90.0
  0
ARC
  5
2F6
100
AcDbEntity
  8
0
100
AcDbCircle
 62
7
  6
CONTINUOUS
 10
16.4673083862
 20
5.3843747044
 40
0.0254166667
100
AcDbArc
 50
90.0
 51
167.0
  0
ARC
  5
2F7
100
AcDbEntity
  8
0
100
AcDbCircle
 62
7
  6
CONTINUOUS
 10
16.1534021277
 20
5.3843747044
 40
0.0254166667
100
AcDbArc
 50
13.0
 51
90.0
  0
ARC
  5
2F8
100
AcDbEntity
  8
0
100
AcDbCircle
 62
7
  6
CONTINUOUS
 10
15.9673083862
 20
5.3843747044
 40
0.0254166667
100
AcDbArc
 50
90.0
 51
167.0
  0
ARC
  5
2F9
100
AcDbEntity
  8
0
100
AcDbCircle
 62
7
  6
CONTINUOUS
 10
15.6534021277
 20
5.3843747044
 40
0.0254166667
100
AcDbArc
 50
13.0
 51
90.0
  0
ARC
  5
2FA
100
AcDbEntity
  8
0
100
AcDbCircle
 62
7
  6
CONTINUOUS
 10
16.491116385
 20
13.8439217477
 40
0.0254328145
100
AcDbArc
 50
342.9135257135
 51
2.5962977031
  0
ARC
  5
2FB
100
AcDbEntity
  8
0
100
AcDbCircle
 62
7
  6
CONTINUOUS
 10
16.3700832233
 20
13.4522582928
 40
0.0254328145
100
AcDbArc
 50
342.9135257135
 51
2.5962977034
  0
ARC
  5
2FC
100
AcDbEntity
  8
0
100
AcDbCircle
 62
7
  6
CONTINUOUS
 10
16.2490500616
 20
13.060594838
 40
0.0254328145
100
AcDbArc
 50
342.9135257135
 51
2.5962977032
  0
ARC
  5
2FD
100
AcDbEntity
  8
0
100
AcDbCircle
 62
7
  6
CONTINUOUS
 10
16.1280168999
 20
12.6689313832
 40
0.0254328145
100
AcDbArc
 50
342.9135257134
 51
2.5962977033
  0
ARC
  5
2FE
100
AcDbEntity
  8
0
100
AcDbCircle
 62
7
  6
CONTINUOUS
 10
16.0069837382
 20
12.2772679284
 40
0.0254328145
100
AcDbArc
 50
342.9135257136
 51
2.5962977034
  0
ARC
  5
2FF
100
AcDbEntity
  8
0
100
AcDbCircle
 62
7
  6
CONTINUOUS
 10
15.8859505765
 20
11.8856044736
 40
0.0254328145
100
AcDbArc
 50
342.9135257135
 51
2.5962977034
  0
ARC
  5
300
100
AcDbEntity
  8
0
100
AcDbCircle
 62
7
  6
CONTINUOUS
 10
15.7649174148
 20
11.4939410188
 40
0.0254328145
100
AcDbArc
 50
342.9135257135
 51
2.5962977034
  0
ARC
  5
301
100
AcDbEntity
  8
0
100
AcDbCircle
 62
7
  6
CONTINUOUS
 10
15.6438842531
 20
11.102277564
 40
0.0254328145
100
AcDbArc
 50
342.9135257135
 51
2.5962977034
  0
ARC
  5
302
100
AcDbEntity
  8
0
100
AcDbCircle
 62
7
  6
CONTINUOUS
 10
16.4460865076
 20
13.698121016
 40
0.0253916082
100
AcDbArc
 50
269.9893242989
 51
342.826912287
  0
ARC
  5
303
100
AcDbEntity
  8
0
100
AcDbCircle
 62
7
  6
CONTINUOUS
 10
16.3250533459
 20
13.3064575612
 40
0.0253916082
100
AcDbArc
 50
269.9893242989
 51
342.8269122826
  0
ARC
  5
304
100
AcDbEntity
  8
0
100
AcDbCircle
 62
7
  6
CONTINUOUS
 10
16.2040201842
 20
12.9147941064
 40
0.0253916082
100
AcDbArc
 50
269.9893242989
 51
342.8269122958
  0
ARC
  5
305
100
AcDbEntity
  8
0
100
AcDbCircle
 62
7
  6
CONTINUOUS
 10
16.0829870225
 20
12.5231306516
 40
0.0253916082
100
AcDbArc
 50
269.9893242988
 51
342.8269123121
  0
ARC
  5
306
100
AcDbEntity
  8
0
100
AcDbCircle
 62
7
  6
CONTINUOUS
 10
15.9619538608
 20
12.1314671968
 40
0.0253916082
100
AcDbArc
 50
269.9893242987
 51
342.8269122993
  0
ARC
  5
307
100
AcDbEntity
  8
0
100
AcDbCircle
 62
7
  6
CONTINUOUS
 10
15.8409206991
 20
11.739803742
 40
0.0253916082
100
AcDbArc
 50
269.9893242989
 51
342.8269122873
  0
ARC
  5
308
100
AcDbEntity
  8
0
100
AcDbCircle
 62
7
  6
CONTINUOUS
 10
15.7198875374
 20
11.3481402871
 40
0.0253916082
100
AcDbArc
 50
269.9893242989
 51
342.8269122867
  0
ARC
  5
309
100
AcDbEntity
  8
0
100
AcDbCircle
 62
7
  6
CONTINUOUS
 10
15.5988543757
 20
10.9564768323
 40
0.0253916082
100
AcDbArc
 50
269.9893242989
 51
342.8269122933
  0
SPLINE
  5
30A
100
AcDbEntity
  8
0
100
AcDbSpline
 62
7
  6
CONTINUOUS
 70
0
 71
3
 72
19
 73
15
 74
0
 42
0.0000001
 43
0.0000001
 44
0.0000000001
 40
0.0
 40
0.0
 40
0.0
 40
0.0
 40
0.0210851978
 40
0.0455430153
 40
0.07547894
 40
0.1119608782
 40
0.1553588747
 40
0.2056960209
 40
0.2628332317
 40
0.3264342439
 40
0.4710853329
 40
0.6352968326
 40
0.8137727574
 40
1.0
 40
1.0
 40
1.0
 40
1.0
 10
6.7070845383
 20
5.3872343825
 30
0.0
 10
6.7070447119
 20
5.3870618755
 30
0.0
 10
6.7068687124
 20
5.3867076268
 30
0.0
 10
6.7063909191
 20
5.3862772986
 30
0.0
 10
6.7057136765
 20
5.3859155691
 30
0.0
 10
6.7048377797
 20
5.3856187323
 30
0.0
 10
6.7037679858
 20
5.3853853262
 30
0.0
 10
6.7025112293
 20
5.3852175827
 30
0.0
 10
6.7010774508
 20
5.3851182818
 30
0.0
 10
6.6988487518
 20
5.3850763391
 30
0.0
 10
6.6957214186
 20
5.3852136122
 30
0.0
 10
6.6916491644
 20
5.3856320362
 30
0.0
 10
6.6872575974
 20
5.3863041159
 30
0.0
 10
6.6842525799
 20
5.3868990124
 30
0.0
 10
6.6827252701
 20
5.3872343105
 30
0.0
  0
SPLINE
  5
30B
100
AcDbEntity
  8
0
100
AcDbSpline
 62
7
  6
CONTINUOUS
 70
0
 71
3
 72
19
 73
15
 74
0
 42
0.0000001
 43
0.0000001
 44
0.0000000001
 40
0.0
 40
0.0
 40
0.0
 40
0.0
 40
0.0211011274
 40
0.0455665286
 40
0.0755001269
 40
0.1119722589
 40
0.1553608879
 40
0.2056939752
 40
0.2628342442
 40
0.3264421858
 40
0.4710982061
 40
0.6353013962
 40
0.8137729735
 40
1.0
 40
1.0
 40
1.0
 40
1.0
 10
5.5536500199
 20
5.3872343569
 30
0.0
 10
5.5536898766
 20
5.3870617188
 30
0.0
 10
5.5538658746
 20
5.3867072542
 30
0.0
 10
5.5543437038
 20
5.3862766705
 30
0.0
 10
5.5550209711
 20
5.3859150112
 30
0.0
 10
5.5558968677
 20
5.3856186922
 30
0.0
 10
5.5569665978
 20
5.3853859183
 30
0.0
 10
5.558223305
 20
5.3852185242
 30
0.0
 10
5.5596571003
 20
5.3851188359
 30
0.0
 10
5.5618859077
 20
5.385075654
 30
0.0
 10
5.5650133866
 20
5.3852119501
 30
0.0
 10
5.5690853808
 20
5.3856326842
 30
0.0
 10
5.5734766941
 20
5.38630553
 30
0.0
 10
5.5764818447
 20
5.386899567
 30
0.0
 10
5.5780092716
 20
5.3872343569
 30
0.0
  0
SPLINE
  5
30C
100
AcDbEntity
  8
0
100
AcDbSpline
 62
7
  6
CONTINUOUS
 70
0
 71
3
 72
19
 73
15
 74
0
 42
0.0000001
 43
0.0000001
 44
0.0000000001
 40
0.0
 40
0.0
 40
0.0
 40
0.0
 40
0.1862242355
 40
0.3646887632
 40
0.5288853665
 40
0.6735504587
 40
0.7371664121
 40
0.7943085693
 40
0.8446333378
 40
0.8880068701
 40
0.9244646594
 40
0.9543951945
 40
0.9788726189
 40
1.0
 40
1.0
 40
1.0
 40
1.0
 10
15.7169219474
 20
5.3277391902
 30
0.0
 10
15.7153944632
 20
5.3274047013
 30
0.0
 10
15.7123892626
 20
5.326811225
 30
0.0
 10
15.7079981732
 20
5.3261377838
 30
0.0
 10
15.7039263207
 20
5.3257153961
 30
0.0
 10
15.7007986211
 20
5.3255803548
 30
0.0
 10
15.698569662
 20
5.3256246946
 30
0.0
 10
15.6971358683
 20
5.3257245753
 30
0.0
 10
15.695879263
 20
5.3258913411
 30
0.0
 10
15.6948096577
 20
5.3261232145
 30
0.0
 10
15.6939337909
 20
5.3264188412
 30
0.0
 10
15.6932564912
 20
5.3267804302
 30
0.0
 10
15.6927786044
 20
5.3272114423
 30
0.0
 10
15.692602619
 20
5.3275662636
 30
0.0
 10
15.6925627124
 20
5.3277391182
 30
0.0
  0
SPLINE
  5
30D
100
AcDbEntity
  8
0
100
AcDbSpline
 62
7
  6
CONTINUOUS
 70
0
 71
3
 72
19
 73
15
 74
0
 42
0.0000001
 43
0.0000001
 44
0.0000000001
 40
0.0
 40
0.0
 40
0.0
 40
0.0
 40
0.1862270265
 40
0.3646986038
 40
0.5289017939
 40
0.6735578142
 40
0.7371657558
 40
0.7943060248
 40
0.8446391121
 40
0.8880277411
 40
0.9244998731
 40
0.9544334714
 40
0.9788988726
 40
1.0
 40
1.0
 40
1.0
 40
1.0
 10
15.9037885605
 20
5.3277391646
 30
0.0
 10
15.9053159874
 20
5.3274043747
 30
0.0
 10
15.908321138
 20
5.3268103377
 30
0.0
 10
15.9127124513
 20
5.3261374919
 30
0.0
 10
15.9167844455
 20
5.3257167578
 30
0.0
 10
15.9199119244
 20
5.3255804617
 30
0.0
 10
15.9221407318
 20
5.3256236436
 30
0.0
 10
15.9235745271
 20
5.3257233319
 30
0.0
 10
15.9248312343
 20
5.325890726
 30
0.0
 10
15.9259009644
 20
5.3261234999
 30
0.0
 10
15.926776861
 20
5.3264198189
 30
0.0
 10
15.9274541283
 20
5.3267814782
 30
0.0
 10
15.9279319575
 20
5.3272120618
 30
0.0
 10
15.9281079555
 20
5.3275665265
 30
0.0
 10
15.9281478122
 20
5.3277391646
 30
0.0
  0
SPLINE
  5
30E
100
AcDbEntity
  8
0
100
AcDbSpline
 62
7
  6
CONTINUOUS
 70
0
 71
3
 72
19
 73
15
 74
0
 42
0.0000001
 43
0.0000001
 44
0.0000000001
 40
0.0
 40
0.0
 40
0.0
 40
0.0
 40
0.1862242355
 40
0.3646887632
 40
0.5288853665
 40
0.6735504587
 40
0.7371664121
 40
0.7943085693
 40
0.8446333378
 40
0.8880068701
 40
0.9244646594
 40
0.9543951945
 40
0.9788726189
 40
1.0
 40
1.0
 40
1.0
 40
1.0
 10
16.2169219474
 20
5.3277391902
 30
0.0
 10
16.2153944632
 20
5.3274047013
 30
0.0
 10
16.2123892626
 20
5.326811225
 30
0.0
 10
16.2079981732
 20
5.3261377838
 30
0.0
 10
16.2039263207
 20
5.3257153961
 30
0.0
 10
16.2007986211
 20
5.3255803548
 30
0.0
 10
16.198569662
 20
5.3256246946
 30
0.0
 10
16.1971358683
 20
5.3257245753
 30
0.0
 10
16.195879263
 20
5.3258913411
 30
0.0
 10
16.1948096577
 20
5.3261232145
 30
0.0
 10
16.1939337909
 20
5.3264188412
 30
0.0
 10
16.1932564912
 20
5.3267804302
 30
0.0
 10
16.1927786044
 20
5.3272114423
 30
0.0
 10
16.192602619
 20
5.3275662636
 30
0.0
 10
16.1925627124
 20
5.3277391182
 30
0.0
  0
SPLINE
  5
30F
100
AcDbEntity
  8
0
100
AcDbSpline
 62
7
  6
CONTINUOUS
 70
0
 71
3
 72
19
 73
15
 74
0
 42
0.0000001
 43
0.0000001
 44
0.0000000001
 40
0.0
 40
0.0
 40
0.0
 40
0.0
 40
0.1862270265
 40
0.3646986038
 40
0.5289017939
 40
0.6735578142
 40
0.7371657558
 40
0.7943060248
 40
0.8446391121
 40
0.8880277411
 40
0.9244998731
 40
0.9544334714
 40
0.9788988726
 40
1.0
 40
1.0
 40
1.0
 40
1.0
 10
16.4037885605
 20
5.3277391646
 30
0.0
 10
16.4053159874
 20
5.3274043747
 30
0.0
 10
16.408321138
 20
5.3268103377
 30
0.0
 10
16.4127124513
 20
5.3261374919
 30
0.0
 10
16.4167844455
 20
5.3257167578
 30
0.0
 10
16.4199119244
 20
5.3255804617
 30
0.0
 10
16.4221407318
 20
5.3256236436
 30
0.0
 10
16.4235745271
 20
5.3257233319
 30
0.0
 10
16.4248312343
 20
5.325890726
 30
0.0
 10
16.4259009644
 20
5.3261234999
 30
0.0
 10
16.426776861
 20
5.3264198189
 30
0.0
 10
16.4274541283
 20
5.3267814782
 30
0.0
 10
16.4279319575
 20
5.3272120618
 30
0.0
 10
16.4281079555
 20
5.3275665265
 30
0.0
 10
16.4281478122
 20
5.3277391646
 30
0.0
  0
SPLINE
  5
310
100
AcDbEntity
  8
0
100
AcDbSpline
 62
7
  6
CONTINUOUS
 70
0
 71
3
 72
19
 73
15
 74
0
 42
0.0000001
 43
0.0000001
 44
0.0000000001
 40
0.0
 40
0.0
 40
0.0
 40
0.0
 40
0.1862242355
 40
0.3646887632
 40
0.5288853665
 40
0.6735504587
 40
0.7371664121
 40
0.7943085693
 40
0.8446333378
 40
0.8880068701
 40
0.9244646594
 40
0.9543951945
 40
0.9788726189
 40
1.0
 40
1.0
 40
1.0
 40
1.0
 10
16.7169219474
 20
5.3277391902
 30
0.0
 10
16.7153944632
 20
5.3274047013
 30
0.0
 10
16.7123892626
 20
5.326811225
 30
0.0
 10
16.7079981732
 20
5.3261377838
 30
0.0
 10
16.7039263207
 20
5.3257153961
 30
0.0
 10
16.7007986211
 20
5.3255803548
 30
0.0
 10
16.698569662
 20
5.3256246946
 30
0.0
 10
16.6971358683
 20
5.3257245753
 30
0.0
 10
16.695879263
 20
5.3258913411
 30
0.0
 10
16.6948096577
 20
5.3261232145
 30
0.0
 10
16.6939337909
 20
5.3264188412
 30
0.0
 10
16.6932564912
 20
5.3267804302
 30
0.0
 10
16.6927786044
 20
5.3272114423
 30
0.0
 10
16.692602619
 20
5.3275662636
 30
0.0
 10
16.6925627124
 20
5.3277391182
 30
0.0
  0
SPLINE
  5
311
100
AcDbEntity
  8
0
100
AcDbSpline
 62
7
  6
CONTINUOUS
 70
0
 71
3
 72
19
 73
15
 74
0
 42
0.0000001
 43
0.0000001
 44
0.0000000001
 40
0.0
 40
0.0
 40
0.0
 40
0.0
 40
0.1862270265
 40
0.3646986038
 40
0.5289017939
 40
0.6735578142
 40
0.7371657558
 40
0.7943060248
 40
0.8446391121
 40
0.8880277411
 40
0.9244998731
 40
0.9544334714
 40
0.9788988726
 40
1.0
 40
1.0
 40
1.0
 40
1.0
 10
16.9037885605
 20
5.3277391646
 30
0.0
 10
16.9053159874
 20
5.3274043747
 30
0.0
 10
16.908321138
 20
5.3268103377
 30
0.0
 10
16.9127124513
 20
5.3261374919
 30
0.0
 10
16.9167844455
 20
5.3257167578
 30
0.0
 10
16.9199119244
 20
5.3255804617
 30
0.0
 10
16.9221407318
 20
5.3256236436
 30
0.0
 10
16.9235745271
 20
5.3257233319
 30
0.0
 10
16.9248312343
 20
5.325890726
 30
0.0
 10
16.9259009644
 20
5.3261234999
 30
0.0
 10
16.926776861
 20
5.3264198189
 30
0.0
 10
16.9274541283
 20
5.3267814782
 30
0.0
 10
16.9279319575
 20
5.3272120618
 30
0.0
 10
16.9281079555
 20
5.3275665265
 30
0.0
 10
16.9281478122
 20
5.3277391646
 30
0.0
  0
SPLINE
  5
312
100
AcDbEntity
  8
0
100
AcDbSpline
 62
7
  6
CONTINUOUS
 70
0
 71
3
 72
19
 73
15
 74
0
 42
0.0000001
 43
0.0000001
 44
0.0000000001
 40
0.0
 40
0.0
 40
0.0
 40
0.0
 40
0.1862242355
 40
0.3646887632
 40
0.5288853665
 40
0.6735504587
 40
0.7371664121
 40
0.7943085693
 40
0.8446333378
 40
0.8880068701
 40
0.9244646594
 40
0.9543951945
 40
0.9788726189
 40
1.0
 40
1.0
 40
1.0
 40
1.0
 10
17.2169219474
 20
5.3277391902
 30
0.0
 10
17.2153944632
 20
5.3274047013
 30
0.0
 10
17.2123892626
 20
5.326811225
 30
0.0
 10
17.2079981732
 20
5.3261377838
 30
0.0
 10
17.2039263207
 20
5.3257153961
 30
0.0
 10
17.2007986211
 20
5.3255803548
 30
0.0
 10
17.198569662
 20
5.3256246946
 30
0.0
 10
17.1971358683
 20
5.3257245753
 30
0.0
 10
17.195879263
 20
5.3258913411
 30
0.0
 10
17.1948096577
 20
5.3261232145
 30
0.0
 10
17.1939337909
 20
5.3264188412
 30
0.0
 10
17.1932564912
 20
5.3267804302
 30
0.0
 10
17.1927786044
 20
5.3272114423
 30
0.0
 10
17.192602619
 20
5.3275662636
 30
0.0
 10
17.1925627124
 20
5.3277391182
 30
0.0
  0
SPLINE
  5
313
100
AcDbEntity
  8
0
100
AcDbSpline
 62
7
  6
CONTINUOUS
 70
0
 71
3
 72
19
 73
15
 74
0
 42
0.0000001
 43
0.0000001
 44
0.0000000001
 40
0.0
 40
0.0
 40
0.0
 40
0.0
 40
0.1862270265
 40
0.3646986038
 40
0.5289017939
 40
0.6735578142
 40
0.7371657558
 40
0.7943060248
 40
0.8446391121
 40
0.8880277411
 40
0.9244998731
 40
0.9544334714
 40
0.9788988726
 40
1.0
 40
1.0
 40
1.0
 40
1.0
 10
17.4037885605
 20
5.3277391646
 30
0.0
 10
17.4053159874
 20
5.3274043747
 30
0.0
 10
17.408321138
 20
5.3268103377
 30
0.0
 10
17.4127124513
 20
5.3261374919
 30
0.0
 10
17.4167844455
 20
5.3257167578
 30
0.0
 10
17.4199119244
 20
5.3255804617
 30
0.0
 10
17.4221407318
 20
5.3256236436
 30
0.0
 10
17.4235745271
 20
5.3257233319
 30
0.0
 10
17.4248312343
 20
5.325890726
 30
0.0
 10
17.4259009644
 20
5.3261234999
 30
0.0
 10
17.426776861
 20
5.3264198189
 30
0.0
 10
17.4274541283
 20
5.3267814782
 30
0.0
 10
17.4279319575
 20
5.3272120618
 30
0.0
 10
17.4281079555
 20
5.3275665265
 30
0.0
 10
17.4281478122
 20
5.3277391646
 30
0.0
  0
SPLINE
  5
314
100
AcDbEntity
  8
0
100
AcDbSpline
 62
7
  6
CONTINUOUS
 70
0
 71
3
 72
19
 73
15
 74
0
 42
0.0000001
 43
0.0000001
 44
0.0000000001
 40
0.0
 40
0.0
 40
0.0
 40
0.0
 40
0.1862242355
 40
0.3646887632
 40
0.5288853665
 40
0.6735504587
 40
0.7371664121
 40
0.7943085693
 40
0.8446333378
 40
0.8880068701
 40
0.9244646594
 40
0.9543951945
 40
0.9788726189
 40
1.0
 40
1.0
 40
1.0
 40
1.0
 10
14.2169219474
 20
5.3277391902
 30
0.0
 10
14.2153944632
 20
5.3274047013
 30
0.0
 10
14.2123892626
 20
5.326811225
 30
0.0
 10
14.2079981732
 20
5.3261377838
 30
0.0
 10
14.2039263207
 20
5.3257153961
 30
0.0
 10
14.2007986211
 20
5.3255803548
 30
0.0
 10
14.198569662
 20
5.3256246946
 30
0.0
 10
14.1971358683
 20
5.3257245753
 30
0.0
 10
14.195879263
 20
5.3258913411
 30
0.0
 10
14.1948096577
 20
5.3261232145
 30
0.0
 10
14.1939337909
 20
5.3264188412
 30
0.0
 10
14.1932564912
 20
5.3267804302
 30
0.0
 10
14.1927786044
 20
5.3272114423
 30
0.0
 10
14.192602619
 20
5.3275662636
 30
0.0
 10
14.1925627124
 20
5.3277391182
 30
0.0
  0
SPLINE
  5
315
100
AcDbEntity
  8
0
100
AcDbSpline
 62
7
  6
CONTINUOUS
 70
0
 71
3
 72
19
 73
15
 74
0
 42
0.0000001
 43
0.0000001
 44
0.0000000001
 40
0.0
 40
0.0
 40
0.0
 40
0.0
 40
0.1862242355
 40
0.3646887632
 40
0.5288853665
 40
0.6735504587
 40
0.7371664121
 40
0.7943085693
 40
0.8446333378
 40
0.8880068701
 40
0.9244646594
 40
0.9543951945
 40
0.9788726189
 40
1.0
 40
1.0
 40
1.0
 40
1.0
 10
13.7169219474
 20
5.3277391902
 30
0.0
 10
13.7153944632
 20
5.3274047013
 30
0.0
 10
13.7123892626
 20
5.326811225
 30
0.0
 10
13.7079981732
 20
5.3261377838
 30
0.0
 10
13.7039263207
 20
5.3257153961
 30
0.0
 10
13.7007986211
 20
5.3255803548
 30
0.0
 10
13.698569662
 20
5.3256246946
 30
0.0
 10
13.6971358683
 20
5.3257245753
 30
0.0
 10
13.695879263
 20
5.3258913411
 30
0.0
 10
13.6948096577
 20
5.3261232145
 30
0.0
 10
13.6939337909
 20
5.3264188412
 30
0.0
 10
13.6932564912
 20
5.3267804302
 30
0.0
 10
13.6927786044
 20
5.3272114423
 30
0.0
 10
13.692602619
 20
5.3275662636
 30
0.0
 10
13.6925627124
 20
5.3277391182
 30
0.0
  0
SPLINE
  5
316
100
AcDbEntity
  8
0
100
AcDbSpline
 62
7
  6
CONTINUOUS
 70
0
 71
3
 72
19
 73
15
 74
0
 42
0.0000001
 43
0.0000001
 44
0.0000000001
 40
0.0
 40
0.0
 40
0.0
 40
0.0
 40
0.1862270265
 40
0.3646986038
 40
0.5289017939
 40
0.6735578142
 40
0.7371657558
 40
0.7943060248
 40
0.8446391121
 40
0.8880277411
 40
0.9244998731
 40
0.9544334714
 40
0.9788988726
 40
1.0
 40
1.0
 40
1.0
 40
1.0
 10
13.9037885605
 20
5.3277391646
 30
0.0
 10
13.9053159874
 20
5.3274043747
 30
0.0
 10
13.908321138
 20
5.3268103377
 30
0.0
 10
13.9127124513
 20
5.3261374919
 30
0.0
 10
13.9167844455
 20
5.3257167578
 30
0.0
 10
13.9199119244
 20
5.3255804617
 30
0.0
 10
13.9221407318
 20
5.3256236436
 30
0.0
 10
13.9235745271
 20
5.3257233319
 30
0.0
 10
13.9248312343
 20
5.325890726
 30
0.0
 10
13.9259009644
 20
5.3261234999
 30
0.0
 10
13.926776861
 20
5.3264198189
 30
0.0
 10
13.9274541283
 20
5.3267814782
 30
0.0
 10
13.9279319575
 20
5.3272120618
 30
0.0
 10
13.9281079555
 20
5.3275665265
 30
0.0
 10
13.9281478122
 20
5.3277391646
 30
0.0
  0
SPLINE
  5
317
100
AcDbEntity
  8
0
100
AcDbSpline
 62
7
  6
CONTINUOUS
 70
0
 71
3
 72
19
 73
15
 74
0
 42
0.0000001
 43
0.0000001
 44
0.0000000001
 40
0.0
 40
0.0
 40
0.0
 40
0.0
 40
0.1862270265
 40
0.3646986038
 40
0.5289017939
 40
0.6735578142
 40
0.7371657558
 40
0.7943060248
 40
0.8446391121
 40
0.8880277411
 40
0.9244998731
 40
0.9544334714
 40
0.9788988726
 40
1.0
 40
1.0
 40
1.0
 40
1.0
 10
14.4037885605
 20
5.3277391646
 30
0.0
 10
14.4053159874
 20
5.3274043747
 30
0.0
 10
14.408321138
 20
5.3268103377
 30
0.0
 10
14.4127124513
 20
5.3261374919
 30
0.0
 10
14.4167844455
 20
5.3257167578
 30
0.0
 10
14.4199119244
 20
5.3255804617
 30
0.0
 10
14.4221407318
 20
5.3256236436
 30
0.0
 10
14.4235745271
 20
5.3257233319
 30
0.0
 10
14.4248312343
 20
5.325890726
 30
0.0
 10
14.4259009644
 20
5.3261234999
 30
0.0
 10
14.426776861
 20
5.3264198189
 30
0.0
 10
14.4274541283
 20
5.3267814782
 30
0.0
 10
14.4279319575
 20
5.3272120618
 30
0.0
 10
14.4281079555
 20
5.3275665265
 30
0.0
 10
14.4281478122
 20
5.3277391646
 30
0.0
  0
SPLINE
  5
318
100
AcDbEntity
  8
0
100
AcDbSpline
 62
7
  6
CONTINUOUS
 70
0
 71
3
 72
19
 73
15
 74
0
 42
0.0000001
 43
0.0000001
 44
0.0000000001
 40
0.0
 40
0.0
 40
0.0
 40
0.0
 40
0.1862242355
 40
0.3646887632
 40
0.5288853665
 40
0.6735504587
 40
0.7371664121
 40
0.7943085693
 40
0.8446333378
 40
0.8880068701
 40
0.9244646594
 40
0.9543951945
 40
0.9788726189
 40
1.0
 40
1.0
 40
1.0
 40
1.0
 10
14.7169219474
 20
5.3277391902
 30
0.0
 10
14.7153944632
 20
5.3274047013
 30
0.0
 10
14.7123892626
 20
5.326811225
 30
0.0
 10
14.7079981732
 20
5.3261377838
 30
0.0
 10
14.7039263207
 20
5.3257153961
 30
0.0
 10
14.7007986211
 20
5.3255803548
 30
0.0
 10
14.698569662
 20
5.3256246946
 30
0.0
 10
14.6971358683
 20
5.3257245753
 30
0.0
 10
14.695879263
 20
5.3258913411
 30
0.0
 10
14.6948096577
 20
5.3261232145
 30
0.0
 10
14.6939337909
 20
5.3264188412
 30
0.0
 10
14.6932564912
 20
5.3267804302
 30
0.0
 10
14.6927786044
 20
5.3272114423
 30
0.0
 10
14.692602619
 20
5.3275662636
 30
0.0
 10
14.6925627124
 20
5.3277391182
 30
0.0
  0
SPLINE
  5
319
100
AcDbEntity
  8
0
100
AcDbSpline
 62
7
  6
CONTINUOUS
 70
0
 71
3
 72
19
 73
15
 74
0
 42
0.0000001
 43
0.0000001
 44
0.0000000001
 40
0.0
 40
0.0
 40
0.0
 40
0.0
 40
0.1862270265
 40
0.3646986038
 40
0.5289017939
 40
0.6735578142
 40
0.7371657558
 40
0.7943060248
 40
0.8446391121
 40
0.8880277411
 40
0.9244998731
 40
0.9544334714
 40
0.9788988726
 40
1.0
 40
1.0
 40
1.0
 40
1.0
 10
14.9037885605
 20
5.3277391646
 30
0.0
 10
14.9053159874
 20
5.3274043747
 30
0.0
 10
14.908321138
 20
5.3268103377
 30
0.0
 10
14.9127124513
 20
5.3261374919
 30
0.0
 10
14.9167844455
 20
5.3257167578
 30
0.0
 10
14.9199119244
 20
5.3255804617
 30
0.0
 10
14.9221407318
 20
5.3256236436
 30
0.0
 10
14.9235745271
 20
5.3257233319
 30
0.0
 10
14.9248312343
 20
5.325890726
 30
0.0
 10
14.9259009644
 20
5.3261234999
 30
0.0
 10
14.926776861
 20
5.3264198189
 30
0.0
 10
14.9274541283
 20
5.3267814782
 30
0.0
 10
14.9279319575
 20
5.3272120618
 30
0.0
 10
14.9281079555
 20
5.3275665265
 30
0.0
 10
14.9281478122
 20
5.3277391646
 30
0.0
  0
SPLINE
  5
31A
100
AcDbEntity
  8
0
100
AcDbSpline
 62
7
  6
CONTINUOUS
 70
0
 71
3
 72
19
 73
15
 74
0
 42
0.0000001
 43
0.0000001
 44
0.0000000001
 40
0.0
 40
0.0
 40
0.0
 40
0.0
 40
0.1862242355
 40
0.3646887632
 40
0.5288853665
 40
0.6735504587
 40
0.7371664121
 40
0.7943085693
 40
0.8446333378
 40
0.8880068701
 40
0.9244646594
 40
0.9543951945
 40
0.9788726189
 40
1.0
 40
1.0
 40
1.0
 40
1.0
 10
15.2169219474
 20
5.3277391902
 30
0.0
 10
15.2153944632
 20
5.3274047013
 30
0.0
 10
15.2123892626
 20
5.326811225
 30
0.0
 10
15.2079981732
 20
5.3261377838
 30
0.0
 10
15.2039263207
 20
5.3257153961
 30
0.0
 10
15.2007986211
 20
5.3255803548
 30
0.0
 10
15.198569662
 20
5.3256246946
 30
0.0
 10
15.1971358683
 20
5.3257245753
 30
0.0
 10
15.195879263
 20
5.3258913411
 30
0.0
 10
15.1948096577
 20
5.3261232145
 30
0.0
 10
15.1939337909
 20
5.3264188412
 30
0.0
 10
15.1932564912
 20
5.3267804302
 30
0.0
 10
15.1927786044
 20
5.3272114423
 30
0.0
 10
15.192602619
 20
5.3275662636
 30
0.0
 10
15.1925627124
 20
5.3277391182
 30
0.0
  0
SPLINE
  5
31B
100
AcDbEntity
  8
0
100
AcDbSpline
 62
7
  6
CONTINUOUS
 70
0
 71
3
 72
19
 73
15
 74
0
 42
0.0000001
 43
0.0000001
 44
0.0000000001
 40
0.0
 40
0.0
 40
0.0
 40
0.0
 40
0.1862270265
 40
0.3646986038
 40
0.5289017939
 40
0.6735578142
 40
0.7371657558
 40
0.7943060248
 40
0.8446391121
 40
0.8880277411
 40
0.9244998731
 40
0.9544334714
 40
0.9788988726
 40
1.0
 40
1.0
 40
1.0
 40
1.0
 10
15.4037885605
 20
5.3277391646
 30
0.0
 10
15.4053159874
 20
5.3274043747
 30
0.0
 10
15.408321138
 20
5.3268103377
 30
0.0
 10
15.4127124513
 20
5.3261374919
 30
0.0
 10
15.4167844455
 20
5.3257167578
 30
0.0
 10
15.4199119244
 20
5.3255804617
 30
0.0
 10
15.4221407318
 20
5.3256236436
 30
0.0
 10
15.4235745271
 20
5.3257233319
 30
0.0
 10
15.4248312343
 20
5.325890726
 30
0.0
 10
15.4259009644
 20
5.3261234999
 30
0.0
 10
15.426776861
 20
5.3264198189
 30
0.0
 10
15.4274541283
 20
5.3267814782
 30
0.0
 10
15.4279319575
 20
5.3272120618
 30
0.0
 10
15.4281079555
 20
5.3275665265
 30
0.0
 10
15.4281478122
 20
5.3277391646
 30
0.0
  0
SPLINE
  5
31C
100
AcDbEntity
  8
0
100
AcDbSpline
 62
7
  6
CONTINUOUS
 70
0
 71
3
 72
15
 73
11
 74
0
 42
0.0000001
 43
0.0000001
 44
0.0000000001
 40
0.0
 40
0.0
 40
0.0
 40
0.0
 40
0.1295683313
 40
0.2645753732
 40
0.4012659709
 40
0.5362717241
 40
0.6662158037
 40
0.7881013616
 40
0.8998145441
 40
1.0
 40
1.0
 40
1.0
 40
1.0
 10
16.488077766
 20
14.1406558256
 30
0.0
 10
16.4896260223
 20
14.1406558256
 30
0.0
 10
16.4927899708
 20
14.1404406005
 30
0.0
 10
16.4975124855
 20
14.1395567057
 30
0.0
 10
16.5021687957
 20
14.1381292545
 30
0.0
 10
16.5065806679
 20
14.1362139357
 30
0.0
 10
16.510586859
 20
14.1338852466
 30
0.0
 10
16.514038941
 20
14.1312239103
 30
0.0
 10
16.5168047964
 20
14.1283278678
 30
0.0
 10
16.5182029417
 20
14.1261902961
 30
0.0
 10
16.5187303375
 20
14.1251155764
 30
0.0
  0
SPLINE
  5
31D
100
AcDbEntity
  8
0
100
AcDbSpline
 62
7
  6
CONTINUOUS
 70
0
 71
3
 72
15
 73
11
 74
0
 42
0.0000001
 43
0.0000001
 44
0.0000000001
 40
0.0
 40
0.0
 40
0.0
 40
0.0
 40
0.099646204
 40
0.2028721585
 40
0.3125944593
 40
0.4308576155
 40
0.5588159869
 40
0.6968318966
 40
0.8443985949
 40
1.0
 40
1.0
 40
1.0
 40
1.0
 10
15.3665450853
 20
14.1324967685
 30
0.0
 10
15.3667352005
 20
14.1331120107
 30
0.0
 10
15.3672738385
 20
14.1343229554
 30
0.0
 10
15.3685048269
 20
14.1359439021
 30
0.0
 10
15.3701282171
 20
14.1373590685
 30
0.0
 10
15.3721123867
 20
14.1385431258
 30
0.0
 10
15.3744199318
 20
14.1394817562
 30
0.0
 10
15.377011544
 20
14.1401604848
 30
0.0
 10
15.379838416
 20
14.1405681444
 30
0.0
 10
15.3817990262
 20
14.1406558256
 30
0.0
 10
15.3828045732
 20
14.1406558256
 30
0.0
  0
SPLINE
  5
31E
100
AcDbEntity
  8
0
100
AcDbSpline
 62
7
  6
CONTINUOUS
 70
0
 71
3
 72
11
 73
7
 74
0
 42
0.0000001
 43
0.0000001
 44
0.0000000001
 40
0.0
 40
0.0
 40
0.0
 40
0.0
 40
0.233694985
 40
0.4747283923
 40
0.7289544732
 40
1.0
 40
1.0
 40
1.0
 40
1.0
 10
14.3982797917
 20
10.99918913
 30
0.0
 10
14.3981049369
 20
10.9986232728
 30
0.0
 10
14.3978746247
 20
10.9974311246
 30
0.0
 10
14.3979169115
 20
10.9955718459
 30
0.0
 10
14.3983347209
 20
10.9936646721
 30
0.0
 10
14.3988361859
 20
10.9924246035
 30
0.0
 10
14.3991388014
 20
10.9918079379
 30
0.0
  0
SPLINE
  5
31F
100
AcDbEntity
  8
0
100
AcDbSpline
 62
7
  6
CONTINUOUS
 70
0
 71
3
 72
9
 73
5
 74
0
 42
0.0000001
 43
0.0000001
 44
0.0000000001
 40
0.0
 40
0.0
 40
0.0
 40
0.0
 40
0.515572116
 40
1.0
 40
1.0
 40
1.0
 40
1.0
 10
16.5308882201
 20
14.1003404165
 30
0.0
 10
16.532003709
 20
14.0980672892
 30
0.0
 10
16.533882735
 20
14.0935098141
 30
0.0
 10
16.5350396982
 20
14.0887105024
 30
0.0
 10
16.5353894957
 20
14.0863572347
 30
0.0
  0
SPLINE
  5
320
100
AcDbEntity
  8
0
100
AcDbSpline
 62
7
  6
CONTINUOUS
 70
0
 71
3
 72
14
 73
10
 74
0
 42
0.0000001
 43
0.0000001
 44
0.0000000001
 40
0.0
 40
0.0
 40
0.0
 40
0.0
 40
0.1556083388
 40
0.3032495913
 40
0.5688434346
 40
0.687157859
 40
0.796887728
 40
0.9001724957
 40
1.0
 40
1.0
 40
1.0
 40
1.0
 10
15.5595245835
 20
10.8809541602
 30
0.0
 10
15.560529597
 20
10.8809541602
 30
0.0
 10
15.5624904799
 20
10.8810420569
 30
0.0
 10
15.5661284443
 20
10.8815667675
 30
0.0
 10
15.5694493543
 20
10.882610895
 30
0.0
 10
15.5721997977
 20
10.8842496077
 30
0.0
 10
15.5738235349
 20
10.8856640486
 30
0.0
 10
15.5750545176
 20
10.8872854722
 30
0.0
 10
15.5755934594
 20
10.8884972933
 30
0.0
 10
15.5757831362
 20
10.8891135086
 30
0.0
  0
SPLINE
  5
321
100
AcDbEntity
  8
0
100
AcDbSpline
 62
7
  6
CONTINUOUS
 70
0
 71
3
 72
15
 73
11
 74
0
 42
0.0000001
 43
0.0000001
 44
0.0000000001
 40
0.0
 40
0.0
 40
0.0
 40
0.0
 40
0.108908161
 40
0.2266167979
 40
0.351207157
 40
0.480631751
 40
0.6126740747
 40
0.7449589979
 40
0.8750051895
 40
1.0
 40
1.0
 40
1.0
 40
1.0
 10
14.4705306116
 20
10.892998614
 30
0.0
 10
14.4712662182
 20
10.8921153358
 30
0.0
 10
14.4729468515
 20
10.8904000423
 30
0.0
 10
14.475864154
 20
10.8880999423
 30
0.0
 10
14.4792097318
 20
10.8860354192
 30
0.0
 10
14.4828844227
 20
10.8842594772
 30
0.0
 10
14.4867908986
 20
10.8828229337
 30
0.0
 10
14.490822486
 20
10.8817614094
 30
0.0
 10
14.494864868
 20
10.8811114759
 30
0.0
 10
14.4975582632
 20
10.8809541602
 30
0.0
 10
14.4988775276
 20
10.8809541602
 30
0.0
  0
SPLINE
  5
322
100
AcDbEntity
  8
0
100
AcDbSpline
 62
7
  6
CONTINUOUS
 70
0
 71
3
 72
9
 73
5
 74
0
 42
0.0000001
 43
0.0000001
 44
0.0000000001
 40
0.0
 40
0.0
 40
0.0
 40
0.0
 40
0.2380066512
 40
1.0
 40
1.0
 40
1.0
 40
1.0
 10
14.411296684
 20
10.967032778
 30
0.0
 10
14.411882933
 20
10.9658381282
 30
0.0
 10
14.4145189408
 20
10.96090389
 30
0.0
 10
14.4177928316
 20
10.9563234056
 30
0.0
 10
14.4205193063
 20
10.9530495962
 30
0.0
  0
SPLINE
  5
323
100
AcDbEntity
  8
0
100
AcDbSpline
 62
7
  6
CONTINUOUS
 70
0
 71
3
 72
15
 73
11
 74
0
 42
0.0000001
 43
0.0000001
 44
0.0000000001
 40
0.0
 40
0.0
 40
0.0
 40
0.0
 40
0.1001854559
 40
0.2118986384
 40
0.3337841963
 40
0.4637282759
 40
0.5987340291
 40
0.7354246268
 40
0.8704316687
 40
1.0
 40
1.0
 40
1.0
 40
1.0
 10
15.5504650439
 20
10.9918079379
 30
0.0
 10
15.5499376481
 20
10.9928826576
 30
0.0
 10
15.5485395027
 20
10.9950202293
 30
0.0
 10
15.5457736473
 20
10.9979162718
 30
0.0
 10
15.5423215654
 20
11.000577608
 30
0.0
 10
15.5383153743
 20
11.0029062972
 30
0.0
 10
15.5339035021
 20
11.004821616
 30
0.0
 10
15.5292471918
 20
11.0062490672
 30
0.0
 10
15.5245246772
 20
11.007132962
 30
0.0
 10
15.5213607287
 20
11.0073481871
 30
0.0
 10
15.5198124724
 20
11.0073481871
 30
0.0
  0
SPLINE
  5
324
100
AcDbEntity
  8
0
100
AcDbSpline
 62
7
  6
CONTINUOUS
 70
0
 71
3
 72
15
 73
11
 74
0
 42
0.0000001
 43
0.0000001
 44
0.0000000001
 40
0.0
 40
0.0
 40
0.0
 40
0.0
 40
0.1556014051
 40
0.3031681034
 40
0.4411840131
 40
0.5691423845
 40
0.6874055407
 40
0.7971278415
 40
0.900353796
 40
1.0
 40
1.0
 40
1.0
 40
1.0
 10
14.4145392796
 20
11.0073481871
 30
0.0
 10
14.4135337326
 20
11.0073481871
 30
0.0
 10
14.4115731224
 20
11.0072605059
 30
0.0
 10
14.4087462504
 20
11.0068528463
 30
0.0
 10
14.4061546382
 20
11.0061741177
 30
0.0
 10
14.4038470931
 20
11.0052354873
 30
0.0
 10
14.4018629235
 20
11.00405143
 30
0.0
 10
14.4002395333
 20
11.0026362636
 30
0.0
 10
14.3990085449
 20
11.0010153169
 30
0.0
 10
14.3984699069
 20
10.9998043722
 30
0.0
 10
14.3982797917
 20
10.99918913
 30
0.0
  0
SPLINE
  5
325
100
AcDbEntity
  8
0
100
AcDbSpline
 62
7
  6
CONTINUOUS
 70
0
 71
3
 72
9
 73
5
 74
0
 42
0.0000001
 43
0.0000001
 44
0.0000000001
 40
0.0
 40
0.0
 40
0.0
 40
0.0
 40
0.484427884
 40
1.0
 40
1.0
 40
1.0
 40
1.0
 10
15.5671242021
 20
10.9530495962
 30
0.0
 10
15.5667744045
 20
10.9554028639
 30
0.0
 10
15.5656174414
 20
10.9602021756
 30
0.0
 10
15.5637384154
 20
10.9647596507
 30
0.0
 10
15.5626229265
 20
10.967032778
 30
0.0
  0
SPLINE
  5
326
100
AcDbEntity
  8
0
100
AcDbSpline
 62
7
  6
CONTINUOUS
 70
0
 71
3
 72
9
 73
5
 74
0
 42
0.0000001
 43
0.0000001
 44
0.0000000001
 40
0.0
 40
0.0
 40
0.0
 40
0.0
 40
0.2468717028
 40
1.0
 40
1.0
 40
1.0
 40
1.0
 10
15.6233217038
 20
10.9525926084
 30
0.0
 10
15.6231890456
 20
10.9520427701
 30
0.0
 10
15.6225646331
 20
10.9498372026
 30
0.0
 10
15.621601529
 20
10.9477295823
 30
0.0
 10
15.6207194923
 20
10.9462465408
 30
0.0
  0
SPLINE
  5
327
100
AcDbEntity
  8
0
100
AcDbSpline
 62
7
  6
CONTINUOUS
 70
0
 71
3
 72
9
 73
5
 74
0
 42
0.0000001
 43
0.0000001
 44
0.0000000001
 40
0.0
 40
0.0
 40
0.0
 40
0.0
 40
0.2475527943
 40
1.0
 40
1.0
 40
1.0
 40
1.0
 10
15.6207194923
 20
10.9462465408
 30
0.0
 10
15.6204036647
 20
10.9457155137
 30
0.0
 10
15.6190451574
 20
10.9436203986
 30
0.0
 10
15.6173680178
 20
10.9417342774
 30
0.0
 10
15.6159765947
 20
10.9404730324
 30
0.0
  0
SPLINE
  5
328
100
AcDbEntity
  8
0
100
AcDbSpline
 62
7
  6
CONTINUOUS
 70
0
 71
3
 72
9
 73
5
 74
0
 42
0.0000001
 43
0.0000001
 44
0.0000000001
 40
0.0
 40
0.0
 40
0.0
 40
0.0
 40
0.4978748075
 40
1.0
 40
1.0
 40
1.0
 40
1.0
 10
15.6159765947
 20
10.9404730324
 30
0.0
 10
15.6140820959
 20
10.9387557781
 30
0.0
 10
15.6097541655
 20
10.9358491309
 30
0.0
 10
15.6047968123
 20
10.9342451316
 30
0.0
 10
15.6022566886
 20
10.9338001948
 30
0.0
  0
SPLINE
  5
329
100
AcDbEntity
  8
0
100
AcDbSpline
 62
7
  6
CONTINUOUS
 70
0
 71
3
 72
9
 73
5
 74
0
 42
0.0000001
 43
0.0000001
 44
0.0000000001
 40
0.0
 40
0.0
 40
0.0
 40
0.0
 40
0.2520944102
 40
1.0
 40
1.0
 40
1.0
 40
1.0
 10
15.6022566886
 20
10.9338001948
 30
0.0
 10
15.601653623
 20
10.9336945598
 30
0.0
 10
15.5992481512
 20
10.9333558124
 30
0.0
 10
15.59679676
 20
10.9333364275
 30
0.0
 10
15.5949888035
 20
10.9335113194
 30
0.0
  0
SPLINE
  5
32A
100
AcDbEntity
  8
0
100
AcDbSpline
 62
7
  6
CONTINUOUS
 70
0
 71
3
 72
9
 73
5
 74
0
 42
0.0000001
 43
0.0000001
 44
0.0000000001
 40
0.0
 40
0.0
 40
0.0
 40
0.0
 40
0.2468717028
 40
1.0
 40
1.0
 40
1.0
 40
1.0
 10
15.7443548655
 20
11.3442560633
 30
0.0
 10
15.7442222073
 20
11.3437062249
 30
0.0
 10
15.7435977948
 20
11.3415006574
 30
0.0
 10
15.7426346907
 20
11.3393930371
 30
0.0
 10
15.741752654
 20
11.3379099956
 30
0.0
  0
SPLINE
  5
32B
100
AcDbEntity
  8
0
100
AcDbSpline
 62
7
  6
CONTINUOUS
 70
0
 71
3
 72
9
 73
5
 74
0
 42
0.0000001
 43
0.0000001
 44
0.0000000001
 40
0.0
 40
0.0
 40
0.0
 40
0.0
 40
0.2475527943
 40
1.0
 40
1.0
 40
1.0
 40
1.0
 10
15.741752654
 20
11.3379099956
 30
0.0
 10
15.7414368264
 20
11.3373789685
 30
0.0
 10
15.7400783191
 20
11.3352838534
 30
0.0
 10
15.7384011795
 20
11.3333977322
 30
0.0
 10
15.7370097564
 20
11.3321364872
 30
0.0
  0
SPLINE
  5
32C
100
AcDbEntity
  8
0
100
AcDbSpline
 62
7
  6
CONTINUOUS
 70
0
 71
3
 72
9
 73
5
 74
0
 42
0.0000001
 43
0.0000001
 44
0.0000000001
 40
0.0
 40
0.0
 40
0.0
 40
0.0
 40
0.4978748075
 40
1.0
 40
1.0
 40
1.0
 40
1.0
 10
15.7370097564
 20
11.3321364872
 30
0.0
 10
15.7351152576
 20
11.3304192329
 30
0.0
 10
15.7307873272
 20
11.3275125857
 30
0.0
 10
15.725829974
 20
11.3259085864
 30
0.0
 10
15.7232898503
 20
11.3254636497
 30
0.0
  0
SPLINE
  5
32D
100
AcDbEntity
  8
0
100
AcDbSpline
 62
7
  6
CONTINUOUS
 70
0
 71
3
 72
9
 73
5
 74
0
 42
0.0000001
 43
0.0000001
 44
0.0000000001
 40
0.0
 40
0.0
 40
0.0
 40
0.0
 40
0.2520944102
 40
1.0
 40
1.0
 40
1.0
 40
1.0
 10
15.7232898503
 20
11.3254636497
 30
0.0
 10
15.7226867847
 20
11.3253580146
 30
0.0
 10
15.7202813129
 20
11.3250192673
 30
0.0
 10
15.7178299217
 20
11.3249998823
 30
0.0
 10
15.7160219652
 20
11.3251747742
 30
0.0
  0
SPLINE
  5
32E
100
AcDbEntity
  8
0
100
AcDbSpline
 62
7
  6
CONTINUOUS
 70
0
 71
3
 72
9
 73
5
 74
0
 42
0.0000001
 43
0.0000001
 44
0.0000000001
 40
0.0
 40
0.0
 40
0.0
 40
0.0
 40
0.2468717028
 40
1.0
 40
1.0
 40
1.0
 40
1.0
 10
15.8653880272
 20
11.7359195181
 30
0.0
 10
15.865255369
 20
11.7353696797
 30
0.0
 10
15.8646309565
 20
11.7331641122
 30
0.0
 10
15.8636678524
 20
11.731056492
 30
0.0
 10
15.8627858157
 20
11.7295734504
 30
0.0
  0
SPLINE
  5
32F
100
AcDbEntity
  8
0
100
AcDbSpline
 62
7
  6
CONTINUOUS
 70
0
 71
3
 72
9
 73
5
 74
0
 42
0.0000001
 43
0.0000001
 44
0.0000000001
 40
0.0
 40
0.0
 40
0.0
 40
0.0
 40
0.2475527943
 40
1.0
 40
1.0
 40
1.0
 40
1.0
 10
15.8627858157
 20
11.7295734504
 30
0.0
 10
15.8624699881
 20
11.7290424233
 30
0.0
 10
15.8611114808
 20
11.7269473083
 30
0.0
 10
15.8594343412
 20
11.725061187
 30
0.0
 10
15.8580429181
 20
11.723799942
 30
0.0
  0
SPLINE
  5
330
100
AcDbEntity
  8
0
100
AcDbSpline
 62
7
  6
CONTINUOUS
 70
0
 71
3
 72
9
 73
5
 74
0
 42
0.0000001
 43
0.0000001
 44
0.0000000001
 40
0.0
 40
0.0
 40
0.0
 40
0.0
 40
0.4978748075
 40
1.0
 40
1.0
 40
1.0
 40
1.0
 10
15.8580429181
 20
11.723799942
 30
0.0
 10
15.8561484193
 20
11.7220826877
 30
0.0
 10
15.8518204889
 20
11.7191760405
 30
0.0
 10
15.8468631357
 20
11.7175720412
 30
0.0
 10
15.844323012
 20
11.7171271045
 30
0.0
  0
SPLINE
  5
331
100
AcDbEntity
  8
0
100
AcDbSpline
 62
7
  6
CONTINUOUS
 70
0
 71
3
 72
9
 73
5
 74
0
 42
0.0000001
 43
0.0000001
 44
0.0000000001
 40
0.0
 40
0.0
 40
0.0
 40
0.0
 40
0.2520944102
 40
1.0
 40
1.0
 40
1.0
 40
1.0
 10
15.844323012
 20
11.7171271045
 30
0.0
 10
15.8437199464
 20
11.7170214694
 30
0.0
 10
15.8413144746
 20
11.7166827221
 30
0.0
 10
15.8388630834
 20
11.7166633371
 30
0.0
 10
15.8370551269
 20
11.7168382291
 30
0.0
  0
SPLINE
  5
332
100
AcDbEntity
  8
0
100
AcDbSpline
 62
7
  6
CONTINUOUS
 70
0
 71
3
 72
9
 73
5
 74
0
 42
0.0000001
 43
0.0000001
 44
0.0000000001
 40
0.0
 40
0.0
 40
0.0
 40
0.0
 40
0.2468717028
 40
1.0
 40
1.0
 40
1.0
 40
1.0
 10
15.9864211889
 20
12.1275829729
 30
0.0
 10
15.9862885307
 20
12.1270331345
 30
0.0
 10
15.9856641182
 20
12.124827567
 30
0.0
 10
15.9847010141
 20
12.1227199468
 30
0.0
 10
15.9838189774
 20
12.1212369052
 30
0.0
  0
SPLINE
  5
333
100
AcDbEntity
  8
0
100
AcDbSpline
 62
7
  6
CONTINUOUS
 70
0
 71
3
 72
9
 73
5
 74
0
 42
0.0000001
 43
0.0000001
 44
0.0000000001
 40
0.0
 40
0.0
 40
0.0
 40
0.0
 40
0.2475527943
 40
1.0
 40
1.0
 40
1.0
 40
1.0
 10
15.9838189774
 20
12.1212369052
 30
0.0
 10
15.9835031498
 20
12.1207058782
 30
0.0
 10
15.9821446425
 20
12.1186107631
 30
0.0
 10
15.9804675029
 20
12.1167246418
 30
0.0
 10
15.9790760799
 20
12.1154633969
 30
0.0
  0
SPLINE
  5
334
100
AcDbEntity
  8
0
100
AcDbSpline
 62
7
  6
CONTINUOUS
 70
0
 71
3
 72
9
 73
5
 74
0
 42
0.0000001
 43
0.0000001
 44
0.0000000001
 40
0.0
 40
0.0
 40
0.0
 40
0.0
 40
0.4978748075
 40
1.0
 40
1.0
 40
1.0
 40
1.0
 10
15.9790760799
 20
12.1154633969
 30
0.0
 10
15.977181581
 20
12.1137461425
 30
0.0
 10
15.9728536506
 20
12.1108394953
 30
0.0
 10
15.9678962974
 20
12.109235496
 30
0.0
 10
15.9653561737
 20
12.1087905593
 30
0.0
  0
SPLINE
  5
335
100
AcDbEntity
  8
0
100
AcDbSpline
 62
7
  6
CONTINUOUS
 70
0
 71
3
 72
9
 73
5
 74
0
 42
0.0000001
 43
0.0000001
 44
0.0000000001
 40
0.0
 40
0.0
 40
0.0
 40
0.0
 40
0.2520944102
 40
1.0
 40
1.0
 40
1.0
 40
1.0
 10
15.9653561737
 20
12.1087905593
 30
0.0
 10
15.9647531081
 20
12.1086849243
 30
0.0
 10
15.9623476363
 20
12.1083461769
 30
0.0
 10
15.9598962451
 20
12.108326792
 30
0.0
 10
15.9580882886
 20
12.1085016839
 30
0.0
  0
SPLINE
  5
336
100
AcDbEntity
  8
0
100
AcDbSpline
 62
7
  6
CONTINUOUS
 70
0
 71
3
 72
9
 73
5
 74
0
 42
0.0000001
 43
0.0000001
 44
0.0000000001
 40
0.0
 40
0.0
 40
0.0
 40
0.0
 40
0.2468717028
 40
1.0
 40
1.0
 40
1.0
 40
1.0
 10
16.1074543506
 20
12.5192464277
 30
0.0
 10
16.1073216924
 20
12.5186965893
 30
0.0
 10
16.1066972799
 20
12.5164910218
 30
0.0
 10
16.1057341758
 20
12.5143834016
 30
0.0
 10
16.1048521391
 20
12.5129003601
 30
0.0
  0
SPLINE
  5
337
100
AcDbEntity
  8
0
100
AcDbSpline
 62
7
  6
CONTINUOUS
 70
0
 71
3
 72
9
 73
5
 74
0
 42
0.0000001
 43
0.0000001
 44
0.0000000001
 40
0.0
 40
0.0
 40
0.0
 40
0.0
 40
0.2475527943
 40
1.0
 40
1.0
 40
1.0
 40
1.0
 10
16.1048521391
 20
12.5129003601
 30
0.0
 10
16.1045363115
 20
12.512369333
 30
0.0
 10
16.1031778042
 20
12.5102742179
 30
0.0
 10
16.1015006646
 20
12.5083880967
 30
0.0
 10
16.1001092416
 20
12.5071268517
 30
0.0
  0
SPLINE
  5
338
100
AcDbEntity
  8
0
100
AcDbSpline
 62
7
  6
CONTINUOUS
 70
0
 71
3
 72
9
 73
5
 74
0
 42
0.0000001
 43
0.0000001
 44
0.0000000001
 40
0.0
 40
0.0
 40
0.0
 40
0.0
 40
0.4978748075
 40
1.0
 40
1.0
 40
1.0
 40
1.0
 10
16.1001092416
 20
12.5071268517
 30
0.0
 10
16.0982147427
 20
12.5054095973
 30
0.0
 10
16.0938868123
 20
12.5025029501
 30
0.0
 10
16.0889294591
 20
12.5008989508
 30
0.0
 10
16.0863893354
 20
12.5004540141
 30
0.0
  0
SPLINE
  5
339
100
AcDbEntity
  8
0
100
AcDbSpline
 62
7
  6
CONTINUOUS
 70
0
 71
3
 72
9
 73
5
 74
0
 42
0.0000001
 43
0.0000001
 44
0.0000000001
 40
0.0
 40
0.0
 40
0.0
 40
0.0
 40
0.2520944102
 40
1.0
 40
1.0
 40
1.0
 40
1.0
 10
16.0863893354
 20
12.5004540141
 30
0.0
 10
16.0857862699
 20
12.5003483791
 30
0.0
 10
16.083380798
 20
12.5000096317
 30
0.0
 10
16.0809294068
 20
12.4999902468
 30
0.0
 10
16.0791214503
 20
12.5001651387
 30
0.0
  0
SPLINE
  5
33A
100
AcDbEntity
  8
0
100
AcDbSpline
 62
7
  6
CONTINUOUS
 70
0
 71
3
 72
9
 73
5
 74
0
 42
0.0000001
 43
0.0000001
 44
0.0000000001
 40
0.0
 40
0.0
 40
0.0
 40
0.0
 40
0.2468717028
 40
1.0
 40
1.0
 40
1.0
 40
1.0
 10
16.2284875123
 20
12.9109098825
 30
0.0
 10
16.2283548541
 20
12.9103600441
 30
0.0
 10
16.2277304416
 20
12.9081544766
 30
0.0
 10
16.2267673375
 20
12.9060468564
 30
0.0
 10
16.2258853008
 20
12.9045638149
 30
0.0
  0
SPLINE
  5
33B
100
AcDbEntity
  8
0
100
AcDbSpline
 62
7
  6
CONTINUOUS
 70
0
 71
3
 72
9
 73
5
 74
0
 42
0.0000001
 43
0.0000001
 44
0.0000000001
 40
0.0
 40
0.0
 40
0.0
 40
0.0
 40
0.2475527943
 40
1.0
 40
1.0
 40
1.0
 40
1.0
 10
16.2258853008
 20
12.9045638149
 30
0.0
 10
16.2255694732
 20
12.9040327878
 30
0.0
 10
16.2242109659
 20
12.9019376727
 30
0.0
 10
16.2225338263
 20
12.9000515515
 30
0.0
 10
16.2211424033
 20
12.8987903065
 30
0.0
  0
SPLINE
  5
33C
100
AcDbEntity
  8
0
100
AcDbSpline
 62
7
  6
CONTINUOUS
 70
0
 71
3
 72
9
 73
5
 74
0
 42
0.0000001
 43
0.0000001
 44
0.0000000001
 40
0.0
 40
0.0
 40
0.0
 40
0.0
 40
0.4978748075
 40
1.0
 40
1.0
 40
1.0
 40
1.0
 10
16.2211424033
 20
12.8987903065
 30
0.0
 10
16.2192479044
 20
12.8970730522
 30
0.0
 10
16.214919974
 20
12.894166405
 30
0.0
 10
16.2099626208
 20
12.8925624056
 30
0.0
 10
16.2074224972
 20
12.8921174689
 30
0.0
  0
SPLINE
  5
33D
100
AcDbEntity
  8
0
100
AcDbSpline
 62
7
  6
CONTINUOUS
 70
0
 71
3
 72
9
 73
5
 74
0
 42
0.0000001
 43
0.0000001
 44
0.0000000001
 40
0.0
 40
0.0
 40
0.0
 40
0.0
 40
0.2520944102
 40
1.0
 40
1.0
 40
1.0
 40
1.0
 10
16.2074224972
 20
12.8921174689
 30
0.0
 10
16.2068194316
 20
12.8920118339
 30
0.0
 10
16.2044139597
 20
12.8916730865
 30
0.0
 10
16.2019625685
 20
12.8916537016
 30
0.0
 10
16.200154612
 20
12.8918285935
 30
0.0
  0
SPLINE
  5
33E
100
AcDbEntity
  8
0
100
AcDbSpline
 62
7
  6
CONTINUOUS
 70
0
 71
3
 72
9
 73
5
 74
0
 42
0.0000001
 43
0.0000001
 44
0.0000000001
 40
0.0
 40
0.0
 40
0.0
 40
0.0
 40
0.2468717028
 40
1.0
 40
1.0
 40
1.0
 40
1.0
 10
16.349520674
 20
13.3025733373
 30
0.0
 10
16.3493880158
 20
13.3020234989
 30
0.0
 10
16.3487636033
 20
13.2998179315
 30
0.0
 10
16.3478004993
 20
13.2977103112
 30
0.0
 10
16.3469184625
 20
13.2962272697
 30
0.0
  0
SPLINE
  5
33F
100
AcDbEntity
  8
0
100
AcDbSpline
 62
7
  6
CONTINUOUS
 70
0
 71
3
 72
9
 73
5
 74
0
 42
0.0000001
 43
0.0000001
 44
0.0000000001
 40
0.0
 40
0.0
 40
0.0
 40
0.0
 40
0.2475527943
 40
1.0
 40
1.0
 40
1.0
 40
1.0
 10
16.3469184625
 20
13.2962272697
 30
0.0
 10
16.346602635
 20
13.2956962426
 30
0.0
 10
16.3452441276
 20
13.2936011275
 30
0.0
 10
16.343566988
 20
13.2917150063
 30
0.0
 10
16.342175565
 20
13.2904537613
 30
0.0
  0
SPLINE
  5
340
100
AcDbEntity
  8
0
100
AcDbSpline
 62
7
  6
CONTINUOUS
 70
0
 71
3
 72
9
 73
5
 74
0
 42
0.0000001
 43
0.0000001
 44
0.0000000001
 40
0.0
 40
0.0
 40
0.0
 40
0.0
 40
0.4978748075
 40
1.0
 40
1.0
 40
1.0
 40
1.0
 10
16.342175565
 20
13.2904537613
 30
0.0
 10
16.3402810661
 20
13.288736507
 30
0.0
 10
16.3359531357
 20
13.2858298598
 30
0.0
 10
16.3309957825
 20
13.2842258604
 30
0.0
 10
16.3284556589
 20
13.2837809237
 30
0.0
  0
SPLINE
  5
341
100
AcDbEntity
  8
0
100
AcDbSpline
 62
7
  6
CONTINUOUS
 70
0
 71
3
 72
9
 73
5
 74
0
 42
0.0000001
 43
0.0000001
 44
0.0000000001
 40
0.0
 40
0.0
 40
0.0
 40
0.0
 40
0.2520944102
 40
1.0
 40
1.0
 40
1.0
 40
1.0
 10
16.3284556589
 20
13.2837809237
 30
0.0
 10
16.3278525933
 20
13.2836752887
 30
0.0
 10
16.3254471214
 20
13.2833365413
 30
0.0
 10
16.3229957302
 20
13.2833171564
 30
0.0
 10
16.3211877737
 20
13.2834920483
 30
0.0
  0
SPLINE
  5
342
100
AcDbEntity
  8
0
100
AcDbSpline
 62
7
  6
CONTINUOUS
 70
0
 71
3
 72
9
 73
5
 74
0
 42
0.0000001
 43
0.0000001
 44
0.0000000001
 40
0.0
 40
0.0
 40
0.0
 40
0.0
 40
0.2468717028
 40
1.0
 40
1.0
 40
1.0
 40
1.0
 10
16.4705538357
 20
13.6942367921
 30
0.0
 10
16.4704211775
 20
13.6936869538
 30
0.0
 10
16.469796765
 20
13.6914813863
 30
0.0
 10
16.468833661
 20
13.689373766
 30
0.0
 10
16.4679516242
 20
13.6878907245
 30
0.0
  0
SPLINE
  5
343
100
AcDbEntity
  8
0
100
AcDbSpline
 62
7
  6
CONTINUOUS
 70
0
 71
3
 72
9
 73
5
 74
0
 42
0.0000001
 43
0.0000001
 44
0.0000000001
 40
0.0
 40
0.0
 40
0.0
 40
0.0
 40
0.2475527943
 40
1.0
 40
1.0
 40
1.0
 40
1.0
 10
16.4679516242
 20
13.6878907245
 30
0.0
 10
16.4676357967
 20
13.6873596974
 30
0.0
 10
16.4662772893
 20
13.6852645823
 30
0.0
 10
16.4646001497
 20
13.6833784611
 30
0.0
 10
16.4632087267
 20
13.6821172161
 30
0.0
  0
SPLINE
  5
344
100
AcDbEntity
  8
0
100
AcDbSpline
 62
7
  6
CONTINUOUS
 70
0
 71
3
 72
9
 73
5
 74
0
 42
0.0000001
 43
0.0000001
 44
0.0000000001
 40
0.0
 40
0.0
 40
0.0
 40
0.0
 40
0.4978748075
 40
1.0
 40
1.0
 40
1.0
 40
1.0
 10
16.4632087267
 20
13.6821172161
 30
0.0
 10
16.4613142278
 20
13.6803999618
 30
0.0
 10
16.4569862974
 20
13.6774933146
 30
0.0
 10
16.4520289442
 20
13.6758893153
 30
0.0
 10
16.4494888206
 20
13.6754443785
 30
0.0
  0
SPLINE
  5
345
100
AcDbEntity
  8
0
100
AcDbSpline
 62
7
  6
CONTINUOUS
 70
0
 71
3
 72
9
 73
5
 74
0
 42
0.0000001
 43
0.0000001
 44
0.0000000001
 40
0.0
 40
0.0
 40
0.0
 40
0.0
 40
0.2520944102
 40
1.0
 40
1.0
 40
1.0
 40
1.0
 10
16.4494888206
 20
13.6754443785
 30
0.0
 10
16.448885755
 20
13.6753387435
 30
0.0
 10
16.4464802831
 20
13.6749999961
 30
0.0
 10
16.4440288919
 20
13.6749806112
 30
0.0
 10
16.4422209354
 20
13.6751555031
 30
0.0
  0
ENDSEC
  0
SECTION
  2
OBJECTS
  0
DICTIONARY
  5
C
100
AcDbDictionary
280
0
281
1
  3
ACAD_GROUP
350
D
  3
ACAD_MLINESTYLE
350
17
  3
ACAD_LAYOUT
350
1A
  3
ACAD_PLOTSETTINGS
350
19
  3
ACAD_PLOTSTYLENAME
350
E
  0
DICTIONARY
  5
D
102
{ACAD_REACTORS
330
C
102
}
100
AcDbDictionary
280
0
281
1
  0
ACDBDICTIONARYWDFLT
  5
E
102
{ACAD_REACTORS
330
C
102
}
100
AcDbDictionary
281
1
  3
Normal
350
F
100
AcDbDictionaryWithDefault
340
F
  0
DICTIONARY
  5
17
102
{ACAD_REACTORS
330
C
102
}
100
AcDbDictionary
280
0
281
1
  3
Standard
350
18
  0
DICTIONARY
  5
19
102
{ACAD_REACTORS
330
C
102
}
100
AcDbDictionary
281
1
  0
DICTIONARY
  5
1A
102
{ACAD_REACTORS
330
C
102
}
100
AcDbDictionary
281
1
  3
Model
350
346
  3
Layout1
350
347
  0
ACDBPLACEHOLDER
  5
F
102
{ACAD_REACTORS
330
E
102
}
  0
MLINESTYLE
  5
18
102
{ACAD_REACTORS
330
17
102
}
100
AcDbMlineStyle
  2
STANDARD
 70
0
  3

 62
256
 51
90.0
 52
90.0
 71
2
 49
0.5
 62
256
  6
BYLAYER
 49
-0.5
 62
256
  6
BYLAYER
  0
LAYOUT
  5
346
102
{ACAD_REACTORS
330
1A
102
}
100
AcDbPlotSettings
  1

  2
none_device
  4
ANSI_C_(22.00_x_17.00_Inches)
  6

 40
0.0
 41
0.0
 42
0.0
 43
0.0
 44
558.8
 45
431.8
 46
0.0
 47
0.0
 48
0.0
 49
0.0
140
0.0
141
0.0
142
1.0
143
1.0
 70
1024
 72
0
 73
0
 74
0
  7

 75
0
147
1.0
148
0.0
149
0.0
100
AcDbLayout
  1
Model
 70
0
 71
0
 10
0.0
 20
0.0
 11
22.0
 21
17.0
 12
0.0
 22
0.0
 32
0.0
 14
0.0
 24
0.0
 34
0.0
 15
0.0
 25
0.0
 35
0.0
146
0.0
 13
0.0
 23
0.0
 33
0.0
 16
1.0
 26
0.0
 36
0.0
 17
0.0
 27
1.0
 37
0.0
 76
0
330
216
345
0
346
0
  0
LAYOUT
  5
347
102
{ACAD_REACTORS
330
1A
102
}
100
AcDbPlotSettings
  1

  2
none_device
  4
ANSI_C_(22.00_x_17.00_Inches)
  6

 40
0.0
 41
0.0
 42
0.0
 43
0.0
 44
558.8
 45
431.8
 46
0.0
 47
0.0
 48
0.0
 49
0.0
140
0.0
141
0.0
142
1.0
143
1.0
 70
0
 72
0
 73
0
 74
0
  7

 75
0
147
1.0
148
0.0
149
0.0
100
AcDbLayout
  1
Layout1
 70
0
 71
1
 10
0.0
 20
0.0
 11
22.0
 21
17.0
 12
0.0
 22
0.0
 32
0.0
 14
0.0
 24
0.0
 34
0.0
 15
0.0
 25
0.0
 35
0.0
146
0.0
 13
0.0
 23
0.0
 33
0.0
 16
1.0
 26
0.0
 36
0.0
 17
0.0
 27
1.0
 37
0.0
 76
0
330
217
345
0
346
0
  0
ENDSEC
  0
EOF