999
DXF file: _cgs_temp_output.dxf
999
Pro/ENGINEER 2016360 by Parametric Technology Corporation
  0
SECTION
  2
HEADER
  9
$ACADVER
  1
AC1021
  9
$DWGCODEPAGE
  3
ANSI_1252
  9
$EXTMAX
 10
22.0
 20
17.0
 30
0.0
  9
$EXTMIN
 10
0.0
 20
0.0
 30
0.0
  9
$LIMMIN
 10
0.0
 20
0.0
  9
$LIMMAX
 10
22.0
 20
17.0
  9
$VIEWCTR
 10
11.0
 20
8.5
  9
$VIEWSIZE
 40
17.0
  9
$CLAYER
  8
0
  9
$LTSCALE
 40
1.21
  9
$CELTYPE
  6
BYLAYER
  9
$DIMSCALE
 40
1.0
  9
$DIMASZ
 40
0.1875
  9
$DIMEXO
 40
0.0625
  9
$DIMDLI
 40
0.836
  9
$DIMEXE
 40
0.125
  9
$DIMCEN
 40
0.198
  9
$DIMLFAC
 40
1.0
  9
$DIMBLK
  1
_CLOSED
  9
$DIMALT
 70
0
  9
$DIMALTF
 40
25.4
  9
$DIMTXT
 40
0.15625
  9
$DIMTOL
 70
0
  9
$DIMLIM
 70
0
  9
$DIMTFAC
 40
1.0
  9
$DIMGAP
 40
0.09
  9
$DIMDSEP
 70
46
  9
$AUNITS
 70
0
  9
$PDMODE
 70
3
  9
$PDSIZE
 40
0.3125
  9
$HANDSEED
  5
2FE
  9
$TILEMODE
 70
1
  9
$MEASUREMENT
 70
0
  9
$INSUNITS
 70
1
  0
ENDSEC
  0
SECTION
  2
CLASSES
  0
CLASS
  1
ACDBDICTIONARYWDFLT
  2
AcDbDictionaryWithDefault
  3
AutoCAD 2000
 90
0
 91
1
280
0
281
0
  0
CLASS
  1
ACDBPLACEHOLDER
  2
AcDbPlaceHolder
  3
AutoCAD 2000
 90
0
 91
1
280
0
281
0
  0
CLASS
  1
LAYOUT
  2
AcDbLayout
  3
AutoCAD 2000
 90
0
 91
0
280
0
281
0
  0
ENDSEC
  0
SECTION
  2
TABLES
  0
TABLE
  2
VPORT
  5
8
100
AcDbSymbolTable
 70
2
  0
VPORT
  5
1F4
100
AcDbSymbolTableRecord
100
AcDbViewportTableRecord
  2
*ACTIVE
 70
0
 10
0.0
 20
0.0
 11
1.0
 21
1.0
 12
11.0
 22
8.5
 13
0.0
 23
0.0
 14
1.0
 24
1.0
 15
0.0
 25
0.0
 16
0.0
 26
0.0
 36
1.0
 17
0.0
 27
0.0
 37
0.0
 40
17.0
 41
1.2941176471
 42
50.0
 43
0.0
 44
0.0
 50
0.0
 51
0.0
 71
0
 72
100
 73
1
 74
1
 75
0
 76
0
 77
0
 78
0
  0
ENDTAB
  0
TABLE
  2
LTYPE
  5
5
100
AcDbSymbolTable
 70
6
  0
LTYPE
  5
14
100
AcDbSymbolTableRecord
100
AcDbLinetypeTableRecord
  2
BYBLOCK
 70
0
  3

 72
65
 73
0
 40
0.0
  0
LTYPE
  5
15
100
AcDbSymbolTableRecord
100
AcDbLinetypeTableRecord
  2
BYLAYER
 70
0
  3

 72
65
 73
0
 40
0.0
  0
LTYPE
  5
16
100
AcDbSymbolTableRecord
100
AcDbLinetypeTableRecord
  2
CONTINUOUS
 70
64
  3
Solid line
 72
65
 73
0
 40
0.0
  0
LTYPE
  5
1F5
100
AcDbSymbolTableRecord
100
AcDbLinetypeTableRecord
  2
CENTER
 70
64
  3
____ _ ____ _ ____ _ ____ _ ____ _ ____ _ ____
 72
65
 73
4
 40
0.6
 49
0.375
 74
0
 49
-0.075
 74
0
 49
0.075
 74
0
 49
-0.075
 74
0
  0
LTYPE
  5
1F6
100
AcDbSymbolTableRecord
100
AcDbLinetypeTableRecord
  2
HIDDEN
 70
64
  3
- - - - - - - - - - - - - - - - - - - -
 72
65
 73
2
 40
0.2
 49
0.1
 74
0
 49
-0.1
 74
0
  0
LTYPE
  5
1F7
100
AcDbSymbolTableRecord
100
AcDbLinetypeTableRecord
  2
PHANTOM
 70
64
  3
_____ _ _ _____ _ _ _____ _ _ _____
 72
65
 73
6
 40
0.8
 49
0.45
 74
0
 49
-0.05
 74
0
 49
0.1
 74
0
 49
-0.05
 74
0
 49
0.1
 74
0
 49
-0.05
 74
0
  0
LTYPE
  5
1F8
100
AcDbSymbolTableRecord
100
AcDbLinetypeTableRecord
  2
DOT
 70
64
  3
. . . . . . . . . . . . . . . . . . . .
 72
65
 73
2
 40
0.2
 49
0.1
 74
0
 49
-0.1
 74
0
  0
LTYPE
  5
1F9
100
AcDbSymbolTableRecord
100
AcDbLinetypeTableRecord
  2
DASHED
 70
64
  3
- - - - - - - - - - - - - - - - - - - -
 72
65
 73
2
 40
0.2
 49
0.1
 74
0
 49
-0.1
 74
0
  0
ENDTAB
  0
TABLE
  2
LAYER
  5
2
100
AcDbSymbolTable
 70
36
  0
LAYER
  5
10
100
AcDbSymbolTableRecord
100
AcDbLayerTableRecord
  2
0
 70
0
 62
7
  6
CONTINUOUS
370
-3
390
F
  0
LAYER
  5
1FA
100
AcDbSymbolTableRecord
100
AcDbLayerTableRecord
  2
DEFAULT_1
 70
0
 62
7
  6
CENTER
370
-3
390
F
  0
LAYER
  5
1FB
100
AcDbSymbolTableRecord
100
AcDbLayerTableRecord
  2
DEFAULT_2
 70
0
 62
8
  6
HIDDEN
370
-3
390
F
  0
LAYER
  5
1FC
100
AcDbSymbolTableRecord
100
AcDbLayerTableRecord
  2
DEFAULT_3
 70
0
 62
7
  6
PHANTOM
370
-3
390
F
  0
LAYER
  5
1FD
100
AcDbSymbolTableRecord
100
AcDbLayerTableRecord
  2
01_ALL_DTM_PLN
 70
0
 62
7
  6
CONTINUOUS
370
-3
390
F
  0
LAYER
  5
1FE
100
AcDbSymbolTableRecord
100
AcDbLayerTableRecord
  2
01__ASM_ALL_DTM_PLN
 70
0
 62
7
  6
CONTINUOUS
370
-3
390
F
  0
LAYER
  5
1FF
100
AcDbSymbolTableRecord
100
AcDbLayerTableRecord
  2
01__ASM_DEF_DTM_PLN
 70
0
 62
7
  6
CONTINUOUS
370
-3
390
F
  0
LAYER
  5
200
100
AcDbSymbolTableRecord
100
AcDbLayerTableRecord
  2
01___PRT_ALL_DTM_PLN
 70
0
 62
7
  6
CONTINUOUS
370
-3
390
F
  0
LAYER
  5
201
100
AcDbSymbolTableRecord
100
AcDbLayerTableRecord
  2
01___PRT_DEF_DTM_PLN
 70
0
 62
7
  6
CONTINUOUS
370
-3
390
F
  0
LAYER
  5
202
100
AcDbSymbolTableRecord
100
AcDbLayerTableRecord
  2
02_ALL_AXES
 70
0
 62
7
  6
CONTINUOUS
370
-3
390
F
  0
LAYER
  5
203
100
AcDbSymbolTableRecord
100
AcDbLayerTableRecord
  2
02__ASM_ALL_AXES
 70
0
 62
7
  6
CONTINUOUS
370
-3
390
F
  0
LAYER
  5
204
100
AcDbSymbolTableRecord
100
AcDbLayerTableRecord
  2
02___PRT_ALL_AXES
 70
0
 62
7
  6
CONTINUOUS
370
-3
390
F
  0
LAYER
  5
205
100
AcDbSymbolTableRecord
100
AcDbLayerTableRecord
  2
03_ALL_CURVES
 70
0
 62
7
  6
CONTINUOUS
370
-3
390
F
  0
LAYER
  5
206
100
AcDbSymbolTableRecord
100
AcDbLayerTableRecord
  2
03__ASM_ALL_CURVES
 70
0
 62
7
  6
CONTINUOUS
370
-3
390
F
  0
LAYER
  5
207
100
AcDbSymbolTableRecord
100
AcDbLayerTableRecord
  2
03___PRT_ALL_CURVES
 70
0
 62
7
  6
CONTINUOUS
370
-3
390
F
  0
LAYER
  5
208
100
AcDbSymbolTableRecord
100
AcDbLayerTableRecord
  2
04_ALL_DTM_PNT
 70
0
 62
7
  6
CONTINUOUS
370
-3
390
F
  0
LAYER
  5
209
100
AcDbSymbolTableRecord
100
AcDbLayerTableRecord
  2
04__ASM_ALL_DTM_PNT
 70
0
 62
7
  6
CONTINUOUS
370
-3
390
F
  0
LAYER
  5
20A
100
AcDbSymbolTableRecord
100
AcDbLayerTableRecord
  2
04___PRT_ALL_DTM_PNT
 70
0
 62
7
  6
CONTINUOUS
370
-3
390
F
  0
LAYER
  5
20B
100
AcDbSymbolTableRecord
100
AcDbLayerTableRecord
  2
05_ALL_DTM_CSYS
 70
0
 62
7
  6
CONTINUOUS
370
-3
390
F
  0
LAYER
  5
20C
100
AcDbSymbolTableRecord
100
AcDbLayerTableRecord
  2
05__ASM_ALL_DTM_CSYS
 70
0
 62
7
  6
CONTINUOUS
370
-3
390
F
  0
LAYER
  5
20D
100
AcDbSymbolTableRecord
100
AcDbLayerTableRecord
  2
05__ASM_DEF_DTM_CSYS
 70
0
 62
7
  6
CONTINUOUS
370
-3
390
F
  0
LAYER
  5
20E
100
AcDbSymbolTableRecord
100
AcDbLayerTableRecord
  2
05___PRT_ALL_DTM_CSYS
 70
0
 62
7
  6
CONTINUOUS
370
-3
390
F
  0
LAYER
  5
20F
100
AcDbSymbolTableRecord
100
AcDbLayerTableRecord
  2
05___PRT_DEF_DTM_CSYS
 70
0
 62
7
  6
CONTINUOUS
370
-3
390
F
  0
LAYER
  5
210
100
AcDbSymbolTableRecord
100
AcDbLayerTableRecord
  2
06_ALL_SURFS
 70
0
 62
7
  6
CONTINUOUS
370
-3
390
F
  0
LAYER
  5
211
100
AcDbSymbolTableRecord
100
AcDbLayerTableRecord
  2
06__ASM_ALL_SURFS
 70
0
 62
7
  6
CONTINUOUS
370
-3
390
F
  0
LAYER
  5
212
100
AcDbSymbolTableRecord
100
AcDbLayerTableRecord
  2
06___PRT_ALL_SURFS
 70
0
 62
7
  6
CONTINUOUS
370
-3
390
F
  0
LAYER
  5
213
100
AcDbSymbolTableRecord
100
AcDbLayerTableRecord
  2
07__ASM_ALL_SKELETONS
 70
0
 62
7
  6
CONTINUOUS
370
-3
390
F
  0
ENDTAB
  0
TABLE
  2
STYLE
  5
3
100
AcDbSymbolTable
 70
1
  0
STYLE
  5
11
100
AcDbSymbolTableRecord
100
AcDbTextStyleTableRecord
  2
STANDARD
 70
0
 40
0.0
 41
0.8
 50
0.0
 71
0
 42
0.2
  3
txt
  4

  0
STYLE
  5
214
100
AcDbSymbolTableRecord
100
AcDbTextStyleTableRecord
  2
TEXTSTYLE_1
 70
0
 40
0.0
 41
0.8
 50
0.0
 71
0
 42
0.2
  3
gdt
  4

  0
ENDTAB
  0
TABLE
  2
VIEW
  5
6
100
AcDbSymbolTable
 70
0
  0
ENDTAB
  0
TABLE
  2
UCS
  5
7
100
AcDbSymbolTable
 70
0
  0
ENDTAB
  0
TABLE
  2
APPID
  5
9
100
AcDbSymbolTable
 70
1
  0
APPID
  5
215
100
AcDbSymbolTableRecord
100
AcDbRegAppTableRecord
  2
ACAD
 70
0
  0
ENDTAB
  0
TABLE
  2
BLOCK_RECORD
  5
1
100
AcDbSymbolTable
 70
0
  0
BLOCK_RECORD
  5
216
100
AcDbSymbolTableRecord
100
AcDbBlockTableRecord
  2
*Model_Space
  0
BLOCK_RECORD
  5
217
100
AcDbSymbolTableRecord
100
AcDbBlockTableRecord
  2
*Paper_Space
  0
ENDTAB
  0
TABLE
  2
DIMSTYLE
  5
A
100
AcDbSymbolTable
 70
1
100
AcDbDimStyleTable
 71
0
  0
DIMSTYLE
105
218
100
AcDbSymbolTableRecord
100
AcDbDimStyleTableRecord
  2
STANDARD
 70
0
  3

  4

 40
1.0
 41
0.1875
 42
0.0625
 43
0.38
 44
0.125
 45
0.0
 46
0.0
 47
0.0001
 48
0.0001
140
0.15625
141
0.09
142
0.0
143
25.4
144
1.0
145
0.0
146
1.0
147
0.09
 71
0.0
 72
0.0
 73
1
 74
1
 75
0
 76
0
 77
0
 78
4
 79
1
170
0
171
3
172
0
173
0
174
0
175
0
176
0
177
0
178
0
270
2
179
4
271
4
272
4
273
2
274
2
275
0
280
0
281
0
282
0
283
1
284
4
285
0
286
0
287
3
288
0
340
11
278
46
  0
ENDTAB
  0
ENDSEC
  0
SECTION
  2
BLOCKS
  0
BLOCK
  5
20
100
AcDbEntity
  8
0
100
AcDbBlockBegin
  2
*Model_Space
 70
0
 10
0.0
 20
0.0
 30
0.0
  3
*Model_Space
  1

  0
ENDBLK
  5
21
100
AcDbEntity
  8
0
100
AcDbBlockEnd
  0
BLOCK
  5
1C
100
AcDbEntity
  8
0
100
AcDbBlockBegin
  2
*Paper_Space
 70
0
 10
0.0
 20
0.0
 30
0.0
  3
*Paper_Space
  1

  0
ENDBLK
  5
1D
100
AcDbEntity
  8
0
100
AcDbBlockEnd
  0
ENDSEC
  0
SECTION
  2
ENTITIES
  0
MTEXT
  5
219
100
AcDbEntity
  8
0
100
AcDbMText
 62
7
  6
CONTINUOUS
  7
STANDARD
 71
1
 72
1
 10
15.9560215477
 20
0.9479130325
 30
0.0
 11
1.0
 21
0.0
 31
0.0
 44
0.9
  1
SCALE: 1:1.000
 40
0.3
 41
3.36
  0
LINE
  5
21A
100
AcDbEntity
  8
0
100
AcDbLine
 62
7
  6
CONTINUOUS
 10
0.0
 20
0.0
 11
0.0
 21
17.0
  0
LINE
  5
21B
100
AcDbEntity
  8
0
100
AcDbLine
 62
7
  6
CONTINUOUS
 10
0.0
 20
0.0
 11
22.0
 21
0.0
  0
LINE
  5
21C
100
AcDbEntity
  8
0
100
AcDbLine
 62
7
  6
CONTINUOUS
 10
0.0
 20
17.0
 11
22.0
 21
17.0
  0
LINE
  5
21D
100
AcDbEntity
  8
0
100
AcDbLine
 62
7
  6
CONTINUOUS
 10
22.0
 20
0.0
 11
22.0
 21
17.0
  0
LINE
  5
21E
100
AcDbEntity
  8
0
100
AcDbLine
 62
7
  6
CONTINUOUS
 10
5.5366172762
 20
5.6851198968
 11
5.5366172762
 21
5.6265134576
  0
LINE
  5
21F
100
AcDbEntity
  8
0
100
AcDbLine
 62
7
  6
CONTINUOUS
 10
5.5979413569
 20
5.3494961204
 11
5.5391802697
 21
5.6040183521
  0
LINE
  5
220
100
AcDbEntity
  8
0
100
AcDbLine
 62
7
  6
CONTINUOUS
 10
5.6223006086
 20
5.3301198968
 11
6.6384339438
 21
5.3301198968
  0
LINE
  5
221
100
AcDbEntity
  8
0
100
AcDbLine
 62
7
  6
CONTINUOUS
 10
5.5930573043
 20
5.4567865634
 11
6.667677248
 21
5.4567865634
  0
LINE
  5
222
100
AcDbEntity
  8
0
100
AcDbLine
 62
7
  6
CONTINUOUS
 10
6.6991172762
 20
5.7101198968
 11
5.5616172762
 21
5.7101198968
  0
LINE
  5
223
100
AcDbEntity
  8
0
100
AcDbLine
 62
7
  6
CONTINUOUS
 10
6.7241172762
 20
5.6265134576
 11
6.7241172762
 21
5.6851198968
  0
LINE
  5
224
100
AcDbEntity
  8
0
100
AcDbLine
 62
7
  6
CONTINUOUS
 10
6.6627931954
 20
5.3494961204
 11
6.7215542826
 21
5.6040183521
  0
LINE
  5
225
100
AcDbEntity
  8
0
100
AcDbLine
 62
7
  6
CONTINUOUS
 10
6.6646220839
 20
10.6000477814
 11
5.4771220839
 21
10.6000477814
  0
LINE
  5
226
100
AcDbEntity
  8
0
100
AcDbLine
 62
7
  6
CONTINUOUS
 10
5.4771220839
 20
10.6000477814
 11
5.4771220839
 21
14.6000477814
  0
LINE
  5
227
100
AcDbEntity
  8
0
100
AcDbLine
 62
7
  6
CONTINUOUS
 10
6.6646220839
 20
10.6000477814
 11
6.6646220839
 21
14.6000477814
  0
LINE
  5
228
100
AcDbEntity
  8
0
100
AcDbLine
 62
7
  6
CONTINUOUS
 10
5.4771220839
 20
14.6000477814
 11
6.6646220839
 21
14.6000477814
  0
LINE
  5
229
100
AcDbEntity
  8
0
100
AcDbLine
 62
7
  6
CONTINUOUS
 10
13.5603552569
 20
5.3972913711
 11
13.5603552569
 21
5.6506247044
  0
LINE
  5
22A
100
AcDbEntity
  8
0
100
AcDbLine
 62
7
  6
CONTINUOUS
 10
13.6763998529
 20
5.3727481545
 11
13.694310661
 21
5.2951679211
  0
LINE
  5
22B
100
AcDbEntity
  8
0
100
AcDbLine
 62
7
  6
CONTINUOUS
 10
13.9263998529
 20
5.2951679211
 11
13.944310661
 21
5.3727481545
  0
LINE
  5
22C
100
AcDbEntity
  8
0
100
AcDbLine
 62
7
  6
CONTINUOUS
 10
14.1763998529
 20
5.3727481545
 11
14.194310661
 21
5.2951679211
  0
LINE
  5
22D
100
AcDbEntity
  8
0
100
AcDbLine
 62
7
  6
CONTINUOUS
 10
14.4263998529
 20
5.2951679211
 11
14.444310661
 21
5.3727481545
  0
LINE
  5
22E
100
AcDbEntity
  8
0
100
AcDbLine
 62
7
  6
CONTINUOUS
 10
14.6763998529
 20
5.3727481545
 11
14.694310661
 21
5.2951679211
  0
LINE
  5
22F
100
AcDbEntity
  8
0
100
AcDbLine
 62
7
  6
CONTINUOUS
 10
14.9263998529
 20
5.2951679211
 11
14.944310661
 21
5.3727481545
  0
LINE
  5
230
100
AcDbEntity
  8
0
100
AcDbLine
 62
7
  6
CONTINUOUS
 10
15.1763998529
 20
5.3727481545
 11
15.194310661
 21
5.2951679211
  0
LINE
  5
231
100
AcDbEntity
  8
0
100
AcDbLine
 62
7
  6
CONTINUOUS
 10
13.7251657131
 20
5.2706247044
 11
13.8955448008
 21
5.2706247044
  0
LINE
  5
232
100
AcDbEntity
  8
0
100
AcDbLine
 62
7
  6
CONTINUOUS
 10
14.2251657131
 20
5.2706247044
 11
14.3955448008
 21
5.2706247044
  0
LINE
  5
233
100
AcDbEntity
  8
0
100
AcDbLine
 62
7
  6
CONTINUOUS
 10
14.7251657131
 20
5.2706247044
 11
14.8955448008
 21
5.2706247044
  0
LINE
  5
234
100
AcDbEntity
  8
0
100
AcDbLine
 62
7
  6
CONTINUOUS
 10
15.2251657131
 20
5.2706247044
 11
15.3955448008
 21
5.2706247044
  0
LINE
  5
235
100
AcDbEntity
  8
0
100
AcDbLine
 62
7
  6
CONTINUOUS
 10
15.7251657131
 20
5.2706247044
 11
15.8955448008
 21
5.2706247044
  0
LINE
  5
236
100
AcDbEntity
  8
0
100
AcDbLine
 62
7
  6
CONTINUOUS
 10
16.2251657131
 20
5.2706247044
 11
16.3955448008
 21
5.2706247044
  0
LINE
  5
237
100
AcDbEntity
  8
0
100
AcDbLine
 62
7
  6
CONTINUOUS
 10
16.7251657131
 20
5.2706247044
 11
16.8955448008
 21
5.2706247044
  0
LINE
  5
238
100
AcDbEntity
  8
0
100
AcDbLine
 62
7
  6
CONTINUOUS
 10
17.2251657131
 20
5.2706247044
 11
17.3955448008
 21
5.2706247044
  0
LINE
  5
239
100
AcDbEntity
  8
0
100
AcDbLine
 62
7
  6
CONTINUOUS
 10
15.4263998529
 20
5.2951679211
 11
15.444310661
 21
5.3727481545
  0
LINE
  5
23A
100
AcDbEntity
  8
0
100
AcDbLine
 62
7
  6
CONTINUOUS
 10
13.5603552569
 20
5.3972913711
 11
13.6455448008
 21
5.3972913711
  0
LINE
  5
23B
100
AcDbEntity
  8
0
100
AcDbLine
 62
7
  6
CONTINUOUS
 10
13.9751657131
 20
5.3972913711
 11
14.1455448008
 21
5.3972913711
  0
LINE
  5
23C
100
AcDbEntity
  8
0
100
AcDbLine
 62
7
  6
CONTINUOUS
 10
14.4751657131
 20
5.3972913711
 11
14.6455448008
 21
5.3972913711
  0
LINE
  5
23D
100
AcDbEntity
  8
0
100
AcDbLine
 62
7
  6
CONTINUOUS
 10
14.9751657131
 20
5.3972913711
 11
15.1455448008
 21
5.3972913711
  0
LINE
  5
23E
100
AcDbEntity
  8
0
100
AcDbLine
 62
7
  6
CONTINUOUS
 10
15.4751657131
 20
5.3972913711
 11
15.6455448008
 21
5.3972913711
  0
LINE
  5
23F
100
AcDbEntity
  8
0
100
AcDbLine
 62
7
  6
CONTINUOUS
 10
15.9751657131
 20
5.3972913711
 11
16.1455448008
 21
5.3972913711
  0
LINE
  5
240
100
AcDbEntity
  8
0
100
AcDbLine
 62
7
  6
CONTINUOUS
 10
16.4751657131
 20
5.3972913711
 11
16.6455448008
 21
5.3972913711
  0
LINE
  5
241
100
AcDbEntity
  8
0
100
AcDbLine
 62
7
  6
CONTINUOUS
 10
16.9751657131
 20
5.3972913711
 11
17.1455448008
 21
5.3972913711
  0
LINE
  5
242
100
AcDbEntity
  8
0
100
AcDbLine
 62
7
  6
CONTINUOUS
 10
17.4751657131
 20
5.3972913711
 11
17.5603552569
 21
5.3972913711
  0
LINE
  5
243
100
AcDbEntity
  8
0
100
AcDbLine
 62
7
  6
CONTINUOUS
 10
15.6763998529
 20
5.3727481545
 11
15.694310661
 21
5.2951679211
  0
LINE
  5
244
100
AcDbEntity
  8
0
100
AcDbLine
 62
7
  6
CONTINUOUS
 10
13.5603552569
 20
5.6506247044
 11
17.5603552569
 21
5.6506247044
  0
LINE
  5
245
100
AcDbEntity
  8
0
100
AcDbLine
 62
7
  6
CONTINUOUS
 10
15.9263998529
 20
5.2951679211
 11
15.944310661
 21
5.3727481545
  0
LINE
  5
246
100
AcDbEntity
  8
0
100
AcDbLine
 62
7
  6
CONTINUOUS
 10
16.1763998529
 20
5.3727481545
 11
16.194310661
 21
5.2951679211
  0
LINE
  5
247
100
AcDbEntity
  8
0
100
AcDbLine
 62
7
  6
CONTINUOUS
 10
16.4263998529
 20
5.2951679211
 11
16.444310661
 21
5.3727481545
  0
LINE
  5
248
100
AcDbEntity
  8
0
100
AcDbLine
 62
7
  6
CONTINUOUS
 10
16.6763998529
 20
5.3727481545
 11
16.694310661
 21
5.2951679211
  0
LINE
  5
249
100
AcDbEntity
  8
0
100
AcDbLine
 62
7
  6
CONTINUOUS
 10
16.9263998529
 20
5.2951679211
 11
16.944310661
 21
5.3727481545
  0
LINE
  5
24A
100
AcDbEntity
  8
0
100
AcDbLine
 62
7
  6
CONTINUOUS
 10
17.1763998529
 20
5.3727481545
 11
17.194310661
 21
5.2951679211
  0
LINE
  5
24B
100
AcDbEntity
  8
0
100
AcDbLine
 62
7
  6
CONTINUOUS
 10
17.5603552569
 20
5.3972913711
 11
17.5603552569
 21
5.6506247044
  0
LINE
  5
24C
100
AcDbEntity
  8
0
100
AcDbLine
 62
7
  6
CONTINUOUS
 10
17.4263998529
 20
5.2951679211
 11
17.444310661
 21
5.3727481545
  0
LINE
  5
24D
100
AcDbEntity
  8
0
100
AcDbLine
 62
7
  6
CONTINUOUS
 10
14.4507185076
 20
10.9569346585
 11
14.5169074864
 21
10.8774583648
  0
LWPOLYLINE
  5
24E
100
AcDbEntity
  8
0
100
AcDbPolyline
 62
7
  6
CONTINUOUS
 90
6
 70
0
 10
15.5775087297
 20
10.9037951779
 10
15.5785495196
 20
10.9038161772
 10
15.5872214972
 20
10.905724278
 10
15.5941231251
 20
10.9099633522
 10
15.5991031088
 20
10.9156560406
 10
15.6020936889
 20
10.9215827143
  0
LINE
  5
24F
100
AcDbEntity
  8
0
100
AcDbLine
 62
7
  6
CONTINUOUS
 10
14.5452544024
 20
10.865413911
 11
15.5350449158
 21
10.865413911
  0
LINE
  5
250
100
AcDbEntity
  8
0
100
AcDbLine
 62
7
  6
CONTINUOUS
 10
15.5606436287
 20
10.9037947626
 11
15.5775220487
 21
10.9037947626
  0
LINE
  5
251
100
AcDbEntity
  8
0
100
AcDbLine
 62
7
  6
CONTINUOUS
 10
14.4236184677
 20
11.0073481871
 11
14.4414958853
 21
10.9709178403
  0
LINE
  5
252
100
AcDbEntity
  8
0
100
AcDbLine
 62
7
  6
CONTINUOUS
 10
15.4867258266
 20
11.0228884363
 11
14.4390189459
 21
11.0228884363
  0
LWPOLYLINE
  5
253
100
AcDbEntity
  8
0
100
AcDbPolyline
 62
7
  6
CONTINUOUS
 90
6
 70
0
 10
15.6985418914
 20
11.2954586327
 10
15.6995826813
 20
11.295479632
 10
15.7082546589
 20
11.2973877328
 10
15.7151562868
 20
11.301626807
 10
15.7201362705
 20
11.3073194954
 10
15.7231268506
 20
11.3132461692
  0
LINE
  5
254
100
AcDbEntity
  8
0
100
AcDbLine
 62
7
  6
CONTINUOUS
 10
15.6816767904
 20
11.2954582174
 11
15.6985552104
 21
11.2954582174
  0
LWPOLYLINE
  5
255
100
AcDbEntity
  8
0
100
AcDbPolyline
 62
7
  6
CONTINUOUS
 90
6
 70
0
 10
15.8195750531
 20
11.6871220875
 10
15.820615843
 20
11.6871430868
 10
15.8292878206
 20
11.6890511876
 10
15.8361894485
 20
11.6932902618
 10
15.8411694322
 20
11.6989829503
 10
15.8441600123
 20
11.704909624
  0
LINE
  5
256
100
AcDbEntity
  8
0
100
AcDbLine
 62
7
  6
CONTINUOUS
 10
15.8027099521
 20
11.6871216723
 11
15.8195883721
 21
11.6871216723
  0
LINE
  5
257
100
AcDbEntity
  8
0
100
AcDbLine
 62
7
  6
CONTINUOUS
 10
14.4227594714
 20
11.0147293714
 11
15.3910247651
 21
14.1480370099
  0
LINE
  5
258
100
AcDbEntity
  8
0
100
AcDbLine
 62
7
  6
CONTINUOUS
 10
15.5352558157
 20
10.9709178403
 11
15.5173783981
 21
11.0073481871
  0
LWPOLYLINE
  5
259
100
AcDbEntity
  8
0
100
AcDbPolyline
 62
7
  6
CONTINUOUS
 90
6
 70
0
 10
15.9406082148
 20
12.0787855423
 10
15.9416490047
 20
12.0788065417
 10
15.9503209823
 20
12.0807146424
 10
15.9572226102
 20
12.0849537167
 10
15.9622025939
 20
12.0906464051
 10
15.965193174
 20
12.0965730788
  0
LINE
  5
25A
100
AcDbEntity
  8
0
100
AcDbLine
 62
7
  6
CONTINUOUS
 10
15.9237431138
 20
12.0787851271
 11
15.9406215338
 21
12.0787851271
  0
LINE
  5
25B
100
AcDbEntity
  8
0
100
AcDbLine
 62
7
  6
CONTINUOUS
 10
15.5515707129
 20
10.8774583648
 11
15.5397570913
 21
10.9569346585
  0
LWPOLYLINE
  5
25C
100
AcDbEntity
  8
0
100
AcDbPolyline
 62
7
  6
CONTINUOUS
 90
6
 70
0
 10
16.0616413765
 20
12.4704489972
 10
16.0626821664
 20
12.4704699965
 10
16.071354144
 20
12.4723780972
 10
16.0782557719
 20
12.4766171715
 10
16.0832357556
 20
12.4823098599
 10
16.0862263357
 20
12.4882365336
  0
LINE
  5
25D
100
AcDbEntity
  8
0
100
AcDbLine
 62
7
  6
CONTINUOUS
 10
16.0447762755
 20
12.4704485819
 11
16.0616546956
 21
12.4704485819
  0
LINE
  5
25E
100
AcDbEntity
  8
0
100
AcDbLine
 62
7
  6
CONTINUOUS
 10
15.6463298936
 20
11.0742164338
 11
15.6434972246
 21
11.1364710978
  0
LINE
  5
25F
100
AcDbEntity
  8
0
100
AcDbLine
 62
7
  6
CONTINUOUS
 10
15.6463619962
 20
11.0732586595
 11
15.6463293615
 21
11.0742280173
  0
LWPOLYLINE
  5
260
100
AcDbEntity
  8
0
100
AcDbPolyline
 62
7
  6
CONTINUOUS
 90
6
 70
0
 10
15.6434959687
 20
11.1364928241
 10
15.6433915717
 20
11.1403513837
 10
15.6437620873
 20
11.1527037838
 10
15.6451882216
 20
11.1671249423
 10
15.6475591897
 20
11.1816452503
 10
15.6504798031
 20
11.1942385284
  0
LINE
  5
261
100
AcDbEntity
  8
0
100
AcDbLine
 62
7
  6
CONTINUOUS
 10
15.7673630553
 20
11.4658798886
 11
15.7645303863
 21
11.5281345527
  0
LINE
  5
262
100
AcDbEntity
  8
0
100
AcDbLine
 62
7
  6
CONTINUOUS
 10
15.7673951579
 20
11.4649221143
 11
15.7673625232
 21
11.4658914721
  0
LWPOLYLINE
  5
263
100
AcDbEntity
  8
0
100
AcDbPolyline
 62
7
  6
CONTINUOUS
 90
6
 70
0
 10
15.7645291304
 20
11.5281562789
 10
15.7644247334
 20
11.5320148385
 10
15.764795249
 20
11.5443672387
 10
15.7662213833
 20
11.5587883971
 10
15.7685923514
 20
11.5733087051
 10
15.7715129648
 20
11.5859019832
  0
LINE
  5
264
100
AcDbEntity
  8
0
100
AcDbLine
 62
7
  6
CONTINUOUS
 10
15.6461845119
 20
11.0681141898
 11
15.6463619962
 21
11.0732586595
  0
LINE
  5
265
100
AcDbEntity
  8
0
100
AcDbLine
 62
7
  6
CONTINUOUS
 10
15.5513029645
 20
10.873573415
 11
15.5515707129
 21
10.8774583648
  0
LINE
  5
266
100
AcDbEntity
  8
0
100
AcDbLine
 62
7
  6
CONTINUOUS
 10
16.4229073369
 20
13.6917349932
 11
16.4233178375
 21
13.6924683599
  0
LINE
  5
267
100
AcDbEntity
  8
0
100
AcDbLine
 62
7
  6
CONTINUOUS
 10
15.888396217
 20
11.8575433434
 11
15.885563548
 21
11.9197980075
  0
LINE
  5
268
100
AcDbEntity
  8
0
100
AcDbLine
 62
7
  6
CONTINUOUS
 10
15.8884283196
 20
11.8565855692
 11
15.8883956849
 21
11.8575549269
  0
LWPOLYLINE
  5
269
100
AcDbEntity
  8
0
100
AcDbPolyline
 62
7
  6
CONTINUOUS
 90
6
 70
0
 10
15.8855622921
 20
11.9198197337
 10
15.8854578951
 20
11.9236782933
 10
15.8858284107
 20
11.9360306935
 10
15.887254545
 20
11.9504518519
 10
15.8896255131
 20
11.9649721599
 10
15.8925461265
 20
11.9775654381
  0
LINE
  5
26A
100
AcDbEntity
  8
0
100
AcDbLine
 62
7
  6
CONTINUOUS
 10
15.7672176737
 20
11.4597776447
 11
15.7673951579
 21
11.4649221143
  0
LINE
  5
26B
100
AcDbEntity
  8
0
100
AcDbLine
 62
7
  6
CONTINUOUS
 10
15.6454870361
 20
11.062931525
 11
15.6461845119
 21
11.0681141898
  0
LINE
  5
26C
100
AcDbEntity
  8
0
100
AcDbLine
 62
7
  6
CONTINUOUS
 10
16.4213980594
 20
13.6883725285
 11
16.4229073369
 21
13.6917349932
  0
LINE
  5
26D
100
AcDbEntity
  8
0
100
AcDbLine
 62
7
  6
CONTINUOUS
 10
16.3018741752
 20
13.3000715383
 11
16.3022846758
 21
13.3008049051
  0
LWPOLYLINE
  5
26E
100
AcDbEntity
  8
0
100
AcDbPolyline
 62
7
  6
CONTINUOUS
 90
6
 70
0
 10
16.1826745382
 20
12.862112452
 10
16.1837153281
 20
12.8621334513
 10
16.1923873057
 20
12.864041552
 10
16.1992889336
 20
12.8682806263
 10
16.2042689173
 20
12.8739733147
 10
16.2072594974
 20
12.8798999884
  0
LINE
  5
26F
100
AcDbEntity
  8
0
100
AcDbLine
 62
7
  6
CONTINUOUS
 10
16.1658094372
 20
12.8621120367
 11
16.1826878573
 21
12.8621120367
  0
LINE
  5
270
100
AcDbEntity
  8
0
100
AcDbLine
 62
7
  6
CONTINUOUS
 10
16.0094293787
 20
12.2492067983
 11
16.0065967097
 21
12.3114614623
  0
LINE
  5
271
100
AcDbEntity
  8
0
100
AcDbLine
 62
7
  6
CONTINUOUS
 10
16.0094614813
 20
12.248249024
 11
16.0094288466
 21
12.2492183817
  0
LWPOLYLINE
  5
272
100
AcDbEntity
  8
0
100
AcDbPolyline
 62
7
  6
CONTINUOUS
 90
6
 70
0
 10
16.0065954538
 20
12.3114831885
 10
16.0064910568
 20
12.3153417481
 10
16.0068615724
 20
12.3276941483
 10
16.0082877068
 20
12.3421153067
 10
16.0106586748
 20
12.3566356147
 10
16.0135792882
 20
12.3692288929
  0
LINE
  5
273
100
AcDbEntity
  8
0
100
AcDbLine
 62
7
  6
CONTINUOUS
 10
15.8882508354
 20
11.8514410995
 11
15.8884283196
 21
11.8565855692
  0
LINE
  5
274
100
AcDbEntity
  8
0
100
AcDbLine
 62
7
  6
CONTINUOUS
 10
15.7665201978
 20
11.4545949798
 11
15.7672176737
 21
11.4597776447
  0
LINE
  5
275
100
AcDbEntity
  8
0
100
AcDbLine
 62
7
  6
CONTINUOUS
 10
15.8875533595
 20
11.8462584346
 11
15.8882508354
 21
11.8514410995
  0
LINE
  5
276
100
AcDbEntity
  8
0
100
AcDbLine
 62
7
  6
CONTINUOUS
 10
16.3003648977
 20
13.2967090736
 11
16.3018741752
 21
13.3000715383
  0
LINE
  5
277
100
AcDbEntity
  8
0
100
AcDbLine
 62
7
  6
CONTINUOUS
 10
16.179331736
 20
12.9050456188
 11
16.1808410135
 21
12.9084080835
  0
LINE
  5
278
100
AcDbEntity
  8
0
100
AcDbLine
 62
7
  6
CONTINUOUS
 10
16.0582985743
 20
12.513382164
 11
16.0598078518
 21
12.5167446287
  0
LINE
  5
279
100
AcDbEntity
  8
0
100
AcDbLine
 62
7
  6
CONTINUOUS
 10
16.1808410135
 20
12.9084080835
 11
16.1812515141
 21
12.9091414503
  0
LINE
  5
27A
100
AcDbEntity
  8
0
100
AcDbLine
 62
7
  6
CONTINUOUS
 10
16.0598078518
 20
12.5167446287
 11
16.0602183524
 21
12.5174779955
  0
LINE
  5
27B
100
AcDbEntity
  8
0
100
AcDbLine
 62
7
  6
CONTINUOUS
 10
16.1304625404
 20
12.6408702531
 11
16.1276298714
 21
12.7031249171
  0
LINE
  5
27C
100
AcDbEntity
  8
0
100
AcDbLine
 62
7
  6
CONTINUOUS
 10
16.130494643
 20
12.6399124788
 11
16.1304620083
 21
12.6408818365
  0
LWPOLYLINE
  5
27D
100
AcDbEntity
  8
0
100
AcDbPolyline
 62
7
  6
CONTINUOUS
 90
6
 70
0
 10
16.1276286155
 20
12.7031466433
 10
16.1275242185
 20
12.7070052029
 10
16.1278947341
 20
12.7193576031
 10
16.1293208685
 20
12.7337787616
 10
16.1316918365
 20
12.7482990695
 10
16.1346124499
 20
12.7608923477
  0
LINE
  5
27E
100
AcDbEntity
  8
0
100
AcDbLine
 62
7
  6
CONTINUOUS
 10
16.0092839971
 20
12.2431045543
 11
16.0094614813
 21
12.248249024
  0
LINE
  5
27F
100
AcDbEntity
  8
0
100
AcDbLine
 62
7
  6
CONTINUOUS
 10
16.1303171588
 20
12.6347680091
 11
16.130494643
 21
12.6399124788
  0
LINE
  5
280
100
AcDbEntity
  8
0
100
AcDbLine
 62
7
  6
CONTINUOUS
 10
16.0085865212
 20
12.2379218894
 11
16.0092839971
 21
12.2431045543
  0
LINE
  5
281
100
AcDbEntity
  8
0
100
AcDbLine
 62
7
  6
CONTINUOUS
 10
16.1296196829
 20
12.6295853442
 11
16.1303171588
 21
12.6347680091
  0
LINE
  5
282
100
AcDbEntity
  8
0
100
AcDbLine
 62
7
  6
CONTINUOUS
 10
15.6504798031
 20
11.1942385284
 11
15.6517100056
 21
11.1984909037
  0
LINE
  5
283
100
AcDbEntity
  8
0
100
AcDbLine
 62
7
  6
CONTINUOUS
 10
15.7715129648
 20
11.5859019832
 11
15.7727431673
 21
11.5901543586
  0
LINE
  5
284
100
AcDbEntity
  8
0
100
AcDbLine
 62
7
  6
CONTINUOUS
 10
15.8925461265
 20
11.9775654381
 11
15.893776329
 21
11.9818178134
  0
LINE
  5
285
100
AcDbEntity
  8
0
100
AcDbLine
 62
7
  6
CONTINUOUS
 10
16.0135792882
 20
12.3692288929
 11
16.0148094907
 21
12.3734812682
  0
LINE
  5
286
100
AcDbEntity
  8
0
100
AcDbLine
 62
7
  6
CONTINUOUS
 10
16.1346124499
 20
12.7608923477
 11
16.1358426524
 21
12.765144723
  0
LINE
  5
287
100
AcDbEntity
  8
0
100
AcDbLine
 62
7
  6
CONTINUOUS
 10
16.2556456116
 20
13.1525558025
 11
16.2568758141
 21
13.1568081778
  0
LINE
  5
288
100
AcDbEntity
  8
0
100
AcDbLine
 62
7
  6
CONTINUOUS
 10
16.3766787733
 20
13.5442192573
 11
16.3779089758
 21
13.5484716326
  0
LINE
  5
289
100
AcDbEntity
  8
0
100
AcDbLine
 62
7
  6
CONTINUOUS
 10
16.497711935
 20
13.9358827121
 11
16.4989421375
 21
13.9401350874
  0
LWPOLYLINE
  5
28A
100
AcDbEntity
  8
0
100
AcDbPolyline
 62
7
  6
CONTINUOUS
 90
3
 70
0
 10
15.6441444706
 20
11.0573930767
 10
15.6443196106
 20
11.0579742597
 10
15.6454870361
 20
11.062931525
  0
LWPOLYLINE
  5
28B
100
AcDbEntity
  8
0
100
AcDbPolyline
 62
7
  6
CONTINUOUS
 90
3
 70
0
 10
15.7651776323
 20
11.4490565316
 10
15.7653527723
 20
11.4496377145
 10
15.7665201978
 20
11.4545949798
  0
LWPOLYLINE
  5
28C
100
AcDbEntity
  8
0
100
AcDbPolyline
 62
7
  6
CONTINUOUS
 90
3
 70
0
 10
15.886210794
 20
11.8407199864
 10
15.886385934
 20
11.8413011694
 10
15.8875533595
 20
11.8462584346
  0
LWPOLYLINE
  5
28D
100
AcDbEntity
  8
0
100
AcDbPolyline
 62
7
  6
CONTINUOUS
 90
3
 70
0
 10
16.0072439557
 20
12.2323834412
 10
16.0074190957
 20
12.2329646242
 10
16.0085865212
 20
12.2379218894
  0
LWPOLYLINE
  5
28E
100
AcDbEntity
  8
0
100
AcDbPolyline
 62
7
  6
CONTINUOUS
 90
3
 70
0
 10
16.1282771174
 20
12.624046896
 10
16.1284522574
 20
12.624628079
 10
16.1296196829
 20
12.6295853442
  0
LWPOLYLINE
  5
28F
100
AcDbEntity
  8
0
100
AcDbPolyline
 62
7
  6
CONTINUOUS
 90
3
 70
0
 10
16.2493102791
 20
13.0157103508
 10
16.2494854191
 20
13.0162915338
 10
16.2506528446
 20
13.021248799
  0
LWPOLYLINE
  5
290
100
AcDbEntity
  8
0
100
AcDbPolyline
 62
7
  6
CONTINUOUS
 90
3
 70
0
 10
16.3703434408
 20
13.4073738056
 10
16.3705185808
 20
13.4079549886
 10
16.3716860063
 20
13.4129122538
  0
LWPOLYLINE
  5
291
100
AcDbEntity
  8
0
100
AcDbPolyline
 62
7
  6
CONTINUOUS
 90
3
 70
0
 10
16.4913766025
 20
13.7990372604
 10
16.4915517425
 20
13.7996184434
 10
16.492719168
 20
13.8045757087
  0
LINE
  5
292
100
AcDbEntity
  8
0
100
AcDbLine
 62
7
  6
CONTINUOUS
 10
16.4989481642
 20
13.9401493522
 11
16.5195696839
 21
14.0068806144
  0
LINE
  5
293
100
AcDbEntity
  8
0
100
AcDbLine
 62
7
  6
CONTINUOUS
 10
15.602903221
 20
10.9239361786
 11
15.6441462636
 21
11.0573987131
  0
LINE
  5
294
100
AcDbEntity
  8
0
100
AcDbLine
 62
7
  6
CONTINUOUS
 10
15.7239363828
 20
11.3155996334
 11
15.7651794253
 21
11.4490621679
  0
LINE
  5
295
100
AcDbEntity
  8
0
100
AcDbLine
 62
7
  6
CONTINUOUS
 10
15.8449695445
 20
11.7072630882
 11
15.886212587
 21
11.8407256227
  0
LINE
  5
296
100
AcDbEntity
  8
0
100
AcDbLine
 62
7
  6
CONTINUOUS
 10
15.9660027062
 20
12.098926543
 11
16.0072457487
 21
12.2323890775
  0
LINE
  5
297
100
AcDbEntity
  8
0
100
AcDbLine
 62
7
  6
CONTINUOUS
 10
16.0870358679
 20
12.4905899978
 11
16.1282789104
 21
12.6240525323
  0
LINE
  5
298
100
AcDbEntity
  8
0
100
AcDbLine
 62
7
  6
CONTINUOUS
 10
16.2080690296
 20
12.8822534526
 11
16.2493120721
 21
13.0157159871
  0
LINE
  5
299
100
AcDbEntity
  8
0
100
AcDbLine
 62
7
  6
CONTINUOUS
 10
16.3291021913
 20
13.2739169074
 11
16.3703452338
 21
13.4073794419
  0
LINE
  5
29A
100
AcDbEntity
  8
0
100
AcDbLine
 62
7
  6
CONTINUOUS
 10
16.450135353
 20
13.6655803622
 11
16.4913783955
 21
13.7990428968
  0
LWPOLYLINE
  5
29B
100
AcDbEntity
  8
0
100
AcDbPolyline
 62
7
  6
CONTINUOUS
 90
3
 70
0
 10
16.3779150025
 20
13.5484858974
 10
16.4194241581
 20
13.6827978645
 10
16.4213980594
 20
13.6883725285
  0
LWPOLYLINE
  5
29C
100
AcDbEntity
  8
0
100
AcDbPolyline
 62
7
  6
CONTINUOUS
 90
3
 70
0
 10
16.2568818408
 20
13.1568224426
 10
16.2983909964
 20
13.2911344097
 10
16.3003648977
 20
13.2967090736
  0
LWPOLYLINE
  5
29D
100
AcDbEntity
  8
0
100
AcDbPolyline
 62
7
  6
CONTINUOUS
 90
3
 70
0
 10
16.1358486791
 20
12.7651589878
 10
16.1773578346
 20
12.8994709548
 10
16.179331736
 20
12.9050456188
  0
LWPOLYLINE
  5
29E
100
AcDbEntity
  8
0
100
AcDbPolyline
 62
7
  6
CONTINUOUS
 90
3
 70
0
 10
16.0148155174
 20
12.373495533
 10
16.0563246729
 20
12.5078075
 10
16.0582985743
 20
12.513382164
  0
LWPOLYLINE
  5
29F
100
AcDbEntity
  8
0
100
AcDbPolyline
 62
7
  6
CONTINUOUS
 90
3
 70
0
 10
15.8937823557
 20
11.9818320781
 10
15.9352915112
 20
12.1161440452
 10
15.9372654126
 20
12.1217187092
  0
LWPOLYLINE
  5
2A0
100
AcDbEntity
  8
0
100
AcDbPolyline
 62
7
  6
CONTINUOUS
 90
3
 70
0
 10
15.772749194
 20
11.5901686233
 10
15.8142583495
 20
11.7244805904
 10
15.8162322508
 20
11.7300552544
  0
LWPOLYLINE
  5
2A1
100
AcDbEntity
  8
0
100
AcDbPolyline
 62
7
  6
CONTINUOUS
 90
3
 70
0
 10
15.6517160323
 20
11.1985051685
 10
15.6932251878
 20
11.3328171356
 10
15.6951990891
 20
11.3383917996
  0
LWPOLYLINE
  5
2A2
100
AcDbEntity
  8
0
100
AcDbPolyline
 62
7
  6
CONTINUOUS
 90
3
 70
0
 10
15.5524236177
 20
10.8771947972
 10
15.5721920261
 20
10.9411536808
 10
15.5741659274
 20
10.9467283448
  0
LINE
  5
2A3
100
AcDbEntity
  8
0
100
AcDbLine
 62
7
  6
CONTINUOUS
 10
16.4493258208
 20
13.663226898
 11
16.4501480844
 21
13.6656219809
  0
LINE
  5
2A4
100
AcDbEntity
  8
0
100
AcDbLine
 62
7
  6
CONTINUOUS
 10
16.3282926591
 20
13.2715634432
 11
16.3291149227
 21
13.2739585261
  0
LINE
  5
2A5
100
AcDbEntity
  8
0
100
AcDbLine
 62
7
  6
CONTINUOUS
 10
16.2072594974
 20
12.8798999884
 11
16.208081761
 21
12.8822950712
  0
LINE
  5
2A6
100
AcDbEntity
  8
0
100
AcDbLine
 62
7
  6
CONTINUOUS
 10
16.0862263357
 20
12.4882365336
 11
16.0870485993
 21
12.4906316164
  0
LINE
  5
2A7
100
AcDbEntity
  8
0
100
AcDbLine
 62
7
  6
CONTINUOUS
 10
15.965193174
 20
12.0965730788
 11
15.9660154376
 21
12.0989681616
  0
LINE
  5
2A8
100
AcDbEntity
  8
0
100
AcDbLine
 62
7
  6
CONTINUOUS
 10
15.8441600123
 20
11.704909624
 11
15.8449822759
 21
11.7073047068
  0
LINE
  5
2A9
100
AcDbEntity
  8
0
100
AcDbLine
 62
7
  6
CONTINUOUS
 10
15.7231268506
 20
11.3132461692
 11
15.7239491142
 21
11.315641252
  0
LINE
  5
2AA
100
AcDbEntity
  8
0
100
AcDbLine
 62
7
  6
CONTINUOUS
 10
15.6020936889
 20
10.9215827143
 11
15.6029159525
 21
10.9239777972
  0
LINE
  5
2AB
100
AcDbEntity
  8
0
100
AcDbLine
 62
7
  6
CONTINUOUS
 10
15.9372654126
 20
12.1217187092
 11
15.9387746901
 21
12.1250811739
  0
LINE
  5
2AC
100
AcDbEntity
  8
0
100
AcDbLine
 62
7
  6
CONTINUOUS
 10
15.8162322508
 20
11.7300552544
 11
15.8177415284
 21
11.7334177191
  0
LINE
  5
2AD
100
AcDbEntity
  8
0
100
AcDbLine
 62
7
  6
CONTINUOUS
 10
15.9387746901
 20
12.1250811739
 11
15.9391851907
 21
12.1258145407
  0
LINE
  5
2AE
100
AcDbEntity
  8
0
100
AcDbLine
 62
7
  6
CONTINUOUS
 10
16.2515278047
 20
13.0315759336
 11
16.25149517
 21
13.0325452913
  0
LWPOLYLINE
  5
2AF
100
AcDbEntity
  8
0
100
AcDbPolyline
 62
7
  6
CONTINUOUS
 90
6
 70
0
 10
16.2486617772
 20
13.0948100981
 10
16.2485573802
 20
13.0986686577
 10
16.2489278958
 20
13.1110210579
 10
16.2503540302
 20
13.1254422164
 10
16.2527249983
 20
13.1399625243
 10
16.2556456116
 20
13.1525558025
  0
LINE
  5
2B0
100
AcDbEntity
  8
0
100
AcDbLine
 62
7
  6
CONTINUOUS
 10
16.2513503205
 20
13.0264314639
 11
16.2515278047
 21
13.0315759336
  0
LINE
  5
2B1
100
AcDbEntity
  8
0
100
AcDbLine
 62
7
  6
CONTINUOUS
 10
16.2506528446
 20
13.021248799
 11
16.2513503205
 21
13.0264314639
  0
LINE
  5
2B2
100
AcDbEntity
  8
0
100
AcDbLine
 62
7
  6
CONTINUOUS
 10
16.3716860063
 20
13.4129122538
 11
16.3723834822
 21
13.4180949187
  0
LINE
  5
2B3
100
AcDbEntity
  8
0
100
AcDbLine
 62
7
  6
CONTINUOUS
 10
15.6951990891
 20
11.3383917996
 11
15.6967083667
 21
11.3417542643
  0
LINE
  5
2B4
100
AcDbEntity
  8
0
100
AcDbLine
 62
7
  6
CONTINUOUS
 10
15.5741659274
 20
10.9467283448
 11
15.575675205
 21
10.9500908095
  0
LINE
  5
2B5
100
AcDbEntity
  8
0
100
AcDbLine
 62
7
  6
CONTINUOUS
 10
15.8177415284
 20
11.7334177191
 11
15.818152029
 21
11.7341510859
  0
LINE
  5
2B6
100
AcDbEntity
  8
0
100
AcDbLine
 62
7
  6
CONTINUOUS
 10
15.6967083667
 20
11.3417542643
 11
15.6971188673
 21
11.342487631
  0
LWPOLYLINE
  5
2B7
100
AcDbEntity
  8
0
100
AcDbPolyline
 62
7
  6
CONTINUOUS
 90
6
 70
0
 10
16.3037076999
 20
13.2537759068
 10
16.3047484898
 20
13.2537969061
 10
16.3134204674
 20
13.2557050068
 10
16.3203220953
 20
13.2599440811
 10
16.325302079
 20
13.2656367695
 10
16.3282926591
 20
13.2715634432
  0
LINE
  5
2B8
100
AcDbEntity
  8
0
100
AcDbLine
 62
7
  6
CONTINUOUS
 10
16.2868425989
 20
13.2537754915
 11
16.303721019
 21
13.2537754915
  0
LINE
  5
2B9
100
AcDbEntity
  8
0
100
AcDbLine
 62
7
  6
CONTINUOUS
 10
16.2514957021
 20
13.0325337079
 11
16.2486630331
 21
13.0947883719
  0
LWPOLYLINE
  5
2BA
100
AcDbEntity
  8
0
100
AcDbPolyline
 62
7
  6
CONTINUOUS
 90
6
 70
0
 10
16.369694939
 20
13.486473553
 10
16.3695905419
 20
13.4903321125
 10
16.3699610575
 20
13.5026845127
 10
16.3713871919
 20
13.5171056712
 10
16.37375816
 20
13.5316259791
 10
16.3766787733
 20
13.5442192573
  0
LINE
  5
2BB
100
AcDbEntity
  8
0
100
AcDbLine
 62
7
  6
CONTINUOUS
 10
16.3723834822
 20
13.4180949187
 11
16.3725609664
 21
13.4232393884
  0
LINE
  5
2BC
100
AcDbEntity
  8
0
100
AcDbLine
 62
7
  6
CONTINUOUS
 10
16.492719168
 20
13.8045757087
 11
16.4934166439
 21
13.8097583735
  0
LINE
  5
2BD
100
AcDbEntity
  8
0
100
AcDbLine
 62
7
  6
CONTINUOUS
 10
15.575675205
 20
10.9500908095
 11
15.5760857056
 21
10.9508241762
  0
LINE
  5
2BE
100
AcDbEntity
  8
0
100
AcDbLine
 62
7
  6
CONTINUOUS
 10
16.3725288638
 20
13.4241971627
 11
16.3696961948
 21
13.4864518267
  0
LINE
  5
2BF
100
AcDbEntity
  8
0
100
AcDbLine
 62
7
  6
CONTINUOUS
 10
16.3725609664
 20
13.4232393884
 11
16.3725283317
 21
13.4242087462
  0
LWPOLYLINE
  5
2C0
100
AcDbEntity
  8
0
100
AcDbPolyline
 62
7
  6
CONTINUOUS
 90
6
 70
0
 10
16.4907281007
 20
13.8781370078
 10
16.4906237036
 20
13.8819955674
 10
16.4909942192
 20
13.8943479675
 10
16.4924203536
 20
13.908769126
 10
16.4947913217
 20
13.923289434
 10
16.497711935
 20
13.9358827121
  0
LINE
  5
2C1
100
AcDbEntity
  8
0
100
AcDbLine
 62
7
  6
CONTINUOUS
 10
16.4934166439
 20
13.8097583735
 11
16.4935941281
 21
13.8149028432
  0
LINE
  5
2C2
100
AcDbEntity
  8
0
100
AcDbLine
 62
7
  6
CONTINUOUS
 10
16.5198360065
 20
14.0107660033
 11
16.5195682581
 21
14.0068810535
  0
LINE
  5
2C3
100
AcDbEntity
  8
0
100
AcDbLine
 62
7
  6
CONTINUOUS
 10
16.4935620255
 20
13.8158606175
 11
16.4907293565
 21
13.8781152815
  0
LINE
  5
2C4
100
AcDbEntity
  8
0
100
AcDbLine
 62
7
  6
CONTINUOUS
 10
16.4935941281
 20
13.8149028432
 11
16.4935614934
 21
13.815872201
  0
LWPOLYLINE
  5
2C5
100
AcDbEntity
  8
0
100
AcDbPolyline
 62
7
  6
CONTINUOUS
 90
6
 70
0
 10
16.4247408616
 20
13.6454393616
 10
16.4257816515
 20
13.6454603609
 10
16.4344536291
 20
13.6473684617
 10
16.441355257
 20
13.6516075359
 10
16.4463352407
 20
13.6573002243
 10
16.4493258208
 20
13.663226898
  0
LINE
  5
2C6
100
AcDbEntity
  8
0
100
AcDbLine
 62
7
  6
CONTINUOUS
 10
16.4078757607
 20
13.6454389463
 11
16.4247541807
 21
13.6454389463
  0
LINE
  5
2C7
100
AcDbEntity
  8
0
100
AcDbLine
 62
7
  6
CONTINUOUS
 10
16.5198360065
 20
14.0107660033
 11
16.5080223849
 21
14.090242297
  0
LINE
  5
2C8
100
AcDbEntity
  8
0
100
AcDbLine
 62
7
  6
CONTINUOUS
 10
16.4549911202
 20
14.1561960748
 11
15.4072842395
 21
14.1561960748
  0
LINE
  5
2C9
100
AcDbEntity
  8
0
100
AcDbLine
 62
7
  6
CONTINUOUS
 10
16.5035211093
 20
14.1042254788
 11
16.4856436917
 21
14.1406558256
  0
ARC
  5
2CA
100
AcDbEntity
  8
0
100
AcDbCircle
 62
7
  6
CONTINUOUS
 10
5.5930573043
 20
5.4817865634
 40
0.025
100
AcDbArc
 50
193.0
 51
270.0
  0
ARC
  5
2CB
100
AcDbEntity
  8
0
100
AcDbCircle
 62
7
  6
CONTINUOUS
 10
5.6223006076
 20
5.3551199007
 40
0.025
100
AcDbArc
 50
193.0000093627
 51
270.0000021058
  0
ARC
  5
2CC
100
AcDbEntity
  8
0
100
AcDbCircle
 62
7
  6
CONTINUOUS
 10
5.6366172762
 20
5.6265134576
 40
0.1
100
AcDbArc
 50
180.0
 51
193.0
  0
ARC
  5
2CD
100
AcDbEntity
  8
0
100
AcDbCircle
 62
7
  6
CONTINUOUS
 10
5.5616172762
 20
5.6851198968
 40
0.025
100
AcDbArc
 50
90.0
 51
180.0
  0
ARC
  5
2CE
100
AcDbEntity
  8
0
100
AcDbCircle
 62
7
  6
CONTINUOUS
 10
6.6384339438
 20
5.3551198968
 40
0.025
100
AcDbArc
 50
270.0
 51
347.0
  0
ARC
  5
2CF
100
AcDbEntity
  8
0
100
AcDbCircle
 62
7
  6
CONTINUOUS
 10
6.667677248
 20
5.4817865634
 40
0.025
100
AcDbArc
 50
270.0
 51
347.0
  0
ARC
  5
2D0
100
AcDbEntity
  8
0
100
AcDbCircle
 62
7
  6
CONTINUOUS
 10
6.6241172762
 20
5.6265134576
 40
0.1
100
AcDbArc
 50
347.0
 51
360.0
  0
ARC
  5
2D1
100
AcDbEntity
  8
0
100
AcDbCircle
 62
7
  6
CONTINUOUS
 10
6.6991172762
 20
5.6851198968
 40
0.025
100
AcDbArc
 50
0.0
 51
90.0
  0
ARC
  5
2D2
100
AcDbEntity
  8
0
100
AcDbCircle
 62
7
  6
CONTINUOUS
 10
13.7251657131
 20
5.3022913711
 40
0.0316666667
100
AcDbArc
 50
193.0
 51
270.0
  0
ARC
  5
2D3
100
AcDbEntity
  8
0
100
AcDbCircle
 62
7
  6
CONTINUOUS
 10
13.8955448008
 20
5.3022913711
 40
0.0316666667
100
AcDbArc
 50
270.0
 51
347.0
  0
ARC
  5
2D4
100
AcDbEntity
  8
0
100
AcDbCircle
 62
7
  6
CONTINUOUS
 10
14.2251657131
 20
5.3022913711
 40
0.0316666667
100
AcDbArc
 50
193.0
 51
270.0
  0
ARC
  5
2D5
100
AcDbEntity
  8
0
100
AcDbCircle
 62
7
  6
CONTINUOUS
 10
14.3955448008
 20
5.3022913711
 40
0.0316666667
100
AcDbArc
 50
270.0
 51
347.0
  0
ARC
  5
2D6
100
AcDbEntity
  8
0
100
AcDbCircle
 62
7
  6
CONTINUOUS
 10
14.7251657131
 20
5.3022913711
 40
0.0316666667
100
AcDbArc
 50
193.0
 51
270.0
  0
ARC
  5
2D7
100
AcDbEntity
  8
0
100
AcDbCircle
 62
7
  6
CONTINUOUS
 10
14.8955448008
 20
5.3022913711
 40
0.0316666667
100
AcDbArc
 50
270.0
 51
347.0
  0
ARC
  5
2D8
100
AcDbEntity
  8
0
100
AcDbCircle
 62
7
  6
CONTINUOUS
 10
15.2251657131
 20
5.3022913711
 40
0.0316666667
100
AcDbArc
 50
193.0
 51
270.0
  0
ARC
  5
2D9
100
AcDbEntity
  8
0
100
AcDbCircle
 62
7
  6
CONTINUOUS
 10
15.3955448008
 20
5.3022913711
 40
0.0316666667
100
AcDbArc
 50
270.0
 51
347.0
  0
ARC
  5
2DA
100
AcDbEntity
  8
0
100
AcDbCircle
 62
7
  6
CONTINUOUS
 10
13.6455448008
 20
5.3656247044
 40
0.0316666667
100
AcDbArc
 50
13.0
 51
90.0
  0
ARC
  5
2DB
100
AcDbEntity
  8
0
100
AcDbCircle
 62
7
  6
CONTINUOUS
 10
13.9751657131
 20
5.3656247044
 40
0.0316666667
100
AcDbArc
 50
90.0
 51
167.0
  0
ARC
  5
2DC
100
AcDbEntity
  8
0
100
AcDbCircle
 62
7
  6
CONTINUOUS
 10
14.1455448008
 20
5.3656247044
 40
0.0316666667
100
AcDbArc
 50
13.0
 51
90.0
  0
ARC
  5
2DD
100
AcDbEntity
  8
0
100
AcDbCircle
 62
7
  6
CONTINUOUS
 10
14.4751657131
 20
5.3656247044
 40
0.0316666667
100
AcDbArc
 50
90.0
 51
167.0
  0
ARC
  5
2DE
100
AcDbEntity
  8
0
100
AcDbCircle
 62
7
  6
CONTINUOUS
 10
14.6455448008
 20
5.3656247044
 40
0.0316666667
100
AcDbArc
 50
13.0
 51
90.0
  0
ARC
  5
2DF
100
AcDbEntity
  8
0
100
AcDbCircle
 62
7
  6
CONTINUOUS
 10
14.9751657131
 20
5.3656247044
 40
0.0316666667
100
AcDbArc
 50
90.0
 51
167.0
  0
ARC
  5
2E0
100
AcDbEntity
  8
0
100
AcDbCircle
 62
7
  6
CONTINUOUS
 10
15.1455448008
 20
5.3656247044
 40
0.0316666667
100
AcDbArc
 50
13.0
 51
90.0
  0
ARC
  5
2E1
100
AcDbEntity
  8
0
100
AcDbCircle
 62
7
  6
CONTINUOUS
 10
15.4751657131
 20
5.3656247044
 40
0.0316666667
100
AcDbArc
 50
90.0
 51
167.0
  0
ARC
  5
2E2
100
AcDbEntity
  8
0
100
AcDbCircle
 62
7
  6
CONTINUOUS
 10
17.3955448008
 20
5.3022913711
 40
0.0316666667
100
AcDbArc
 50
270.0
 51
347.0
  0
ARC
  5
2E3
100
AcDbEntity
  8
0
100
AcDbCircle
 62
7
  6
CONTINUOUS
 10
17.2251657131
 20
5.3022913711
 40
0.0316666667
100
AcDbArc
 50
193.0
 51
270.0
  0
ARC
  5
2E4
100
AcDbEntity
  8
0
100
AcDbCircle
 62
7
  6
CONTINUOUS
 10
16.8955448008
 20
5.3022913711
 40
0.0316666667
100
AcDbArc
 50
270.0
 51
347.0
  0
ARC
  5
2E5
100
AcDbEntity
  8
0
100
AcDbCircle
 62
7
  6
CONTINUOUS
 10
16.7251657131
 20
5.3022913711
 40
0.0316666667
100
AcDbArc
 50
193.0
 51
270.0
  0
ARC
  5
2E6
100
AcDbEntity
  8
0
100
AcDbCircle
 62
7
  6
CONTINUOUS
 10
16.3955448008
 20
5.3022913711
 40
0.0316666667
100
AcDbArc
 50
270.0
 51
347.0
  0
ARC
  5
2E7
100
AcDbEntity
  8
0
100
AcDbCircle
 62
7
  6
CONTINUOUS
 10
16.2251657131
 20
5.3022913711
 40
0.0316666667
100
AcDbArc
 50
193.0
 51
270.0
  0
ARC
  5
2E8
100
AcDbEntity
  8
0
100
AcDbCircle
 62
7
  6
CONTINUOUS
 10
15.8955448008
 20
5.3022913711
 40
0.0316666667
100
AcDbArc
 50
270.0
 51
347.0
  0
ARC
  5
2E9
100
AcDbEntity
  8
0
100
AcDbCircle
 62
7
  6
CONTINUOUS
 10
15.7251657131
 20
5.3022913711
 40
0.0316666667
100
AcDbArc
 50
193.0
 51
270.0
  0
ARC
  5
2EA
100
AcDbEntity
  8
0
100
AcDbCircle
 62
7
  6
CONTINUOUS
 10
17.4751657131
 20
5.3656247044
 40
0.0316666667
100
AcDbArc
 50
90.0
 51
167.0
  0
ARC
  5
2EB
100
AcDbEntity
  8
0
100
AcDbCircle
 62
7
  6
CONTINUOUS
 10
17.1455448008
 20
5.3656247044
 40
0.0316666667
100
AcDbArc
 50
13.0
 51
90.0
  0
ARC
  5
2EC
100
AcDbEntity
  8
0
100
AcDbCircle
 62
7
  6
CONTINUOUS
 10
16.9751657131
 20
5.3656247044
 40
0.0316666667
100
AcDbArc
 50
90.0
 51
167.0
  0
ARC
  5
2ED
100
AcDbEntity
  8
0
100
AcDbCircle
 62
7
  6
CONTINUOUS
 10
16.6455448008
 20
5.3656247044
 40
0.0316666667
100
AcDbArc
 50
13.0
 51
90.0
  0
ARC
  5
2EE
100
AcDbEntity
  8
0
100
AcDbCircle
 62
7
  6
CONTINUOUS
 10
16.4751657131
 20
5.3656247044
 40
0.0316666667
100
AcDbArc
 50
90.0
 51
167.0
  0
ARC
  5
2EF
100
AcDbEntity
  8
0
100
AcDbCircle
 62
7
  6
CONTINUOUS
 10
16.1455448008
 20
5.3656247044
 40
0.0316666667
100
AcDbArc
 50
13.0
 51
90.0
  0
ARC
  5
2F0
100
AcDbEntity
  8
0
100
AcDbCircle
 62
7
  6
CONTINUOUS
 10
15.9751657131
 20
5.3656247044
 40
0.0316666667
100
AcDbArc
 50
90.0
 51
167.0
  0
ARC
  5
2F1
100
AcDbEntity
  8
0
100
AcDbCircle
 62
7
  6
CONTINUOUS
 10
15.6455448008
 20
5.3656247044
 40
0.0316666667
100
AcDbArc
 50
13.0
 51
90.0
  0
SPLINE
  5
2F2
100
AcDbEntity
  8
0
100
AcDbSpline
 62
7
  6
CONTINUOUS
 70
0
 71
3
 72
15
 73
11
 74
0
 42
0.0000001
 43
0.0000001
 44
0.0000000001
 40
0.0
 40
0.0
 40
0.0
 40
0.0
 40
0.1295683023
 40
0.2645753278
 40
0.4012659652
 40
0.5362717281
 40
0.6662158131
 40
0.7881014032
 40
0.8998145721
 40
1.0
 40
1.0
 40
1.0
 40
1.0
 10
16.4549911202
 20
14.1561960748
 30
0.0
 10
16.4565393761
 20
14.1561960748
 30
0.0
 10
16.4597033241
 20
14.1559808502
 30
0.0
 10
16.4644258386
 20
14.1550969548
 30
0.0
 10
16.4690821493
 20
14.1536695038
 30
0.0
 10
16.4734940223
 20
14.1517541852
 30
0.0
 10
16.4775002137
 20
14.1494254953
 30
0.0
 10
16.4809522956
 20
14.1467641586
 30
0.0
 10
16.4837181515
 20
14.1438681167
 30
0.0
 10
16.485116296
 20
14.141730545
 30
0.0
 10
16.4856436917
 20
14.1406558256
 30
0.0
  0
SPLINE
  5
2F3
100
AcDbEntity
  8
0
100
AcDbSpline
 62
7
  6
CONTINUOUS
 70
0
 71
3
 72
15
 73
11
 74
0
 42
0.0000001
 43
0.0000001
 44
0.0000000001
 40
0.0
 40
0.0
 40
0.0
 40
0.0
 40
0.099646227
 40
0.2028721795
 40
0.31259448
 40
0.4308576693
 40
0.5588160803
 40
0.6968319709
 40
0.8443986212
 40
1.0
 40
1.0
 40
1.0
 40
1.0
 10
15.391024752
 20
14.1480370176
 30
0.0
 10
15.3912148671
 20
14.14865226
 30
0.0
 10
15.3917535049
 20
14.1498632049
 30
0.0
 10
15.3929844933
 20
14.1514841519
 30
0.0
 10
15.3946078839
 20
14.1528993182
 30
0.0
 10
15.3965920542
 20
14.1540833752
 30
0.0
 10
15.3988995996
 20
14.1550220055
 30
0.0
 10
15.4014912115
 20
14.1557007346
 30
0.0
 10
15.404318083
 20
14.1561083938
 30
0.0
 10
15.4062786927
 20
14.1561960748
 30
0.0
 10
15.4072842395
 20
14.1561960748
 30
0.0
  0
SPLINE
  5
2F4
100
AcDbEntity
  8
0
100
AcDbSpline
 62
7
  6
CONTINUOUS
 70
0
 71
3
 72
11
 73
7
 74
0
 42
0.0000001
 43
0.0000001
 44
0.0000000001
 40
0.0
 40
0.0
 40
0.0
 40
0.0
 40
0.2336950595
 40
0.4747284465
 40
0.7289544802
 40
1.0
 40
1.0
 40
1.0
 40
1.0
 10
14.4227594583
 20
11.0147293791
 30
0.0
 10
14.4225846035
 20
11.0141635217
 30
0.0
 10
14.4223542912
 20
11.0129713734
 30
0.0
 10
14.4223965773
 20
11.0111120947
 30
0.0
 10
14.4228143871
 20
11.0092049211
 30
0.0
 10
14.4233158522
 20
11.0079648527
 30
0.0
 10
14.4236184677
 20
11.0073481871
 30
0.0
  0
SPLINE
  5
2F5
100
AcDbEntity
  8
0
100
AcDbSpline
 62
7
  6
CONTINUOUS
 70
0
 71
3
 72
9
 73
5
 74
0
 42
0.0000001
 43
0.0000001
 44
0.0000000001
 40
0.0
 40
0.0
 40
0.0
 40
0.0
 40
0.5155721158
 40
1.0
 40
1.0
 40
1.0
 40
1.0
 10
16.5035211093
 20
14.1042254788
 30
0.0
 10
16.5046365981
 20
14.1019523515
 30
0.0
 10
16.5065156242
 20
14.0973948764
 30
0.0
 10
16.5076725873
 20
14.0925955647
 30
0.0
 10
16.5080223849
 20
14.090242297
 30
0.0
  0
SPLINE
  5
2F6
100
AcDbEntity
  8
0
100
AcDbSpline
 62
7
  6
CONTINUOUS
 70
0
 71
3
 72
14
 73
10
 74
0
 42
0.0000001
 43
0.0000001
 44
0.0000000001
 40
0.0
 40
0.0
 40
0.0
 40
0.0
 40
0.1556083125
 40
0.30324952
 40
0.5688433607
 40
0.6871578283
 40
0.7968877305
 40
0.9001725157
 40
1.0
 40
1.0
 40
1.0
 40
1.0
 10
15.5350449158
 20
10.865413911
 30
0.0
 10
15.5360499292
 20
10.865413911
 30
0.0
 10
15.5380108116
 20
10.8655018075
 30
0.0
 10
15.5416487756
 20
10.8660265177
 30
0.0
 10
15.5449696854
 20
10.8670706456
 30
0.0
 10
15.5477201295
 20
10.8687093579
 30
0.0
 10
15.549343867
 20
10.8701237995
 30
0.0
 10
15.5505748497
 20
10.8717452233
 30
0.0
 10
15.551113792
 20
10.8729570442
 30
0.0
 10
15.5513034689
 20
10.8735732593
 30
0.0
  0
SPLINE
  5
2F7
100
AcDbEntity
  8
0
100
AcDbSpline
 62
7
  6
CONTINUOUS
 70
0
 71
3
 72
15
 73
11
 74
0
 42
0.0000001
 43
0.0000001
 44
0.0000000001
 40
0.0
 40
0.0
 40
0.0
 40
0.0
 40
0.1089081347
 40
0.2266167355
 40
0.3512071078
 40
0.4806317483
 40
0.612674119
 40
0.7449590544
 40
0.8750052126
 40
1.0
 40
1.0
 40
1.0
 40
1.0
 10
14.5169074864
 20
10.8774583648
 30
0.0
 10
14.5176430928
 20
10.8765750868
 30
0.0
 10
14.5193237253
 20
10.8748597935
 30
0.0
 10
14.5222410276
 20
10.8725596939
 30
0.0
 10
14.5255866057
 20
10.8704951708
 30
0.0
 10
14.5292612974
 20
10.8687192279
 30
0.0
 10
14.5331677745
 20
10.8672826843
 30
0.0
 10
14.5371993621
 20
10.8662211599
 30
0.0
 10
14.5412417436
 20
10.8655712263
 30
0.0
 10
14.5439351382
 20
10.865413911
 30
0.0
 10
14.5452544024
 20
10.865413911
 30
0.0
  0
SPLINE
  5
2F8
100
AcDbEntity
  8
0
100
AcDbSpline
 62
7
  6
CONTINUOUS
 70
0
 71
3
 72
9
 73
5
 74
0
 42
0.0000001
 43
0.0000001
 44
0.0000000001
 40
0.0
 40
0.0
 40
0.0
 40
0.0
 40
0.2380066513
 40
1.0
 40
1.0
 40
1.0
 40
1.0
 10
14.4414958853
 20
10.9709178403
 30
0.0
 10
14.4420821343
 20
10.9697231905
 30
0.0
 10
14.4447181421
 20
10.9647889523
 30
0.0
 10
14.4479920329
 20
10.9602084679
 30
0.0
 10
14.4507185076
 20
10.9569346585
 30
0.0
  0
SPLINE
  5
2F9
100
AcDbEntity
  8
0
100
AcDbSpline
 62
7
  6
CONTINUOUS
 70
0
 71
3
 72
15
 73
11
 74
0
 42
0.0000001
 43
0.0000001
 44
0.0000000001
 40
0.0
 40
0.0
 40
0.0
 40
0.0
 40
0.1556013788
 40
0.3031680291
 40
0.4411839197
 40
0.5691423307
 40
0.68740552
 40
0.7971278205
 40
0.900353773
 40
1.0
 40
1.0
 40
1.0
 40
1.0
 10
14.4390189459
 20
11.0228884363
 30
0.0
 10
14.438013399
 20
11.0228884363
 30
0.0
 10
14.4360527894
 20
11.0228007553
 30
0.0
 10
14.4332259179
 20
11.0223930961
 30
0.0
 10
14.430634306
 20
11.021714367
 30
0.0
 10
14.4283267605
 20
11.0207757367
 30
0.0
 10
14.4263425902
 20
11.0195916797
 30
0.0
 10
14.4247191997
 20
11.0181765133
 30
0.0
 10
14.4234882113
 20
11.0165555664
 30
0.0
 10
14.4229495735
 20
11.0153446215
 30
0.0
 10
14.4227594583
 20
11.0147293791
 30
0.0
  0
SPLINE
  5
2FA
100
AcDbEntity
  8
0
100
AcDbSpline
 62
7
  6
CONTINUOUS
 70
0
 71
3
 72
9
 73
5
 74
0
 42
0.0000001
 43
0.0000001
 44
0.0000000001
 40
0.0
 40
0.0
 40
0.0
 40
0.0
 40
0.4844278842
 40
1.0
 40
1.0
 40
1.0
 40
1.0
 10
15.5397570913
 20
10.9569346585
 30
0.0
 10
15.5394072937
 20
10.9592879262
 30
0.0
 10
15.5382503306
 20
10.9640872379
 30
0.0
 10
15.5363713045
 20
10.968644713
 30
0.0
 10
15.5352558157
 20
10.9709178403
 30
0.0
  0
SPLINE
  5
2FB
100
AcDbEntity
  8
0
100
AcDbSpline
 62
7
  6
CONTINUOUS
 70
0
 71
3
 72
15
 73
11
 74
0
 42
0.0000001
 43
0.0000001
 44
0.0000000001
 40
0.0
 40
0.0
 40
0.0
 40
0.0
 40
0.1001854279
 40
0.2118985968
 40
0.3337841869
 40
0.4637282719
 40
0.5987340348
 40
0.7354246722
 40
0.8704316977
 40
1.0
 40
1.0
 40
1.0
 40
1.0
 10
15.5173783981
 20
11.0073481871
 30
0.0
 10
15.5168510024
 20
11.0084229065
 30
0.0
 10
15.5154528579
 20
11.0105604782
 30
0.0
 10
15.5126870019
 20
11.0134565201
 30
0.0
 10
15.5092349201
 20
11.0161178568
 30
0.0
 10
15.5052287287
 20
11.0184465467
 30
0.0
 10
15.5008168557
 20
11.0203618653
 30
0.0
 10
15.496160545
 20
11.0217893163
 30
0.0
 10
15.4914380305
 20
11.0226732117
 30
0.0
 10
15.4882740825
 20
11.0228884363
 30
0.0
 10
15.4867258266
 20
11.0228884363
 30
0.0
  0
ENDSEC
  0
SECTION
  2
OBJECTS
  0
DICTIONARY
  5
C
100
AcDbDictionary
280
0
281
1
  3
ACAD_GROUP
350
D
  3
ACAD_MLINESTYLE
350
17
  3
ACAD_LAYOUT
350
1A
  3
ACAD_PLOTSETTINGS
350
19
  3
ACAD_PLOTSTYLENAME
350
E
  0
DICTIONARY
  5
D
102
{ACAD_REACTORS
330
C
102
}
100
AcDbDictionary
280
0
281
1
  0
ACDBDICTIONARYWDFLT
  5
E
102
{ACAD_REACTORS
330
C
102
}
100
AcDbDictionary
281
1
  3
Normal
350
F
100
AcDbDictionaryWithDefault
340
F
  0
DICTIONARY
  5
17
102
{ACAD_REACTORS
330
C
102
}
100
AcDbDictionary
280
0
281
1
  3
Standard
350
18
  0
DICTIONARY
  5
19
102
{ACAD_REACTORS
330
C
102
}
100
AcDbDictionary
281
1
  0
DICTIONARY
  5
1A
102
{ACAD_REACTORS
330
C
102
}
100
AcDbDictionary
281
1
  3
Model
350
2FC
  3
Layout1
350
2FD
  0
ACDBPLACEHOLDER
  5
F
102
{ACAD_REACTORS
330
E
102
}
  0
MLINESTYLE
  5
18
102
{ACAD_REACTORS
330
17
102
}
100
AcDbMlineStyle
  2
STANDARD
 70
0
  3

 62
256
 51
90.0
 52
90.0
 71
2
 49
0.5
 62
256
  6
BYLAYER
 49
-0.5
 62
256
  6
BYLAYER
  0
LAYOUT
  5
2FC
102
{ACAD_REACTORS
330
1A
102
}
100
AcDbPlotSettings
  1

  2
none_device
  4
ANSI_C_(22.00_x_17.00_Inches)
  6

 40
0.0
 41
0.0
 42
0.0
 43
0.0
 44
558.8
 45
431.8
 46
0.0
 47
0.0
 48
0.0
 49
0.0
140
0.0
141
0.0
142
1.0
143
1.0
 70
1024
 72
0
 73
0
 74
0
  7

 75
0
147
1.0
148
0.0
149
0.0
100
AcDbLayout
  1
Model
 70
0
 71
0
 10
0.0
 20
0.0
 11
22.0
 21
17.0
 12
0.0
 22
0.0
 32
0.0
 14
0.0
 24
0.0
 34
0.0
 15
0.0
 25
0.0
 35
0.0
146
0.0
 13
0.0
 23
0.0
 33
0.0
 16
1.0
 26
0.0
 36
0.0
 17
0.0
 27
1.0
 37
0.0
 76
0
330
216
345
0
346
0
  0
LAYOUT
  5
2FD
102
{ACAD_REACTORS
330
1A
102
}
100
AcDbPlotSettings
  1

  2
none_device
  4
ANSI_C_(22.00_x_17.00_Inches)
  6

 40
0.0
 41
0.0
 42
0.0
 43
0.0
 44
558.8
 45
431.8
 46
0.0
 47
0.0
 48
0.0
 49
0.0
140
0.0
141
0.0
142
1.0
143
1.0
 70
0
 72
0
 73
0
 74
0
  7

 75
0
147
1.0
148
0.0
149
0.0
100
AcDbLayout
  1
Layout1
 70
0
 71
1
 10
0.0
 20
0.0
 11
22.0
 21
17.0
 12
0.0
 22
0.0
 32
0.0
 14
0.0
 24
0.0
 34
0.0
 15
0.0
 25
0.0
 35
0.0
146
0.0
 13
0.0
 23
0.0
 33
0.0
 16
1.0
 26
0.0
 36
0.0
 17
0.0
 27
1.0
 37
0.0
 76
0
330
217
345
0
346
0
  0
ENDSEC
  0
EOF