999
DXF file: _cgs_temp_output.dxf
999
Pro/ENGINEER 2016360 by Parametric Technology Corporation
  0
SECTION
  2
HEADER
  9
$ACADVER
  1
AC1021
  9
$DWGCODEPAGE
  3
ANSI_1252
  9
$EXTMAX
 10
22.0
 20
17.0
 30
0.0
  9
$EXTMIN
 10
0.0
 20
0.0
 30
0.0
  9
$LIMMIN
 10
0.0
 20
0.0
  9
$LIMMAX
 10
22.0
 20
17.0
  9
$VIEWCTR
 10
11.0
 20
8.5
  9
$VIEWSIZE
 40
17.0
  9
$CLAYER
  8
0
  9
$LTSCALE
 40
1.21
  9
$CELTYPE
  6
BYLAYER
  9
$DIMSCALE
 40
1.0
  9
$DIMASZ
 40
0.1875
  9
$DIMEXO
 40
0.0625
  9
$DIMDLI
 40
0.836
  9
$DIMEXE
 40
0.125
  9
$DIMCEN
 40
0.198
  9
$DIMLFAC
 40
1.0
  9
$DIMBLK
  1
_CLOSED
  9
$DIMALT
 70
0
  9
$DIMALTF
 40
25.4
  9
$DIMTXT
 40
0.15625
  9
$DIMTOL
 70
0
  9
$DIMLIM
 70
0
  9
$DIMTFAC
 40
1.0
  9
$DIMGAP
 40
0.09
  9
$DIMDSEP
 70
46
  9
$AUNITS
 70
0
  9
$PDMODE
 70
3
  9
$PDSIZE
 40
0.3125
  9
$HANDSEED
  5
30E
  9
$TILEMODE
 70
1
  9
$MEASUREMENT
 70
0
  9
$INSUNITS
 70
1
  0
ENDSEC
  0
SECTION
  2
CLASSES
  0
CLASS
  1
ACDBDICTIONARYWDFLT
  2
AcDbDictionaryWithDefault
  3
AutoCAD 2000
 90
0
 91
1
280
0
281
0
  0
CLASS
  1
ACDBPLACEHOLDER
  2
AcDbPlaceHolder
  3
AutoCAD 2000
 90
0
 91
1
280
0
281
0
  0
CLASS
  1
LAYOUT
  2
AcDbLayout
  3
AutoCAD 2000
 90
0
 91
0
280
0
281
0
  0
ENDSEC
  0
SECTION
  2
TABLES
  0
TABLE
  2
VPORT
  5
8
100
AcDbSymbolTable
 70
2
  0
VPORT
  5
1F4
100
AcDbSymbolTableRecord
100
AcDbViewportTableRecord
  2
*ACTIVE
 70
0
 10
0.0
 20
0.0
 11
1.0
 21
1.0
 12
11.0
 22
8.5
 13
0.0
 23
0.0
 14
1.0
 24
1.0
 15
0.0
 25
0.0
 16
0.0
 26
0.0
 36
1.0
 17
0.0
 27
0.0
 37
0.0
 40
17.0
 41
1.2941176471
 42
50.0
 43
0.0
 44
0.0
 50
0.0
 51
0.0
 71
0
 72
100
 73
1
 74
1
 75
0
 76
0
 77
0
 78
0
  0
ENDTAB
  0
TABLE
  2
LTYPE
  5
5
100
AcDbSymbolTable
 70
6
  0
LTYPE
  5
14
100
AcDbSymbolTableRecord
100
AcDbLinetypeTableRecord
  2
BYBLOCK
 70
0
  3

 72
65
 73
0
 40
0.0
  0
LTYPE
  5
15
100
AcDbSymbolTableRecord
100
AcDbLinetypeTableRecord
  2
BYLAYER
 70
0
  3

 72
65
 73
0
 40
0.0
  0
LTYPE
  5
16
100
AcDbSymbolTableRecord
100
AcDbLinetypeTableRecord
  2
CONTINUOUS
 70
64
  3
Solid line
 72
65
 73
0
 40
0.0
  0
LTYPE
  5
1F5
100
AcDbSymbolTableRecord
100
AcDbLinetypeTableRecord
  2
CENTER
 70
64
  3
____ _ ____ _ ____ _ ____ _ ____ _ ____ _ ____
 72
65
 73
4
 40
0.6
 49
0.375
 74
0
 49
-0.075
 74
0
 49
0.075
 74
0
 49
-0.075
 74
0
  0
LTYPE
  5
1F6
100
AcDbSymbolTableRecord
100
AcDbLinetypeTableRecord
  2
HIDDEN
 70
64
  3
- - - - - - - - - - - - - - - - - - - -
 72
65
 73
2
 40
0.2
 49
0.1
 74
0
 49
-0.1
 74
0
  0
LTYPE
  5
1F7
100
AcDbSymbolTableRecord
100
AcDbLinetypeTableRecord
  2
PHANTOM
 70
64
  3
_____ _ _ _____ _ _ _____ _ _ _____
 72
65
 73
6
 40
0.8
 49
0.45
 74
0
 49
-0.05
 74
0
 49
0.1
 74
0
 49
-0.05
 74
0
 49
0.1
 74
0
 49
-0.05
 74
0
  0
LTYPE
  5
1F8
100
AcDbSymbolTableRecord
100
AcDbLinetypeTableRecord
  2
DOT
 70
64
  3
. . . . . . . . . . . . . . . . . . . .
 72
65
 73
2
 40
0.2
 49
0.1
 74
0
 49
-0.1
 74
0
  0
LTYPE
  5
1F9
100
AcDbSymbolTableRecord
100
AcDbLinetypeTableRecord
  2
DASHED
 70
64
  3
- - - - - - - - - - - - - - - - - - - -
 72
65
 73
2
 40
0.2
 49
0.1
 74
0
 49
-0.1
 74
0
  0
ENDTAB
  0
TABLE
  2
LAYER
  5
2
100
AcDbSymbolTable
 70
36
  0
LAYER
  5
10
100
AcDbSymbolTableRecord
100
AcDbLayerTableRecord
  2
0
 70
0
 62
7
  6
CONTINUOUS
370
-3
390
F
  0
LAYER
  5
1FA
100
AcDbSymbolTableRecord
100
AcDbLayerTableRecord
  2
DEFAULT_1
 70
0
 62
7
  6
CENTER
370
-3
390
F
  0
LAYER
  5
1FB
100
AcDbSymbolTableRecord
100
AcDbLayerTableRecord
  2
DEFAULT_2
 70
0
 62
8
  6
HIDDEN
370
-3
390
F
  0
LAYER
  5
1FC
100
AcDbSymbolTableRecord
100
AcDbLayerTableRecord
  2
DEFAULT_3
 70
0
 62
7
  6
PHANTOM
370
-3
390
F
  0
LAYER
  5
1FD
100
AcDbSymbolTableRecord
100
AcDbLayerTableRecord
  2
01_ALL_DTM_PLN
 70
0
 62
7
  6
CONTINUOUS
370
-3
390
F
  0
LAYER
  5
1FE
100
AcDbSymbolTableRecord
100
AcDbLayerTableRecord
  2
01__ASM_ALL_DTM_PLN
 70
0
 62
7
  6
CONTINUOUS
370
-3
390
F
  0
LAYER
  5
1FF
100
AcDbSymbolTableRecord
100
AcDbLayerTableRecord
  2
01__ASM_DEF_DTM_PLN
 70
0
 62
7
  6
CONTINUOUS
370
-3
390
F
  0
LAYER
  5
200
100
AcDbSymbolTableRecord
100
AcDbLayerTableRecord
  2
01___PRT_ALL_DTM_PLN
 70
0
 62
7
  6
CONTINUOUS
370
-3
390
F
  0
LAYER
  5
201
100
AcDbSymbolTableRecord
100
AcDbLayerTableRecord
  2
01___PRT_DEF_DTM_PLN
 70
0
 62
7
  6
CONTINUOUS
370
-3
390
F
  0
LAYER
  5
202
100
AcDbSymbolTableRecord
100
AcDbLayerTableRecord
  2
02_ALL_AXES
 70
0
 62
7
  6
CONTINUOUS
370
-3
390
F
  0
LAYER
  5
203
100
AcDbSymbolTableRecord
100
AcDbLayerTableRecord
  2
02__ASM_ALL_AXES
 70
0
 62
7
  6
CONTINUOUS
370
-3
390
F
  0
LAYER
  5
204
100
AcDbSymbolTableRecord
100
AcDbLayerTableRecord
  2
02___PRT_ALL_AXES
 70
0
 62
7
  6
CONTINUOUS
370
-3
390
F
  0
LAYER
  5
205
100
AcDbSymbolTableRecord
100
AcDbLayerTableRecord
  2
03_ALL_CURVES
 70
0
 62
7
  6
CONTINUOUS
370
-3
390
F
  0
LAYER
  5
206
100
AcDbSymbolTableRecord
100
AcDbLayerTableRecord
  2
03__ASM_ALL_CURVES
 70
0
 62
7
  6
CONTINUOUS
370
-3
390
F
  0
LAYER
  5
207
100
AcDbSymbolTableRecord
100
AcDbLayerTableRecord
  2
03___PRT_ALL_CURVES
 70
0
 62
7
  6
CONTINUOUS
370
-3
390
F
  0
LAYER
  5
208
100
AcDbSymbolTableRecord
100
AcDbLayerTableRecord
  2
04_ALL_DTM_PNT
 70
0
 62
7
  6
CONTINUOUS
370
-3
390
F
  0
LAYER
  5
209
100
AcDbSymbolTableRecord
100
AcDbLayerTableRecord
  2
04__ASM_ALL_DTM_PNT
 70
0
 62
7
  6
CONTINUOUS
370
-3
390
F
  0
LAYER
  5
20A
100
AcDbSymbolTableRecord
100
AcDbLayerTableRecord
  2
04___PRT_ALL_DTM_PNT
 70
0
 62
7
  6
CONTINUOUS
370
-3
390
F
  0
LAYER
  5
20B
100
AcDbSymbolTableRecord
100
AcDbLayerTableRecord
  2
05_ALL_DTM_CSYS
 70
0
 62
7
  6
CONTINUOUS
370
-3
390
F
  0
LAYER
  5
20C
100
AcDbSymbolTableRecord
100
AcDbLayerTableRecord
  2
05__ASM_ALL_DTM_CSYS
 70
0
 62
7
  6
CONTINUOUS
370
-3
390
F
  0
LAYER
  5
20D
100
AcDbSymbolTableRecord
100
AcDbLayerTableRecord
  2
05__ASM_DEF_DTM_CSYS
 70
0
 62
7
  6
CONTINUOUS
370
-3
390
F
  0
LAYER
  5
20E
100
AcDbSymbolTableRecord
100
AcDbLayerTableRecord
  2
05___PRT_ALL_DTM_CSYS
 70
0
 62
7
  6
CONTINUOUS
370
-3
390
F
  0
LAYER
  5
20F
100
AcDbSymbolTableRecord
100
AcDbLayerTableRecord
  2
05___PRT_DEF_DTM_CSYS
 70
0
 62
7
  6
CONTINUOUS
370
-3
390
F
  0
LAYER
  5
210
100
AcDbSymbolTableRecord
100
AcDbLayerTableRecord
  2
06_ALL_SURFS
 70
0
 62
7
  6
CONTINUOUS
370
-3
390
F
  0
LAYER
  5
211
100
AcDbSymbolTableRecord
100
AcDbLayerTableRecord
  2
06__ASM_ALL_SURFS
 70
0
 62
7
  6
CONTINUOUS
370
-3
390
F
  0
LAYER
  5
212
100
AcDbSymbolTableRecord
100
AcDbLayerTableRecord
  2
06___PRT_ALL_SURFS
 70
0
 62
7
  6
CONTINUOUS
370
-3
390
F
  0
LAYER
  5
213
100
AcDbSymbolTableRecord
100
AcDbLayerTableRecord
  2
07__ASM_ALL_SKELETONS
 70
0
 62
7
  6
CONTINUOUS
370
-3
390
F
  0
ENDTAB
  0
TABLE
  2
STYLE
  5
3
100
AcDbSymbolTable
 70
1
  0
STYLE
  5
11
100
AcDbSymbolTableRecord
100
AcDbTextStyleTableRecord
  2
STANDARD
 70
0
 40
0.0
 41
0.8
 50
0.0
 71
0
 42
0.2
  3
txt
  4

  0
STYLE
  5
214
100
AcDbSymbolTableRecord
100
AcDbTextStyleTableRecord
  2
TEXTSTYLE_1
 70
0
 40
0.0
 41
0.8
 50
0.0
 71
0
 42
0.2
  3
gdt
  4

  0
ENDTAB
  0
TABLE
  2
VIEW
  5
6
100
AcDbSymbolTable
 70
0
  0
ENDTAB
  0
TABLE
  2
UCS
  5
7
100
AcDbSymbolTable
 70
0
  0
ENDTAB
  0
TABLE
  2
APPID
  5
9
100
AcDbSymbolTable
 70
1
  0
APPID
  5
215
100
AcDbSymbolTableRecord
100
AcDbRegAppTableRecord
  2
ACAD
 70
0
  0
ENDTAB
  0
TABLE
  2
BLOCK_RECORD
  5
1
100
AcDbSymbolTable
 70
0
  0
BLOCK_RECORD
  5
216
100
AcDbSymbolTableRecord
100
AcDbBlockTableRecord
  2
*Model_Space
  0
BLOCK_RECORD
  5
217
100
AcDbSymbolTableRecord
100
AcDbBlockTableRecord
  2
*Paper_Space
  0
ENDTAB
  0
TABLE
  2
DIMSTYLE
  5
A
100
AcDbSymbolTable
 70
1
100
AcDbDimStyleTable
 71
0
  0
DIMSTYLE
105
218
100
AcDbSymbolTableRecord
100
AcDbDimStyleTableRecord
  2
STANDARD
 70
0
  3

  4

 40
1.0
 41
0.1875
 42
0.0625
 43
0.38
 44
0.125
 45
0.0
 46
0.0
 47
0.0001
 48
0.0001
140
0.15625
141
0.09
142
0.0
143
25.4
144
1.0
145
0.0
146
1.0
147
0.09
 71
0.0
 72
0.0
 73
1
 74
1
 75
0
 76
0
 77
0
 78
4
 79
1
170
0
171
3
172
0
173
0
174
0
175
0
176
0
177
0
178
0
270
2
179
4
271
4
272
4
273
2
274
2
275
0
280
0
281
0
282
0
283
1
284
4
285
0
286
0
287
3
288
0
340
11
278
46
  0
ENDTAB
  0
ENDSEC
  0
SECTION
  2
BLOCKS
  0
BLOCK
  5
20
100
AcDbEntity
  8
0
100
AcDbBlockBegin
  2
*Model_Space
 70
0
 10
0.0
 20
0.0
 30
0.0
  3
*Model_Space
  1

  0
ENDBLK
  5
21
100
AcDbEntity
  8
0
100
AcDbBlockEnd
  0
BLOCK
  5
1C
100
AcDbEntity
  8
0
100
AcDbBlockBegin
  2
*Paper_Space
 70
0
 10
0.0
 20
0.0
 30
0.0
  3
*Paper_Space
  1

  0
ENDBLK
  5
1D
100
AcDbEntity
  8
0
100
AcDbBlockEnd
  0
ENDSEC
  0
SECTION
  2
ENTITIES
  0
MTEXT
  5
219
100
AcDbEntity
  8
0
100
AcDbMText
 62
7
  6
CONTINUOUS
  7
STANDARD
 71
1
 72
1
 10
15.9560215477
 20
0.9479130325
 30
0.0
 11
1.0
 21
0.0
 31
0.0
 44
0.9
  1
SCALE: 1:1.000
 40
0.3
 41
3.36
  0
LINE
  5
21A
100
AcDbEntity
  8
0
100
AcDbLine
 62
7
  6
CONTINUOUS
 10
0.0
 20
0.0
 11
0.0
 21
17.0
  0
LINE
  5
21B
100
AcDbEntity
  8
0
100
AcDbLine
 62
7
  6
CONTINUOUS
 10
0.0
 20
0.0
 11
22.0
 21
0.0
  0
LINE
  5
21C
100
AcDbEntity
  8
0
100
AcDbLine
 62
7
  6
CONTINUOUS
 10
0.0
 20
17.0
 11
22.0
 21
17.0
  0
LINE
  5
21D
100
AcDbEntity
  8
0
100
AcDbLine
 62
7
  6
CONTINUOUS
 10
22.0
 20
0.0
 11
22.0
 21
17.0
  0
LINE
  5
21E
100
AcDbEntity
  8
0
100
AcDbLine
 62
7
  6
CONTINUOUS
 10
5.5366172762
 20
5.6961198968
 11
5.5366172762
 21
5.6320134576
  0
LINE
  5
21F
100
AcDbEntity
  8
0
100
AcDbLine
 62
7
  6
CONTINUOUS
 10
5.6017506821
 20
5.3384961204
 11
5.5391802697
 21
5.6095183521
  0
LINE
  5
220
100
AcDbEntity
  8
0
100
AcDbLine
 62
7
  6
CONTINUOUS
 10
5.6261099337
 20
5.3191198968
 11
6.6346246186
 21
5.3191198968
  0
LINE
  5
221
100
AcDbEntity
  8
0
100
AcDbLine
 62
7
  6
CONTINUOUS
 10
5.5951735961
 20
5.4531198968
 11
6.6655609562
 21
5.4531198968
  0
LINE
  5
222
100
AcDbEntity
  8
0
100
AcDbLine
 62
7
  6
CONTINUOUS
 10
6.6991172762
 20
5.7211198968
 11
5.5616172762
 21
5.7211198968
  0
LINE
  5
223
100
AcDbEntity
  8
0
100
AcDbLine
 62
7
  6
CONTINUOUS
 10
6.7241172762
 20
5.6320134576
 11
6.7241172762
 21
5.6961198968
  0
LINE
  5
224
100
AcDbEntity
  8
0
100
AcDbLine
 62
7
  6
CONTINUOUS
 10
6.6589838702
 20
5.3384961204
 11
6.7215542826
 21
5.6095183521
  0
LINE
  5
225
100
AcDbEntity
  8
0
100
AcDbLine
 62
7
  6
CONTINUOUS
 10
6.6646220839
 20
10.6000477814
 11
5.4771220839
 21
10.6000477814
  0
LINE
  5
226
100
AcDbEntity
  8
0
100
AcDbLine
 62
7
  6
CONTINUOUS
 10
5.4771220839
 20
10.6000477814
 11
5.4771220839
 21
14.6000477814
  0
LINE
  5
227
100
AcDbEntity
  8
0
100
AcDbLine
 62
7
  6
CONTINUOUS
 10
6.6646220839
 20
10.6000477814
 11
6.6646220839
 21
14.6000477814
  0
LINE
  5
228
100
AcDbEntity
  8
0
100
AcDbLine
 62
7
  6
CONTINUOUS
 10
5.4771220839
 20
14.6000477814
 11
6.6646220839
 21
14.6000477814
  0
LINE
  5
229
100
AcDbEntity
  8
0
100
AcDbLine
 62
7
  6
CONTINUOUS
 10
13.5603552569
 20
5.3936247044
 11
13.5603552569
 21
5.6616247044
  0
LINE
  5
22A
100
AcDbEntity
  8
0
100
AcDbLine
 62
7
  6
CONTINUOUS
 10
13.6758813821
 20
5.3676605648
 11
13.6948291318
 21
5.2855888441
  0
LINE
  5
22B
100
AcDbEntity
  8
0
100
AcDbLine
 62
7
  6
CONTINUOUS
 10
13.9258813821
 20
5.2855888441
 11
13.9448291318
 21
5.3676605648
  0
LINE
  5
22C
100
AcDbEntity
  8
0
100
AcDbLine
 62
7
  6
CONTINUOUS
 10
14.1758813821
 20
5.3676605648
 11
14.1948291318
 21
5.2855888441
  0
LINE
  5
22D
100
AcDbEntity
  8
0
100
AcDbLine
 62
7
  6
CONTINUOUS
 10
14.4258813821
 20
5.2855888441
 11
14.4448291318
 21
5.3676605648
  0
LINE
  5
22E
100
AcDbEntity
  8
0
100
AcDbLine
 62
7
  6
CONTINUOUS
 10
14.6758813821
 20
5.3676605648
 11
14.6948291318
 21
5.2855888441
  0
LINE
  5
22F
100
AcDbEntity
  8
0
100
AcDbLine
 62
7
  6
CONTINUOUS
 10
14.9258813821
 20
5.2855888441
 11
14.9448291318
 21
5.3676605648
  0
LINE
  5
230
100
AcDbEntity
  8
0
100
AcDbLine
 62
7
  6
CONTINUOUS
 10
15.1758813821
 20
5.3676605648
 11
15.1948291318
 21
5.2855888441
  0
LINE
  5
231
100
AcDbEntity
  8
0
100
AcDbLine
 62
7
  6
CONTINUOUS
 10
13.7274705289
 20
5.2596247044
 11
13.8932399849
 21
5.2596247044
  0
LINE
  5
232
100
AcDbEntity
  8
0
100
AcDbLine
 62
7
  6
CONTINUOUS
 10
14.2274705289
 20
5.2596247044
 11
14.3932399849
 21
5.2596247044
  0
LINE
  5
233
100
AcDbEntity
  8
0
100
AcDbLine
 62
7
  6
CONTINUOUS
 10
14.7274705289
 20
5.2596247044
 11
14.8932399849
 21
5.2596247044
  0
LINE
  5
234
100
AcDbEntity
  8
0
100
AcDbLine
 62
7
  6
CONTINUOUS
 10
15.2274705289
 20
5.2596247044
 11
15.3932399849
 21
5.2596247044
  0
LINE
  5
235
100
AcDbEntity
  8
0
100
AcDbLine
 62
7
  6
CONTINUOUS
 10
15.7274705289
 20
5.2596247044
 11
15.8932399849
 21
5.2596247044
  0
LINE
  5
236
100
AcDbEntity
  8
0
100
AcDbLine
 62
7
  6
CONTINUOUS
 10
16.2274705289
 20
5.2596247044
 11
16.3932399849
 21
5.2596247044
  0
LINE
  5
237
100
AcDbEntity
  8
0
100
AcDbLine
 62
7
  6
CONTINUOUS
 10
16.7274705289
 20
5.2596247044
 11
16.8932399849
 21
5.2596247044
  0
LINE
  5
238
100
AcDbEntity
  8
0
100
AcDbLine
 62
7
  6
CONTINUOUS
 10
17.2274705289
 20
5.2596247044
 11
17.3932399849
 21
5.2596247044
  0
LINE
  5
239
100
AcDbEntity
  8
0
100
AcDbLine
 62
7
  6
CONTINUOUS
 10
15.4258813821
 20
5.2855888441
 11
15.4448291318
 21
5.3676605648
  0
LINE
  5
23A
100
AcDbEntity
  8
0
100
AcDbLine
 62
7
  6
CONTINUOUS
 10
13.5603552569
 20
5.3936247044
 11
13.6432399849
 21
5.3936247044
  0
LINE
  5
23B
100
AcDbEntity
  8
0
100
AcDbLine
 62
7
  6
CONTINUOUS
 10
13.9774705289
 20
5.3936247044
 11
14.1432399849
 21
5.3936247044
  0
LINE
  5
23C
100
AcDbEntity
  8
0
100
AcDbLine
 62
7
  6
CONTINUOUS
 10
14.4774705289
 20
5.3936247044
 11
14.6432399849
 21
5.3936247044
  0
LINE
  5
23D
100
AcDbEntity
  8
0
100
AcDbLine
 62
7
  6
CONTINUOUS
 10
14.9774705289
 20
5.3936247044
 11
15.1432399849
 21
5.3936247044
  0
LINE
  5
23E
100
AcDbEntity
  8
0
100
AcDbLine
 62
7
  6
CONTINUOUS
 10
15.4774705289
 20
5.3936247044
 11
15.6432399849
 21
5.3936247044
  0
LINE
  5
23F
100
AcDbEntity
  8
0
100
AcDbLine
 62
7
  6
CONTINUOUS
 10
15.9774705289
 20
5.3936247044
 11
16.1432399849
 21
5.3936247044
  0
LINE
  5
240
100
AcDbEntity
  8
0
100
AcDbLine
 62
7
  6
CONTINUOUS
 10
16.4774705289
 20
5.3936247044
 11
16.6432399849
 21
5.3936247044
  0
LINE
  5
241
100
AcDbEntity
  8
0
100
AcDbLine
 62
7
  6
CONTINUOUS
 10
16.9774705289
 20
5.3936247044
 11
17.1432399849
 21
5.3936247044
  0
LINE
  5
242
100
AcDbEntity
  8
0
100
AcDbLine
 62
7
  6
CONTINUOUS
 10
17.4774705289
 20
5.3936247044
 11
17.5603552569
 21
5.3936247044
  0
LINE
  5
243
100
AcDbEntity
  8
0
100
AcDbLine
 62
7
  6
CONTINUOUS
 10
15.6758813821
 20
5.3676605648
 11
15.6948291318
 21
5.2855888441
  0
LINE
  5
244
100
AcDbEntity
  8
0
100
AcDbLine
 62
7
  6
CONTINUOUS
 10
13.5603552569
 20
5.6616247044
 11
17.5603552569
 21
5.6616247044
  0
LINE
  5
245
100
AcDbEntity
  8
0
100
AcDbLine
 62
7
  6
CONTINUOUS
 10
15.9258813821
 20
5.2855888441
 11
15.9448291318
 21
5.3676605648
  0
LINE
  5
246
100
AcDbEntity
  8
0
100
AcDbLine
 62
7
  6
CONTINUOUS
 10
16.1758813821
 20
5.3676605648
 11
16.1948291318
 21
5.2855888441
  0
LINE
  5
247
100
AcDbEntity
  8
0
100
AcDbLine
 62
7
  6
CONTINUOUS
 10
16.4258813821
 20
5.2855888441
 11
16.4448291318
 21
5.3676605648
  0
LINE
  5
248
100
AcDbEntity
  8
0
100
AcDbLine
 62
7
  6
CONTINUOUS
 10
16.6758813821
 20
5.3676605648
 11
16.6948291318
 21
5.2855888441
  0
LINE
  5
249
100
AcDbEntity
  8
0
100
AcDbLine
 62
7
  6
CONTINUOUS
 10
16.9258813821
 20
5.2855888441
 11
16.9448291318
 21
5.3676605648
  0
LINE
  5
24A
100
AcDbEntity
  8
0
100
AcDbLine
 62
7
  6
CONTINUOUS
 10
17.1758813821
 20
5.3676605648
 11
17.1948291318
 21
5.2855888441
  0
LINE
  5
24B
100
AcDbEntity
  8
0
100
AcDbLine
 62
7
  6
CONTINUOUS
 10
17.5603552569
 20
5.3936247044
 11
17.5603552569
 21
5.6616247044
  0
LINE
  5
24C
100
AcDbEntity
  8
0
100
AcDbLine
 62
7
  6
CONTINUOUS
 10
17.4258813821
 20
5.2855888441
 11
17.4448291318
 21
5.3676605648
  0
LINE
  5
24D
100
AcDbEntity
  8
0
100
AcDbLine
 62
7
  6
CONTINUOUS
 10
14.4511338812
 20
10.9580742768
 11
14.5220683109
 21
10.8728998917
  0
LWPOLYLINE
  5
24E
100
AcDbEntity
  8
0
100
AcDbPolyline
 62
7
  6
CONTINUOUS
 90
6
 70
0
 10
15.579600611
 20
10.8957901358
 10
15.5808911605
 20
10.8958225851
 10
15.5897590007
 20
10.8979007907
 10
15.5967287703
 20
10.9023741836
 10
15.6016651426
 20
10.9082599081
 10
15.6045963369
 20
10.9142621447
  0
LINE
  5
24F
100
AcDbEntity
  8
0
100
AcDbLine
 62
7
  6
CONTINUOUS
 10
14.5504152269
 20
10.8608554379
 11
15.5363072728
 21
10.8608554379
  0
LINE
  5
250
100
AcDbEntity
  8
0
100
AcDbLine
 62
7
  6
CONTINUOUS
 10
15.5608408551
 20
10.8957895257
 11
15.5796067677
 21
10.8957895257
  0
LINE
  5
251
100
AcDbEntity
  8
0
100
AcDbLine
 62
7
  6
CONTINUOUS
 10
14.422356111
 20
11.0119066602
 11
14.4419112589
 21
10.9720574586
  0
LINE
  5
252
100
AcDbEntity
  8
0
100
AcDbLine
 62
7
  6
CONTINUOUS
 10
15.4854634699
 20
11.0274469094
 11
14.4377565892
 21
11.0274469094
  0
LWPOLYLINE
  5
253
100
AcDbEntity
  8
0
100
AcDbPolyline
 62
7
  6
CONTINUOUS
 90
6
 70
0
 10
15.7006337727
 20
11.2874535906
 10
15.7019243222
 20
11.2874860399
 10
15.7107921624
 20
11.2895642456
 10
15.717761932
 20
11.2940376384
 10
15.7226983043
 20
11.2999233629
 10
15.7256294986
 20
11.3059255995
  0
LINE
  5
254
100
AcDbEntity
  8
0
100
AcDbLine
 62
7
  6
CONTINUOUS
 10
15.6818740168
 20
11.2874529805
 11
15.7006399294
 21
11.2874529805
  0
LWPOLYLINE
  5
255
100
AcDbEntity
  8
0
100
AcDbPolyline
 62
7
  6
CONTINUOUS
 90
6
 70
0
 10
15.8216669344
 20
11.6791170454
 10
15.8229574839
 20
11.6791494947
 10
15.8318253241
 20
11.6812277004
 10
15.8387950937
 20
11.6857010932
 10
15.843731466
 20
11.6915868177
 10
15.8466626604
 20
11.6975890543
  0
LINE
  5
256
100
AcDbEntity
  8
0
100
AcDbLine
 62
7
  6
CONTINUOUS
 10
15.8029071785
 20
11.6791164353
 11
15.8216730911
 21
11.6791164353
  0
LINE
  5
257
100
AcDbEntity
  8
0
100
AcDbLine
 62
7
  6
CONTINUOUS
 10
14.4214971148
 20
11.0192878445
 11
15.3897624084
 21
14.152595483
  0
LINE
  5
258
100
AcDbEntity
  8
0
100
AcDbLine
 62
7
  6
CONTINUOUS
 10
15.5356711893
 20
10.9720574586
 11
15.5161160414
 21
11.0119066602
  0
LWPOLYLINE
  5
259
100
AcDbEntity
  8
0
100
AcDbPolyline
 62
7
  6
CONTINUOUS
 90
6
 70
0
 10
15.9427000961
 20
12.0707805002
 10
15.9439906456
 20
12.0708129496
 10
15.9528584858
 20
12.0728911552
 10
15.9598282554
 20
12.077364548
 10
15.9647646277
 20
12.0832502725
 10
15.9676958221
 20
12.0892525091
  0
LINE
  5
25A
100
AcDbEntity
  8
0
100
AcDbLine
 62
7
  6
CONTINUOUS
 10
15.9239403402
 20
12.0707798901
 11
15.9427062528
 21
12.0707798901
  0
LINE
  5
25B
100
AcDbEntity
  8
0
100
AcDbLine
 62
7
  6
CONTINUOUS
 10
15.5528330698
 20
10.8728998917
 11
15.5401724649
 21
10.9580742768
  0
LWPOLYLINE
  5
25C
100
AcDbEntity
  8
0
100
AcDbPolyline
 62
7
  6
CONTINUOUS
 90
6
 70
0
 10
16.0637332578
 20
12.462443955
 10
16.0650238073
 20
12.4624764044
 10
16.0738916475
 20
12.46455461
 10
16.0808614171
 20
12.4690280028
 10
16.0857977894
 20
12.4749137273
 10
16.0887289838
 20
12.4809159639
  0
LINE
  5
25D
100
AcDbEntity
  8
0
100
AcDbLine
 62
7
  6
CONTINUOUS
 10
16.0449735019
 20
12.4624433449
 11
16.0637394145
 21
12.4624433449
  0
LINE
  5
25E
100
AcDbEntity
  8
0
100
AcDbLine
 62
7
  6
CONTINUOUS
 10
15.6480130421
 20
11.0655766154
 11
15.6450163766
 21
11.1314354968
  0
LWPOLYLINE
  5
25F
100
AcDbEntity
  8
0
100
AcDbPolyline
 62
7
  6
CONTINUOUS
 90
6
 70
0
 10
15.6450150047
 20
11.1314579382
 10
15.644904228
 20
11.1357006525
 10
15.6453017924
 20
11.1484514494
 10
15.646771719
 20
11.1632503076
 10
15.6491998041
 20
11.1781403212
 10
15.6521957777
 20
11.1911124148
  0
LINE
  5
260
100
AcDbEntity
  8
0
100
AcDbLine
 62
7
  6
CONTINUOUS
 10
15.7690462038
 20
11.4572400703
 11
15.7660495383
 21
11.5230989517
  0
LWPOLYLINE
  5
261
100
AcDbEntity
  8
0
100
AcDbPolyline
 62
7
  6
CONTINUOUS
 90
6
 70
0
 10
15.7660481664
 20
11.5231213931
 10
15.7659373897
 20
11.5273641073
 10
15.7663349541
 20
11.5401149042
 10
15.7678048807
 20
11.5549137624
 10
15.7702329658
 20
11.569803776
 10
15.7732289394
 20
11.5827758696
  0
LINE
  5
262
100
AcDbEntity
  8
0
100
AcDbLine
 62
7
  6
CONTINUOUS
 10
15.6480565665
 20
11.0629153984
 11
15.6480108667
 21
11.0656222074
  0
LINE
  5
263
100
AcDbEntity
  8
0
100
AcDbLine
 62
7
  6
CONTINUOUS
 10
15.5525653186
 20
10.8690149427
 11
15.5528330698
 21
10.8728998917
  0
LINE
  5
264
100
AcDbEntity
  8
0
100
AcDbLine
 62
7
  6
CONTINUOUS
 10
16.4237847566
 20
13.6858149157
 11
16.4242362757
 21
13.6866234356
  0
LINE
  5
265
100
AcDbEntity
  8
0
100
AcDbLine
 62
7
  6
CONTINUOUS
 10
15.8900793655
 20
11.8489035251
 11
15.8870827
 21
11.9147624065
  0
LWPOLYLINE
  5
266
100
AcDbEntity
  8
0
100
AcDbPolyline
 62
7
  6
CONTINUOUS
 90
6
 70
0
 10
15.8870813281
 20
11.9147848479
 10
15.8869705514
 20
11.9190275621
 10
15.8873681158
 20
11.931778359
 10
15.8888380424
 20
11.9465772173
 10
15.8912661275
 20
11.9614672309
 10
15.8942621011
 20
11.9744393244
  0
LINE
  5
267
100
AcDbEntity
  8
0
100
AcDbLine
 62
7
  6
CONTINUOUS
 10
15.7690897282
 20
11.4545788532
 11
15.7690440284
 21
11.4572856622
  0
LINE
  5
268
100
AcDbEntity
  8
0
100
AcDbLine
 62
7
  6
CONTINUOUS
 10
15.8901228899
 20
11.846242308
 11
15.8900771901
 21
11.848949117
  0
LINE
  5
269
100
AcDbEntity
  8
0
100
AcDbLine
 62
7
  6
CONTINUOUS
 10
15.6475353765
 20
11.055860743
 11
15.6480565665
 21
11.0629153984
  0
LINE
  5
26A
100
AcDbEntity
  8
0
100
AcDbLine
 62
7
  6
CONTINUOUS
 10
15.7685685382
 20
11.4475241978
 11
15.7690897282
 21
11.4545788532
  0
LINE
  5
26B
100
AcDbEntity
  8
0
100
AcDbLine
 62
7
  6
CONTINUOUS
 10
16.4222107568
 20
13.6823143681
 11
16.4237847566
 21
13.6858149157
  0
LINE
  5
26C
100
AcDbEntity
  8
0
100
AcDbLine
 62
7
  6
CONTINUOUS
 10
16.3027515949
 20
13.2941514609
 11
16.303203114
 21
13.2949599808
  0
LWPOLYLINE
  5
26D
100
AcDbEntity
  8
0
100
AcDbPolyline
 62
7
  6
CONTINUOUS
 90
6
 70
0
 10
16.1847664195
 20
12.8541074098
 10
16.1860569691
 20
12.8541398592
 10
16.1949248092
 20
12.8562180648
 10
16.2018945788
 20
12.8606914576
 10
16.2068309511
 20
12.8665771822
 10
16.2097621455
 20
12.8725794188
  0
LINE
  5
26E
100
AcDbEntity
  8
0
100
AcDbLine
 62
7
  6
CONTINUOUS
 10
16.1660066636
 20
12.8541067997
 11
16.1847725762
 21
12.8541067997
  0
LINE
  5
26F
100
AcDbEntity
  8
0
100
AcDbLine
 62
7
  6
CONTINUOUS
 10
16.0111125272
 20
12.2405669799
 11
16.0081158617
 21
12.3064258613
  0
LWPOLYLINE
  5
270
100
AcDbEntity
  8
0
100
AcDbPolyline
 62
7
  6
CONTINUOUS
 90
6
 70
0
 10
16.0081144898
 20
12.3064483027
 10
16.0080037131
 20
12.3106910169
 10
16.0084012775
 20
12.3234418138
 10
16.0098712042
 20
12.3382406721
 10
16.0122992892
 20
12.3531306857
 10
16.0152952628
 20
12.3661027792
  0
LINE
  5
271
100
AcDbEntity
  8
0
100
AcDbLine
 62
7
  6
CONTINUOUS
 10
16.0111560516
 20
12.2379057629
 11
16.0111103518
 21
12.2406125718
  0
LINE
  5
272
100
AcDbEntity
  8
0
100
AcDbLine
 62
7
  6
CONTINUOUS
 10
15.8896016999
 20
11.8391876526
 11
15.8901228899
 21
11.846242308
  0
LINE
  5
273
100
AcDbEntity
  8
0
100
AcDbLine
 62
7
  6
CONTINUOUS
 10
15.6461987054
 20
11.0488608093
 11
15.6475353765
 21
11.055860743
  0
LINE
  5
274
100
AcDbEntity
  8
0
100
AcDbLine
 62
7
  6
CONTINUOUS
 10
15.7672318671
 20
11.4405242641
 11
15.7685685382
 21
11.4475241978
  0
LINE
  5
275
100
AcDbEntity
  8
0
100
AcDbLine
 62
7
  6
CONTINUOUS
 10
15.8882650288
 20
11.832187719
 11
15.8896016999
 21
11.8391876526
  0
LINE
  5
276
100
AcDbEntity
  8
0
100
AcDbLine
 62
7
  6
CONTINUOUS
 10
16.3011775951
 20
13.2906509133
 11
16.3027515949
 21
13.2941514609
  0
LINE
  5
277
100
AcDbEntity
  8
0
100
AcDbLine
 62
7
  6
CONTINUOUS
 10
16.1801444334
 20
12.8989874585
 11
16.1817184332
 21
12.902488006
  0
LINE
  5
278
100
AcDbEntity
  8
0
100
AcDbLine
 62
7
  6
CONTINUOUS
 10
16.0591112717
 20
12.5073240037
 11
16.0606852715
 21
12.5108245512
  0
LINE
  5
279
100
AcDbEntity
  8
0
100
AcDbLine
 62
7
  6
CONTINUOUS
 10
16.1817184332
 20
12.902488006
 11
16.1821699523
 21
12.9032965259
  0
LINE
  5
27A
100
AcDbEntity
  8
0
100
AcDbLine
 62
7
  6
CONTINUOUS
 10
16.0606852715
 20
12.5108245512
 11
16.0611367906
 21
12.5116330711
  0
LINE
  5
27B
100
AcDbEntity
  8
0
100
AcDbLine
 62
7
  6
CONTINUOUS
 10
16.1321456889
 20
12.6322304347
 11
16.1291490234
 21
12.6980893161
  0
LWPOLYLINE
  5
27C
100
AcDbEntity
  8
0
100
AcDbPolyline
 62
7
  6
CONTINUOUS
 90
6
 70
0
 10
16.1291476515
 20
12.6981117575
 10
16.1290368748
 20
12.7023544717
 10
16.1294344392
 20
12.7151052686
 10
16.1309043659
 20
12.7299041269
 10
16.1333324509
 20
12.7447941405
 10
16.1363284245
 20
12.757766234
  0
LINE
  5
27D
100
AcDbEntity
  8
0
100
AcDbLine
 62
7
  6
CONTINUOUS
 10
16.1321892133
 20
12.6295692177
 11
16.1321435135
 21
12.6322760267
  0
LINE
  5
27E
100
AcDbEntity
  8
0
100
AcDbLine
 62
7
  6
CONTINUOUS
 10
16.0106348616
 20
12.2308511074
 11
16.0111560516
 21
12.2379057629
  0
LINE
  5
27F
100
AcDbEntity
  8
0
100
AcDbLine
 62
7
  6
CONTINUOUS
 10
16.1316680233
 20
12.6225145622
 11
16.1321892133
 21
12.6295692177
  0
LINE
  5
280
100
AcDbEntity
  8
0
100
AcDbLine
 62
7
  6
CONTINUOUS
 10
16.0092981905
 20
12.2238511738
 11
16.0106348616
 21
12.2308511074
  0
LINE
  5
281
100
AcDbEntity
  8
0
100
AcDbLine
 62
7
  6
CONTINUOUS
 10
16.1303313522
 20
12.6155146286
 11
16.1316680233
 21
12.6225145622
  0
LINE
  5
282
100
AcDbEntity
  8
0
100
AcDbLine
 62
7
  6
CONTINUOUS
 10
15.6455175139
 20
11.046441755
 11
15.6461987054
 21
11.0488608093
  0
LINE
  5
283
100
AcDbEntity
  8
0
100
AcDbLine
 62
7
  6
CONTINUOUS
 10
15.7665506757
 20
11.4381052098
 11
15.7672318671
 21
11.4405242641
  0
LINE
  5
284
100
AcDbEntity
  8
0
100
AcDbLine
 62
7
  6
CONTINUOUS
 10
15.8875838374
 20
11.8297686646
 11
15.8882650288
 21
11.832187719
  0
LINE
  5
285
100
AcDbEntity
  8
0
100
AcDbLine
 62
7
  6
CONTINUOUS
 10
16.0086169991
 20
12.2214321194
 11
16.0092981905
 21
12.2238511738
  0
LINE
  5
286
100
AcDbEntity
  8
0
100
AcDbLine
 62
7
  6
CONTINUOUS
 10
16.1296501608
 20
12.6130955743
 11
16.1303313522
 21
12.6155146286
  0
LINE
  5
287
100
AcDbEntity
  8
0
100
AcDbLine
 62
7
  6
CONTINUOUS
 10
16.2506833225
 20
13.0047590291
 11
16.2513645139
 21
13.0071780834
  0
LINE
  5
288
100
AcDbEntity
  8
0
100
AcDbLine
 62
7
  6
CONTINUOUS
 10
16.3717164842
 20
13.3964224839
 11
16.3723976757
 21
13.3988415382
  0
LINE
  5
289
100
AcDbEntity
  8
0
100
AcDbLine
 62
7
  6
CONTINUOUS
 10
16.4927496459
 20
13.7880859387
 11
16.4934308374
 21
13.790504993
  0
LINE
  5
28A
100
AcDbEntity
  8
0
100
AcDbLine
 62
7
  6
CONTINUOUS
 10
15.6521957777
 20
11.1911124148
 11
15.6535303077
 21
11.1957378559
  0
LINE
  5
28B
100
AcDbEntity
  8
0
100
AcDbLine
 62
7
  6
CONTINUOUS
 10
15.7732289394
 20
11.5827758696
 11
15.7745634694
 21
11.5874013107
  0
LINE
  5
28C
100
AcDbEntity
  8
0
100
AcDbLine
 62
7
  6
CONTINUOUS
 10
15.8942621011
 20
11.9744393244
 11
15.8955966311
 21
11.9790647655
  0
LINE
  5
28D
100
AcDbEntity
  8
0
100
AcDbLine
 62
7
  6
CONTINUOUS
 10
16.0152952628
 20
12.3661027792
 11
16.0166297928
 21
12.3707282203
  0
LINE
  5
28E
100
AcDbEntity
  8
0
100
AcDbLine
 62
7
  6
CONTINUOUS
 10
16.1363284245
 20
12.757766234
 11
16.1376629545
 21
12.7623916751
  0
LINE
  5
28F
100
AcDbEntity
  8
0
100
AcDbLine
 62
7
  6
CONTINUOUS
 10
16.2573615862
 20
13.1494296888
 11
16.2586961162
 21
13.1540551299
  0
LINE
  5
290
100
AcDbEntity
  8
0
100
AcDbLine
 62
7
  6
CONTINUOUS
 10
16.3783947479
 20
13.5410931436
 11
16.3797292779
 21
13.5457185847
  0
LINE
  5
291
100
AcDbEntity
  8
0
100
AcDbLine
 62
7
  6
CONTINUOUS
 10
16.4994279096
 20
13.9327565985
 11
16.5007624396
 21
13.9373820396
  0
LINE
  5
292
100
AcDbEntity
  8
0
100
AcDbLine
 62
7
  6
CONTINUOUS
 10
15.5536859746
 20
10.8726363241
 11
15.5726303492
 21
10.9339403426
  0
LINE
  5
293
100
AcDbEntity
  8
0
100
AcDbLine
 62
7
  6
CONTINUOUS
 10
15.6535363075
 20
11.1957521197
 11
15.6936635109
 21
11.3256037974
  0
LINE
  5
294
100
AcDbEntity
  8
0
100
AcDbLine
 62
7
  6
CONTINUOUS
 10
15.7745694692
 20
11.5874155746
 11
15.8146966726
 21
11.7172672523
  0
LINE
  5
295
100
AcDbEntity
  8
0
100
AcDbLine
 62
7
  6
CONTINUOUS
 10
15.8956026309
 20
11.9790790294
 11
15.9357298343
 21
12.1089307071
  0
LINE
  5
296
100
AcDbEntity
  8
0
100
AcDbLine
 62
7
  6
CONTINUOUS
 10
16.0166357926
 20
12.3707424842
 11
16.056762996
 21
12.5005941619
  0
LINE
  5
297
100
AcDbEntity
  8
0
100
AcDbLine
 62
7
  6
CONTINUOUS
 10
16.1376689543
 20
12.762405939
 11
16.1777961577
 21
12.8922576167
  0
LINE
  5
298
100
AcDbEntity
  8
0
100
AcDbLine
 62
7
  6
CONTINUOUS
 10
16.258702116
 20
13.1540693938
 11
16.2988293194
 21
13.2839210715
  0
LINE
  5
299
100
AcDbEntity
  8
0
100
AcDbLine
 62
7
  6
CONTINUOUS
 10
16.3797352777
 20
13.5457328486
 11
16.4198624811
 21
13.6755845263
  0
LINE
  5
29A
100
AcDbEntity
  8
0
100
AcDbLine
 62
7
  6
CONTINUOUS
 10
16.5007684394
 20
13.9373963034
 11
16.5208320408
 21
14.0023221413
  0
LINE
  5
29B
100
AcDbEntity
  8
0
100
AcDbLine
 62
7
  6
CONTINUOUS
 10
15.6054010829
 20
10.9166246567
 11
15.645528286
 21
11.0464763335
  0
LINE
  5
29C
100
AcDbEntity
  8
0
100
AcDbLine
 62
7
  6
CONTINUOUS
 10
15.7264342446
 20
11.3082881115
 11
15.7665614477
 21
11.4381397883
  0
LINE
  5
29D
100
AcDbEntity
  8
0
100
AcDbLine
 62
7
  6
CONTINUOUS
 10
15.8474674063
 20
11.6999515663
 11
15.8875946094
 21
11.8298032431
  0
LINE
  5
29E
100
AcDbEntity
  8
0
100
AcDbLine
 62
7
  6
CONTINUOUS
 10
15.968500568
 20
12.0916150211
 11
16.0086277711
 21
12.2214666979
  0
LINE
  5
29F
100
AcDbEntity
  8
0
100
AcDbLine
 62
7
  6
CONTINUOUS
 10
16.0895337297
 20
12.4832784759
 11
16.1296609328
 21
12.6131301527
  0
LINE
  5
2A0
100
AcDbEntity
  8
0
100
AcDbLine
 62
7
  6
CONTINUOUS
 10
16.2105668914
 20
12.8749419307
 11
16.2506940946
 21
13.0047936076
  0
LINE
  5
2A1
100
AcDbEntity
  8
0
100
AcDbLine
 62
7
  6
CONTINUOUS
 10
16.3316000532
 20
13.2666053855
 11
16.3717272563
 21
13.3964570624
  0
LINE
  5
2A2
100
AcDbEntity
  8
0
100
AcDbLine
 62
7
  6
CONTINUOUS
 10
16.4526332149
 20
13.6582688403
 11
16.492760418
 21
13.7881205172
  0
LINE
  5
2A3
100
AcDbEntity
  8
0
100
AcDbLine
 62
7
  6
CONTINUOUS
 10
16.492760418
 20
13.7881205172
 11
16.4927496484
 21
13.7880859379
  0
LINE
  5
2A4
100
AcDbEntity
  8
0
100
AcDbLine
 62
7
  6
CONTINUOUS
 10
16.3717272563
 20
13.3964570624
 11
16.3717164867
 21
13.3964224831
  0
LINE
  5
2A5
100
AcDbEntity
  8
0
100
AcDbLine
 62
7
  6
CONTINUOUS
 10
16.2506940946
 20
13.0047936076
 11
16.250683325
 21
13.0047590283
  0
LINE
  5
2A6
100
AcDbEntity
  8
0
100
AcDbLine
 62
7
  6
CONTINUOUS
 10
16.1296609328
 20
12.6131301527
 11
16.1296501633
 21
12.6130955735
  0
LINE
  5
2A7
100
AcDbEntity
  8
0
100
AcDbLine
 62
7
  6
CONTINUOUS
 10
16.0086277711
 20
12.2214666979
 11
16.0086170016
 21
12.2214321187
  0
LINE
  5
2A8
100
AcDbEntity
  8
0
100
AcDbLine
 62
7
  6
CONTINUOUS
 10
15.8875946094
 20
11.8298032431
 11
15.8875838399
 21
11.8297686639
  0
LINE
  5
2A9
100
AcDbEntity
  8
0
100
AcDbLine
 62
7
  6
CONTINUOUS
 10
15.7665614477
 20
11.4381397883
 11
15.7665506782
 21
11.4381052091
  0
LINE
  5
2AA
100
AcDbEntity
  8
0
100
AcDbLine
 62
7
  6
CONTINUOUS
 10
15.645528286
 20
11.0464763335
 11
15.6455175165
 21
11.0464417542
  0
LWPOLYLINE
  5
2AB
100
AcDbEntity
  8
0
100
AcDbPolyline
 62
7
  6
CONTINUOUS
 90
3
 70
0
 10
16.4198626691
 20
13.675586149
 10
16.4201847807
 20
13.6766107206
 10
16.4222107568
 20
13.6823143681
  0
LWPOLYLINE
  5
2AC
100
AcDbEntity
  8
0
100
AcDbPolyline
 62
7
  6
CONTINUOUS
 90
3
 70
0
 10
16.2988295074
 20
13.2839226942
 10
16.299151619
 20
13.2849472658
 10
16.3011775951
 20
13.2906509133
  0
LWPOLYLINE
  5
2AD
100
AcDbEntity
  8
0
100
AcDbPolyline
 62
7
  6
CONTINUOUS
 90
3
 70
0
 10
16.1777963457
 20
12.8922592394
 10
16.1781184573
 20
12.893283811
 10
16.1801444334
 20
12.8989874585
  0
LWPOLYLINE
  5
2AE
100
AcDbEntity
  8
0
100
AcDbPolyline
 62
7
  6
CONTINUOUS
 90
3
 70
0
 10
16.056763184
 20
12.5005957846
 10
16.0570852956
 20
12.5016203562
 10
16.0591112717
 20
12.5073240037
  0
LWPOLYLINE
  5
2AF
100
AcDbEntity
  8
0
100
AcDbPolyline
 62
7
  6
CONTINUOUS
 90
3
 70
0
 10
15.9357300223
 20
12.1089323298
 10
15.9360521339
 20
12.1099569014
 10
15.93807811
 20
12.1156605489
  0
LWPOLYLINE
  5
2B0
100
AcDbEntity
  8
0
100
AcDbPolyline
 62
7
  6
CONTINUOUS
 90
3
 70
0
 10
15.8146968606
 20
11.717268875
 10
15.8150189722
 20
11.7182934466
 10
15.8170449483
 20
11.7239970941
  0
LWPOLYLINE
  5
2B1
100
AcDbEntity
  8
0
100
AcDbPolyline
 62
7
  6
CONTINUOUS
 90
3
 70
0
 10
15.6936636989
 20
11.3256054201
 10
15.6939858105
 20
11.3266299917
 10
15.6960117866
 20
11.3323336393
  0
LWPOLYLINE
  5
2B2
100
AcDbEntity
  8
0
100
AcDbPolyline
 62
7
  6
CONTINUOUS
 90
3
 70
0
 10
15.5726305372
 20
10.9339419653
 10
15.5729526488
 20
10.9349665369
 10
15.5749786249
 20
10.9406701845
  0
LINE
  5
2B3
100
AcDbEntity
  8
0
100
AcDbLine
 62
7
  6
CONTINUOUS
 10
16.4518284689
 20
13.6559063284
 11
16.4526467512
 21
13.6583131901
  0
LINE
  5
2B4
100
AcDbEntity
  8
0
100
AcDbLine
 62
7
  6
CONTINUOUS
 10
16.3307953072
 20
13.2642428736
 11
16.3316135895
 21
13.2666497353
  0
LINE
  5
2B5
100
AcDbEntity
  8
0
100
AcDbLine
 62
7
  6
CONTINUOUS
 10
16.2097621455
 20
12.8725794188
 11
16.2105804278
 21
12.8749862805
  0
LINE
  5
2B6
100
AcDbEntity
  8
0
100
AcDbLine
 62
7
  6
CONTINUOUS
 10
16.0887289838
 20
12.4809159639
 11
16.0895472661
 21
12.4833228257
  0
LINE
  5
2B7
100
AcDbEntity
  8
0
100
AcDbLine
 62
7
  6
CONTINUOUS
 10
15.9676958221
 20
12.0892525091
 11
15.9685141044
 21
12.0916593709
  0
LINE
  5
2B8
100
AcDbEntity
  8
0
100
AcDbLine
 62
7
  6
CONTINUOUS
 10
15.8466626604
 20
11.6975890543
 11
15.8474809427
 21
11.6999959161
  0
LINE
  5
2B9
100
AcDbEntity
  8
0
100
AcDbLine
 62
7
  6
CONTINUOUS
 10
15.7256294986
 20
11.3059255995
 11
15.726447781
 21
11.3083324613
  0
LINE
  5
2BA
100
AcDbEntity
  8
0
100
AcDbLine
 62
7
  6
CONTINUOUS
 10
15.6045963369
 20
10.9142621447
 11
15.6054146193
 21
10.9166690064
  0
LINE
  5
2BB
100
AcDbEntity
  8
0
100
AcDbLine
 62
7
  6
CONTINUOUS
 10
15.93807811
 20
12.1156605489
 11
15.9396521098
 21
12.1191610964
  0
LINE
  5
2BC
100
AcDbEntity
  8
0
100
AcDbLine
 62
7
  6
CONTINUOUS
 10
15.8170449483
 20
11.7239970941
 11
15.8186189481
 21
11.7274976416
  0
LINE
  5
2BD
100
AcDbEntity
  8
0
100
AcDbLine
 62
7
  6
CONTINUOUS
 10
15.9396521098
 20
12.1191610964
 11
15.9401036289
 21
12.1199696163
  0
LWPOLYLINE
  5
2BE
100
AcDbEntity
  8
0
100
AcDbPolyline
 62
7
  6
CONTINUOUS
 90
6
 70
0
 10
16.2501808132
 20
13.0897752123
 10
16.2500700366
 20
13.0940179265
 10
16.250467601
 20
13.1067687234
 10
16.2519375276
 20
13.1215675817
 10
16.2543656126
 20
13.1364575953
 10
16.2573615862
 20
13.1494296888
  0
LINE
  5
2BF
100
AcDbEntity
  8
0
100
AcDbLine
 62
7
  6
CONTINUOUS
 10
16.253222375
 20
13.0212326725
 11
16.2531766752
 21
13.0239394815
  0
LINE
  5
2C0
100
AcDbEntity
  8
0
100
AcDbLine
 62
7
  6
CONTINUOUS
 10
16.252701185
 20
13.014178017
 11
16.253222375
 21
13.0212326725
  0
LINE
  5
2C1
100
AcDbEntity
  8
0
100
AcDbLine
 62
7
  6
CONTINUOUS
 10
16.2513645139
 20
13.0071780834
 11
16.252701185
 21
13.014178017
  0
LINE
  5
2C2
100
AcDbEntity
  8
0
100
AcDbLine
 62
7
  6
CONTINUOUS
 10
16.3723976757
 20
13.3988415382
 11
16.3737343467
 21
13.4058414718
  0
LINE
  5
2C3
100
AcDbEntity
  8
0
100
AcDbLine
 62
7
  6
CONTINUOUS
 10
16.4934308374
 20
13.790504993
 11
16.4947675084
 21
13.7975049267
  0
LINE
  5
2C4
100
AcDbEntity
  8
0
100
AcDbLine
 62
7
  6
CONTINUOUS
 10
15.6960117866
 20
11.3323336393
 11
15.6975857864
 21
11.3358341868
  0
LINE
  5
2C5
100
AcDbEntity
  8
0
100
AcDbLine
 62
7
  6
CONTINUOUS
 10
15.5749786249
 20
10.9406701845
 11
15.5765526247
 21
10.944170732
  0
LINE
  5
2C6
100
AcDbEntity
  8
0
100
AcDbLine
 62
7
  6
CONTINUOUS
 10
15.8186189481
 20
11.7274976416
 11
15.8190704672
 21
11.7283061615
  0
LINE
  5
2C7
100
AcDbEntity
  8
0
100
AcDbLine
 62
7
  6
CONTINUOUS
 10
15.6975857864
 20
11.3358341868
 11
15.6980373055
 21
11.3366427067
  0
LWPOLYLINE
  5
2C8
100
AcDbEntity
  8
0
100
AcDbPolyline
 62
7
  6
CONTINUOUS
 90
6
 70
0
 10
16.3057995812
 20
13.2457708646
 10
16.3070901308
 20
13.245803314
 10
16.3159579709
 20
13.2478815196
 10
16.3229277405
 20
13.2523549125
 10
16.3278641128
 20
13.258240637
 10
16.3307953072
 20
13.2642428736
  0
LINE
  5
2C9
100
AcDbEntity
  8
0
100
AcDbLine
 62
7
  6
CONTINUOUS
 10
16.2870398253
 20
13.2457702546
 11
16.3058057379
 21
13.2457702546
  0
LINE
  5
2CA
100
AcDbEntity
  8
0
100
AcDbLine
 62
7
  6
CONTINUOUS
 10
16.2531788506
 20
13.0238938895
 11
16.2501821851
 21
13.0897527709
  0
LWPOLYLINE
  5
2CB
100
AcDbEntity
  8
0
100
AcDbPolyline
 62
7
  6
CONTINUOUS
 90
6
 70
0
 10
16.3712139749
 20
13.4814386671
 10
16.3711031983
 20
13.4856813814
 10
16.3715007627
 20
13.4984321782
 10
16.3729706893
 20
13.5132310365
 10
16.3753987743
 20
13.5281210501
 10
16.3783947479
 20
13.5410931436
  0
LINE
  5
2CC
100
AcDbEntity
  8
0
100
AcDbLine
 62
7
  6
CONTINUOUS
 10
16.3742555367
 20
13.4128961273
 11
16.3742098369
 21
13.4156029363
  0
LINE
  5
2CD
100
AcDbEntity
  8
0
100
AcDbLine
 62
7
  6
CONTINUOUS
 10
16.3737343467
 20
13.4058414718
 11
16.3742555367
 21
13.4128961273
  0
LINE
  5
2CE
100
AcDbEntity
  8
0
100
AcDbLine
 62
7
  6
CONTINUOUS
 10
16.4947675084
 20
13.7975049267
 11
16.4952886984
 21
13.8045595821
  0
LINE
  5
2CF
100
AcDbEntity
  8
0
100
AcDbLine
 62
7
  6
CONTINUOUS
 10
15.5765526247
 20
10.944170732
 11
15.5770041438
 21
10.9449792519
  0
LINE
  5
2D0
100
AcDbEntity
  8
0
100
AcDbLine
 62
7
  6
CONTINUOUS
 10
16.3742120123
 20
13.4155573443
 11
16.3712153468
 21
13.4814162257
  0
LWPOLYLINE
  5
2D1
100
AcDbEntity
  8
0
100
AcDbPolyline
 62
7
  6
CONTINUOUS
 90
6
 70
0
 10
16.4922471366
 20
13.8731021219
 10
16.49213636
 20
13.8773448362
 10
16.4925339244
 20
13.8900956331
 10
16.494003851
 20
13.9048944913
 10
16.496431936
 20
13.9197845049
 10
16.4994279096
 20
13.9327565985
  0
LINE
  5
2D2
100
AcDbEntity
  8
0
100
AcDbLine
 62
7
  6
CONTINUOUS
 10
16.4952886984
 20
13.8045595821
 11
16.4952429986
 21
13.8072663911
  0
LINE
  5
2D3
100
AcDbEntity
  8
0
100
AcDbLine
 62
7
  6
CONTINUOUS
 10
16.5210983635
 20
14.0062075302
 11
16.5208306122
 21
14.0023225812
  0
LINE
  5
2D4
100
AcDbEntity
  8
0
100
AcDbLine
 62
7
  6
CONTINUOUS
 10
16.4952451741
 20
13.8072207991
 11
16.4922485085
 21
13.8730796805
  0
LWPOLYLINE
  5
2D5
100
AcDbEntity
  8
0
100
AcDbPolyline
 62
7
  6
CONTINUOUS
 90
6
 70
0
 10
16.4268327429
 20
13.6374343195
 10
16.4281232925
 20
13.6374667688
 10
16.4369911326
 20
13.6395449744
 10
16.4439609022
 20
13.6440183673
 10
16.4488972745
 20
13.6499040918
 10
16.4518284689
 20
13.6559063284
  0
LINE
  5
2D6
100
AcDbEntity
  8
0
100
AcDbLine
 62
7
  6
CONTINUOUS
 10
16.408072987
 20
13.6374337094
 11
16.4268388996
 21
13.6374337094
  0
LINE
  5
2D7
100
AcDbEntity
  8
0
100
AcDbLine
 62
7
  6
CONTINUOUS
 10
16.5210983635
 20
14.0062075302
 11
16.5084377585
 21
14.0913819153
  0
LINE
  5
2D8
100
AcDbEntity
  8
0
100
AcDbLine
 62
7
  6
CONTINUOUS
 10
16.4537287635
 20
14.1607545479
 11
15.4060218828
 21
14.1607545479
  0
LINE
  5
2D9
100
AcDbEntity
  8
0
100
AcDbLine
 62
7
  6
CONTINUOUS
 10
16.5039364829
 20
14.1053650971
 11
16.484381335
 21
14.1452142987
  0
ARC
  5
2DA
100
AcDbEntity
  8
0
100
AcDbCircle
 62
7
  6
CONTINUOUS
 10
5.5951735961
 20
5.4781198968
 40
0.025
100
AcDbArc
 50
193.0
 51
270.0
  0
ARC
  5
2DB
100
AcDbEntity
  8
0
100
AcDbCircle
 62
7
  6
CONTINUOUS
 10
5.6261099239
 20
5.3441199393
 40
0.025
100
AcDbArc
 50
193.0000999819
 51
270.0000224877
  0
ARC
  5
2DC
100
AcDbEntity
  8
0
100
AcDbCircle
 62
7
  6
CONTINUOUS
 10
5.6366172762
 20
5.6320134576
 40
0.1
100
AcDbArc
 50
180.0
 51
193.0
  0
ARC
  5
2DD
100
AcDbEntity
  8
0
100
AcDbCircle
 62
7
  6
CONTINUOUS
 10
5.5616172762
 20
5.6961198968
 40
0.025
100
AcDbArc
 50
90.0
 51
180.0
  0
ARC
  5
2DE
100
AcDbEntity
  8
0
100
AcDbCircle
 62
7
  6
CONTINUOUS
 10
6.6346246186
 20
5.3441198968
 40
0.025
100
AcDbArc
 50
270.0
 51
347.0
  0
ARC
  5
2DF
100
AcDbEntity
  8
0
100
AcDbCircle
 62
7
  6
CONTINUOUS
 10
6.6655609562
 20
5.4781198968
 40
0.025
100
AcDbArc
 50
270.0
 51
347.0
  0
ARC
  5
2E0
100
AcDbEntity
  8
0
100
AcDbCircle
 62
7
  6
CONTINUOUS
 10
6.6241172762
 20
5.6320134576
 40
0.1
100
AcDbArc
 50
347.0
 51
360.0
  0
ARC
  5
2E1
100
AcDbEntity
  8
0
100
AcDbCircle
 62
7
  6
CONTINUOUS
 10
6.6991172762
 20
5.6961198968
 40
0.025
100
AcDbArc
 50
0.0
 51
90.0
  0
ARC
  5
2E2
100
AcDbEntity
  8
0
100
AcDbCircle
 62
7
  6
CONTINUOUS
 10
13.7274705289
 20
5.2931247044
 40
0.0335
100
AcDbArc
 50
193.0
 51
270.0
  0
ARC
  5
2E3
100
AcDbEntity
  8
0
100
AcDbCircle
 62
7
  6
CONTINUOUS
 10
13.8932399849
 20
5.2931247044
 40
0.0335
100
AcDbArc
 50
270.0
 51
347.0
  0
ARC
  5
2E4
100
AcDbEntity
  8
0
100
AcDbCircle
 62
7
  6
CONTINUOUS
 10
14.2274705289
 20
5.2931247044
 40
0.0335
100
AcDbArc
 50
193.0
 51
270.0
  0
ARC
  5
2E5
100
AcDbEntity
  8
0
100
AcDbCircle
 62
7
  6
CONTINUOUS
 10
14.3932399849
 20
5.2931247044
 40
0.0335
100
AcDbArc
 50
270.0
 51
347.0
  0
ARC
  5
2E6
100
AcDbEntity
  8
0
100
AcDbCircle
 62
7
  6
CONTINUOUS
 10
14.7274705289
 20
5.2931247044
 40
0.0335
100
AcDbArc
 50
193.0
 51
270.0
  0
ARC
  5
2E7
100
AcDbEntity
  8
0
100
AcDbCircle
 62
7
  6
CONTINUOUS
 10
14.8932399849
 20
5.2931247044
 40
0.0335
100
AcDbArc
 50
270.0
 51
347.0
  0
ARC
  5
2E8
100
AcDbEntity
  8
0
100
AcDbCircle
 62
7
  6
CONTINUOUS
 10
15.2274705289
 20
5.2931247044
 40
0.0335
100
AcDbArc
 50
193.0
 51
270.0
  0
ARC
  5
2E9
100
AcDbEntity
  8
0
100
AcDbCircle
 62
7
  6
CONTINUOUS
 10
15.3932399849
 20
5.2931247044
 40
0.0335
100
AcDbArc
 50
270.0
 51
347.0
  0
ARC
  5
2EA
100
AcDbEntity
  8
0
100
AcDbCircle
 62
7
  6
CONTINUOUS
 10
13.6432399849
 20
5.3601247044
 40
0.0335
100
AcDbArc
 50
13.0
 51
90.0
  0
ARC
  5
2EB
100
AcDbEntity
  8
0
100
AcDbCircle
 62
7
  6
CONTINUOUS
 10
13.9774705289
 20
5.3601247044
 40
0.0335
100
AcDbArc
 50
90.0
 51
167.0
  0
ARC
  5
2EC
100
AcDbEntity
  8
0
100
AcDbCircle
 62
7
  6
CONTINUOUS
 10
14.1432399849
 20
5.3601247044
 40
0.0335
100
AcDbArc
 50
13.0
 51
90.0
  0
ARC
  5
2ED
100
AcDbEntity
  8
0
100
AcDbCircle
 62
7
  6
CONTINUOUS
 10
14.4774705289
 20
5.3601247044
 40
0.0335
100
AcDbArc
 50
90.0
 51
167.0
  0
ARC
  5
2EE
100
AcDbEntity
  8
0
100
AcDbCircle
 62
7
  6
CONTINUOUS
 10
14.6432399849
 20
5.3601247044
 40
0.0335
100
AcDbArc
 50
13.0
 51
90.0
  0
ARC
  5
2EF
100
AcDbEntity
  8
0
100
AcDbCircle
 62
7
  6
CONTINUOUS
 10
14.9774705289
 20
5.3601247044
 40
0.0335
100
AcDbArc
 50
90.0
 51
167.0
  0
ARC
  5
2F0
100
AcDbEntity
  8
0
100
AcDbCircle
 62
7
  6
CONTINUOUS
 10
15.1432399849
 20
5.3601247044
 40
0.0335
100
AcDbArc
 50
13.0
 51
90.0
  0
ARC
  5
2F1
100
AcDbEntity
  8
0
100
AcDbCircle
 62
7
  6
CONTINUOUS
 10
15.4774705289
 20
5.3601247044
 40
0.0335
100
AcDbArc
 50
90.0
 51
167.0
  0
ARC
  5
2F2
100
AcDbEntity
  8
0
100
AcDbCircle
 62
7
  6
CONTINUOUS
 10
17.3932399849
 20
5.2931247044
 40
0.0335
100
AcDbArc
 50
270.0
 51
347.0
  0
ARC
  5
2F3
100
AcDbEntity
  8
0
100
AcDbCircle
 62
7
  6
CONTINUOUS
 10
17.2274705289
 20
5.2931247044
 40
0.0335
100
AcDbArc
 50
193.0
 51
270.0
  0
ARC
  5
2F4
100
AcDbEntity
  8
0
100
AcDbCircle
 62
7
  6
CONTINUOUS
 10
16.8932399849
 20
5.2931247044
 40
0.0335
100
AcDbArc
 50
270.0
 51
347.0
  0
ARC
  5
2F5
100
AcDbEntity
  8
0
100
AcDbCircle
 62
7
  6
CONTINUOUS
 10
16.7274705289
 20
5.2931247044
 40
0.0335
100
AcDbArc
 50
193.0
 51
270.0
  0
ARC
  5
2F6
100
AcDbEntity
  8
0
100
AcDbCircle
 62
7
  6
CONTINUOUS
 10
16.3932399849
 20
5.2931247044
 40
0.0335
100
AcDbArc
 50
270.0
 51
347.0
  0
ARC
  5
2F7
100
AcDbEntity
  8
0
100
AcDbCircle
 62
7
  6
CONTINUOUS
 10
16.2274705289
 20
5.2931247044
 40
0.0335
100
AcDbArc
 50
193.0
 51
270.0
  0
ARC
  5
2F8
100
AcDbEntity
  8
0
100
AcDbCircle
 62
7
  6
CONTINUOUS
 10
15.8932399849
 20
5.2931247044
 40
0.0335
100
AcDbArc
 50
270.0
 51
347.0
  0
ARC
  5
2F9
100
AcDbEntity
  8
0
100
AcDbCircle
 62
7
  6
CONTINUOUS
 10
15.7274705289
 20
5.2931247044
 40
0.0335
100
AcDbArc
 50
193.0
 51
270.0
  0
ARC
  5
2FA
100
AcDbEntity
  8
0
100
AcDbCircle
 62
7
  6
CONTINUOUS
 10
17.4774705289
 20
5.3601247044
 40
0.0335
100
AcDbArc
 50
90.0
 51
167.0
  0
ARC
  5
2FB
100
AcDbEntity
  8
0
100
AcDbCircle
 62
7
  6
CONTINUOUS
 10
17.1432399849
 20
5.3601247044
 40
0.0335
100
AcDbArc
 50
13.0
 51
90.0
  0
ARC
  5
2FC
100
AcDbEntity
  8
0
100
AcDbCircle
 62
7
  6
CONTINUOUS
 10
16.9774705289
 20
5.3601247044
 40
0.0335
100
AcDbArc
 50
90.0
 51
167.0
  0
ARC
  5
2FD
100
AcDbEntity
  8
0
100
AcDbCircle
 62
7
  6
CONTINUOUS
 10
16.6432399849
 20
5.3601247044
 40
0.0335
100
AcDbArc
 50
13.0
 51
90.0
  0
ARC
  5
2FE
100
AcDbEntity
  8
0
100
AcDbCircle
 62
7
  6
CONTINUOUS
 10
16.4774705289
 20
5.3601247044
 40
0.0335
100
AcDbArc
 50
90.0
 51
167.0
  0
ARC
  5
2FF
100
AcDbEntity
  8
0
100
AcDbCircle
 62
7
  6
CONTINUOUS
 10
16.1432399849
 20
5.3601247044
 40
0.0335
100
AcDbArc
 50
13.0
 51
90.0
  0
ARC
  5
300
100
AcDbEntity
  8
0
100
AcDbCircle
 62
7
  6
CONTINUOUS
 10
15.9774705289
 20
5.3601247044
 40
0.0335
100
AcDbArc
 50
90.0
 51
167.0
  0
ARC
  5
301
100
AcDbEntity
  8
0
100
AcDbCircle
 62
7
  6
CONTINUOUS
 10
15.6432399849
 20
5.3601247044
 40
0.0335
100
AcDbArc
 50
13.0
 51
90.0
  0
SPLINE
  5
302
100
AcDbEntity
  8
0
100
AcDbSpline
 62
7
  6
CONTINUOUS
 70
0
 71
3
 72
15
 73
11
 74
0
 42
0.0000001
 43
0.0000001
 44
0.0000000001
 40
0.0
 40
0.0
 40
0.0
 40
0.0
 40
0.1295683073
 40
0.2645753355
 40
0.4012659662
 40
0.5362717274
 40
0.6662158115
 40
0.7881013961
 40
0.8998145673
 40
1.0
 40
1.0
 40
1.0
 40
1.0
 10
16.4537287635
 20
14.1607545479
 30
0.0
 10
16.4552770195
 20
14.1607545479
 30
0.0
 10
16.4584409676
 20
14.1605393232
 30
0.0
 10
16.4631634821
 20
14.1596554279
 30
0.0
 10
16.4678197928
 20
14.1582279769
 30
0.0
 10
16.4722316656
 20
14.1563126582
 30
0.0
 10
16.476237857
 20
14.1539839685
 30
0.0
 10
16.4796899388
 20
14.1513226319
 30
0.0
 10
16.4824557947
 20
14.1484265899
 30
0.0
 10
16.4838539393
 20
14.1462890181
 30
0.0
 10
16.484381335
 20
14.1452142987
 30
0.0
  0
SPLINE
  5
303
100
AcDbEntity
  8
0
100
AcDbSpline
 62
7
  6
CONTINUOUS
 70
0
 71
3
 72
15
 73
11
 74
0
 42
0.0000001
 43
0.0000001
 44
0.0000000001
 40
0.0
 40
0.0
 40
0.0
 40
0.0
 40
0.0996462231
 40
0.2028721759
 40
0.3125944764
 40
0.4308576601
 40
0.5588160643
 40
0.6968319583
 40
0.8443986167
 40
1.0
 40
1.0
 40
1.0
 40
1.0
 10
15.3897623952
 20
14.1525954907
 30
0.0
 10
15.3899525104
 20
14.1532107331
 30
0.0
 10
15.3904911482
 20
14.1544216779
 30
0.0
 10
15.3917221366
 20
14.1560426249
 30
0.0
 10
15.3933455271
 20
14.1574577912
 30
0.0
 10
15.3953296973
 20
14.1586418483
 30
0.0
 10
15.3976372427
 20
14.1595804786
 30
0.0
 10
15.4002288546
 20
14.1602592076
 30
0.0
 10
15.4030557262
 20
14.1606668669
 30
0.0
 10
15.405016336
 20
14.1607545479
 30
0.0
 10
15.4060218828
 20
14.1607545479
 30
0.0
  0
SPLINE
  5
304
100
AcDbEntity
  8
0
100
AcDbSpline
 62
7
  6
CONTINUOUS
 70
0
 71
3
 72
11
 73
7
 74
0
 42
0.0000001
 43
0.0000001
 44
0.0000000001
 40
0.0
 40
0.0
 40
0.0
 40
0.0
 40
0.2336950468
 40
0.4747284373
 40
0.728954479
 40
1.0
 40
1.0
 40
1.0
 40
1.0
 10
14.4214971016
 20
11.0192878522
 30
0.0
 10
14.4213222468
 20
11.0187219948
 30
0.0
 10
14.4210919345
 20
11.0175298466
 30
0.0
 10
14.4211342207
 20
11.0156705678
 30
0.0
 10
14.4215520304
 20
11.0137633942
 30
0.0
 10
14.4220534955
 20
11.0125233258
 30
0.0
 10
14.422356111
 20
11.0119066602
 30
0.0
  0
SPLINE
  5
305
100
AcDbEntity
  8
0
100
AcDbSpline
 62
7
  6
CONTINUOUS
 70
0
 71
3
 72
9
 73
5
 74
0
 42
0.0000001
 43
0.0000001
 44
0.0000000001
 40
0.0
 40
0.0
 40
0.0
 40
0.0
 40
0.5155721158
 40
1.0
 40
1.0
 40
1.0
 40
1.0
 10
16.5039364829
 20
14.1053650971
 30
0.0
 10
16.5050519717
 20
14.1030919698
 30
0.0
 10
16.5069309978
 20
14.0985344947
 30
0.0
 10
16.5080879609
 20
14.093735183
 30
0.0
 10
16.5084377585
 20
14.0913819153
 30
0.0
  0
SPLINE
  5
306
100
AcDbEntity
  8
0
100
AcDbSpline
 62
7
  6
CONTINUOUS
 70
0
 71
3
 72
14
 73
10
 74
0
 42
0.0000001
 43
0.0000001
 44
0.0000000001
 40
0.0
 40
0.0
 40
0.0
 40
0.0
 40
0.155608317
 40
0.3032495321
 40
0.5688433733
 40
0.6871578335
 40
0.7968877301
 40
0.9001725123
 40
1.0
 40
1.0
 40
1.0
 40
1.0
 10
15.5363072728
 20
10.8608554379
 30
0.0
 10
15.5373122861
 20
10.8608554379
 30
0.0
 10
15.5392731686
 20
10.8609433344
 30
0.0
 10
15.5429111327
 20
10.8614680447
 30
0.0
 10
15.5462320425
 20
10.8625121725
 30
0.0
 10
15.5489824865
 20
10.8641508849
 30
0.0
 10
15.550606224
 20
10.8655653264
 30
0.0
 10
15.5518372066
 20
10.8671867502
 30
0.0
 10
15.5523761489
 20
10.8683985711
 30
0.0
 10
15.5525658258
 20
10.8690147862
 30
0.0
  0
SPLINE
  5
307
100
AcDbEntity
  8
0
100
AcDbSpline
 62
7
  6
CONTINUOUS
 70
0
 71
3
 72
15
 73
11
 74
0
 42
0.0000001
 43
0.0000001
 44
0.0000000001
 40
0.0
 40
0.0
 40
0.0
 40
0.0
 40
0.1089081392
 40
0.2266167462
 40
0.3512071162
 40
0.4806317488
 40
0.6126741114
 40
0.7449590448
 40
0.8750052087
 40
1.0
 40
1.0
 40
1.0
 40
1.0
 10
14.5220683109
 20
10.8728998917
 30
0.0
 10
14.5228039173
 20
10.8720166137
 30
0.0
 10
14.52448455
 20
10.8703013204
 30
0.0
 10
14.5274018523
 20
10.8680012207
 30
0.0
 10
14.5307474303
 20
10.8659366975
 30
0.0
 10
14.5344221219
 20
10.8641607548
 30
0.0
 10
14.5383285988
 20
10.8627242112
 30
0.0
 10
14.5423601863
 20
10.8616626868
 30
0.0
 10
14.546402568
 20
10.8610127533
 30
0.0
 10
14.5490959627
 20
10.8608554379
 30
0.0
 10
14.5504152269
 20
10.8608554379
 30
0.0
  0
SPLINE
  5
308
100
AcDbEntity
  8
0
100
AcDbSpline
 62
7
  6
CONTINUOUS
 70
0
 71
3
 72
9
 73
5
 74
0
 42
0.0000001
 43
0.0000001
 44
0.0000000001
 40
0.0
 40
0.0
 40
0.0
 40
0.0
 40
0.2380066513
 40
1.0
 40
1.0
 40
1.0
 40
1.0
 10
14.4419112589
 20
10.9720574586
 30
0.0
 10
14.4424975079
 20
10.9708628088
 30
0.0
 10
14.4451335157
 20
10.9659285705
 30
0.0
 10
14.4484074065
 20
10.9613480862
 30
0.0
 10
14.4511338812
 20
10.9580742768
 30
0.0
  0
SPLINE
  5
309
100
AcDbEntity
  8
0
100
AcDbSpline
 62
7
  6
CONTINUOUS
 70
0
 71
3
 72
15
 73
11
 74
0
 42
0.0000001
 43
0.0000001
 44
0.0000000001
 40
0.0
 40
0.0
 40
0.0
 40
0.0
 40
0.1556013833
 40
0.3031680417
 40
0.4411839357
 40
0.5691423399
 40
0.6874055236
 40
0.7971278241
 40
0.9003537769
 40
1.0
 40
1.0
 40
1.0
 40
1.0
 10
14.4377565892
 20
11.0274469094
 30
0.0
 10
14.4367510423
 20
11.0274469094
 30
0.0
 10
14.4347904326
 20
11.0273592284
 30
0.0
 10
14.431963561
 20
11.0269515691
 30
0.0
 10
14.429371949
 20
11.0262728401
 30
0.0
 10
14.4270644037
 20
11.0253342098
 30
0.0
 10
14.4250802335
 20
11.0241501527
 30
0.0
 10
14.423456843
 20
11.0227349863
 30
0.0
 10
14.4222258546
 20
11.0211140394
 30
0.0
 10
14.4216872168
 20
11.0199030946
 30
0.0
 10
14.4214971016
 20
11.0192878522
 30
0.0
  0
SPLINE
  5
30A
100
AcDbEntity
  8
0
100
AcDbSpline
 62
7
  6
CONTINUOUS
 70
0
 71
3
 72
9
 73
5
 74
0
 42
0.0000001
 43
0.0000001
 44
0.0000000001
 40
0.0
 40
0.0
 40
0.0
 40
0.0
 40
0.4844278842
 40
1.0
 40
1.0
 40
1.0
 40
1.0
 10
15.5401724649
 20
10.9580742768
 30
0.0
 10
15.5398226673
 20
10.9604275445
 30
0.0
 10
15.5386657042
 20
10.9652268562
 30
0.0
 10
15.5367866781
 20
10.9697843313
 30
0.0
 10
15.5356711893
 20
10.9720574586
 30
0.0
  0
SPLINE
  5
30B
100
AcDbEntity
  8
0
100
AcDbSpline
 62
7
  6
CONTINUOUS
 70
0
 71
3
 72
15
 73
11
 74
0
 42
0.0000001
 43
0.0000001
 44
0.0000000001
 40
0.0
 40
0.0
 40
0.0
 40
0.0
 40
0.1001854327
 40
0.2118986039
 40
0.3337841885
 40
0.4637282726
 40
0.5987340338
 40
0.7354246645
 40
0.8704316927
 40
1.0
 40
1.0
 40
1.0
 40
1.0
 10
15.5161160414
 20
11.0119066602
 30
0.0
 10
15.5155886457
 20
11.0129813796
 30
0.0
 10
15.5141905011
 20
11.0151189513
 30
0.0
 10
15.5114246452
 20
11.0180149933
 30
0.0
 10
15.5079725633
 20
11.02067633
 30
0.0
 10
15.503966372
 20
11.0230050197
 30
0.0
 10
15.4995544991
 20
11.0249203384
 30
0.0
 10
15.4948981885
 20
11.0263477894
 30
0.0
 10
15.490175674
 20
11.0272316847
 30
0.0
 10
15.4870117259
 20
11.0274469094
 30
0.0
 10
15.4854634699
 20
11.0274469094
 30
0.0
  0
ENDSEC
  0
SECTION
  2
OBJECTS
  0
DICTIONARY
  5
C
100
AcDbDictionary
280
0
281
1
  3
ACAD_GROUP
350
D
  3
ACAD_MLINESTYLE
350
17
  3
ACAD_LAYOUT
350
1A
  3
ACAD_PLOTSETTINGS
350
19
  3
ACAD_PLOTSTYLENAME
350
E
  0
DICTIONARY
  5
D
102
{ACAD_REACTORS
330
C
102
}
100
AcDbDictionary
280
0
281
1
  0
ACDBDICTIONARYWDFLT
  5
E
102
{ACAD_REACTORS
330
C
102
}
100
AcDbDictionary
281
1
  3
Normal
350
F
100
AcDbDictionaryWithDefault
340
F
  0
DICTIONARY
  5
17
102
{ACAD_REACTORS
330
C
102
}
100
AcDbDictionary
280
0
281
1
  3
Standard
350
18
  0
DICTIONARY
  5
19
102
{ACAD_REACTORS
330
C
102
}
100
AcDbDictionary
281
1
  0
DICTIONARY
  5
1A
102
{ACAD_REACTORS
330
C
102
}
100
AcDbDictionary
281
1
  3
Model
350
30C
  3
Layout1
350
30D
  0
ACDBPLACEHOLDER
  5
F
102
{ACAD_REACTORS
330
E
102
}
  0
MLINESTYLE
  5
18
102
{ACAD_REACTORS
330
17
102
}
100
AcDbMlineStyle
  2
STANDARD
 70
0
  3

 62
256
 51
90.0
 52
90.0
 71
2
 49
0.5
 62
256
  6
BYLAYER
 49
-0.5
 62
256
  6
BYLAYER
  0
LAYOUT
  5
30C
102
{ACAD_REACTORS
330
1A
102
}
100
AcDbPlotSettings
  1

  2
none_device
  4
ANSI_C_(22.00_x_17.00_Inches)
  6

 40
0.0
 41
0.0
 42
0.0
 43
0.0
 44
558.8
 45
431.8
 46
0.0
 47
0.0
 48
0.0
 49
0.0
140
0.0
141
0.0
142
1.0
143
1.0
 70
1024
 72
0
 73
0
 74
0
  7

 75
0
147
1.0
148
0.0
149
0.0
100
AcDbLayout
  1
Model
 70
0
 71
0
 10
0.0
 20
0.0
 11
22.0
 21
17.0
 12
0.0
 22
0.0
 32
0.0
 14
0.0
 24
0.0
 34
0.0
 15
0.0
 25
0.0
 35
0.0
146
0.0
 13
0.0
 23
0.0
 33
0.0
 16
1.0
 26
0.0
 36
0.0
 17
0.0
 27
1.0
 37
0.0
 76
0
330
216
345
0
346
0
  0
LAYOUT
  5
30D
102
{ACAD_REACTORS
330
1A
102
}
100
AcDbPlotSettings
  1

  2
none_device
  4
ANSI_C_(22.00_x_17.00_Inches)
  6

 40
0.0
 41
0.0
 42
0.0
 43
0.0
 44
558.8
 45
431.8
 46
0.0
 47
0.0
 48
0.0
 49
0.0
140
0.0
141
0.0
142
1.0
143
1.0
 70
0
 72
0
 73
0
 74
0
  7

 75
0
147
1.0
148
0.0
149
0.0
100
AcDbLayout
  1
Layout1
 70
0
 71
1
 10
0.0
 20
0.0
 11
22.0
 21
17.0
 12
0.0
 22
0.0
 32
0.0
 14
0.0
 24
0.0
 34
0.0
 15
0.0
 25
0.0
 35
0.0
146
0.0
 13
0.0
 23
0.0
 33
0.0
 16
1.0
 26
0.0
 36
0.0
 17
0.0
 27
1.0
 37
0.0
 76
0
330
217
345
0
346
0
  0
ENDSEC
  0
EOF