999
DXF file: _cgs_temp_output.dxf
999
Pro/ENGINEER 2016360 by Parametric Technology Corporation
  0
SECTION
  2
HEADER
  9
$ACADVER
  1
AC1021
  9
$DWGCODEPAGE
  3
ANSI_1252
  9
$EXTMAX
 10
22.0
 20
17.0
 30
0.0
  9
$EXTMIN
 10
0.0
 20
0.0
 30
0.0
  9
$LIMMIN
 10
0.0
 20
0.0
  9
$LIMMAX
 10
22.0
 20
17.0
  9
$VIEWCTR
 10
11.0
 20
8.5
  9
$VIEWSIZE
 40
17.0
  9
$CLAYER
  8
0
  9
$LTSCALE
 40
1.21
  9
$CELTYPE
  6
BYLAYER
  9
$DIMSCALE
 40
1.0
  9
$DIMASZ
 40
0.1875
  9
$DIMEXO
 40
0.0625
  9
$DIMDLI
 40
0.836
  9
$DIMEXE
 40
0.125
  9
$DIMCEN
 40
0.198
  9
$DIMLFAC
 40
1.0
  9
$DIMBLK
  1
_CLOSED
  9
$DIMALT
 70
0
  9
$DIMALTF
 40
25.4
  9
$DIMTXT
 40
0.15625
  9
$DIMTOL
 70
0
  9
$DIMLIM
 70
0
  9
$DIMTFAC
 40
1.0
  9
$DIMGAP
 40
0.09
  9
$DIMDSEP
 70
46
  9
$AUNITS
 70
0
  9
$PDMODE
 70
3
  9
$PDSIZE
 40
0.3125
  9
$HANDSEED
  5
2F6
  9
$TILEMODE
 70
1
  9
$MEASUREMENT
 70
0
  9
$INSUNITS
 70
1
  0
ENDSEC
  0
SECTION
  2
CLASSES
  0
CLASS
  1
ACDBDICTIONARYWDFLT
  2
AcDbDictionaryWithDefault
  3
AutoCAD 2000
 90
0
 91
1
280
0
281
0
  0
CLASS
  1
ACDBPLACEHOLDER
  2
AcDbPlaceHolder
  3
AutoCAD 2000
 90
0
 91
1
280
0
281
0
  0
CLASS
  1
LAYOUT
  2
AcDbLayout
  3
AutoCAD 2000
 90
0
 91
0
280
0
281
0
  0
ENDSEC
  0
SECTION
  2
TABLES
  0
TABLE
  2
VPORT
  5
8
100
AcDbSymbolTable
 70
2
  0
VPORT
  5
1F4
100
AcDbSymbolTableRecord
100
AcDbViewportTableRecord
  2
*ACTIVE
 70
0
 10
0.0
 20
0.0
 11
1.0
 21
1.0
 12
11.0
 22
8.5
 13
0.0
 23
0.0
 14
1.0
 24
1.0
 15
0.0
 25
0.0
 16
0.0
 26
0.0
 36
1.0
 17
0.0
 27
0.0
 37
0.0
 40
17.0
 41
1.2941176471
 42
50.0
 43
0.0
 44
0.0
 50
0.0
 51
0.0
 71
0
 72
100
 73
1
 74
1
 75
0
 76
0
 77
0
 78
0
  0
ENDTAB
  0
TABLE
  2
LTYPE
  5
5
100
AcDbSymbolTable
 70
6
  0
LTYPE
  5
14
100
AcDbSymbolTableRecord
100
AcDbLinetypeTableRecord
  2
BYBLOCK
 70
0
  3

 72
65
 73
0
 40
0.0
  0
LTYPE
  5
15
100
AcDbSymbolTableRecord
100
AcDbLinetypeTableRecord
  2
BYLAYER
 70
0
  3

 72
65
 73
0
 40
0.0
  0
LTYPE
  5
16
100
AcDbSymbolTableRecord
100
AcDbLinetypeTableRecord
  2
CONTINUOUS
 70
64
  3
Solid line
 72
65
 73
0
 40
0.0
  0
LTYPE
  5
1F5
100
AcDbSymbolTableRecord
100
AcDbLinetypeTableRecord
  2
CENTER
 70
64
  3
____ _ ____ _ ____ _ ____ _ ____ _ ____ _ ____
 72
65
 73
4
 40
0.6
 49
0.375
 74
0
 49
-0.075
 74
0
 49
0.075
 74
0
 49
-0.075
 74
0
  0
LTYPE
  5
1F6
100
AcDbSymbolTableRecord
100
AcDbLinetypeTableRecord
  2
HIDDEN
 70
64
  3
- - - - - - - - - - - - - - - - - - - -
 72
65
 73
2
 40
0.2
 49
0.1
 74
0
 49
-0.1
 74
0
  0
LTYPE
  5
1F7
100
AcDbSymbolTableRecord
100
AcDbLinetypeTableRecord
  2
PHANTOM
 70
64
  3
_____ _ _ _____ _ _ _____ _ _ _____
 72
65
 73
6
 40
0.8
 49
0.45
 74
0
 49
-0.05
 74
0
 49
0.1
 74
0
 49
-0.05
 74
0
 49
0.1
 74
0
 49
-0.05
 74
0
  0
LTYPE
  5
1F8
100
AcDbSymbolTableRecord
100
AcDbLinetypeTableRecord
  2
DOT
 70
64
  3
. . . . . . . . . . . . . . . . . . . .
 72
65
 73
2
 40
0.2
 49
0.1
 74
0
 49
-0.1
 74
0
  0
LTYPE
  5
1F9
100
AcDbSymbolTableRecord
100
AcDbLinetypeTableRecord
  2
DASHED
 70
64
  3
- - - - - - - - - - - - - - - - - - - -
 72
65
 73
2
 40
0.2
 49
0.1
 74
0
 49
-0.1
 74
0
  0
ENDTAB
  0
TABLE
  2
LAYER
  5
2
100
AcDbSymbolTable
 70
36
  0
LAYER
  5
10
100
AcDbSymbolTableRecord
100
AcDbLayerTableRecord
  2
0
 70
0
 62
7
  6
CONTINUOUS
370
-3
390
F
  0
LAYER
  5
1FA
100
AcDbSymbolTableRecord
100
AcDbLayerTableRecord
  2
DEFAULT_1
 70
0
 62
7
  6
CENTER
370
-3
390
F
  0
LAYER
  5
1FB
100
AcDbSymbolTableRecord
100
AcDbLayerTableRecord
  2
DEFAULT_2
 70
0
 62
8
  6
HIDDEN
370
-3
390
F
  0
LAYER
  5
1FC
100
AcDbSymbolTableRecord
100
AcDbLayerTableRecord
  2
DEFAULT_3
 70
0
 62
7
  6
PHANTOM
370
-3
390
F
  0
LAYER
  5
1FD
100
AcDbSymbolTableRecord
100
AcDbLayerTableRecord
  2
01_ALL_DTM_PLN
 70
0
 62
7
  6
CONTINUOUS
370
-3
390
F
  0
LAYER
  5
1FE
100
AcDbSymbolTableRecord
100
AcDbLayerTableRecord
  2
01__ASM_ALL_DTM_PLN
 70
0
 62
7
  6
CONTINUOUS
370
-3
390
F
  0
LAYER
  5
1FF
100
AcDbSymbolTableRecord
100
AcDbLayerTableRecord
  2
01__ASM_DEF_DTM_PLN
 70
0
 62
7
  6
CONTINUOUS
370
-3
390
F
  0
LAYER
  5
200
100
AcDbSymbolTableRecord
100
AcDbLayerTableRecord
  2
01___PRT_ALL_DTM_PLN
 70
0
 62
7
  6
CONTINUOUS
370
-3
390
F
  0
LAYER
  5
201
100
AcDbSymbolTableRecord
100
AcDbLayerTableRecord
  2
01___PRT_DEF_DTM_PLN
 70
0
 62
7
  6
CONTINUOUS
370
-3
390
F
  0
LAYER
  5
202
100
AcDbSymbolTableRecord
100
AcDbLayerTableRecord
  2
02_ALL_AXES
 70
0
 62
7
  6
CONTINUOUS
370
-3
390
F
  0
LAYER
  5
203
100
AcDbSymbolTableRecord
100
AcDbLayerTableRecord
  2
02__ASM_ALL_AXES
 70
0
 62
7
  6
CONTINUOUS
370
-3
390
F
  0
LAYER
  5
204
100
AcDbSymbolTableRecord
100
AcDbLayerTableRecord
  2
02___PRT_ALL_AXES
 70
0
 62
7
  6
CONTINUOUS
370
-3
390
F
  0
LAYER
  5
205
100
AcDbSymbolTableRecord
100
AcDbLayerTableRecord
  2
03_ALL_CURVES
 70
0
 62
7
  6
CONTINUOUS
370
-3
390
F
  0
LAYER
  5
206
100
AcDbSymbolTableRecord
100
AcDbLayerTableRecord
  2
03__ASM_ALL_CURVES
 70
0
 62
7
  6
CONTINUOUS
370
-3
390
F
  0
LAYER
  5
207
100
AcDbSymbolTableRecord
100
AcDbLayerTableRecord
  2
03___PRT_ALL_CURVES
 70
0
 62
7
  6
CONTINUOUS
370
-3
390
F
  0
LAYER
  5
208
100
AcDbSymbolTableRecord
100
AcDbLayerTableRecord
  2
04_ALL_DTM_PNT
 70
0
 62
7
  6
CONTINUOUS
370
-3
390
F
  0
LAYER
  5
209
100
AcDbSymbolTableRecord
100
AcDbLayerTableRecord
  2
04__ASM_ALL_DTM_PNT
 70
0
 62
7
  6
CONTINUOUS
370
-3
390
F
  0
LAYER
  5
20A
100
AcDbSymbolTableRecord
100
AcDbLayerTableRecord
  2
04___PRT_ALL_DTM_PNT
 70
0
 62
7
  6
CONTINUOUS
370
-3
390
F
  0
LAYER
  5
20B
100
AcDbSymbolTableRecord
100
AcDbLayerTableRecord
  2
05_ALL_DTM_CSYS
 70
0
 62
7
  6
CONTINUOUS
370
-3
390
F
  0
LAYER
  5
20C
100
AcDbSymbolTableRecord
100
AcDbLayerTableRecord
  2
05__ASM_ALL_DTM_CSYS
 70
0
 62
7
  6
CONTINUOUS
370
-3
390
F
  0
LAYER
  5
20D
100
AcDbSymbolTableRecord
100
AcDbLayerTableRecord
  2
05__ASM_DEF_DTM_CSYS
 70
0
 62
7
  6
CONTINUOUS
370
-3
390
F
  0
LAYER
  5
20E
100
AcDbSymbolTableRecord
100
AcDbLayerTableRecord
  2
05___PRT_ALL_DTM_CSYS
 70
0
 62
7
  6
CONTINUOUS
370
-3
390
F
  0
LAYER
  5
20F
100
AcDbSymbolTableRecord
100
AcDbLayerTableRecord
  2
05___PRT_DEF_DTM_CSYS
 70
0
 62
7
  6
CONTINUOUS
370
-3
390
F
  0
LAYER
  5
210
100
AcDbSymbolTableRecord
100
AcDbLayerTableRecord
  2
06_ALL_SURFS
 70
0
 62
7
  6
CONTINUOUS
370
-3
390
F
  0
LAYER
  5
211
100
AcDbSymbolTableRecord
100
AcDbLayerTableRecord
  2
06__ASM_ALL_SURFS
 70
0
 62
7
  6
CONTINUOUS
370
-3
390
F
  0
LAYER
  5
212
100
AcDbSymbolTableRecord
100
AcDbLayerTableRecord
  2
06___PRT_ALL_SURFS
 70
0
 62
7
  6
CONTINUOUS
370
-3
390
F
  0
LAYER
  5
213
100
AcDbSymbolTableRecord
100
AcDbLayerTableRecord
  2
07__ASM_ALL_SKELETONS
 70
0
 62
7
  6
CONTINUOUS
370
-3
390
F
  0
ENDTAB
  0
TABLE
  2
STYLE
  5
3
100
AcDbSymbolTable
 70
1
  0
STYLE
  5
11
100
AcDbSymbolTableRecord
100
AcDbTextStyleTableRecord
  2
STANDARD
 70
0
 40
0.0
 41
0.8
 50
0.0
 71
0
 42
0.2
  3
txt
  4

  0
STYLE
  5
214
100
AcDbSymbolTableRecord
100
AcDbTextStyleTableRecord
  2
TEXTSTYLE_1
 70
0
 40
0.0
 41
0.8
 50
0.0
 71
0
 42
0.2
  3
gdt
  4

  0
ENDTAB
  0
TABLE
  2
VIEW
  5
6
100
AcDbSymbolTable
 70
0
  0
ENDTAB
  0
TABLE
  2
UCS
  5
7
100
AcDbSymbolTable
 70
0
  0
ENDTAB
  0
TABLE
  2
APPID
  5
9
100
AcDbSymbolTable
 70
1
  0
APPID
  5
215
100
AcDbSymbolTableRecord
100
AcDbRegAppTableRecord
  2
ACAD
 70
0
  0
ENDTAB
  0
TABLE
  2
BLOCK_RECORD
  5
1
100
AcDbSymbolTable
 70
0
  0
BLOCK_RECORD
  5
216
100
AcDbSymbolTableRecord
100
AcDbBlockTableRecord
  2
*Model_Space
  0
BLOCK_RECORD
  5
217
100
AcDbSymbolTableRecord
100
AcDbBlockTableRecord
  2
*Paper_Space
  0
ENDTAB
  0
TABLE
  2
DIMSTYLE
  5
A
100
AcDbSymbolTable
 70
1
100
AcDbDimStyleTable
 71
0
  0
DIMSTYLE
105
218
100
AcDbSymbolTableRecord
100
AcDbDimStyleTableRecord
  2
STANDARD
 70
0
  3

  4

 40
1.0
 41
0.1875
 42
0.0625
 43
0.38
 44
0.125
 45
0.0
 46
0.0
 47
0.0001
 48
0.0001
140
0.15625
141
0.09
142
0.0
143
25.4
144
1.0
145
0.0
146
1.0
147
0.09
 71
0.0
 72
0.0
 73
1
 74
1
 75
0
 76
0
 77
0
 78
4
 79
1
170
0
171
3
172
0
173
0
174
0
175
0
176
0
177
0
178
0
270
2
179
4
271
4
272
4
273
2
274
2
275
0
280
0
281
0
282
0
283
1
284
4
285
0
286
0
287
3
288
0
340
11
278
46
  0
ENDTAB
  0
ENDSEC
  0
SECTION
  2
BLOCKS
  0
BLOCK
  5
20
100
AcDbEntity
  8
0
100
AcDbBlockBegin
  2
*Model_Space
 70
0
 10
0.0
 20
0.0
 30
0.0
  3
*Model_Space
  1

  0
ENDBLK
  5
21
100
AcDbEntity
  8
0
100
AcDbBlockEnd
  0
BLOCK
  5
1C
100
AcDbEntity
  8
0
100
AcDbBlockBegin
  2
*Paper_Space
 70
0
 10
0.0
 20
0.0
 30
0.0
  3
*Paper_Space
  1

  0
ENDBLK
  5
1D
100
AcDbEntity
  8
0
100
AcDbBlockEnd
  0
ENDSEC
  0
SECTION
  2
ENTITIES
  0
MTEXT
  5
219
100
AcDbEntity
  8
0
100
AcDbMText
 62
7
  6
CONTINUOUS
  7
STANDARD
 71
1
 72
1
 10
15.9560215477
 20
0.9479130325
 30
0.0
 11
1.0
 21
0.0
 31
0.0
 44
0.9
  1
SCALE: 1:1.000
 40
0.3
 41
3.36
  0
LINE
  5
21A
100
AcDbEntity
  8
0
100
AcDbLine
 62
7
  6
CONTINUOUS
 10
0.0
 20
0.0
 11
0.0
 21
17.0
  0
LINE
  5
21B
100
AcDbEntity
  8
0
100
AcDbLine
 62
7
  6
CONTINUOUS
 10
0.0
 20
0.0
 11
22.0
 21
0.0
  0
LINE
  5
21C
100
AcDbEntity
  8
0
100
AcDbLine
 62
7
  6
CONTINUOUS
 10
0.0
 20
17.0
 11
22.0
 21
17.0
  0
LINE
  5
21D
100
AcDbEntity
  8
0
100
AcDbLine
 62
7
  6
CONTINUOUS
 10
22.0
 20
0.0
 11
22.0
 21
17.0
  0
LINE
  5
21E
100
AcDbEntity
  8
0
100
AcDbLine
 62
7
  6
CONTINUOUS
 10
5.5366172762
 20
5.7036198968
 11
5.5366172762
 21
5.6339988016
  0
LINE
  5
21F
100
AcDbEntity
  8
0
100
AcDbLine
 62
7
  6
CONTINUOUS
 10
5.5934774479
 20
5.3318496719
 11
5.5384545578
 21
5.614917902
  0
LINE
  5
220
100
AcDbEntity
  8
0
100
AcDbLine
 62
7
  6
CONTINUOUS
 10
5.6180181275
 20
5.3116198968
 11
6.6427164248
 21
5.3116198968
  0
LINE
  5
221
100
AcDbEntity
  8
0
100
AcDbLine
 62
7
  6
CONTINUOUS
 10
5.5909992645
 20
5.4506198968
 11
6.6697352878
 21
5.4506198968
  0
LINE
  5
222
100
AcDbEntity
  8
0
100
AcDbLine
 62
7
  6
CONTINUOUS
 10
6.6991172762
 20
5.7286198968
 11
5.5616172762
 21
5.7286198968
  0
LINE
  5
223
100
AcDbEntity
  8
0
100
AcDbLine
 62
7
  6
CONTINUOUS
 10
6.7241172762
 20
5.6339988016
 11
6.7241172762
 21
5.7036198968
  0
LINE
  5
224
100
AcDbEntity
  8
0
100
AcDbLine
 62
7
  6
CONTINUOUS
 10
6.6672571044
 20
5.3318496719
 11
6.7222799945
 21
5.614917902
  0
LINE
  5
225
100
AcDbEntity
  8
0
100
AcDbLine
 62
7
  6
CONTINUOUS
 10
6.6646220839
 20
10.6000477814
 11
5.4771220839
 21
10.6000477814
  0
LINE
  5
226
100
AcDbEntity
  8
0
100
AcDbLine
 62
7
  6
CONTINUOUS
 10
5.4771220839
 20
10.6000477814
 11
5.4771220839
 21
14.6000477814
  0
LINE
  5
227
100
AcDbEntity
  8
0
100
AcDbLine
 62
7
  6
CONTINUOUS
 10
6.6646220839
 20
10.6000477814
 11
6.6646220839
 21
14.6000477814
  0
LINE
  5
228
100
AcDbEntity
  8
0
100
AcDbLine
 62
7
  6
CONTINUOUS
 10
5.4771220839
 20
14.6000477814
 11
6.6646220839
 21
14.6000477814
  0
LINE
  5
229
100
AcDbEntity
  8
0
100
AcDbLine
 62
7
  6
CONTINUOUS
 10
13.5603552569
 20
5.3911247044
 11
13.5603552569
 21
5.6691247044
  0
LINE
  5
22A
100
AcDbEntity
  8
0
100
AcDbLine
 62
7
  6
CONTINUOUS
 10
13.6755278793
 20
5.3641917536
 11
13.6951826346
 21
5.2790576553
  0
LINE
  5
22B
100
AcDbEntity
  8
0
100
AcDbLine
 62
7
  6
CONTINUOUS
 10
13.9255278793
 20
5.2790576553
 11
13.9451826346
 21
5.3641917536
  0
LINE
  5
22C
100
AcDbEntity
  8
0
100
AcDbLine
 62
7
  6
CONTINUOUS
 10
14.1755278793
 20
5.3641917536
 11
14.1951826346
 21
5.2790576553
  0
LINE
  5
22D
100
AcDbEntity
  8
0
100
AcDbLine
 62
7
  6
CONTINUOUS
 10
14.4255278793
 20
5.2790576553
 11
14.4451826346
 21
5.3641917536
  0
LINE
  5
22E
100
AcDbEntity
  8
0
100
AcDbLine
 62
7
  6
CONTINUOUS
 10
14.6755278793
 20
5.3641917536
 11
14.6951826346
 21
5.2790576553
  0
LINE
  5
22F
100
AcDbEntity
  8
0
100
AcDbLine
 62
7
  6
CONTINUOUS
 10
14.9255278793
 20
5.2790576553
 11
14.9451826346
 21
5.3641917536
  0
LINE
  5
230
100
AcDbEntity
  8
0
100
AcDbLine
 62
7
  6
CONTINUOUS
 10
15.1755278793
 20
5.3641917536
 11
15.1951826346
 21
5.2790576553
  0
LINE
  5
231
100
AcDbEntity
  8
0
100
AcDbLine
 62
7
  6
CONTINUOUS
 10
13.7290419943
 20
5.2521247044
 11
13.8916685195
 21
5.2521247044
  0
LINE
  5
232
100
AcDbEntity
  8
0
100
AcDbLine
 62
7
  6
CONTINUOUS
 10
14.2290419943
 20
5.2521247044
 11
14.3916685195
 21
5.2521247044
  0
LINE
  5
233
100
AcDbEntity
  8
0
100
AcDbLine
 62
7
  6
CONTINUOUS
 10
14.7290419943
 20
5.2521247044
 11
14.8916685195
 21
5.2521247044
  0
LINE
  5
234
100
AcDbEntity
  8
0
100
AcDbLine
 62
7
  6
CONTINUOUS
 10
15.2290419943
 20
5.2521247044
 11
15.3916685195
 21
5.2521247044
  0
LINE
  5
235
100
AcDbEntity
  8
0
100
AcDbLine
 62
7
  6
CONTINUOUS
 10
15.7290419943
 20
5.2521247044
 11
15.8916685195
 21
5.2521247044
  0
LINE
  5
236
100
AcDbEntity
  8
0
100
AcDbLine
 62
7
  6
CONTINUOUS
 10
16.2290419943
 20
5.2521247044
 11
16.3916685195
 21
5.2521247044
  0
LINE
  5
237
100
AcDbEntity
  8
0
100
AcDbLine
 62
7
  6
CONTINUOUS
 10
16.7290419943
 20
5.2521247044
 11
16.8916685195
 21
5.2521247044
  0
LINE
  5
238
100
AcDbEntity
  8
0
100
AcDbLine
 62
7
  6
CONTINUOUS
 10
17.2290419943
 20
5.2521247044
 11
17.3916685195
 21
5.2521247044
  0
LINE
  5
239
100
AcDbEntity
  8
0
100
AcDbLine
 62
7
  6
CONTINUOUS
 10
15.4255278793
 20
5.2790576553
 11
15.4451826346
 21
5.3641917536
  0
LINE
  5
23A
100
AcDbEntity
  8
0
100
AcDbLine
 62
7
  6
CONTINUOUS
 10
13.5603552569
 20
5.3911247044
 11
13.6416685195
 21
5.3911247044
  0
LINE
  5
23B
100
AcDbEntity
  8
0
100
AcDbLine
 62
7
  6
CONTINUOUS
 10
13.9790419943
 20
5.3911247044
 11
14.1416685195
 21
5.3911247044
  0
LINE
  5
23C
100
AcDbEntity
  8
0
100
AcDbLine
 62
7
  6
CONTINUOUS
 10
14.4790419943
 20
5.3911247044
 11
14.6416685195
 21
5.3911247044
  0
LINE
  5
23D
100
AcDbEntity
  8
0
100
AcDbLine
 62
7
  6
CONTINUOUS
 10
14.9790419943
 20
5.3911247044
 11
15.1416685195
 21
5.3911247044
  0
LINE
  5
23E
100
AcDbEntity
  8
0
100
AcDbLine
 62
7
  6
CONTINUOUS
 10
15.4790419943
 20
5.3911247044
 11
15.6416685195
 21
5.3911247044
  0
LINE
  5
23F
100
AcDbEntity
  8
0
100
AcDbLine
 62
7
  6
CONTINUOUS
 10
15.9790419943
 20
5.3911247044
 11
16.1416685195
 21
5.3911247044
  0
LINE
  5
240
100
AcDbEntity
  8
0
100
AcDbLine
 62
7
  6
CONTINUOUS
 10
16.4790419943
 20
5.3911247044
 11
16.6416685195
 21
5.3911247044
  0
LINE
  5
241
100
AcDbEntity
  8
0
100
AcDbLine
 62
7
  6
CONTINUOUS
 10
16.9790419943
 20
5.3911247044
 11
17.1416685195
 21
5.3911247044
  0
LINE
  5
242
100
AcDbEntity
  8
0
100
AcDbLine
 62
7
  6
CONTINUOUS
 10
17.4790419943
 20
5.3911247044
 11
17.5603552569
 21
5.3911247044
  0
LINE
  5
243
100
AcDbEntity
  8
0
100
AcDbLine
 62
7
  6
CONTINUOUS
 10
15.6755278793
 20
5.3641917536
 11
15.6951826346
 21
5.2790576553
  0
LINE
  5
244
100
AcDbEntity
  8
0
100
AcDbLine
 62
7
  6
CONTINUOUS
 10
13.5603552569
 20
5.6691247044
 11
17.5603552569
 21
5.6691247044
  0
LINE
  5
245
100
AcDbEntity
  8
0
100
AcDbLine
 62
7
  6
CONTINUOUS
 10
15.9255278793
 20
5.2790576553
 11
15.9451826346
 21
5.3641917536
  0
LINE
  5
246
100
AcDbEntity
  8
0
100
AcDbLine
 62
7
  6
CONTINUOUS
 10
16.1755278793
 20
5.3641917536
 11
16.1951826346
 21
5.2790576553
  0
LINE
  5
247
100
AcDbEntity
  8
0
100
AcDbLine
 62
7
  6
CONTINUOUS
 10
16.4255278793
 20
5.2790576553
 11
16.4451826346
 21
5.3641917536
  0
LINE
  5
248
100
AcDbEntity
  8
0
100
AcDbLine
 62
7
  6
CONTINUOUS
 10
16.6755278793
 20
5.3641917536
 11
16.6951826346
 21
5.2790576553
  0
LINE
  5
249
100
AcDbEntity
  8
0
100
AcDbLine
 62
7
  6
CONTINUOUS
 10
16.9255278793
 20
5.2790576553
 11
16.9451826346
 21
5.3641917536
  0
LINE
  5
24A
100
AcDbEntity
  8
0
100
AcDbLine
 62
7
  6
CONTINUOUS
 10
17.1755278793
 20
5.3641917536
 11
17.1951826346
 21
5.2790576553
  0
LINE
  5
24B
100
AcDbEntity
  8
0
100
AcDbLine
 62
7
  6
CONTINUOUS
 10
17.5603552569
 20
5.3911247044
 11
17.5603552569
 21
5.6691247044
  0
LINE
  5
24C
100
AcDbEntity
  8
0
100
AcDbLine
 62
7
  6
CONTINUOUS
 10
17.4255278793
 20
5.2790576553
 11
17.4451826346
 21
5.3641917536
  0
LINE
  5
24D
100
AcDbEntity
  8
0
100
AcDbLine
 62
7
  6
CONTINUOUS
 10
14.4477051966
 20
10.9598766659
 11
14.5174454555
 21
10.8703224179
  0
LWPOLYLINE
  5
24E
100
AcDbEntity
  8
0
100
AcDbPolyline
 62
7
  6
CONTINUOUS
 90
6
 70
0
 10
15.588214567
 20
10.8903314868
 10
15.5970635816
 20
10.8919079889
 10
15.6048638582
 20
10.8964385911
 10
15.6099116136
 20
10.9020381186
 10
15.6131123598
 20
10.9080207223
 10
15.6144054234
 20
10.9116275227
  0
LINE
  5
24F
100
AcDbEntity
  8
0
100
AcDbLine
 62
7
  6
CONTINUOUS
 10
14.5462198466
 20
10.8577473881
 11
15.5398015205
 21
10.8577473881
  0
LINE
  5
250
100
AcDbEntity
  8
0
100
AcDbLine
 62
7
  6
CONTINUOUS
 10
15.5636088774
 20
10.8903314096
 11
15.5882096576
 21
10.8903314096
  0
LINE
  5
251
100
AcDbEntity
  8
0
100
AcDbLine
 62
7
  6
CONTINUOUS
 10
14.4189551261
 20
11.01501471
 11
14.440192475
 21
10.9717375433
  0
LINE
  5
252
100
AcDbEntity
  8
0
100
AcDbLine
 62
7
  6
CONTINUOUS
 10
15.482062485
 20
11.0305549592
 11
14.4343556043
 21
11.0305549592
  0
LWPOLYLINE
  5
253
100
AcDbEntity
  8
0
100
AcDbPolyline
 62
7
  6
CONTINUOUS
 90
6
 70
0
 10
15.7092477287
 20
11.2819949417
 10
15.7180967433
 20
11.2835714437
 10
15.7258970199
 20
11.288102046
 10
15.7309447753
 20
11.2937015735
 10
15.7341455215
 20
11.2996841771
 10
15.7354385851
 20
11.3032909775
  0
LINE
  5
254
100
AcDbEntity
  8
0
100
AcDbLine
 62
7
  6
CONTINUOUS
 10
15.6846420391
 20
11.2819948644
 11
15.7092428193
 21
11.2819948644
  0
LWPOLYLINE
  5
255
100
AcDbEntity
  8
0
100
AcDbPolyline
 62
7
  6
CONTINUOUS
 90
6
 70
0
 10
15.8302808904
 20
11.6736583965
 10
15.839129905
 20
11.6752348985
 10
15.8469301816
 20
11.6797655008
 10
15.851977937
 20
11.6853650283
 10
15.8551786832
 20
11.6913476319
 10
15.8564717468
 20
11.6949544324
  0
LINE
  5
256
100
AcDbEntity
  8
0
100
AcDbLine
 62
7
  6
CONTINUOUS
 10
15.8056752008
 20
11.6736583192
 11
15.830275981
 21
11.6736583192
  0
LINE
  5
257
100
AcDbEntity
  8
0
100
AcDbLine
 62
7
  6
CONTINUOUS
 10
14.4180961299
 20
11.0223958943
 11
15.3863614235
 21
14.1557035328
  0
LWPOLYLINE
  5
258
100
AcDbEntity
  8
0
100
AcDbPolyline
 62
7
  6
CONTINUOUS
 90
6
 70
0
 10
15.9513140521
 20
12.0653218513
 10
15.9601630667
 20
12.0668983533
 10
15.9679633433
 20
12.0714289556
 10
15.9730110987
 20
12.0770284831
 10
15.976211845
 20
12.0830110868
 10
15.9775049085
 20
12.0866178872
  0
LINE
  5
259
100
AcDbEntity
  8
0
100
AcDbLine
 62
7
  6
CONTINUOUS
 10
15.5339524053
 20
10.9717375433
 11
15.5127150565
 21
11.01501471
  0
LINE
  5
25A
100
AcDbEntity
  8
0
100
AcDbLine
 62
7
  6
CONTINUOUS
 10
15.9267083625
 20
12.065321774
 11
15.9513091427
 21
12.065321774
  0
LWPOLYLINE
  5
25B
100
AcDbEntity
  8
0
100
AcDbPolyline
 62
7
  6
CONTINUOUS
 90
6
 70
0
 10
16.0723472138
 20
12.4569853061
 10
16.0811962284
 20
12.4585618081
 10
16.088996505
 20
12.4630924104
 10
16.0940442604
 20
12.4686919379
 10
16.0972450067
 20
12.4746745416
 10
16.0985380702
 20
12.478281342
  0
LINE
  5
25C
100
AcDbEntity
  8
0
100
AcDbLine
 62
7
  6
CONTINUOUS
 10
15.5562340549
 20
10.8703224179
 11
15.5380806301
 21
10.9598766659
  0
LINE
  5
25D
100
AcDbEntity
  8
0
100
AcDbLine
 62
7
  6
CONTINUOUS
 10
16.0477415242
 20
12.4569852288
 11
16.0723423044
 21
12.4569852288
  0
LINE
  5
25E
100
AcDbEntity
  8
0
100
AcDbLine
 62
7
  6
CONTINUOUS
 10
15.6561426186
 20
11.0607257362
 11
15.6501729874
 21
11.1290420387
  0
LWPOLYLINE
  5
25F
100
AcDbEntity
  8
0
100
AcDbPolyline
 62
7
  6
CONTINUOUS
 90
7
 70
0
 10
15.6501707332
 20
11.1290635268
 10
15.6498939501
 20
11.1332591633
 10
15.649866702
 20
11.1460437129
 10
15.6509715338
 20
11.1609781589
 10
15.6531576323
 20
11.1760309621
 10
15.656051651
 20
11.189124298
 10
15.6574051597
 20
11.1938607533
  0
LINE
  5
260
100
AcDbEntity
  8
0
100
AcDbLine
 62
7
  6
CONTINUOUS
 10
15.6563095453
 20
11.0576166477
 11
15.656138493
 21
11.0607716269
  0
LINE
  5
261
100
AcDbEntity
  8
0
100
AcDbLine
 62
7
  6
CONTINUOUS
 10
15.7771757803
 20
11.452389191
 11
15.7712061491
 21
11.5207054935
  0
LWPOLYLINE
  5
262
100
AcDbEntity
  8
0
100
AcDbPolyline
 62
7
  6
CONTINUOUS
 90
7
 70
0
 10
15.7712038949
 20
11.5207269816
 10
15.7709271118
 20
11.5249226182
 10
15.7708998637
 20
11.5377071677
 10
15.7720046955
 20
11.5526416137
 10
15.774190794
 20
11.567694417
 10
15.7770848127
 20
11.5807877528
 10
15.7784383214
 20
11.5855242081
  0
LINE
  5
263
100
AcDbEntity
  8
0
100
AcDbLine
 62
7
  6
CONTINUOUS
 10
15.777342707
 20
11.4492801025
 11
15.7771716548
 21
11.4524350818
  0
LINE
  5
264
100
AcDbEntity
  8
0
100
AcDbLine
 62
7
  6
CONTINUOUS
 10
15.5560605244
 20
10.8659065981
 11
15.5562340549
 21
10.8703224179
  0
LINE
  5
265
100
AcDbEntity
  8
0
100
AcDbLine
 62
7
  6
CONTINUOUS
 10
15.6559437596
 20
11.0497619393
 11
15.6563095453
 21
11.0576166477
  0
LINE
  5
266
100
AcDbEntity
  8
0
100
AcDbLine
 62
7
  6
CONTINUOUS
 10
16.4268825747
 20
13.6812608581
 11
16.4273449091
 21
13.682058816
  0
LWPOLYLINE
  5
267
100
AcDbEntity
  8
0
100
AcDbPolyline
 62
7
  6
CONTINUOUS
 90
6
 70
0
 10
16.1933803755
 20
12.8486487609
 10
16.2022293901
 20
12.850225263
 10
16.2100296667
 20
12.8547558652
 10
16.2150774221
 20
12.8603553927
 10
16.2182781684
 20
12.8663379964
 10
16.2195712319
 20
12.8699447968
  0
LINE
  5
268
100
AcDbEntity
  8
0
100
AcDbLine
 62
7
  6
CONTINUOUS
 10
15.898208942
 20
11.8440526458
 11
15.8922393108
 21
11.9123689483
  0
LWPOLYLINE
  5
269
100
AcDbEntity
  8
0
100
AcDbPolyline
 62
7
  6
CONTINUOUS
 90
7
 70
0
 10
15.8922370566
 20
11.9123904364
 10
15.8919602735
 20
11.916586073
 10
15.8919330254
 20
11.9293706225
 10
15.8930378572
 20
11.9443050686
 10
15.8952239557
 20
11.9593578718
 10
15.8981179744
 20
11.9724512076
 10
15.8994714831
 20
11.9771876629
  0
LINE
  5
26A
100
AcDbEntity
  8
0
100
AcDbLine
 62
7
  6
CONTINUOUS
 10
15.8983758687
 20
11.8409435573
 11
15.8982048165
 21
11.8440985366
  0
LINE
  5
26B
100
AcDbEntity
  8
0
100
AcDbLine
 62
7
  6
CONTINUOUS
 10
15.7769769213
 20
11.4414253941
 11
15.777342707
 21
11.4492801025
  0
LINE
  5
26C
100
AcDbEntity
  8
0
100
AcDbLine
 62
7
  6
CONTINUOUS
 10
16.4253716784
 20
13.6780096208
 11
16.4268825747
 21
13.6812608581
  0
LINE
  5
26D
100
AcDbEntity
  8
0
100
AcDbLine
 62
7
  6
CONTINUOUS
 10
16.305849413
 20
13.2895974032
 11
16.3063117474
 21
13.2903953612
  0
LINE
  5
26E
100
AcDbEntity
  8
0
100
AcDbLine
 62
7
  6
CONTINUOUS
 10
16.1687746859
 20
12.8486486836
 11
16.1933754661
 21
12.8486486836
  0
LINE
  5
26F
100
AcDbEntity
  8
0
100
AcDbLine
 62
7
  6
CONTINUOUS
 10
16.0192421037
 20
12.2357161006
 11
16.0132724725
 21
12.3040324032
  0
LWPOLYLINE
  5
270
100
AcDbEntity
  8
0
100
AcDbPolyline
 62
7
  6
CONTINUOUS
 90
7
 70
0
 10
16.0132702183
 20
12.3040538912
 10
16.0129934352
 20
12.3082495278
 10
16.0129661871
 20
12.3210340774
 10
16.0140710189
 20
12.3359685234
 10
16.0162571174
 20
12.3510213266
 10
16.0191511361
 20
12.3641146624
 10
16.0205046448
 20
12.3688511177
  0
LINE
  5
271
100
AcDbEntity
  8
0
100
AcDbLine
 62
7
  6
CONTINUOUS
 10
16.0194090304
 20
12.2326070122
 11
16.0192379782
 21
12.2357619914
  0
LINE
  5
272
100
AcDbEntity
  8
0
100
AcDbLine
 62
7
  6
CONTINUOUS
 10
15.898010083
 20
11.8330888489
 11
15.8983758687
 21
11.8409435573
  0
LINE
  5
273
100
AcDbEntity
  8
0
100
AcDbLine
 62
7
  6
CONTINUOUS
 10
15.6545748594
 20
11.0419276792
 11
15.6559437596
 21
11.0497619393
  0
LINE
  5
274
100
AcDbEntity
  8
0
100
AcDbLine
 62
7
  6
CONTINUOUS
 10
15.7756080211
 20
11.433591134
 11
15.7769769213
 21
11.4414253941
  0
LINE
  5
275
100
AcDbEntity
  8
0
100
AcDbLine
 62
7
  6
CONTINUOUS
 10
15.8966411828
 20
11.8252545888
 11
15.898010083
 21
11.8330888489
  0
LINE
  5
276
100
AcDbEntity
  8
0
100
AcDbLine
 62
7
  6
CONTINUOUS
 10
16.3043385166
 20
13.286346166
 11
16.305849413
 21
13.2895974032
  0
LINE
  5
277
100
AcDbEntity
  8
0
100
AcDbLine
 62
7
  6
CONTINUOUS
 10
16.1833053549
 20
12.8946827112
 11
16.1848162513
 21
12.8979339484
  0
LINE
  5
278
100
AcDbEntity
  8
0
100
AcDbLine
 62
7
  6
CONTINUOUS
 10
16.0622721932
 20
12.5030192564
 11
16.0637830896
 21
12.5062704936
  0
LINE
  5
279
100
AcDbEntity
  8
0
100
AcDbLine
 62
7
  6
CONTINUOUS
 10
16.1848162513
 20
12.8979339484
 11
16.1852785856
 21
12.8987319063
  0
LINE
  5
27A
100
AcDbEntity
  8
0
100
AcDbLine
 62
7
  6
CONTINUOUS
 10
16.0637830896
 20
12.5062704936
 11
16.0642454239
 21
12.5070684515
  0
LINE
  5
27B
100
AcDbEntity
  8
0
100
AcDbLine
 62
7
  6
CONTINUOUS
 10
16.0190432447
 20
12.2247523038
 11
16.0194090304
 21
12.2326070122
  0
LINE
  5
27C
100
AcDbEntity
  8
0
100
AcDbLine
 62
7
  6
CONTINUOUS
 10
16.1400764064
 20
12.6164157586
 11
16.1404421921
 21
12.624270467
  0
LINE
  5
27D
100
AcDbEntity
  8
0
100
AcDbLine
 62
7
  6
CONTINUOUS
 10
16.0176743445
 20
12.2169180436
 11
16.0190432447
 21
12.2247523038
  0
LINE
  5
27E
100
AcDbEntity
  8
0
100
AcDbLine
 62
7
  6
CONTINUOUS
 10
16.1387075062
 20
12.6085814984
 11
16.1400764064
 21
12.6164157586
  0
LINE
  5
27F
100
AcDbEntity
  8
0
100
AcDbLine
 62
7
  6
CONTINUOUS
 10
15.6537632977
 20
11.0389898782
 11
15.6545748594
 21
11.0419276792
  0
LINE
  5
280
100
AcDbEntity
  8
0
100
AcDbLine
 62
7
  6
CONTINUOUS
 10
15.7747964594
 20
11.430653333
 11
15.7756080211
 21
11.433591134
  0
LINE
  5
281
100
AcDbEntity
  8
0
100
AcDbLine
 62
7
  6
CONTINUOUS
 10
15.8958296211
 20
11.8223167878
 11
15.8966411828
 21
11.8252545888
  0
LINE
  5
282
100
AcDbEntity
  8
0
100
AcDbLine
 62
7
  6
CONTINUOUS
 10
16.0168627828
 20
12.2139802426
 11
16.0176743445
 21
12.2169180436
  0
LINE
  5
283
100
AcDbEntity
  8
0
100
AcDbLine
 62
7
  6
CONTINUOUS
 10
16.1378959445
 20
12.6056436974
 11
16.1387075062
 21
12.6085814984
  0
LINE
  5
284
100
AcDbEntity
  8
0
100
AcDbLine
 62
7
  6
CONTINUOUS
 10
16.2589291062
 20
12.9973071523
 11
16.2597406679
 21
13.0002449533
  0
LINE
  5
285
100
AcDbEntity
  8
0
100
AcDbLine
 62
7
  6
CONTINUOUS
 10
16.3799622679
 20
13.3889706071
 11
16.3807738296
 21
13.3919084081
  0
LINE
  5
286
100
AcDbEntity
  8
0
100
AcDbLine
 62
7
  6
CONTINUOUS
 10
16.5009954296
 20
13.7806340619
 11
16.5018069913
 21
13.7835718629
  0
LINE
  5
287
100
AcDbEntity
  8
0
100
AcDbLine
 62
7
  6
CONTINUOUS
 10
15.556060995
 20
10.865906453
 11
15.575744198
 21
10.9296013213
  0
LINE
  5
288
100
AcDbEntity
  8
0
100
AcDbLine
 62
7
  6
CONTINUOUS
 10
15.6574109541
 20
11.193875041
 11
15.6967773597
 21
11.3212647761
  0
LINE
  5
289
100
AcDbEntity
  8
0
100
AcDbLine
 62
7
  6
CONTINUOUS
 10
15.7784441158
 20
11.5855384958
 11
15.8178105214
 21
11.7129282309
  0
LINE
  5
28A
100
AcDbEntity
  8
0
100
AcDbLine
 62
7
  6
CONTINUOUS
 10
15.8994772775
 20
11.9772019507
 11
15.9388436831
 21
12.1045916857
  0
LINE
  5
28B
100
AcDbEntity
  8
0
100
AcDbLine
 62
7
  6
CONTINUOUS
 10
16.0205104392
 20
12.3688654055
 11
16.0598768448
 21
12.4962551405
  0
LINE
  5
28C
100
AcDbEntity
  8
0
100
AcDbLine
 62
7
  6
CONTINUOUS
 10
16.1415436009
 20
12.7605288603
 11
16.1809100065
 21
12.8879185953
  0
LINE
  5
28D
100
AcDbEntity
  8
0
100
AcDbLine
 62
7
  6
CONTINUOUS
 10
16.2625767626
 20
13.1521923151
 11
16.3019431682
 21
13.2795820502
  0
LINE
  5
28E
100
AcDbEntity
  8
0
100
AcDbLine
 62
7
  6
CONTINUOUS
 10
16.3836099243
 20
13.5438557699
 11
16.4229763299
 21
13.671245505
  0
LINE
  5
28F
100
AcDbEntity
  8
0
100
AcDbLine
 62
7
  6
CONTINUOUS
 10
16.504643086
 20
13.9355192247
 11
16.5243262886
 21
13.9992140915
  0
LINE
  5
290
100
AcDbEntity
  8
0
100
AcDbLine
 62
7
  6
CONTINUOUS
 10
15.614409172
 20
10.9116395281
 11
15.6537755769
 21
11.0390292613
  0
LINE
  5
291
100
AcDbEntity
  8
0
100
AcDbLine
 62
7
  6
CONTINUOUS
 10
15.7354423337
 20
11.3033029829
 11
15.7748087386
 21
11.4306927161
  0
LINE
  5
292
100
AcDbEntity
  8
0
100
AcDbLine
 62
7
  6
CONTINUOUS
 10
15.8564754954
 20
11.6949664377
 11
15.8958419003
 21
11.8223561709
  0
LINE
  5
293
100
AcDbEntity
  8
0
100
AcDbLine
 62
7
  6
CONTINUOUS
 10
15.9775086571
 20
12.0866298925
 11
16.0168750621
 21
12.2140196257
  0
LINE
  5
294
100
AcDbEntity
  8
0
100
AcDbLine
 62
7
  6
CONTINUOUS
 10
16.0985418188
 20
12.4782933473
 11
16.1379082238
 21
12.6056830805
  0
LINE
  5
295
100
AcDbEntity
  8
0
100
AcDbLine
 62
7
  6
CONTINUOUS
 10
16.2195749805
 20
12.8699568022
 11
16.2589413855
 21
12.9973465353
  0
LINE
  5
296
100
AcDbEntity
  8
0
100
AcDbLine
 62
7
  6
CONTINUOUS
 10
16.3406081422
 20
13.261620257
 11
16.3799745472
 21
13.3890099902
  0
LINE
  5
297
100
AcDbEntity
  8
0
100
AcDbLine
 62
7
  6
CONTINUOUS
 10
16.4616413039
 20
13.6532837118
 11
16.5010077089
 21
13.780673445
  0
LWPOLYLINE
  5
298
100
AcDbEntity
  8
0
100
AcDbPolyline
 62
7
  6
CONTINUOUS
 90
3
 70
0
 10
16.4229764382
 20
13.6712471098
 10
16.4233928339
 20
13.6725622461
 10
16.4253716784
 20
13.6780096208
  0
LWPOLYLINE
  5
299
100
AcDbEntity
  8
0
100
AcDbPolyline
 62
7
  6
CONTINUOUS
 90
3
 70
0
 10
16.3019432765
 20
13.279583655
 10
16.3023596722
 20
13.2808987913
 10
16.3043385166
 20
13.286346166
  0
LWPOLYLINE
  5
29A
100
AcDbEntity
  8
0
100
AcDbPolyline
 62
7
  6
CONTINUOUS
 90
3
 70
0
 10
16.1809101148
 20
12.8879202001
 10
16.1813265105
 20
12.8892353365
 10
16.1833053549
 20
12.8946827112
  0
LWPOLYLINE
  5
29B
100
AcDbEntity
  8
0
100
AcDbPolyline
 62
7
  6
CONTINUOUS
 90
3
 70
0
 10
16.0598769531
 20
12.4962567453
 10
16.0602933488
 20
12.4975718817
 10
16.0622721932
 20
12.5030192564
  0
LWPOLYLINE
  5
29C
100
AcDbEntity
  8
0
100
AcDbPolyline
 62
7
  6
CONTINUOUS
 90
3
 70
0
 10
15.9388437914
 20
12.1045932905
 10
15.9392601871
 20
12.1059084269
 10
15.9412390315
 20
12.1113558016
  0
LWPOLYLINE
  5
29D
100
AcDbEntity
  8
0
100
AcDbPolyline
 62
7
  6
CONTINUOUS
 90
3
 70
0
 10
15.8178106297
 20
11.7129298357
 10
15.8182270254
 20
11.7142449721
 10
15.8202058698
 20
11.7196923467
  0
LWPOLYLINE
  5
29E
100
AcDbEntity
  8
0
100
AcDbPolyline
 62
7
  6
CONTINUOUS
 90
3
 70
0
 10
15.696777468
 20
11.3212663809
 10
15.6971938637
 20
11.3225815173
 10
15.6991727081
 20
11.3280288919
  0
LWPOLYLINE
  5
29F
100
AcDbEntity
  8
0
100
AcDbPolyline
 62
7
  6
CONTINUOUS
 90
3
 70
0
 10
15.5757443063
 20
10.9296029261
 10
15.576160702
 20
10.9309180624
 10
15.5781395464
 20
10.9363654371
  0
LINE
  5
2A0
100
AcDbEntity
  8
0
100
AcDbLine
 62
7
  6
CONTINUOUS
 10
15.9412390315
 20
12.1113558016
 11
15.9427499279
 21
12.1146070388
  0
LINE
  5
2A1
100
AcDbEntity
  8
0
100
AcDbLine
 62
7
  6
CONTINUOUS
 10
15.8202058698
 20
11.7196923467
 11
15.8217167662
 21
11.722943584
  0
LINE
  5
2A2
100
AcDbEntity
  8
0
100
AcDbLine
 62
7
  6
CONTINUOUS
 10
15.9427499279
 20
12.1146070388
 11
15.9432122622
 21
12.1154049967
  0
LWPOLYLINE
  5
2A3
100
AcDbEntity
  8
0
100
AcDbPolyline
 62
7
  6
CONTINUOUS
 90
6
 70
0
 10
16.3144135372
 20
13.2403122157
 10
16.3232625518
 20
13.2418887178
 10
16.3310628284
 20
13.24641932
 10
16.3361105838
 20
13.2520188475
 10
16.3393113301
 20
13.2580014512
 10
16.3406043936
 20
13.2616082516
  0
LINE
  5
2A4
100
AcDbEntity
  8
0
100
AcDbLine
 62
7
  6
CONTINUOUS
 10
16.1402752654
 20
12.6273795554
 11
16.1343056342
 21
12.695695858
  0
LWPOLYLINE
  5
2A5
100
AcDbEntity
  8
0
100
AcDbPolyline
 62
7
  6
CONTINUOUS
 90
7
 70
0
 10
16.13430338
 20
12.695717346
 10
16.1340265969
 20
12.6999129826
 10
16.1339993488
 20
12.7126975322
 10
16.1351041806
 20
12.7276319782
 10
16.1372902791
 20
12.7426847814
 10
16.1401842978
 20
12.7557781172
 10
16.1415378065
 20
12.7605145725
  0
LINE
  5
2A6
100
AcDbEntity
  8
0
100
AcDbLine
 62
7
  6
CONTINUOUS
 10
16.1404421921
 20
12.624270467
 11
16.1402711399
 21
12.6274254462
  0
LINE
  5
2A7
100
AcDbEntity
  8
0
100
AcDbLine
 62
7
  6
CONTINUOUS
 10
16.2611095681
 20
13.0080792134
 11
16.2614753538
 21
13.0159339218
  0
LINE
  5
2A8
100
AcDbEntity
  8
0
100
AcDbLine
 62
7
  6
CONTINUOUS
 10
16.2597406679
 20
13.0002449533
 11
16.2611095681
 21
13.0080792134
  0
LINE
  5
2A9
100
AcDbEntity
  8
0
100
AcDbLine
 62
7
  6
CONTINUOUS
 10
16.3807738296
 20
13.3919084081
 11
16.3821427298
 21
13.3997426682
  0
LINE
  5
2AA
100
AcDbEntity
  8
0
100
AcDbLine
 62
7
  6
CONTINUOUS
 10
16.5018069913
 20
13.7835718629
 11
16.5031758915
 21
13.791406123
  0
LINE
  5
2AB
100
AcDbEntity
  8
0
100
AcDbLine
 62
7
  6
CONTINUOUS
 10
15.6991727081
 20
11.3280288919
 11
15.7006836045
 21
11.3312801292
  0
LINE
  5
2AC
100
AcDbEntity
  8
0
100
AcDbLine
 62
7
  6
CONTINUOUS
 10
15.5781395464
 20
10.9363654371
 11
15.5796504428
 21
10.9396166744
  0
LINE
  5
2AD
100
AcDbEntity
  8
0
100
AcDbLine
 62
7
  6
CONTINUOUS
 10
15.8217167662
 20
11.722943584
 11
15.8221791005
 21
11.7237415419
  0
LINE
  5
2AE
100
AcDbEntity
  8
0
100
AcDbLine
 62
7
  6
CONTINUOUS
 10
15.7006836045
 20
11.3312801292
 11
15.7011459388
 21
11.3320780871
  0
LINE
  5
2AF
100
AcDbEntity
  8
0
100
AcDbLine
 62
7
  6
CONTINUOUS
 10
16.2898078476
 20
13.2403121384
 11
16.3144086278
 21
13.2403121384
  0
LINE
  5
2B0
100
AcDbEntity
  8
0
100
AcDbLine
 62
7
  6
CONTINUOUS
 10
16.2613084271
 20
13.0190430103
 11
16.2553387959
 21
13.0873593128
  0
LWPOLYLINE
  5
2B1
100
AcDbEntity
  8
0
100
AcDbPolyline
 62
7
  6
CONTINUOUS
 90
7
 70
0
 10
16.2553365417
 20
13.0873808008
 10
16.2550597586
 20
13.0915764374
 10
16.2550325105
 20
13.104360987
 10
16.2561373423
 20
13.119295433
 10
16.2583234408
 20
13.1343482362
 10
16.2612174595
 20
13.147441572
 10
16.2625709682
 20
13.1521780273
  0
LINE
  5
2B2
100
AcDbEntity
  8
0
100
AcDbLine
 62
7
  6
CONTINUOUS
 10
16.2614753538
 20
13.0159339218
 11
16.2613043016
 21
13.019088901
  0
LINE
  5
2B3
100
AcDbEntity
  8
0
100
AcDbLine
 62
7
  6
CONTINUOUS
 10
16.3821427298
 20
13.3997426682
 11
16.3825085155
 21
13.4075973766
  0
LINE
  5
2B4
100
AcDbEntity
  8
0
100
AcDbLine
 62
7
  6
CONTINUOUS
 10
15.5796504428
 20
10.9396166744
 11
15.5801127771
 21
10.9404146323
  0
LINE
  5
2B5
100
AcDbEntity
  8
0
100
AcDbLine
 62
7
  6
CONTINUOUS
 10
16.3823415888
 20
13.4107064651
 11
16.3763719576
 21
13.4790227676
  0
LWPOLYLINE
  5
2B6
100
AcDbEntity
  8
0
100
AcDbPolyline
 62
7
  6
CONTINUOUS
 90
7
 70
0
 10
16.3763697034
 20
13.4790442556
 10
16.3760929203
 20
13.4832398922
 10
16.3760656722
 20
13.4960244418
 10
16.377170504
 20
13.5109588878
 10
16.3793566025
 20
13.526011691
 10
16.3822506212
 20
13.5391050269
 10
16.3836041299
 20
13.5438414821
  0
LINE
  5
2B7
100
AcDbEntity
  8
0
100
AcDbLine
 62
7
  6
CONTINUOUS
 10
16.3825085155
 20
13.4075973766
 11
16.3823374633
 21
13.4107523558
  0
LINE
  5
2B8
100
AcDbEntity
  8
0
100
AcDbLine
 62
7
  6
CONTINUOUS
 10
16.5244993485
 20
14.0036300564
 11
16.5243258181
 21
13.9992142366
  0
LINE
  5
2B9
100
AcDbEntity
  8
0
100
AcDbLine
 62
7
  6
CONTINUOUS
 10
16.5031758915
 20
13.791406123
 11
16.5035416772
 21
13.7992608314
  0
LWPOLYLINE
  5
2BA
100
AcDbEntity
  8
0
100
AcDbPolyline
 62
7
  6
CONTINUOUS
 90
6
 70
0
 10
16.4354466989
 20
13.6319756705
 10
16.4442957135
 20
13.6335521726
 10
16.4520959901
 20
13.6380827748
 10
16.4571437455
 20
13.6436823023
 10
16.4603444918
 20
13.649664906
 10
16.4616375553
 20
13.6532717064
  0
LINE
  5
2BB
100
AcDbEntity
  8
0
100
AcDbLine
 62
7
  6
CONTINUOUS
 10
16.5033747505
 20
13.8023699199
 11
16.4974051193
 21
13.8706862224
  0
LWPOLYLINE
  5
2BC
100
AcDbEntity
  8
0
100
AcDbPolyline
 62
7
  6
CONTINUOUS
 90
7
 70
0
 10
16.4974028651
 20
13.8707077105
 10
16.4971260821
 20
13.874903347
 10
16.4970988339
 20
13.8876878966
 10
16.4982036657
 20
13.9026223426
 10
16.5003897642
 20
13.9176751458
 10
16.5032837829
 20
13.9307684817
 10
16.5046372916
 20
13.9355049369
  0
LINE
  5
2BD
100
AcDbEntity
  8
0
100
AcDbLine
 62
7
  6
CONTINUOUS
 10
16.5035416772
 20
13.7992608314
 11
16.503370625
 21
13.8024158106
  0
LINE
  5
2BE
100
AcDbEntity
  8
0
100
AcDbLine
 62
7
  6
CONTINUOUS
 10
16.4108410093
 20
13.6319755933
 11
16.4354417895
 21
13.6319755933
  0
LINE
  5
2BF
100
AcDbEntity
  8
0
100
AcDbLine
 62
7
  6
CONTINUOUS
 10
16.5244993485
 20
14.0036300564
 11
16.5063459237
 21
14.0931843044
  0
LINE
  5
2C0
100
AcDbEntity
  8
0
100
AcDbLine
 62
7
  6
CONTINUOUS
 10
16.4503277786
 20
14.1638625978
 11
15.4026208979
 21
14.1638625978
  0
LINE
  5
2C1
100
AcDbEntity
  8
0
100
AcDbLine
 62
7
  6
CONTINUOUS
 10
16.502217699
 20
14.1050451818
 11
16.4809803501
 21
14.1483223485
  0
ARC
  5
2C2
100
AcDbEntity
  8
0
100
AcDbCircle
 62
7
  6
CONTINUOUS
 10
5.5909992645
 20
5.4756198968
 40
0.025
100
AcDbArc
 50
191.0
 51
270.0
  0
ARC
  5
2C3
100
AcDbEntity
  8
0
100
AcDbCircle
 62
7
  6
CONTINUOUS
 10
5.6180181201
 20
5.336619935
 40
0.025
100
AcDbArc
 50
191.0000892544
 51
270.0000170293
  0
ARC
  5
2C4
100
AcDbEntity
  8
0
100
AcDbCircle
 62
7
  6
CONTINUOUS
 10
5.6366172762
 20
5.6339988016
 40
0.1
100
AcDbArc
 50
180.0
 51
191.0
  0
ARC
  5
2C5
100
AcDbEntity
  8
0
100
AcDbCircle
 62
7
  6
CONTINUOUS
 10
5.5616172762
 20
5.7036198968
 40
0.025
100
AcDbArc
 50
90.0
 51
180.0
  0
ARC
  5
2C6
100
AcDbEntity
  8
0
100
AcDbCircle
 62
7
  6
CONTINUOUS
 10
6.6697352878
 20
5.4756198968
 40
0.025
100
AcDbArc
 50
270.0
 51
349.0
  0
ARC
  5
2C7
100
AcDbEntity
  8
0
100
AcDbCircle
 62
7
  6
CONTINUOUS
 10
6.6427164248
 20
5.3366198968
 40
0.025
100
AcDbArc
 50
270.0
 51
349.0
  0
ARC
  5
2C8
100
AcDbEntity
  8
0
100
AcDbCircle
 62
7
  6
CONTINUOUS
 10
6.6241172762
 20
5.6339988016
 40
0.1
100
AcDbArc
 50
349.0
 51
360.0
  0
ARC
  5
2C9
100
AcDbEntity
  8
0
100
AcDbCircle
 62
7
  6
CONTINUOUS
 10
6.6991172762
 20
5.7036198968
 40
0.025
100
AcDbArc
 50
0.0
 51
90.0
  0
ARC
  5
2CA
100
AcDbEntity
  8
0
100
AcDbCircle
 62
7
  6
CONTINUOUS
 10
13.7290419943
 20
5.2868747044
 40
0.03475
100
AcDbArc
 50
193.0
 51
270.0
  0
ARC
  5
2CB
100
AcDbEntity
  8
0
100
AcDbCircle
 62
7
  6
CONTINUOUS
 10
13.8916685195
 20
5.2868747044
 40
0.03475
100
AcDbArc
 50
270.0
 51
347.0
  0
ARC
  5
2CC
100
AcDbEntity
  8
0
100
AcDbCircle
 62
7
  6
CONTINUOUS
 10
14.2290419943
 20
5.2868747044
 40
0.03475
100
AcDbArc
 50
193.0
 51
270.0
  0
ARC
  5
2CD
100
AcDbEntity
  8
0
100
AcDbCircle
 62
7
  6
CONTINUOUS
 10
14.3916685195
 20
5.2868747044
 40
0.03475
100
AcDbArc
 50
270.0
 51
347.0
  0
ARC
  5
2CE
100
AcDbEntity
  8
0
100
AcDbCircle
 62
7
  6
CONTINUOUS
 10
14.7290419943
 20
5.2868747044
 40
0.03475
100
AcDbArc
 50
193.0
 51
270.0
  0
ARC
  5
2CF
100
AcDbEntity
  8
0
100
AcDbCircle
 62
7
  6
CONTINUOUS
 10
14.8916685195
 20
5.2868747044
 40
0.03475
100
AcDbArc
 50
270.0
 51
347.0
  0
ARC
  5
2D0
100
AcDbEntity
  8
0
100
AcDbCircle
 62
7
  6
CONTINUOUS
 10
15.2290419943
 20
5.2868747044
 40
0.03475
100
AcDbArc
 50
193.0
 51
270.0
  0
ARC
  5
2D1
100
AcDbEntity
  8
0
100
AcDbCircle
 62
7
  6
CONTINUOUS
 10
15.3916685195
 20
5.2868747044
 40
0.03475
100
AcDbArc
 50
270.0
 51
347.0
  0
ARC
  5
2D2
100
AcDbEntity
  8
0
100
AcDbCircle
 62
7
  6
CONTINUOUS
 10
13.6416685195
 20
5.3563747044
 40
0.03475
100
AcDbArc
 50
13.0
 51
90.0
  0
ARC
  5
2D3
100
AcDbEntity
  8
0
100
AcDbCircle
 62
7
  6
CONTINUOUS
 10
13.9790419943
 20
5.3563747044
 40
0.03475
100
AcDbArc
 50
90.0
 51
167.0
  0
ARC
  5
2D4
100
AcDbEntity
  8
0
100
AcDbCircle
 62
7
  6
CONTINUOUS
 10
14.1416685195
 20
5.3563747044
 40
0.03475
100
AcDbArc
 50
13.0
 51
90.0
  0
ARC
  5
2D5
100
AcDbEntity
  8
0
100
AcDbCircle
 62
7
  6
CONTINUOUS
 10
14.4790419943
 20
5.3563747044
 40
0.03475
100
AcDbArc
 50
90.0
 51
167.0
  0
ARC
  5
2D6
100
AcDbEntity
  8
0
100
AcDbCircle
 62
7
  6
CONTINUOUS
 10
14.6416685195
 20
5.3563747044
 40
0.03475
100
AcDbArc
 50
13.0
 51
90.0
  0
ARC
  5
2D7
100
AcDbEntity
  8
0
100
AcDbCircle
 62
7
  6
CONTINUOUS
 10
14.9790419943
 20
5.3563747044
 40
0.03475
100
AcDbArc
 50
90.0
 51
167.0
  0
ARC
  5
2D8
100
AcDbEntity
  8
0
100
AcDbCircle
 62
7
  6
CONTINUOUS
 10
15.1416685195
 20
5.3563747044
 40
0.03475
100
AcDbArc
 50
13.0
 51
90.0
  0
ARC
  5
2D9
100
AcDbEntity
  8
0
100
AcDbCircle
 62
7
  6
CONTINUOUS
 10
15.4790419943
 20
5.3563747044
 40
0.03475
100
AcDbArc
 50
90.0
 51
167.0
  0
ARC
  5
2DA
100
AcDbEntity
  8
0
100
AcDbCircle
 62
7
  6
CONTINUOUS
 10
17.3916685195
 20
5.2868747044
 40
0.03475
100
AcDbArc
 50
270.0
 51
347.0
  0
ARC
  5
2DB
100
AcDbEntity
  8
0
100
AcDbCircle
 62
7
  6
CONTINUOUS
 10
17.2290419943
 20
5.2868747044
 40
0.03475
100
AcDbArc
 50
193.0
 51
270.0
  0
ARC
  5
2DC
100
AcDbEntity
  8
0
100
AcDbCircle
 62
7
  6
CONTINUOUS
 10
16.8916685195
 20
5.2868747044
 40
0.03475
100
AcDbArc
 50
270.0
 51
347.0
  0
ARC
  5
2DD
100
AcDbEntity
  8
0
100
AcDbCircle
 62
7
  6
CONTINUOUS
 10
16.7290419943
 20
5.2868747044
 40
0.03475
100
AcDbArc
 50
193.0
 51
270.0
  0
ARC
  5
2DE
100
AcDbEntity
  8
0
100
AcDbCircle
 62
7
  6
CONTINUOUS
 10
16.3916685195
 20
5.2868747044
 40
0.03475
100
AcDbArc
 50
270.0
 51
347.0
  0
ARC
  5
2DF
100
AcDbEntity
  8
0
100
AcDbCircle
 62
7
  6
CONTINUOUS
 10
16.2290419943
 20
5.2868747044
 40
0.03475
100
AcDbArc
 50
193.0
 51
270.0
  0
ARC
  5
2E0
100
AcDbEntity
  8
0
100
AcDbCircle
 62
7
  6
CONTINUOUS
 10
15.8916685195
 20
5.2868747044
 40
0.03475
100
AcDbArc
 50
270.0
 51
347.0
  0
ARC
  5
2E1
100
AcDbEntity
  8
0
100
AcDbCircle
 62
7
  6
CONTINUOUS
 10
15.7290419943
 20
5.2868747044
 40
0.03475
100
AcDbArc
 50
193.0
 51
270.0
  0
ARC
  5
2E2
100
AcDbEntity
  8
0
100
AcDbCircle
 62
7
  6
CONTINUOUS
 10
17.4790419943
 20
5.3563747044
 40
0.03475
100
AcDbArc
 50
90.0
 51
167.0
  0
ARC
  5
2E3
100
AcDbEntity
  8
0
100
AcDbCircle
 62
7
  6
CONTINUOUS
 10
17.1416685195
 20
5.3563747044
 40
0.03475
100
AcDbArc
 50
13.0
 51
90.0
  0
ARC
  5
2E4
100
AcDbEntity
  8
0
100
AcDbCircle
 62
7
  6
CONTINUOUS
 10
16.9790419943
 20
5.3563747044
 40
0.03475
100
AcDbArc
 50
90.0
 51
167.0
  0
ARC
  5
2E5
100
AcDbEntity
  8
0
100
AcDbCircle
 62
7
  6
CONTINUOUS
 10
16.6416685195
 20
5.3563747044
 40
0.03475
100
AcDbArc
 50
13.0
 51
90.0
  0
ARC
  5
2E6
100
AcDbEntity
  8
0
100
AcDbCircle
 62
7
  6
CONTINUOUS
 10
16.4790419943
 20
5.3563747044
 40
0.03475
100
AcDbArc
 50
90.0
 51
167.0
  0
ARC
  5
2E7
100
AcDbEntity
  8
0
100
AcDbCircle
 62
7
  6
CONTINUOUS
 10
16.1416685195
 20
5.3563747044
 40
0.03475
100
AcDbArc
 50
13.0
 51
90.0
  0
ARC
  5
2E8
100
AcDbEntity
  8
0
100
AcDbCircle
 62
7
  6
CONTINUOUS
 10
15.9790419943
 20
5.3563747044
 40
0.03475
100
AcDbArc
 50
90.0
 51
167.0
  0
ARC
  5
2E9
100
AcDbEntity
  8
0
100
AcDbCircle
 62
7
  6
CONTINUOUS
 10
15.6416685195
 20
5.3563747044
 40
0.03475
100
AcDbArc
 50
13.0
 51
90.0
  0
SPLINE
  5
2EA
100
AcDbEntity
  8
0
100
AcDbSpline
 62
7
  6
CONTINUOUS
 70
0
 71
3
 72
15
 73
11
 74
0
 42
0.0000001
 43
0.0000001
 44
0.0000000001
 40
0.0
 40
0.0
 40
0.0
 40
0.0
 40
0.1295683108
 40
0.2645753411
 40
0.4012659669
 40
0.5362717269
 40
0.6662158103
 40
0.7881013911
 40
0.8998145639
 40
1.0
 40
1.0
 40
1.0
 40
1.0
 10
16.4503277786
 20
14.1638625978
 30
0.0
 10
16.4518760347
 20
14.1638625978
 30
0.0
 10
16.4550399828
 20
14.163647373
 30
0.0
 10
16.4597624974
 20
14.1627634778
 30
0.0
 10
16.4644188079
 20
14.1613360267
 30
0.0
 10
16.4688306807
 20
14.159420708
 30
0.0
 10
16.472836872
 20
14.1570920184
 30
0.0
 10
16.4762889539
 20
14.1544306818
 30
0.0
 10
16.4790548097
 20
14.1515346397
 30
0.0
 10
16.4804529544
 20
14.149397068
 30
0.0
 10
16.4809803501
 20
14.1483223485
 30
0.0
  0
SPLINE
  5
2EB
100
AcDbEntity
  8
0
100
AcDbSpline
 62
7
  6
CONTINUOUS
 70
0
 71
3
 72
15
 73
11
 74
0
 42
0.0000001
 43
0.0000001
 44
0.0000000001
 40
0.0
 40
0.0
 40
0.0
 40
0.0
 40
0.0996462203
 40
0.2028721733
 40
0.3125944739
 40
0.4308576536
 40
0.558816053
 40
0.6968319492
 40
0.8443986135
 40
1.0
 40
1.0
 40
1.0
 40
1.0
 10
15.3863614103
 20
14.1557035406
 30
0.0
 10
15.3865515255
 20
14.1563187829
 30
0.0
 10
15.3870901633
 20
14.1575297277
 30
0.0
 10
15.3883211517
 20
14.1591506746
 30
0.0
 10
15.3899445422
 20
14.160565841
 30
0.0
 10
15.3919287123
 20
14.1617498981
 30
0.0
 10
15.3942362576
 20
14.1626885284
 30
0.0
 10
15.3968278696
 20
14.1633672574
 30
0.0
 10
15.3996547412
 20
14.1637749167
 30
0.0
 10
15.4016153511
 20
14.1638625978
 30
0.0
 10
15.4026208979
 20
14.1638625978
 30
0.0
  0
SPLINE
  5
2EC
100
AcDbEntity
  8
0
100
AcDbSpline
 62
7
  6
CONTINUOUS
 70
0
 71
3
 72
11
 73
7
 74
0
 42
0.0000001
 43
0.0000001
 44
0.0000000001
 40
0.0
 40
0.0
 40
0.0
 40
0.0
 40
0.2336950377
 40
0.4747284306
 40
0.7289544782
 40
1.0
 40
1.0
 40
1.0
 40
1.0
 10
14.4180961167
 20
11.0223959021
 30
0.0
 10
14.4179212619
 20
11.0218300447
 30
0.0
 10
14.4176909496
 20
11.0206378964
 30
0.0
 10
14.4177332359
 20
11.0187786177
 30
0.0
 10
14.4181510455
 20
11.0168714441
 30
0.0
 10
14.4186525106
 20
11.0156313756
 30
0.0
 10
14.4189551261
 20
11.01501471
 30
0.0
  0
SPLINE
  5
2ED
100
AcDbEntity
  8
0
100
AcDbSpline
 62
7
  6
CONTINUOUS
 70
0
 71
3
 72
9
 73
5
 74
0
 42
0.0000001
 43
0.0000001
 44
0.0000000001
 40
0.0
 40
0.0
 40
0.0
 40
0.0
 40
0.5134075844
 40
1.0
 40
1.0
 40
1.0
 40
1.0
 10
16.502217699
 20
14.1050451818
 30
0.0
 10
16.5031664807
 20
14.1031117679
 30
0.0
 10
16.5048070708
 20
14.0992389734
 30
0.0
 10
16.5059404064
 20
14.0951847974
 30
0.0
 10
16.5063459237
 20
14.0931843044
 30
0.0
  0
SPLINE
  5
2EE
100
AcDbEntity
  8
0
100
AcDbSpline
 62
7
  6
CONTINUOUS
 70
0
 71
3
 72
14
 73
10
 74
0
 42
0.0000001
 43
0.0000001
 44
0.0000000001
 40
0.0
 40
0.0
 40
0.0
 40
0.0
 40
0.1555867141
 40
0.3032334582
 40
0.568864519
 40
0.6871852264
 40
0.7969112737
 40
0.9001856235
 40
1.0
 40
1.0
 40
1.0
 40
1.0
 10
15.5398015205
 20
10.8577473881
 30
0.0
 10
15.5408063925
 20
10.8577473881
 30
0.0
 10
15.5427671668
 20
10.8578353651
 30
0.0
 10
15.5464052376
 20
10.8583601386
 30
0.0
 10
15.5497265299
 20
10.8594042039
 30
0.0
 10
15.5524770971
 20
10.8610431576
 30
0.0
 10
15.5541008673
 20
10.8624575581
 30
0.0
 10
15.5553312112
 20
10.8640791329
 30
0.0
 10
15.5558708393
 20
10.8652904754
 30
0.0
 10
15.5560604412
 20
10.8659066238
 30
0.0
  0
SPLINE
  5
2EF
100
AcDbEntity
  8
0
100
AcDbSpline
 62
7
  6
CONTINUOUS
 70
0
 71
3
 72
15
 73
11
 74
0
 42
0.0000001
 43
0.0000001
 44
0.0000000001
 40
0.0
 40
0.0
 40
0.0
 40
0.0
 40
0.1075854717
 40
0.2244579472
 40
0.3487079744
 40
0.4782296359
 40
0.6107078282
 40
0.7436381561
 40
0.8743955491
 40
1.0
 40
1.0
 40
1.0
 40
1.0
 10
14.5174454555
 20
10.8703224179
 30
0.0
 10
14.5181581152
 20
10.8694072836
 30
0.0
 10
14.5198113021
 20
10.8676252087
 30
0.0
 10
14.5227223563
 20
10.8652319827
 30
0.0
 10
14.5260978475
 20
10.8630770278
 30
0.0
 10
14.5298323456
 20
10.8612183237
 30
0.0
 10
14.5338220608
 20
10.8597117703
 30
0.0
 10
14.5379523546
 20
10.8585966065
 30
0.0
 10
14.5421001642
 20
10.8579132461
 30
0.0
 10
14.5448656872
 20
10.8577473881
 30
0.0
 10
14.5462198466
 20
10.8577473881
 30
0.0
  0
SPLINE
  5
2F0
100
AcDbEntity
  8
0
100
AcDbSpline
 62
7
  6
CONTINUOUS
 70
0
 71
3
 72
9
 73
5
 74
0
 42
0.0000001
 43
0.0000001
 44
0.0000000001
 40
0.0
 40
0.0
 40
0.0
 40
0.0
 40
0.2397652035
 40
1.0
 40
1.0
 40
1.0
 40
1.0
 10
14.440192475
 20
10.9717375433
 30
0.0
 10
14.4406873091
 20
10.9707291774
 30
0.0
 10
14.4428733045
 20
10.9665837787
 30
0.0
 10
14.4455169463
 20
10.9626866227
 30
0.0
 10
14.4477051966
 20
10.9598766659
 30
0.0
  0
SPLINE
  5
2F1
100
AcDbEntity
  8
0
100
AcDbSpline
 62
7
  6
CONTINUOUS
 70
0
 71
3
 72
15
 73
11
 74
0
 42
0.0000001
 43
0.0000001
 44
0.0000000001
 40
0.0
 40
0.0
 40
0.0
 40
0.0
 40
0.1001854361
 40
0.2118986089
 40
0.3337841897
 40
0.4637282731
 40
0.5987340331
 40
0.7354246589
 40
0.8704316892
 40
1.0
 40
1.0
 40
1.0
 40
1.0
 10
15.5127150565
 20
11.01501471
 30
0.0
 10
15.5121876608
 20
11.0160894295
 30
0.0
 10
15.510789516
 20
11.0182270012
 30
0.0
 10
15.5080236602
 20
11.0211230433
 30
0.0
 10
15.5045715784
 20
11.0237843799
 30
0.0
 10
15.5005653871
 20
11.0261130695
 30
0.0
 10
15.4961535143
 20
11.0280283882
 30
0.0
 10
15.4914972037
 20
11.0294558393
 30
0.0
 10
15.4867746892
 20
11.0303397345
 30
0.0
 10
15.483610741
 20
11.0305549592
 30
0.0
 10
15.482062485
 20
11.0305549592
 30
0.0
  0
SPLINE
  5
2F2
100
AcDbEntity
  8
0
100
AcDbSpline
 62
7
  6
CONTINUOUS
 70
0
 71
3
 72
15
 73
11
 74
0
 42
0.0000001
 43
0.0000001
 44
0.0000000001
 40
0.0
 40
0.0
 40
0.0
 40
0.0
 40
0.1556013865
 40
0.3031680508
 40
0.441183947
 40
0.5691423464
 40
0.6874055261
 40
0.7971278267
 40
0.9003537797
 40
1.0
 40
1.0
 40
1.0
 40
1.0
 10
14.4343556043
 20
11.0305549592
 30
0.0
 10
14.4333500574
 20
11.0305549592
 30
0.0
 10
14.4313894476
 20
11.0304672782
 30
0.0
 10
14.428562576
 20
11.0300596189
 30
0.0
 10
14.425970964
 20
11.0293808899
 30
0.0
 10
14.4236634186
 20
11.0284422596
 30
0.0
 10
14.4216792486
 20
11.0272582025
 30
0.0
 10
14.4200558581
 20
11.0258430361
 30
0.0
 10
14.4188248697
 20
11.0242220892
 30
0.0
 10
14.4182862318
 20
11.0230111444
 30
0.0
 10
14.4180961167
 20
11.0223959021
 30
0.0
  0
SPLINE
  5
2F3
100
AcDbEntity
  8
0
100
AcDbSpline
 62
7
  6
CONTINUOUS
 70
0
 71
3
 72
9
 73
5
 74
0
 42
0.0000001
 43
0.0000001
 44
0.0000000001
 40
0.0
 40
0.0
 40
0.0
 40
0.0
 40
0.4865924156
 40
1.0
 40
1.0
 40
1.0
 40
1.0
 10
15.5380806301
 20
10.9598766659
 30
0.0
 10
15.5376751128
 20
10.9618771589
 30
0.0
 10
15.5365417771
 20
10.9659313349
 30
0.0
 10
15.5349011871
 20
10.9698041294
 30
0.0
 10
15.5339524053
 20
10.9717375433
 30
0.0
  0
ENDSEC
  0
SECTION
  2
OBJECTS
  0
DICTIONARY
  5
C
100
AcDbDictionary
280
0
281
1
  3
ACAD_GROUP
350
D
  3
ACAD_MLINESTYLE
350
17
  3
ACAD_LAYOUT
350
1A
  3
ACAD_PLOTSETTINGS
350
19
  3
ACAD_PLOTSTYLENAME
350
E
  0
DICTIONARY
  5
D
102
{ACAD_REACTORS
330
C
102
}
100
AcDbDictionary
280
0
281
1
  0
ACDBDICTIONARYWDFLT
  5
E
102
{ACAD_REACTORS
330
C
102
}
100
AcDbDictionary
281
1
  3
Normal
350
F
100
AcDbDictionaryWithDefault
340
F
  0
DICTIONARY
  5
17
102
{ACAD_REACTORS
330
C
102
}
100
AcDbDictionary
280
0
281
1
  3
Standard
350
18
  0
DICTIONARY
  5
19
102
{ACAD_REACTORS
330
C
102
}
100
AcDbDictionary
281
1
  0
DICTIONARY
  5
1A
102
{ACAD_REACTORS
330
C
102
}
100
AcDbDictionary
281
1
  3
Model
350
2F4
  3
Layout1
350
2F5
  0
ACDBPLACEHOLDER
  5
F
102
{ACAD_REACTORS
330
E
102
}
  0
MLINESTYLE
  5
18
102
{ACAD_REACTORS
330
17
102
}
100
AcDbMlineStyle
  2
STANDARD
 70
0
  3

 62
256
 51
90.0
 52
90.0
 71
2
 49
0.5
 62
256
  6
BYLAYER
 49
-0.5
 62
256
  6
BYLAYER
  0
LAYOUT
  5
2F4
102
{ACAD_REACTORS
330
1A
102
}
100
AcDbPlotSettings
  1

  2
none_device
  4
ANSI_C_(22.00_x_17.00_Inches)
  6

 40
0.0
 41
0.0
 42
0.0
 43
0.0
 44
558.8
 45
431.8
 46
0.0
 47
0.0
 48
0.0
 49
0.0
140
0.0
141
0.0
142
1.0
143
1.0
 70
1024
 72
0
 73
0
 74
0
  7

 75
0
147
1.0
148
0.0
149
0.0
100
AcDbLayout
  1
Model
 70
0
 71
0
 10
0.0
 20
0.0
 11
22.0
 21
17.0
 12
0.0
 22
0.0
 32
0.0
 14
0.0
 24
0.0
 34
0.0
 15
0.0
 25
0.0
 35
0.0
146
0.0
 13
0.0
 23
0.0
 33
0.0
 16
1.0
 26
0.0
 36
0.0
 17
0.0
 27
1.0
 37
0.0
 76
0
330
216
345
0
346
0
  0
LAYOUT
  5
2F5
102
{ACAD_REACTORS
330
1A
102
}
100
AcDbPlotSettings
  1

  2
none_device
  4
ANSI_C_(22.00_x_17.00_Inches)
  6

 40
0.0
 41
0.0
 42
0.0
 43
0.0
 44
558.8
 45
431.8
 46
0.0
 47
0.0
 48
0.0
 49
0.0
140
0.0
141
0.0
142
1.0
143
1.0
 70
0
 72
0
 73
0
 74
0
  7

 75
0
147
1.0
148
0.0
149
0.0
100
AcDbLayout
  1
Layout1
 70
0
 71
1
 10
0.0
 20
0.0
 11
22.0
 21
17.0
 12
0.0
 22
0.0
 32
0.0
 14
0.0
 24
0.0
 34
0.0
 15
0.0
 25
0.0
 35
0.0
146
0.0
 13
0.0
 23
0.0
 33
0.0
 16
1.0
 26
0.0
 36
0.0
 17
0.0
 27
1.0
 37
0.0
 76
0
330
217
345
0
346
0
  0
ENDSEC
  0
EOF