999
DXF file: _cgs_temp_output.dxf
999
Pro/ENGINEER 2016360 by Parametric Technology Corporation
  0
SECTION
  2
HEADER
  9
$ACADVER
  1
AC1021
  9
$DWGCODEPAGE
  3
ANSI_1252
  9
$EXTMAX
 10
22.0
 20
17.0
 30
0.0
  9
$EXTMIN
 10
0.0
 20
0.0
 30
0.0
  9
$LIMMIN
 10
0.0
 20
0.0
  9
$LIMMAX
 10
22.0
 20
17.0
  9
$VIEWCTR
 10
11.0
 20
8.5
  9
$VIEWSIZE
 40
17.0
  9
$CLAYER
  8
0
  9
$LTSCALE
 40
1.21
  9
$CELTYPE
  6
BYLAYER
  9
$DIMSCALE
 40
1.0
  9
$DIMASZ
 40
0.1875
  9
$DIMEXO
 40
0.0625
  9
$DIMDLI
 40
0.836
  9
$DIMEXE
 40
0.125
  9
$DIMCEN
 40
0.198
  9
$DIMLFAC
 40
1.0
  9
$DIMBLK
  1
_CLOSED
  9
$DIMALT
 70
0
  9
$DIMALTF
 40
25.4
  9
$DIMTXT
 40
0.15625
  9
$DIMTOL
 70
0
  9
$DIMLIM
 70
0
  9
$DIMTFAC
 40
1.0
  9
$DIMGAP
 40
0.09
  9
$DIMDSEP
 70
46
  9
$AUNITS
 70
0
  9
$PDMODE
 70
3
  9
$PDSIZE
 40
0.3125
  9
$HANDSEED
  5
2FE
  9
$TILEMODE
 70
1
  9
$MEASUREMENT
 70
0
  9
$INSUNITS
 70
1
  0
ENDSEC
  0
SECTION
  2
CLASSES
  0
CLASS
  1
ACDBDICTIONARYWDFLT
  2
AcDbDictionaryWithDefault
  3
AutoCAD 2000
 90
0
 91
1
280
0
281
0
  0
CLASS
  1
ACDBPLACEHOLDER
  2
AcDbPlaceHolder
  3
AutoCAD 2000
 90
0
 91
1
280
0
281
0
  0
CLASS
  1
LAYOUT
  2
AcDbLayout
  3
AutoCAD 2000
 90
0
 91
0
280
0
281
0
  0
ENDSEC
  0
SECTION
  2
TABLES
  0
TABLE
  2
VPORT
  5
8
100
AcDbSymbolTable
 70
2
  0
VPORT
  5
1F4
100
AcDbSymbolTableRecord
100
AcDbViewportTableRecord
  2
*ACTIVE
 70
0
 10
0.0
 20
0.0
 11
1.0
 21
1.0
 12
11.0
 22
8.5
 13
0.0
 23
0.0
 14
1.0
 24
1.0
 15
0.0
 25
0.0
 16
0.0
 26
0.0
 36
1.0
 17
0.0
 27
0.0
 37
0.0
 40
17.0
 41
1.2941176471
 42
50.0
 43
0.0
 44
0.0
 50
0.0
 51
0.0
 71
0
 72
100
 73
1
 74
1
 75
0
 76
0
 77
0
 78
0
  0
ENDTAB
  0
TABLE
  2
LTYPE
  5
5
100
AcDbSymbolTable
 70
6
  0
LTYPE
  5
14
100
AcDbSymbolTableRecord
100
AcDbLinetypeTableRecord
  2
BYBLOCK
 70
0
  3

 72
65
 73
0
 40
0.0
  0
LTYPE
  5
15
100
AcDbSymbolTableRecord
100
AcDbLinetypeTableRecord
  2
BYLAYER
 70
0
  3

 72
65
 73
0
 40
0.0
  0
LTYPE
  5
16
100
AcDbSymbolTableRecord
100
AcDbLinetypeTableRecord
  2
CONTINUOUS
 70
64
  3
Solid line
 72
65
 73
0
 40
0.0
  0
LTYPE
  5
1F5
100
AcDbSymbolTableRecord
100
AcDbLinetypeTableRecord
  2
CENTER
 70
64
  3
____ _ ____ _ ____ _ ____ _ ____ _ ____ _ ____
 72
65
 73
4
 40
0.6
 49
0.375
 74
0
 49
-0.075
 74
0
 49
0.075
 74
0
 49
-0.075
 74
0
  0
LTYPE
  5
1F6
100
AcDbSymbolTableRecord
100
AcDbLinetypeTableRecord
  2
HIDDEN
 70
64
  3
- - - - - - - - - - - - - - - - - - - -
 72
65
 73
2
 40
0.2
 49
0.1
 74
0
 49
-0.1
 74
0
  0
LTYPE
  5
1F7
100
AcDbSymbolTableRecord
100
AcDbLinetypeTableRecord
  2
PHANTOM
 70
64
  3
_____ _ _ _____ _ _ _____ _ _ _____
 72
65
 73
6
 40
0.8
 49
0.45
 74
0
 49
-0.05
 74
0
 49
0.1
 74
0
 49
-0.05
 74
0
 49
0.1
 74
0
 49
-0.05
 74
0
  0
LTYPE
  5
1F8
100
AcDbSymbolTableRecord
100
AcDbLinetypeTableRecord
  2
DOT
 70
64
  3
. . . . . . . . . . . . . . . . . . . .
 72
65
 73
2
 40
0.2
 49
0.1
 74
0
 49
-0.1
 74
0
  0
LTYPE
  5
1F9
100
AcDbSymbolTableRecord
100
AcDbLinetypeTableRecord
  2
DASHED
 70
64
  3
- - - - - - - - - - - - - - - - - - - -
 72
65
 73
2
 40
0.2
 49
0.1
 74
0
 49
-0.1
 74
0
  0
ENDTAB
  0
TABLE
  2
LAYER
  5
2
100
AcDbSymbolTable
 70
36
  0
LAYER
  5
10
100
AcDbSymbolTableRecord
100
AcDbLayerTableRecord
  2
0
 70
0
 62
7
  6
CONTINUOUS
370
-3
390
F
  0
LAYER
  5
1FA
100
AcDbSymbolTableRecord
100
AcDbLayerTableRecord
  2
DEFAULT_1
 70
0
 62
7
  6
CENTER
370
-3
390
F
  0
LAYER
  5
1FB
100
AcDbSymbolTableRecord
100
AcDbLayerTableRecord
  2
DEFAULT_2
 70
0
 62
8
  6
HIDDEN
370
-3
390
F
  0
LAYER
  5
1FC
100
AcDbSymbolTableRecord
100
AcDbLayerTableRecord
  2
DEFAULT_3
 70
0
 62
7
  6
PHANTOM
370
-3
390
F
  0
LAYER
  5
1FD
100
AcDbSymbolTableRecord
100
AcDbLayerTableRecord
  2
01_ALL_DTM_PLN
 70
0
 62
7
  6
CONTINUOUS
370
-3
390
F
  0
LAYER
  5
1FE
100
AcDbSymbolTableRecord
100
AcDbLayerTableRecord
  2
01__ASM_ALL_DTM_PLN
 70
0
 62
7
  6
CONTINUOUS
370
-3
390
F
  0
LAYER
  5
1FF
100
AcDbSymbolTableRecord
100
AcDbLayerTableRecord
  2
01__ASM_DEF_DTM_PLN
 70
0
 62
7
  6
CONTINUOUS
370
-3
390
F
  0
LAYER
  5
200
100
AcDbSymbolTableRecord
100
AcDbLayerTableRecord
  2
01___PRT_ALL_DTM_PLN
 70
0
 62
7
  6
CONTINUOUS
370
-3
390
F
  0
LAYER
  5
201
100
AcDbSymbolTableRecord
100
AcDbLayerTableRecord
  2
01___PRT_DEF_DTM_PLN
 70
0
 62
7
  6
CONTINUOUS
370
-3
390
F
  0
LAYER
  5
202
100
AcDbSymbolTableRecord
100
AcDbLayerTableRecord
  2
02_ALL_AXES
 70
0
 62
7
  6
CONTINUOUS
370
-3
390
F
  0
LAYER
  5
203
100
AcDbSymbolTableRecord
100
AcDbLayerTableRecord
  2
02__ASM_ALL_AXES
 70
0
 62
7
  6
CONTINUOUS
370
-3
390
F
  0
LAYER
  5
204
100
AcDbSymbolTableRecord
100
AcDbLayerTableRecord
  2
02___PRT_ALL_AXES
 70
0
 62
7
  6
CONTINUOUS
370
-3
390
F
  0
LAYER
  5
205
100
AcDbSymbolTableRecord
100
AcDbLayerTableRecord
  2
03_ALL_CURVES
 70
0
 62
7
  6
CONTINUOUS
370
-3
390
F
  0
LAYER
  5
206
100
AcDbSymbolTableRecord
100
AcDbLayerTableRecord
  2
03__ASM_ALL_CURVES
 70
0
 62
7
  6
CONTINUOUS
370
-3
390
F
  0
LAYER
  5
207
100
AcDbSymbolTableRecord
100
AcDbLayerTableRecord
  2
03___PRT_ALL_CURVES
 70
0
 62
7
  6
CONTINUOUS
370
-3
390
F
  0
LAYER
  5
208
100
AcDbSymbolTableRecord
100
AcDbLayerTableRecord
  2
04_ALL_DTM_PNT
 70
0
 62
7
  6
CONTINUOUS
370
-3
390
F
  0
LAYER
  5
209
100
AcDbSymbolTableRecord
100
AcDbLayerTableRecord
  2
04__ASM_ALL_DTM_PNT
 70
0
 62
7
  6
CONTINUOUS
370
-3
390
F
  0
LAYER
  5
20A
100
AcDbSymbolTableRecord
100
AcDbLayerTableRecord
  2
04___PRT_ALL_DTM_PNT
 70
0
 62
7
  6
CONTINUOUS
370
-3
390
F
  0
LAYER
  5
20B
100
AcDbSymbolTableRecord
100
AcDbLayerTableRecord
  2
05_ALL_DTM_CSYS
 70
0
 62
7
  6
CONTINUOUS
370
-3
390
F
  0
LAYER
  5
20C
100
AcDbSymbolTableRecord
100
AcDbLayerTableRecord
  2
05__ASM_ALL_DTM_CSYS
 70
0
 62
7
  6
CONTINUOUS
370
-3
390
F
  0
LAYER
  5
20D
100
AcDbSymbolTableRecord
100
AcDbLayerTableRecord
  2
05__ASM_DEF_DTM_CSYS
 70
0
 62
7
  6
CONTINUOUS
370
-3
390
F
  0
LAYER
  5
20E
100
AcDbSymbolTableRecord
100
AcDbLayerTableRecord
  2
05___PRT_ALL_DTM_CSYS
 70
0
 62
7
  6
CONTINUOUS
370
-3
390
F
  0
LAYER
  5
20F
100
AcDbSymbolTableRecord
100
AcDbLayerTableRecord
  2
05___PRT_DEF_DTM_CSYS
 70
0
 62
7
  6
CONTINUOUS
370
-3
390
F
  0
LAYER
  5
210
100
AcDbSymbolTableRecord
100
AcDbLayerTableRecord
  2
06_ALL_SURFS
 70
0
 62
7
  6
CONTINUOUS
370
-3
390
F
  0
LAYER
  5
211
100
AcDbSymbolTableRecord
100
AcDbLayerTableRecord
  2
06__ASM_ALL_SURFS
 70
0
 62
7
  6
CONTINUOUS
370
-3
390
F
  0
LAYER
  5
212
100
AcDbSymbolTableRecord
100
AcDbLayerTableRecord
  2
06___PRT_ALL_SURFS
 70
0
 62
7
  6
CONTINUOUS
370
-3
390
F
  0
LAYER
  5
213
100
AcDbSymbolTableRecord
100
AcDbLayerTableRecord
  2
07__ASM_ALL_SKELETONS
 70
0
 62
7
  6
CONTINUOUS
370
-3
390
F
  0
ENDTAB
  0
TABLE
  2
STYLE
  5
3
100
AcDbSymbolTable
 70
1
  0
STYLE
  5
11
100
AcDbSymbolTableRecord
100
AcDbTextStyleTableRecord
  2
STANDARD
 70
0
 40
0.0
 41
0.8
 50
0.0
 71
0
 42
0.2
  3
txt
  4

  0
STYLE
  5
214
100
AcDbSymbolTableRecord
100
AcDbTextStyleTableRecord
  2
TEXTSTYLE_1
 70
0
 40
0.0
 41
0.8
 50
0.0
 71
0
 42
0.2
  3
gdt
  4

  0
ENDTAB
  0
TABLE
  2
VIEW
  5
6
100
AcDbSymbolTable
 70
0
  0
ENDTAB
  0
TABLE
  2
UCS
  5
7
100
AcDbSymbolTable
 70
0
  0
ENDTAB
  0
TABLE
  2
APPID
  5
9
100
AcDbSymbolTable
 70
1
  0
APPID
  5
215
100
AcDbSymbolTableRecord
100
AcDbRegAppTableRecord
  2
ACAD
 70
0
  0
ENDTAB
  0
TABLE
  2
BLOCK_RECORD
  5
1
100
AcDbSymbolTable
 70
0
  0
BLOCK_RECORD
  5
216
100
AcDbSymbolTableRecord
100
AcDbBlockTableRecord
  2
*Model_Space
  0
BLOCK_RECORD
  5
217
100
AcDbSymbolTableRecord
100
AcDbBlockTableRecord
  2
*Paper_Space
  0
ENDTAB
  0
TABLE
  2
DIMSTYLE
  5
A
100
AcDbSymbolTable
 70
1
100
AcDbDimStyleTable
 71
0
  0
DIMSTYLE
105
218
100
AcDbSymbolTableRecord
100
AcDbDimStyleTableRecord
  2
STANDARD
 70
0
  3

  4

 40
1.0
 41
0.1875
 42
0.0625
 43
0.38
 44
0.125
 45
0.0
 46
0.0
 47
0.0001
 48
0.0001
140
0.15625
141
0.09
142
0.0
143
25.4
144
1.0
145
0.0
146
1.0
147
0.09
 71
0.0
 72
0.0
 73
1
 74
1
 75
0
 76
0
 77
0
 78
4
 79
1
170
0
171
3
172
0
173
0
174
0
175
0
176
0
177
0
178
0
270
2
179
4
271
4
272
4
273
2
274
2
275
0
280
0
281
0
282
0
283
1
284
4
285
0
286
0
287
3
288
0
340
11
278
46
  0
ENDTAB
  0
ENDSEC
  0
SECTION
  2
BLOCKS
  0
BLOCK
  5
20
100
AcDbEntity
  8
0
100
AcDbBlockBegin
  2
*Model_Space
 70
0
 10
0.0
 20
0.0
 30
0.0
  3
*Model_Space
  1

  0
ENDBLK
  5
21
100
AcDbEntity
  8
0
100
AcDbBlockEnd
  0
BLOCK
  5
1C
100
AcDbEntity
  8
0
100
AcDbBlockBegin
  2
*Paper_Space
 70
0
 10
0.0
 20
0.0
 30
0.0
  3
*Paper_Space
  1

  0
ENDBLK
  5
1D
100
AcDbEntity
  8
0
100
AcDbBlockEnd
  0
ENDSEC
  0
SECTION
  2
ENTITIES
  0
MTEXT
  5
219
100
AcDbEntity
  8
0
100
AcDbMText
 62
7
  6
CONTINUOUS
  7
STANDARD
 71
1
 72
1
 10
15.9560215477
 20
0.9479130325
 30
0.0
 11
1.0
 21
0.0
 31
0.0
 44
0.9
  1
SCALE: 1:1.000
 40
0.3
 41
3.36
  0
LINE
  5
21A
100
AcDbEntity
  8
0
100
AcDbLine
 62
7
  6
CONTINUOUS
 10
0.0
 20
0.0
 11
0.0
 21
17.0
  0
LINE
  5
21B
100
AcDbEntity
  8
0
100
AcDbLine
 62
7
  6
CONTINUOUS
 10
0.0
 20
0.0
 11
22.0
 21
0.0
  0
LINE
  5
21C
100
AcDbEntity
  8
0
100
AcDbLine
 62
7
  6
CONTINUOUS
 10
0.0
 20
17.0
 11
22.0
 21
17.0
  0
LINE
  5
21D
100
AcDbEntity
  8
0
100
AcDbLine
 62
7
  6
CONTINUOUS
 10
22.0
 20
0.0
 11
22.0
 21
17.0
  0
LINE
  5
21E
100
AcDbEntity
  8
0
100
AcDbLine
 62
7
  6
CONTINUOUS
 10
5.5366172762
 20
5.7291198968
 11
5.5366172762
 21
5.6467488016
  0
LINE
  5
21F
100
AcDbEntity
  8
0
100
AcDbLine
 62
7
  6
CONTINUOUS
 10
5.6009124947
 20
5.3063496719
 11
5.5384545578
 21
5.627667902
  0
LINE
  5
220
100
AcDbEntity
  8
0
100
AcDbLine
 62
7
  6
CONTINUOUS
 10
5.6254531743
 20
5.2861198968
 11
6.635281378
 21
5.2861198968
  0
LINE
  5
221
100
AcDbEntity
  8
0
100
AcDbLine
 62
7
  6
CONTINUOUS
 10
5.5951298461
 20
5.4421198968
 11
6.6656047062
 21
5.4421198968
  0
LINE
  5
222
100
AcDbEntity
  8
0
100
AcDbLine
 62
7
  6
CONTINUOUS
 10
6.6991172762
 20
5.7541198968
 11
5.5616172762
 21
5.7541198968
  0
LINE
  5
223
100
AcDbEntity
  8
0
100
AcDbLine
 62
7
  6
CONTINUOUS
 10
6.7241172762
 20
5.6467488016
 11
6.7241172762
 21
5.7291198968
  0
LINE
  5
224
100
AcDbEntity
  8
0
100
AcDbLine
 62
7
  6
CONTINUOUS
 10
6.6598220576
 20
5.3063496719
 11
6.7222799945
 21
5.627667902
  0
LINE
  5
225
100
AcDbEntity
  8
0
100
AcDbLine
 62
7
  6
CONTINUOUS
 10
6.6646220839
 20
10.6000477814
 11
5.4771220839
 21
10.6000477814
  0
LINE
  5
226
100
AcDbEntity
  8
0
100
AcDbLine
 62
7
  6
CONTINUOUS
 10
5.4771220839
 20
10.6000477814
 11
5.4771220839
 21
14.6000477814
  0
LINE
  5
227
100
AcDbEntity
  8
0
100
AcDbLine
 62
7
  6
CONTINUOUS
 10
6.6646220839
 20
10.6000477814
 11
6.6646220839
 21
14.6000477814
  0
LINE
  5
228
100
AcDbEntity
  8
0
100
AcDbLine
 62
7
  6
CONTINUOUS
 10
5.4771220839
 20
14.6000477814
 11
6.6646220839
 21
14.6000477814
  0
LINE
  5
229
100
AcDbEntity
  8
0
100
AcDbLine
 62
7
  6
CONTINUOUS
 10
13.5603552569
 20
5.3826247044
 11
13.5603552569
 21
5.6946247044
  0
LINE
  5
22A
100
AcDbEntity
  8
0
100
AcDbLine
 62
7
  6
CONTINUOUS
 10
13.6743259698
 20
5.3523977956
 11
13.6963845441
 21
5.2568516133
  0
LINE
  5
22B
100
AcDbEntity
  8
0
100
AcDbLine
 62
7
  6
CONTINUOUS
 10
13.9243259698
 20
5.2568516133
 11
13.9463845441
 21
5.3523977956
  0
LINE
  5
22C
100
AcDbEntity
  8
0
100
AcDbLine
 62
7
  6
CONTINUOUS
 10
14.1743259698
 20
5.3523977956
 11
14.1963845441
 21
5.2568516133
  0
LINE
  5
22D
100
AcDbEntity
  8
0
100
AcDbLine
 62
7
  6
CONTINUOUS
 10
14.4243259698
 20
5.2568516133
 11
14.4463845441
 21
5.3523977956
  0
LINE
  5
22E
100
AcDbEntity
  8
0
100
AcDbLine
 62
7
  6
CONTINUOUS
 10
14.6743259698
 20
5.3523977956
 11
14.6963845441
 21
5.2568516133
  0
LINE
  5
22F
100
AcDbEntity
  8
0
100
AcDbLine
 62
7
  6
CONTINUOUS
 10
14.9243259698
 20
5.2568516133
 11
14.9463845441
 21
5.3523977956
  0
LINE
  5
230
100
AcDbEntity
  8
0
100
AcDbLine
 62
7
  6
CONTINUOUS
 10
15.1743259698
 20
5.3523977956
 11
15.1963845441
 21
5.2568516133
  0
LINE
  5
231
100
AcDbEntity
  8
0
100
AcDbLine
 62
7
  6
CONTINUOUS
 10
13.7343849766
 20
5.2266247044
 11
13.8863255373
 21
5.2266247044
  0
LINE
  5
232
100
AcDbEntity
  8
0
100
AcDbLine
 62
7
  6
CONTINUOUS
 10
14.2343849766
 20
5.2266247044
 11
14.3863255373
 21
5.2266247044
  0
LINE
  5
233
100
AcDbEntity
  8
0
100
AcDbLine
 62
7
  6
CONTINUOUS
 10
14.7343849766
 20
5.2266247044
 11
14.8863255373
 21
5.2266247044
  0
LINE
  5
234
100
AcDbEntity
  8
0
100
AcDbLine
 62
7
  6
CONTINUOUS
 10
15.2343849766
 20
5.2266247044
 11
15.3863255373
 21
5.2266247044
  0
LINE
  5
235
100
AcDbEntity
  8
0
100
AcDbLine
 62
7
  6
CONTINUOUS
 10
15.7343849766
 20
5.2266247044
 11
15.8863255373
 21
5.2266247044
  0
LINE
  5
236
100
AcDbEntity
  8
0
100
AcDbLine
 62
7
  6
CONTINUOUS
 10
16.2343849766
 20
5.2266247044
 11
16.3863255373
 21
5.2266247044
  0
LINE
  5
237
100
AcDbEntity
  8
0
100
AcDbLine
 62
7
  6
CONTINUOUS
 10
16.7343849766
 20
5.2266247044
 11
16.8863255373
 21
5.2266247044
  0
LINE
  5
238
100
AcDbEntity
  8
0
100
AcDbLine
 62
7
  6
CONTINUOUS
 10
17.2343849766
 20
5.2266247044
 11
17.3863255373
 21
5.2266247044
  0
LINE
  5
239
100
AcDbEntity
  8
0
100
AcDbLine
 62
7
  6
CONTINUOUS
 10
15.4243259698
 20
5.2568516133
 11
15.4463845441
 21
5.3523977956
  0
LINE
  5
23A
100
AcDbEntity
  8
0
100
AcDbLine
 62
7
  6
CONTINUOUS
 10
13.5603552569
 20
5.3826247044
 11
13.6363255373
 21
5.3826247044
  0
LINE
  5
23B
100
AcDbEntity
  8
0
100
AcDbLine
 62
7
  6
CONTINUOUS
 10
13.9843849766
 20
5.3826247044
 11
14.1363255373
 21
5.3826247044
  0
LINE
  5
23C
100
AcDbEntity
  8
0
100
AcDbLine
 62
7
  6
CONTINUOUS
 10
14.4843849766
 20
5.3826247044
 11
14.6363255373
 21
5.3826247044
  0
LINE
  5
23D
100
AcDbEntity
  8
0
100
AcDbLine
 62
7
  6
CONTINUOUS
 10
14.9843849766
 20
5.3826247044
 11
15.1363255373
 21
5.3826247044
  0
LINE
  5
23E
100
AcDbEntity
  8
0
100
AcDbLine
 62
7
  6
CONTINUOUS
 10
15.4843849766
 20
5.3826247044
 11
15.6363255373
 21
5.3826247044
  0
LINE
  5
23F
100
AcDbEntity
  8
0
100
AcDbLine
 62
7
  6
CONTINUOUS
 10
15.9843849766
 20
5.3826247044
 11
16.1363255373
 21
5.3826247044
  0
LINE
  5
240
100
AcDbEntity
  8
0
100
AcDbLine
 62
7
  6
CONTINUOUS
 10
16.4843849766
 20
5.3826247044
 11
16.6363255373
 21
5.3826247044
  0
LINE
  5
241
100
AcDbEntity
  8
0
100
AcDbLine
 62
7
  6
CONTINUOUS
 10
16.9843849766
 20
5.3826247044
 11
17.1363255373
 21
5.3826247044
  0
LINE
  5
242
100
AcDbEntity
  8
0
100
AcDbLine
 62
7
  6
CONTINUOUS
 10
17.4843849766
 20
5.3826247044
 11
17.5603552569
 21
5.3826247044
  0
LINE
  5
243
100
AcDbEntity
  8
0
100
AcDbLine
 62
7
  6
CONTINUOUS
 10
15.6743259698
 20
5.3523977956
 11
15.6963845441
 21
5.2568516133
  0
LINE
  5
244
100
AcDbEntity
  8
0
100
AcDbLine
 62
7
  6
CONTINUOUS
 10
13.5603552569
 20
5.6946247044
 11
17.5603552569
 21
5.6946247044
  0
LINE
  5
245
100
AcDbEntity
  8
0
100
AcDbLine
 62
7
  6
CONTINUOUS
 10
15.9243259698
 20
5.2568516133
 11
15.9463845441
 21
5.3523977956
  0
LINE
  5
246
100
AcDbEntity
  8
0
100
AcDbLine
 62
7
  6
CONTINUOUS
 10
16.1743259698
 20
5.3523977956
 11
16.1963845441
 21
5.2568516133
  0
LINE
  5
247
100
AcDbEntity
  8
0
100
AcDbLine
 62
7
  6
CONTINUOUS
 10
16.4243259698
 20
5.2568516133
 11
16.4463845441
 21
5.3523977956
  0
LINE
  5
248
100
AcDbEntity
  8
0
100
AcDbLine
 62
7
  6
CONTINUOUS
 10
16.6743259698
 20
5.3523977956
 11
16.6963845441
 21
5.2568516133
  0
LINE
  5
249
100
AcDbEntity
  8
0
100
AcDbLine
 62
7
  6
CONTINUOUS
 10
16.9243259698
 20
5.2568516133
 11
16.9463845441
 21
5.3523977956
  0
LINE
  5
24A
100
AcDbEntity
  8
0
100
AcDbLine
 62
7
  6
CONTINUOUS
 10
17.1743259698
 20
5.3523977956
 11
17.1963845441
 21
5.2568516133
  0
LINE
  5
24B
100
AcDbEntity
  8
0
100
AcDbLine
 62
7
  6
CONTINUOUS
 10
17.5603552569
 20
5.3826247044
 11
17.5603552569
 21
5.6946247044
  0
LINE
  5
24C
100
AcDbEntity
  8
0
100
AcDbLine
 62
7
  6
CONTINUOUS
 10
17.4243259698
 20
5.2568516133
 11
17.4463845441
 21
5.3523977956
  0
LINE
  5
24D
100
AcDbEntity
  8
0
100
AcDbLine
 62
7
  6
CONTINUOUS
 10
14.4483110278
 20
10.9625185083
 11
14.5283379439
 21
10.8597550485
  0
LWPOLYLINE
  5
24E
100
AcDbEntity
  8
0
100
AcDbPolyline
 62
7
  6
CONTINUOUS
 90
5
 70
0
 10
15.5939158674
 20
10.871773906
 10
15.6034318767
 20
10.8735806473
 10
15.6112806196
 20
10.8783815535
 10
15.6168925192
 20
10.88507807
 10
15.6202228961
 20
10.8920153943
  0
LINE
  5
24F
100
AcDbEntity
  8
0
100
AcDbLine
 62
7
  6
CONTINUOUS
 10
14.557112335
 20
10.8471800186
 11
15.5430849738
 21
10.8471800186
  0
LINE
  5
250
100
AcDbEntity
  8
0
100
AcDbLine
 62
7
  6
CONTINUOUS
 10
15.5644231643
 20
10.8717738148
 11
15.5939207114
 21
10.8717738148
  0
LINE
  5
251
100
AcDbEntity
  8
0
100
AcDbLine
 62
7
  6
CONTINUOUS
 10
14.4156716735
 20
11.0255820795
 11
14.4407983061
 21
10.9743793856
  0
LINE
  5
252
100
AcDbEntity
  8
0
100
AcDbLine
 62
7
  6
CONTINUOUS
 10
15.4787790324
 20
11.0411223287
 11
14.4310721517
 21
11.0411223287
  0
LWPOLYLINE
  5
253
100
AcDbEntity
  8
0
100
AcDbPolyline
 62
7
  6
CONTINUOUS
 90
5
 70
0
 10
15.7149490291
 20
11.2634373608
 10
15.7244650384
 20
11.2652441021
 10
15.7323137813
 20
11.2700450083
 10
15.7379256809
 20
11.2767415248
 10
15.7412560578
 20
11.2836788491
  0
LINE
  5
254
100
AcDbEntity
  8
0
100
AcDbLine
 62
7
  6
CONTINUOUS
 10
15.685456326
 20
11.2634372696
 11
15.7149538731
 21
11.2634372696
  0
LWPOLYLINE
  5
255
100
AcDbEntity
  8
0
100
AcDbPolyline
 62
7
  6
CONTINUOUS
 90
5
 70
0
 10
15.8359821908
 20
11.6551008157
 10
15.8454982001
 20
11.6569075569
 10
15.853346943
 20
11.6617084632
 10
15.8589588426
 20
11.6684049797
 10
15.8622892195
 20
11.6753423039
  0
LINE
  5
256
100
AcDbEntity
  8
0
100
AcDbLine
 62
7
  6
CONTINUOUS
 10
15.8064894877
 20
11.6551007244
 11
15.8359870348
 21
11.6551007244
  0
LINE
  5
257
100
AcDbEntity
  8
0
100
AcDbLine
 62
7
  6
CONTINUOUS
 10
14.4148126772
 20
11.0329632638
 11
15.3830779709
 21
14.1662709023
  0
LWPOLYLINE
  5
258
100
AcDbEntity
  8
0
100
AcDbPolyline
 62
7
  6
CONTINUOUS
 90
5
 70
0
 10
15.9570153525
 20
12.0467642705
 10
15.9665313618
 20
12.0485710117
 10
15.9743801047
 20
12.053371918
 10
15.9799920043
 20
12.0600684345
 10
15.9833223812
 20
12.0670057587
  0
LINE
  5
259
100
AcDbEntity
  8
0
100
AcDbLine
 62
7
  6
CONTINUOUS
 10
15.5345582365
 20
10.9743793856
 11
15.5094316039
 21
11.0255820795
  0
LINE
  5
25A
100
AcDbEntity
  8
0
100
AcDbLine
 62
7
  6
CONTINUOUS
 10
15.9275226494
 20
12.0467641792
 11
15.9570201965
 21
12.0467641792
  0
LWPOLYLINE
  5
25B
100
AcDbEntity
  8
0
100
AcDbPolyline
 62
7
  6
CONTINUOUS
 90
5
 70
0
 10
16.0780485142
 20
12.4384277253
 10
16.0875645235
 20
12.4402344665
 10
16.0954132664
 20
12.4450353728
 10
16.101025166
 20
12.4517318893
 10
16.1043555429
 20
12.4586692135
  0
LINE
  5
25C
100
AcDbEntity
  8
0
100
AcDbLine
 62
7
  6
CONTINUOUS
 10
15.5595175081
 20
10.8597550485
 11
15.5386864612
 21
10.9625185083
  0
LINE
  5
25D
100
AcDbEntity
  8
0
100
AcDbLine
 62
7
  6
CONTINUOUS
 10
16.0485558111
 20
12.4384276341
 11
16.0780533582
 21
12.4384276341
  0
LINE
  5
25E
100
AcDbEntity
  8
0
100
AcDbLine
 62
7
  6
CONTINUOUS
 10
15.66086217
 20
11.0406970664
 11
15.6541624401
 21
11.1173686002
  0
LWPOLYLINE
  5
25F
100
AcDbEntity
  8
0
100
AcDbPolyline
 62
7
  6
CONTINUOUS
 90
7
 70
0
 10
15.6541599905
 20
11.1173911584
 10
15.6538360905
 20
11.1224601393
 10
15.6538426573
 20
11.1361665966
 10
15.6550286836
 20
11.1519888868
 10
15.6573342816
 20
11.167913995
 10
15.6603944785
 20
11.1818898622
 10
15.6619821288
 20
11.1874787574
  0
LINE
  5
260
100
AcDbEntity
  8
0
100
AcDbLine
 62
7
  6
CONTINUOUS
 10
15.6610709414
 20
11.0365215601
 11
15.6608577633
 21
11.0407460185
  0
LINE
  5
261
100
AcDbEntity
  8
0
100
AcDbLine
 62
7
  6
CONTINUOUS
 10
15.7818953317
 20
11.4323605212
 11
15.7751956018
 21
11.509032055
  0
LWPOLYLINE
  5
262
100
AcDbEntity
  8
0
100
AcDbPolyline
 62
7
  6
CONTINUOUS
 90
7
 70
0
 10
15.7751931522
 20
11.5090546133
 10
15.7748692522
 20
11.5141235941
 10
15.774875819
 20
11.5278300514
 10
15.7760618453
 20
11.5436523416
 10
15.7783674433
 20
11.5595774498
 10
15.7814276402
 20
11.573553317
 10
15.7830152905
 20
11.5791422122
  0
LINE
  5
263
100
AcDbEntity
  8
0
100
AcDbLine
 62
7
  6
CONTINUOUS
 10
15.7821041031
 20
11.4281850149
 11
15.781890925
 21
11.4324094733
  0
LINE
  5
264
100
AcDbEntity
  8
0
100
AcDbLine
 62
7
  6
CONTINUOUS
 10
15.5593439729
 20
10.8553392301
 11
15.5595175081
 21
10.8597550485
  0
LINE
  5
265
100
AcDbEntity
  8
0
100
AcDbLine
 62
7
  6
CONTINUOUS
 10
15.6606225688
 20
11.0272957938
 11
15.6610709414
 21
11.0365215601
  0
LINE
  5
266
100
AcDbEntity
  8
0
100
AcDbLine
 62
7
  6
CONTINUOUS
 10
16.4293854176
 20
13.667724732
 11
16.4298972249
 21
13.6685861022
  0
LWPOLYLINE
  5
267
100
AcDbEntity
  8
0
100
AcDbPolyline
 62
7
  6
CONTINUOUS
 90
5
 70
0
 10
16.1990816759
 20
12.8300911801
 10
16.2085976852
 20
12.8318979213
 10
16.2164464281
 20
12.8366988276
 10
16.2220583277
 20
12.8433953441
 10
16.2253887046
 20
12.8503326684
  0
LINE
  5
268
100
AcDbEntity
  8
0
100
AcDbLine
 62
7
  6
CONTINUOUS
 10
15.9029284934
 20
11.824023976
 11
15.8962287635
 21
11.9006955098
  0
LWPOLYLINE
  5
269
100
AcDbEntity
  8
0
100
AcDbPolyline
 62
7
  6
CONTINUOUS
 90
7
 70
0
 10
15.8962263139
 20
11.9007180681
 10
15.8959024139
 20
11.9057870489
 10
15.8959089807
 20
11.9194935062
 10
15.897095007
 20
11.9353157964
 10
15.899400605
 20
11.9512409046
 10
15.9024608019
 20
11.9652167718
 10
15.9040484522
 20
11.970805667
  0
LINE
  5
26A
100
AcDbEntity
  8
0
100
AcDbLine
 62
7
  6
CONTINUOUS
 10
15.9031372648
 20
11.8198484697
 11
15.9029240867
 21
11.8240729281
  0
LINE
  5
26B
100
AcDbEntity
  8
0
100
AcDbLine
 62
7
  6
CONTINUOUS
 10
15.7816557305
 20
11.4189592486
 11
15.7821041031
 21
11.4281850149
  0
LINE
  5
26C
100
AcDbEntity
  8
0
100
AcDbLine
 62
7
  6
CONTINUOUS
 10
16.4277114599
 20
13.6641893868
 11
16.4293854176
 21
13.667724732
  0
LINE
  5
26D
100
AcDbEntity
  8
0
100
AcDbLine
 62
7
  6
CONTINUOUS
 10
16.3083522559
 20
13.2760612772
 11
16.3088640632
 21
13.2769226474
  0
LINE
  5
26E
100
AcDbEntity
  8
0
100
AcDbLine
 62
7
  6
CONTINUOUS
 10
16.1695889728
 20
12.8300910889
 11
16.1990865199
 21
12.8300910889
  0
LINE
  5
26F
100
AcDbEntity
  8
0
100
AcDbLine
 62
7
  6
CONTINUOUS
 10
16.0239616552
 20
12.2156874308
 11
16.0172619252
 21
12.2923589646
  0
LWPOLYLINE
  5
270
100
AcDbEntity
  8
0
100
AcDbPolyline
 62
7
  6
CONTINUOUS
 90
7
 70
0
 10
16.0172594756
 20
12.2923815229
 10
16.0169355756
 20
12.2974505037
 10
16.0169421424
 20
12.311156961
 10
16.0181281688
 20
12.3269792512
 10
16.0204337667
 20
12.3429043595
 10
16.0234939636
 20
12.3568802266
 10
16.0250816139
 20
12.3624691218
  0
LINE
  5
271
100
AcDbEntity
  8
0
100
AcDbLine
 62
7
  6
CONTINUOUS
 10
16.0241704265
 20
12.2115119245
 11
16.0239572484
 21
12.2157363829
  0
LINE
  5
272
100
AcDbEntity
  8
0
100
AcDbLine
 62
7
  6
CONTINUOUS
 10
15.9026888922
 20
11.8106227034
 11
15.9031372648
 21
11.8198484697
  0
LINE
  5
273
100
AcDbEntity
  8
0
100
AcDbLine
 62
7
  6
CONTINUOUS
 10
15.6590527554
 20
11.0179617266
 11
15.6606225688
 21
11.0272957938
  0
LINE
  5
274
100
AcDbEntity
  8
0
100
AcDbLine
 62
7
  6
CONTINUOUS
 10
15.7800859171
 20
11.4096251814
 11
15.7816557305
 21
11.4189592486
  0
LINE
  5
275
100
AcDbEntity
  8
0
100
AcDbLine
 62
7
  6
CONTINUOUS
 10
15.9011190788
 20
11.8012886362
 11
15.9026888922
 21
11.8106227034
  0
LINE
  5
276
100
AcDbEntity
  8
0
100
AcDbLine
 62
7
  6
CONTINUOUS
 10
16.3066782982
 20
13.272525932
 11
16.3083522559
 21
13.2760612772
  0
LINE
  5
277
100
AcDbEntity
  8
0
100
AcDbLine
 62
7
  6
CONTINUOUS
 10
16.1856451365
 20
12.8808624771
 11
16.1873190942
 21
12.8843978224
  0
LINE
  5
278
100
AcDbEntity
  8
0
100
AcDbLine
 62
7
  6
CONTINUOUS
 10
16.1873190942
 20
12.8843978224
 11
16.1878309015
 21
12.8852591926
  0
LINE
  5
279
100
AcDbEntity
  8
0
100
AcDbLine
 62
7
  6
CONTINUOUS
 10
16.0662859325
 20
12.4927343675
 11
16.0667977398
 21
12.4935957378
  0
LWPOLYLINE
  5
27A
100
AcDbEntity
  8
0
100
AcDbPolyline
 62
7
  6
CONTINUOUS
 90
5
 70
0
 10
16.3201148376
 20
13.2217546349
 10
16.3296308469
 20
13.2235613762
 10
16.3374795898
 20
13.2283622824
 10
16.3430914894
 20
13.2350587989
 10
16.3464218664
 20
13.2419961232
  0
LINE
  5
27B
100
AcDbEntity
  8
0
100
AcDbLine
 62
7
  6
CONTINUOUS
 10
16.0237220539
 20
12.2022861582
 11
16.0241704265
 21
12.2115119245
  0
LINE
  5
27C
100
AcDbEntity
  8
0
100
AcDbLine
 62
7
  6
CONTINUOUS
 10
16.1447552156
 20
12.593949613
 11
16.1452035882
 21
12.6031753793
  0
LINE
  5
27D
100
AcDbEntity
  8
0
100
AcDbLine
 62
7
  6
CONTINUOUS
 10
16.0221522405
 20
12.192952091
 11
16.0237220539
 21
12.2022861582
  0
LINE
  5
27E
100
AcDbEntity
  8
0
100
AcDbLine
 62
7
  6
CONTINUOUS
 10
16.1431854023
 20
12.5846155459
 11
16.1447552156
 21
12.593949613
  0
LINE
  5
27F
100
AcDbEntity
  8
0
100
AcDbLine
 62
7
  6
CONTINUOUS
 10
15.6578924711
 20
11.0136602655
 11
15.6590527554
 21
11.0179617266
  0
LINE
  5
280
100
AcDbEntity
  8
0
100
AcDbLine
 62
7
  6
CONTINUOUS
 10
15.7789256328
 20
11.4053237203
 11
15.7800859171
 21
11.4096251814
  0
LINE
  5
281
100
AcDbEntity
  8
0
100
AcDbLine
 62
7
  6
CONTINUOUS
 10
15.8999587946
 20
11.7969871751
 11
15.9011190788
 21
11.8012886362
  0
LINE
  5
282
100
AcDbEntity
  8
0
100
AcDbLine
 62
7
  6
CONTINUOUS
 10
16.0209919563
 20
12.1886506299
 11
16.0221522405
 21
12.192952091
  0
LINE
  5
283
100
AcDbEntity
  8
0
100
AcDbLine
 62
7
  6
CONTINUOUS
 10
16.142025118
 20
12.5803140847
 11
16.1431854023
 21
12.5846155459
  0
LINE
  5
284
100
AcDbEntity
  8
0
100
AcDbLine
 62
7
  6
CONTINUOUS
 10
16.2630582797
 20
12.9719775395
 11
16.264218564
 21
12.9762790007
  0
LINE
  5
285
100
AcDbEntity
  8
0
100
AcDbLine
 62
7
  6
CONTINUOUS
 10
16.3840914414
 20
13.3636409944
 11
16.3852517257
 21
13.3679424555
  0
LINE
  5
286
100
AcDbEntity
  8
0
100
AcDbLine
 62
7
  6
CONTINUOUS
 10
16.5051246031
 20
13.7553044492
 11
16.5062848874
 21
13.7596059103
  0
LINE
  5
287
100
AcDbEntity
  8
0
100
AcDbLine
 62
7
  6
CONTINUOUS
 10
15.5593444482
 20
10.8553390835
 11
15.5777342953
 21
10.9148486504
  0
LINE
  5
288
100
AcDbEntity
  8
0
100
AcDbLine
 62
7
  6
CONTINUOUS
 10
15.6619877635
 20
11.1874929734
 11
15.698767457
 21
11.3065121052
  0
LINE
  5
289
100
AcDbEntity
  8
0
100
AcDbLine
 62
7
  6
CONTINUOUS
 10
15.7830209252
 20
11.5791564282
 11
15.8198006187
 21
11.69817556
  0
LINE
  5
28A
100
AcDbEntity
  8
0
100
AcDbLine
 62
7
  6
CONTINUOUS
 10
15.9040540869
 20
11.970819883
 11
15.9408337804
 21
12.0898390148
  0
LINE
  5
28B
100
AcDbEntity
  8
0
100
AcDbLine
 62
7
  6
CONTINUOUS
 10
16.0250872486
 20
12.3624833378
 11
16.0618669421
 21
12.4815024696
  0
LINE
  5
28C
100
AcDbEntity
  8
0
100
AcDbLine
 62
7
  6
CONTINUOUS
 10
16.1461204103
 20
12.7541467927
 11
16.1829001038
 21
12.8731659244
  0
LINE
  5
28D
100
AcDbEntity
  8
0
100
AcDbLine
 62
7
  6
CONTINUOUS
 10
16.267153572
 20
13.1458102475
 11
16.3039332655
 21
13.2648293793
  0
LINE
  5
28E
100
AcDbEntity
  8
0
100
AcDbLine
 62
7
  6
CONTINUOUS
 10
16.3881867337
 20
13.5374737023
 11
16.4249664272
 21
13.6564928341
  0
LINE
  5
28F
100
AcDbEntity
  8
0
100
AcDbLine
 62
7
  6
CONTINUOUS
 10
16.5092198954
 20
13.9291371571
 11
16.5276097418
 21
13.988646722
  0
LINE
  5
290
100
AcDbEntity
  8
0
100
AcDbLine
 62
7
  6
CONTINUOUS
 10
15.621128079
 20
10.894690091
 11
15.6579077718
 21
11.0137092206
  0
LINE
  5
291
100
AcDbEntity
  8
0
100
AcDbLine
 62
7
  6
CONTINUOUS
 10
15.7421612407
 20
11.2863535458
 11
15.7789409335
 21
11.4053726754
  0
LINE
  5
292
100
AcDbEntity
  8
0
100
AcDbLine
 62
7
  6
CONTINUOUS
 10
15.8631944024
 20
11.6780170006
 11
15.8999740952
 21
11.7970361302
  0
LINE
  5
293
100
AcDbEntity
  8
0
100
AcDbLine
 62
7
  6
CONTINUOUS
 10
15.9842275641
 20
12.0696804554
 11
16.0210072569
 21
12.188699585
  0
LINE
  5
294
100
AcDbEntity
  8
0
100
AcDbLine
 62
7
  6
CONTINUOUS
 10
16.1052607258
 20
12.4613439102
 11
16.1420404186
 21
12.5803630399
  0
LINE
  5
295
100
AcDbEntity
  8
0
100
AcDbLine
 62
7
  6
CONTINUOUS
 10
16.2262938875
 20
12.853007365
 11
16.2630735803
 21
12.9720264947
  0
LINE
  5
296
100
AcDbEntity
  8
0
100
AcDbLine
 62
7
  6
CONTINUOUS
 10
16.3473270492
 20
13.2446708198
 11
16.384106742
 21
13.3636899495
  0
LINE
  5
297
100
AcDbEntity
  8
0
100
AcDbLine
 62
7
  6
CONTINUOUS
 10
16.4683602109
 20
13.6363342747
 11
16.5051399037
 21
13.7553534043
  0
LWPOLYLINE
  5
298
100
AcDbEntity
  8
0
100
AcDbPolyline
 62
7
  6
CONTINUOUS
 90
3
 70
0
 10
16.4249665633
 20
13.6564952199
 10
16.4255448322
 20
13.6583098957
 10
16.4277114599
 20
13.6641893868
  0
LWPOLYLINE
  5
299
100
AcDbEntity
  8
0
100
AcDbPolyline
 62
7
  6
CONTINUOUS
 90
3
 70
0
 10
16.3039334016
 20
13.264831765
 10
16.3045116705
 20
13.2666464408
 10
16.3066782982
 20
13.272525932
  0
LWPOLYLINE
  5
29A
100
AcDbEntity
  8
0
100
AcDbPolyline
 62
7
  6
CONTINUOUS
 90
3
 70
0
 10
16.1829002399
 20
12.8731683102
 10
16.1834785088
 20
12.874982986
 10
16.1856451365
 20
12.8808624771
  0
LWPOLYLINE
  5
29B
100
AcDbEntity
  8
0
100
AcDbPolyline
 62
7
  6
CONTINUOUS
 90
3
 70
0
 10
16.0618670781
 20
12.4815048554
 10
16.0624453471
 20
12.4833195312
 10
16.0646119748
 20
12.4891990223
  0
LWPOLYLINE
  5
29C
100
AcDbEntity
  8
0
100
AcDbPolyline
 62
7
  6
CONTINUOUS
 90
3
 70
0
 10
15.9408339164
 20
12.0898414006
 10
15.9414121854
 20
12.0916560764
 10
15.9435788131
 20
12.0975355675
  0
LWPOLYLINE
  5
29D
100
AcDbEntity
  8
0
100
AcDbPolyline
 62
7
  6
CONTINUOUS
 90
3
 70
0
 10
15.8198007547
 20
11.6981779458
 10
15.8203790237
 20
11.6999926216
 10
15.8225456514
 20
11.7058721127
  0
LWPOLYLINE
  5
29E
100
AcDbEntity
  8
0
100
AcDbPolyline
 62
7
  6
CONTINUOUS
 90
3
 70
0
 10
15.698767593
 20
11.306514491
 10
15.699345862
 20
11.3083291668
 10
15.7015124897
 20
11.3142086579
  0
LWPOLYLINE
  5
29F
100
AcDbEntity
  8
0
100
AcDbPolyline
 62
7
  6
CONTINUOUS
 90
3
 70
0
 10
15.5777344313
 20
10.9148510362
 10
15.5783127003
 20
10.916665712
 10
15.580479328
 20
10.9225452031
  0
LINE
  5
2A0
100
AcDbEntity
  8
0
100
AcDbLine
 62
7
  6
CONTINUOUS
 10
16.4674550281
 20
13.633659578
 11
16.4683762117
 21
13.6363867327
  0
LINE
  5
2A1
100
AcDbEntity
  8
0
100
AcDbLine
 62
7
  6
CONTINUOUS
 10
16.3464218664
 20
13.2419961232
 11
16.34734305
 21
13.2447232779
  0
LINE
  5
2A2
100
AcDbEntity
  8
0
100
AcDbLine
 62
7
  6
CONTINUOUS
 10
16.2253887046
 20
12.8503326684
 11
16.2263098883
 21
12.8530598231
  0
LINE
  5
2A3
100
AcDbEntity
  8
0
100
AcDbLine
 62
7
  6
CONTINUOUS
 10
16.1043555429
 20
12.4586692135
 11
16.1052767266
 21
12.4613963683
  0
LINE
  5
2A4
100
AcDbEntity
  8
0
100
AcDbLine
 62
7
  6
CONTINUOUS
 10
15.9833223812
 20
12.0670057587
 11
15.9842435649
 21
12.0697329135
  0
LINE
  5
2A5
100
AcDbEntity
  8
0
100
AcDbLine
 62
7
  6
CONTINUOUS
 10
15.8622892195
 20
11.6753423039
 11
15.8632104032
 21
11.6780694587
  0
LINE
  5
2A6
100
AcDbEntity
  8
0
100
AcDbLine
 62
7
  6
CONTINUOUS
 10
15.7412560578
 20
11.2836788491
 11
15.7421772415
 21
11.2864060039
  0
LINE
  5
2A7
100
AcDbEntity
  8
0
100
AcDbLine
 62
7
  6
CONTINUOUS
 10
15.6202228961
 20
10.8920153943
 11
15.6211440798
 21
10.894742549
  0
LINE
  5
2A8
100
AcDbEntity
  8
0
100
AcDbLine
 62
7
  6
CONTINUOUS
 10
16.0646119748
 20
12.4891990223
 11
16.0662859325
 21
12.4927343675
  0
LINE
  5
2A9
100
AcDbEntity
  8
0
100
AcDbLine
 62
7
  6
CONTINUOUS
 10
15.9435788131
 20
12.0975355675
 11
15.9452527708
 21
12.1010709127
  0
LINE
  5
2AA
100
AcDbEntity
  8
0
100
AcDbLine
 62
7
  6
CONTINUOUS
 10
15.8225456514
 20
11.7058721127
 11
15.8242196091
 21
11.7094074579
  0
LINE
  5
2AB
100
AcDbEntity
  8
0
100
AcDbLine
 62
7
  6
CONTINUOUS
 10
15.9452527708
 20
12.1010709127
 11
15.9457645781
 21
12.101932283
  0
LINE
  5
2AC
100
AcDbEntity
  8
0
100
AcDbLine
 62
7
  6
CONTINUOUS
 10
16.1449948169
 20
12.6073508856
 11
16.1382950869
 21
12.6840224194
  0
LWPOLYLINE
  5
2AD
100
AcDbEntity
  8
0
100
AcDbPolyline
 62
7
  6
CONTINUOUS
 90
7
 70
0
 10
16.1382926373
 20
12.6840449777
 10
16.1379687373
 20
12.6891139585
 10
16.1379753041
 20
12.7028204158
 10
16.1391613305
 20
12.718642706
 10
16.1414669284
 20
12.7345678143
 10
16.1445271253
 20
12.7485436814
 10
16.1461147756
 20
12.7541325766
  0
LINE
  5
2AE
100
AcDbEntity
  8
0
100
AcDbLine
 62
7
  6
CONTINUOUS
 10
16.1452035882
 20
12.6031753793
 11
16.1449904101
 21
12.6073998378
  0
LINE
  5
2AF
100
AcDbEntity
  8
0
100
AcDbLine
 62
7
  6
CONTINUOUS
 10
16.2657883773
 20
12.9856130679
 11
16.2662367499
 21
12.9948388341
  0
LINE
  5
2B0
100
AcDbEntity
  8
0
100
AcDbLine
 62
7
  6
CONTINUOUS
 10
16.264218564
 20
12.9762790007
 11
16.2657883773
 21
12.9856130679
  0
LINE
  5
2B1
100
AcDbEntity
  8
0
100
AcDbLine
 62
7
  6
CONTINUOUS
 10
16.3852517257
 20
13.3679424555
 11
16.386821539
 21
13.3772765227
  0
LINE
  5
2B2
100
AcDbEntity
  8
0
100
AcDbLine
 62
7
  6
CONTINUOUS
 10
15.7015124897
 20
11.3142086579
 11
15.7031864474
 21
11.3177440031
  0
LINE
  5
2B3
100
AcDbEntity
  8
0
100
AcDbLine
 62
7
  6
CONTINUOUS
 10
15.580479328
 20
10.9225452031
 11
15.5821532857
 21
10.9260805483
  0
LINE
  5
2B4
100
AcDbEntity
  8
0
100
AcDbLine
 62
7
  6
CONTINUOUS
 10
15.8242196091
 20
11.7094074579
 11
15.8247314164
 21
11.7102688282
  0
LINE
  5
2B5
100
AcDbEntity
  8
0
100
AcDbLine
 62
7
  6
CONTINUOUS
 10
16.2906221345
 20
13.2217545437
 11
16.3201196816
 21
13.2217545437
  0
LINE
  5
2B6
100
AcDbEntity
  8
0
100
AcDbLine
 62
7
  6
CONTINUOUS
 10
16.2660279786
 20
12.9990143404
 11
16.2593282486
 21
13.0756858742
  0
LWPOLYLINE
  5
2B7
100
AcDbEntity
  8
0
100
AcDbPolyline
 62
7
  6
CONTINUOUS
 90
7
 70
0
 10
16.259325799
 20
13.0757084325
 10
16.259001899
 20
13.0807774133
 10
16.2590084659
 20
13.0944838706
 10
16.2601944922
 20
13.1103061608
 10
16.2625000901
 20
13.1262312691
 10
16.265560287
 20
13.1402071362
 10
16.2671479373
 20
13.1457960314
  0
LINE
  5
2B8
100
AcDbEntity
  8
0
100
AcDbLine
 62
7
  6
CONTINUOUS
 10
16.2662367499
 20
12.9948388341
 11
16.2660235718
 21
12.9990632926
  0
LINE
  5
2B9
100
AcDbEntity
  8
0
100
AcDbLine
 62
7
  6
CONTINUOUS
 10
16.386821539
 20
13.3772765227
 11
16.3872699116
 21
13.386502289
  0
LINE
  5
2BA
100
AcDbEntity
  8
0
100
AcDbLine
 62
7
  6
CONTINUOUS
 10
16.5062848874
 20
13.7596059103
 11
16.5078547007
 21
13.7689399775
  0
LINE
  5
2BB
100
AcDbEntity
  8
0
100
AcDbLine
 62
7
  6
CONTINUOUS
 10
15.7031864474
 20
11.3177440031
 11
15.7036982547
 21
11.3186053734
  0
LINE
  5
2BC
100
AcDbEntity
  8
0
100
AcDbLine
 62
7
  6
CONTINUOUS
 10
15.5821532857
 20
10.9260805483
 11
15.582665093
 21
10.9269419186
  0
LWPOLYLINE
  5
2BD
100
AcDbEntity
  8
0
100
AcDbPolyline
 62
7
  6
CONTINUOUS
 90
5
 70
0
 10
16.4411479994
 20
13.6134180897
 10
16.4506640086
 20
13.615224831
 10
16.4585127515
 20
13.6200257372
 10
16.4641246511
 20
13.6267222537
 10
16.4674550281
 20
13.633659578
  0
LINE
  5
2BE
100
AcDbEntity
  8
0
100
AcDbLine
 62
7
  6
CONTINUOUS
 10
16.3870611403
 20
13.3906777952
 11
16.3803614103
 21
13.467349329
  0
LWPOLYLINE
  5
2BF
100
AcDbEntity
  8
0
100
AcDbPolyline
 62
7
  6
CONTINUOUS
 90
7
 70
0
 10
16.3803589607
 20
13.4673718873
 10
16.3800350608
 20
13.4724408682
 10
16.3800416276
 20
13.4861473254
 10
16.3812276539
 20
13.5019696156
 10
16.3835332518
 20
13.5178947239
 10
16.3865934487
 20
13.5318705911
 10
16.388181099
 20
13.5374594862
  0
LINE
  5
2C0
100
AcDbEntity
  8
0
100
AcDbLine
 62
7
  6
CONTINUOUS
 10
16.3872699116
 20
13.386502289
 11
16.3870567335
 21
13.3907267474
  0
LINE
  5
2C1
100
AcDbEntity
  8
0
100
AcDbLine
 62
7
  6
CONTINUOUS
 10
16.5277828018
 20
13.993062687
 11
16.5276092665
 21
13.9886468686
  0
LINE
  5
2C2
100
AcDbEntity
  8
0
100
AcDbLine
 62
7
  6
CONTINUOUS
 10
16.5078547007
 20
13.7689399775
 11
16.5083030733
 21
13.7781657438
  0
LINE
  5
2C3
100
AcDbEntity
  8
0
100
AcDbLine
 62
7
  6
CONTINUOUS
 10
16.508094302
 20
13.78234125
 11
16.501394572
 21
13.8590127839
  0
LWPOLYLINE
  5
2C4
100
AcDbEntity
  8
0
100
AcDbPolyline
 62
7
  6
CONTINUOUS
 90
7
 70
0
 10
16.5013921224
 20
13.8590353421
 10
16.5010682225
 20
13.864104323
 10
16.5010747893
 20
13.8778107803
 10
16.5022608156
 20
13.8936330705
 10
16.5045664135
 20
13.9095581787
 10
16.5076266104
 20
13.9235340459
 10
16.5092142607
 20
13.9291229411
  0
LINE
  5
2C5
100
AcDbEntity
  8
0
100
AcDbLine
 62
7
  6
CONTINUOUS
 10
16.5083030733
 20
13.7781657438
 11
16.5080898952
 21
13.7823902022
  0
LINE
  5
2C6
100
AcDbEntity
  8
0
100
AcDbLine
 62
7
  6
CONTINUOUS
 10
16.4116552962
 20
13.6134179985
 11
16.4411528433
 21
13.6134179985
  0
LINE
  5
2C7
100
AcDbEntity
  8
0
100
AcDbLine
 62
7
  6
CONTINUOUS
 10
16.5277828018
 20
13.993062687
 11
16.5069517549
 21
14.0958261468
  0
LINE
  5
2C8
100
AcDbEntity
  8
0
100
AcDbLine
 62
7
  6
CONTINUOUS
 10
16.447044326
 20
14.1744299672
 11
15.3993374453
 21
14.1744299672
  0
LINE
  5
2C9
100
AcDbEntity
  8
0
100
AcDbLine
 62
7
  6
CONTINUOUS
 10
16.5028235301
 20
14.1076870241
 11
16.4776968975
 21
14.158889718
  0
ARC
  5
2CA
100
AcDbEntity
  8
0
100
AcDbCircle
 62
7
  6
CONTINUOUS
 10
5.5951298461
 20
5.4671198968
 40
0.025
100
AcDbArc
 50
191.0
 51
270.0
  0
ARC
  5
2CB
100
AcDbEntity
  8
0
100
AcDbCircle
 62
7
  6
CONTINUOUS
 10
5.6254531686
 20
5.3111199262
 40
0.025
100
AcDbArc
 50
191.000068772
 51
270.0000131219
  0
ARC
  5
2CC
100
AcDbEntity
  8
0
100
AcDbCircle
 62
7
  6
CONTINUOUS
 10
5.6366172762
 20
5.6467488016
 40
0.1
100
AcDbArc
 50
180.0
 51
191.0
  0
ARC
  5
2CD
100
AcDbEntity
  8
0
100
AcDbCircle
 62
7
  6
CONTINUOUS
 10
5.5616172762
 20
5.7291198968
 40
0.025
100
AcDbArc
 50
90.0
 51
180.0
  0
ARC
  5
2CE
100
AcDbEntity
  8
0
100
AcDbCircle
 62
7
  6
CONTINUOUS
 10
6.635281378
 20
5.3111198968
 40
0.025
100
AcDbArc
 50
270.0
 51
349.0
  0
ARC
  5
2CF
100
AcDbEntity
  8
0
100
AcDbCircle
 62
7
  6
CONTINUOUS
 10
6.6656047062
 20
5.4671198968
 40
0.025
100
AcDbArc
 50
270.0
 51
349.0
  0
ARC
  5
2D0
100
AcDbEntity
  8
0
100
AcDbCircle
 62
7
  6
CONTINUOUS
 10
6.6241172762
 20
5.6467488016
 40
0.1
100
AcDbArc
 50
349.0
 51
360.0
  0
ARC
  5
2D1
100
AcDbEntity
  8
0
100
AcDbCircle
 62
7
  6
CONTINUOUS
 10
6.6991172762
 20
5.7291198968
 40
0.025
100
AcDbArc
 50
0.0
 51
90.0
  0
ARC
  5
2D2
100
AcDbEntity
  8
0
100
AcDbCircle
 62
7
  6
CONTINUOUS
 10
13.7343849766
 20
5.2656247044
 40
0.039
100
AcDbArc
 50
193.0
 51
270.0
  0
ARC
  5
2D3
100
AcDbEntity
  8
0
100
AcDbCircle
 62
7
  6
CONTINUOUS
 10
13.8863255373
 20
5.2656247044
 40
0.039
100
AcDbArc
 50
270.0
 51
347.0
  0
ARC
  5
2D4
100
AcDbEntity
  8
0
100
AcDbCircle
 62
7
  6
CONTINUOUS
 10
14.2343849766
 20
5.2656247044
 40
0.039
100
AcDbArc
 50
193.0
 51
270.0
  0
ARC
  5
2D5
100
AcDbEntity
  8
0
100
AcDbCircle
 62
7
  6
CONTINUOUS
 10
14.3863255373
 20
5.2656247044
 40
0.039
100
AcDbArc
 50
270.0
 51
347.0
  0
ARC
  5
2D6
100
AcDbEntity
  8
0
100
AcDbCircle
 62
7
  6
CONTINUOUS
 10
14.7343849766
 20
5.2656247044
 40
0.039
100
AcDbArc
 50
193.0
 51
270.0
  0
ARC
  5
2D7
100
AcDbEntity
  8
0
100
AcDbCircle
 62
7
  6
CONTINUOUS
 10
14.8863255373
 20
5.2656247044
 40
0.039
100
AcDbArc
 50
270.0
 51
347.0
  0
ARC
  5
2D8
100
AcDbEntity
  8
0
100
AcDbCircle
 62
7
  6
CONTINUOUS
 10
15.2343849766
 20
5.2656247044
 40
0.039
100
AcDbArc
 50
193.0
 51
270.0
  0
ARC
  5
2D9
100
AcDbEntity
  8
0
100
AcDbCircle
 62
7
  6
CONTINUOUS
 10
15.3863255373
 20
5.2656247044
 40
0.039
100
AcDbArc
 50
270.0
 51
347.0
  0
ARC
  5
2DA
100
AcDbEntity
  8
0
100
AcDbCircle
 62
7
  6
CONTINUOUS
 10
13.6363255373
 20
5.3436247044
 40
0.039
100
AcDbArc
 50
13.0
 51
90.0
  0
ARC
  5
2DB
100
AcDbEntity
  8
0
100
AcDbCircle
 62
7
  6
CONTINUOUS
 10
13.9843849766
 20
5.3436247044
 40
0.039
100
AcDbArc
 50
90.0
 51
167.0
  0
ARC
  5
2DC
100
AcDbEntity
  8
0
100
AcDbCircle
 62
7
  6
CONTINUOUS
 10
14.1363255373
 20
5.3436247044
 40
0.039
100
AcDbArc
 50
13.0
 51
90.0
  0
ARC
  5
2DD
100
AcDbEntity
  8
0
100
AcDbCircle
 62
7
  6
CONTINUOUS
 10
14.4843849766
 20
5.3436247044
 40
0.039
100
AcDbArc
 50
90.0
 51
167.0
  0
ARC
  5
2DE
100
AcDbEntity
  8
0
100
AcDbCircle
 62
7
  6
CONTINUOUS
 10
14.6363255373
 20
5.3436247044
 40
0.039
100
AcDbArc
 50
13.0
 51
90.0
  0
ARC
  5
2DF
100
AcDbEntity
  8
0
100
AcDbCircle
 62
7
  6
CONTINUOUS
 10
14.9843849766
 20
5.3436247044
 40
0.039
100
AcDbArc
 50
90.0
 51
167.0
  0
ARC
  5
2E0
100
AcDbEntity
  8
0
100
AcDbCircle
 62
7
  6
CONTINUOUS
 10
15.1363255373
 20
5.3436247044
 40
0.039
100
AcDbArc
 50
13.0
 51
90.0
  0
ARC
  5
2E1
100
AcDbEntity
  8
0
100
AcDbCircle
 62
7
  6
CONTINUOUS
 10
15.4843849766
 20
5.3436247044
 40
0.039
100
AcDbArc
 50
90.0
 51
167.0
  0
ARC
  5
2E2
100
AcDbEntity
  8
0
100
AcDbCircle
 62
7
  6
CONTINUOUS
 10
17.3863255373
 20
5.2656247044
 40
0.039
100
AcDbArc
 50
270.0
 51
347.0
  0
ARC
  5
2E3
100
AcDbEntity
  8
0
100
AcDbCircle
 62
7
  6
CONTINUOUS
 10
17.2343849766
 20
5.2656247044
 40
0.039
100
AcDbArc
 50
193.0
 51
270.0
  0
ARC
  5
2E4
100
AcDbEntity
  8
0
100
AcDbCircle
 62
7
  6
CONTINUOUS
 10
16.8863255373
 20
5.2656247044
 40
0.039
100
AcDbArc
 50
270.0
 51
347.0
  0
ARC
  5
2E5
100
AcDbEntity
  8
0
100
AcDbCircle
 62
7
  6
CONTINUOUS
 10
16.7343849766
 20
5.2656247044
 40
0.039
100
AcDbArc
 50
193.0
 51
270.0
  0
ARC
  5
2E6
100
AcDbEntity
  8
0
100
AcDbCircle
 62
7
  6
CONTINUOUS
 10
16.3863255373
 20
5.2656247044
 40
0.039
100
AcDbArc
 50
270.0
 51
347.0
  0
ARC
  5
2E7
100
AcDbEntity
  8
0
100
AcDbCircle
 62
7
  6
CONTINUOUS
 10
16.2343849766
 20
5.2656247044
 40
0.039
100
AcDbArc
 50
193.0
 51
270.0
  0
ARC
  5
2E8
100
AcDbEntity
  8
0
100
AcDbCircle
 62
7
  6
CONTINUOUS
 10
15.8863255373
 20
5.2656247044
 40
0.039
100
AcDbArc
 50
270.0
 51
347.0
  0
ARC
  5
2E9
100
AcDbEntity
  8
0
100
AcDbCircle
 62
7
  6
CONTINUOUS
 10
15.7343849766
 20
5.2656247044
 40
0.039
100
AcDbArc
 50
193.0
 51
270.0
  0
ARC
  5
2EA
100
AcDbEntity
  8
0
100
AcDbCircle
 62
7
  6
CONTINUOUS
 10
17.4843849766
 20
5.3436247044
 40
0.039
100
AcDbArc
 50
90.0
 51
167.0
  0
ARC
  5
2EB
100
AcDbEntity
  8
0
100
AcDbCircle
 62
7
  6
CONTINUOUS
 10
17.1363255373
 20
5.3436247044
 40
0.039
100
AcDbArc
 50
13.0
 51
90.0
  0
ARC
  5
2EC
100
AcDbEntity
  8
0
100
AcDbCircle
 62
7
  6
CONTINUOUS
 10
16.9843849766
 20
5.3436247044
 40
0.039
100
AcDbArc
 50
90.0
 51
167.0
  0
ARC
  5
2ED
100
AcDbEntity
  8
0
100
AcDbCircle
 62
7
  6
CONTINUOUS
 10
16.6363255373
 20
5.3436247044
 40
0.039
100
AcDbArc
 50
13.0
 51
90.0
  0
ARC
  5
2EE
100
AcDbEntity
  8
0
100
AcDbCircle
 62
7
  6
CONTINUOUS
 10
16.4843849766
 20
5.3436247044
 40
0.039
100
AcDbArc
 50
90.0
 51
167.0
  0
ARC
  5
2EF
100
AcDbEntity
  8
0
100
AcDbCircle
 62
7
  6
CONTINUOUS
 10
16.1363255373
 20
5.3436247044
 40
0.039
100
AcDbArc
 50
13.0
 51
90.0
  0
ARC
  5
2F0
100
AcDbEntity
  8
0
100
AcDbCircle
 62
7
  6
CONTINUOUS
 10
15.9843849766
 20
5.3436247044
 40
0.039
100
AcDbArc
 50
90.0
 51
167.0
  0
ARC
  5
2F1
100
AcDbEntity
  8
0
100
AcDbCircle
 62
7
  6
CONTINUOUS
 10
15.6363255373
 20
5.3436247044
 40
0.039
100
AcDbArc
 50
13.0
 51
90.0
  0
SPLINE
  5
2F2
100
AcDbEntity
  8
0
100
AcDbSpline
 62
7
  6
CONTINUOUS
 70
0
 71
3
 72
15
 73
11
 74
0
 42
0.0000001
 43
0.0000001
 44
0.0000000001
 40
0.0
 40
0.0
 40
0.0
 40
0.0
 40
0.1295683237
 40
0.2645753614
 40
0.4012659695
 40
0.5362717252
 40
0.6662158061
 40
0.7881013724
 40
0.8998145514
 40
1.0
 40
1.0
 40
1.0
 40
1.0
 10
16.447044326
 20
14.1744299672
 30
0.0
 10
16.4485925822
 20
14.1744299672
 30
0.0
 10
16.4517565305
 20
14.1742147422
 30
0.0
 10
16.4564790452
 20
14.1733308473
 30
0.0
 10
16.4611353555
 20
14.1719033961
 30
0.0
 10
16.465547228
 20
14.1699880774
 30
0.0
 10
16.4695534191
 20
14.1676593881
 30
0.0
 10
16.473005501
 20
14.1649980517
 30
0.0
 10
16.4757713566
 20
14.1621020093
 30
0.0
 10
16.4771695017
 20
14.1599644376
 30
0.0
 10
16.4776968975
 20
14.158889718
 30
0.0
  0
SPLINE
  5
2F3
100
AcDbEntity
  8
0
100
AcDbSpline
 62
7
  6
CONTINUOUS
 70
0
 71
3
 72
15
 73
11
 74
0
 42
0.0000001
 43
0.0000001
 44
0.0000000001
 40
0.0
 40
0.0
 40
0.0
 40
0.0
 40
0.09964621
 40
0.2028721639
 40
0.3125944647
 40
0.4308576295
 40
0.5588160112
 40
0.696831916
 40
0.8443986018
 40
1.0
 40
1.0
 40
1.0
 40
1.0
 10
15.3830779575
 20
14.1662709101
 30
0.0
 10
15.3832680727
 20
14.1668861523
 30
0.0
 10
15.3838067106
 20
14.1680970971
 30
0.0
 10
15.385037699
 20
14.1697180438
 30
0.0
 10
15.3866610893
 20
14.1711332102
 30
0.0
 10
15.3886452591
 20
14.1723172675
 30
0.0
 10
15.3909528043
 20
14.1732558978
 30
0.0
 10
15.3935444164
 20
14.1739346266
 30
0.0
 10
15.3963712883
 20
14.174342286
 30
0.0
 10
15.3983318983
 20
14.1744299672
 30
0.0
 10
15.3993374453
 20
14.1744299672
 30
0.0
  0
SPLINE
  5
2F4
100
AcDbEntity
  8
0
100
AcDbSpline
 62
7
  6
CONTINUOUS
 70
0
 71
3
 72
11
 73
7
 74
0
 42
0.0000001
 43
0.0000001
 44
0.0000000001
 40
0.0
 40
0.0
 40
0.0
 40
0.0
 40
0.2336950044
 40
0.4747284064
 40
0.728954475
 40
1.0
 40
1.0
 40
1.0
 40
1.0
 10
14.4148126639
 20
11.0329632716
 30
0.0
 10
14.4146378091
 20
11.0323974143
 30
0.0
 10
14.4144074968
 20
11.0312052661
 30
0.0
 10
14.4144497834
 20
11.0293459874
 30
0.0
 10
14.414867593
 20
11.0274388137
 30
0.0
 10
14.415369058
 20
11.0261987451
 30
0.0
 10
14.4156716735
 20
11.0255820795
 30
0.0
  0
SPLINE
  5
2F5
100
AcDbEntity
  8
0
100
AcDbSpline
 62
7
  6
CONTINUOUS
 70
0
 71
3
 72
9
 73
5
 74
0
 42
0.0000001
 43
0.0000001
 44
0.0000000001
 40
0.0
 40
0.0
 40
0.0
 40
0.0
 40
0.5134075845
 40
1.0
 40
1.0
 40
1.0
 40
1.0
 10
16.5028235301
 20
14.1076870241
 30
0.0
 10
16.5037723118
 20
14.1057536103
 30
0.0
 10
16.5054129019
 20
14.1018808158
 30
0.0
 10
16.5065462375
 20
14.0978266398
 30
0.0
 10
16.5069517549
 20
14.0958261468
 30
0.0
  0
SPLINE
  5
2F6
100
AcDbEntity
  8
0
100
AcDbSpline
 62
7
  6
CONTINUOUS
 70
0
 71
3
 72
14
 73
10
 74
0
 42
0.0000001
 43
0.0000001
 44
0.0000000001
 40
0.0
 40
0.0
 40
0.0
 40
0.0
 40
0.155586727
 40
0.3032334927
 40
0.5688645586
 40
0.6871852461
 40
0.7969112773
 40
0.9001856173
 40
1.0
 40
1.0
 40
1.0
 40
1.0
 10
15.5430849738
 20
10.8471800186
 30
0.0
 10
15.5440898459
 20
10.8471800186
 30
0.0
 10
15.5460506204
 20
10.8472679957
 30
0.0
 10
15.5496886914
 20
10.8477927694
 30
0.0
 10
15.5530099838
 20
10.8488368345
 30
0.0
 10
15.5557605507
 20
10.8504757884
 30
0.0
 10
15.5573843207
 20
10.8518901887
 30
0.0
 10
15.5586146647
 20
10.8535117633
 30
0.0
 10
15.5591542925
 20
10.8547231059
 30
0.0
 10
15.5593438943
 20
10.8553392543
 30
0.0
  0
SPLINE
  5
2F7
100
AcDbEntity
  8
0
100
AcDbSpline
 62
7
  6
CONTINUOUS
 70
0
 71
3
 72
15
 73
11
 74
0
 42
0.0000001
 43
0.0000001
 44
0.0000000001
 40
0.0
 40
0.0
 40
0.0
 40
0.0
 40
0.1075854843
 40
0.224457977
 40
0.3487079977
 40
0.4782296372
 40
0.6107078073
 40
0.7436381293
 40
0.8743955382
 40
1.0
 40
1.0
 40
1.0
 40
1.0
 10
14.5283379439
 20
10.8597550485
 30
0.0
 10
14.5290506037
 20
10.8588399141
 30
0.0
 10
14.530703791
 20
10.8570578391
 30
0.0
 10
14.5336148452
 20
10.8546646128
 30
0.0
 10
14.5369903363
 20
10.852509658
 30
0.0
 10
14.5407248341
 20
10.8506509543
 30
0.0
 10
14.5447145487
 20
10.849144401
 30
0.0
 10
14.5488448424
 20
10.8480292372
 30
0.0
 10
14.5529926522
 20
10.8473458768
 30
0.0
 10
14.5557581755
 20
10.8471800186
 30
0.0
 10
14.557112335
 20
10.8471800186
 30
0.0
  0
SPLINE
  5
2F8
100
AcDbEntity
  8
0
100
AcDbSpline
 62
7
  6
CONTINUOUS
 70
0
 71
3
 72
9
 73
5
 74
0
 42
0.0000001
 43
0.0000001
 44
0.0000000001
 40
0.0
 40
0.0
 40
0.0
 40
0.0
 40
0.2397652035
 40
1.0
 40
1.0
 40
1.0
 40
1.0
 10
14.4407983061
 20
10.9743793856
 30
0.0
 10
14.4412931402
 20
10.9733710197
 30
0.0
 10
14.4434791357
 20
10.9692256211
 30
0.0
 10
14.4461227774
 20
10.9653284651
 30
0.0
 10
14.4483110278
 20
10.9625185083
 30
0.0
  0
SPLINE
  5
2F9
100
AcDbEntity
  8
0
100
AcDbSpline
 62
7
  6
CONTINUOUS
 70
0
 71
3
 72
9
 73
5
 74
0
 42
0.0000001
 43
0.0000001
 44
0.0000000001
 40
0.0
 40
0.0
 40
0.0
 40
0.0
 40
0.4865924155
 40
1.0
 40
1.0
 40
1.0
 40
1.0
 10
15.5386864612
 20
10.9625185083
 30
0.0
 10
15.5382809439
 20
10.9645190013
 30
0.0
 10
15.5371476083
 20
10.9685731773
 30
0.0
 10
15.5355070182
 20
10.9724459718
 30
0.0
 10
15.5345582365
 20
10.9743793856
 30
0.0
  0
SPLINE
  5
2FA
100
AcDbEntity
  8
0
100
AcDbSpline
 62
7
  6
CONTINUOUS
 70
0
 71
3
 72
15
 73
11
 74
0
 42
0.0000001
 43
0.0000001
 44
0.0000000001
 40
0.0
 40
0.0
 40
0.0
 40
0.0
 40
0.1001854486
 40
0.2118986276
 40
0.3337841939
 40
0.4637282748
 40
0.5987340305
 40
0.7354246386
 40
0.8704316763
 40
1.0
 40
1.0
 40
1.0
 40
1.0
 10
15.5094316039
 20
11.0255820795
 30
0.0
 10
15.5089042081
 20
11.0266567991
 30
0.0
 10
15.507506063
 20
11.0287943708
 30
0.0
 10
15.5047402074
 20
11.0316904132
 30
0.0
 10
15.5012881255
 20
11.0343517495
 30
0.0
 10
15.4972819343
 20
11.0366804389
 30
0.0
 10
15.4928700619
 20
11.0385957576
 30
0.0
 10
15.4882137515
 20
11.0400232088
 30
0.0
 10
15.4834912369
 20
11.0409071037
 30
0.0
 10
15.4803272886
 20
11.0411223287
 30
0.0
 10
15.4787790324
 20
11.0411223287
 30
0.0
  0
SPLINE
  5
2FB
100
AcDbEntity
  8
0
100
AcDbSpline
 62
7
  6
CONTINUOUS
 70
0
 71
3
 72
15
 73
11
 74
0
 42
0.0000001
 43
0.0000001
 44
0.0000000001
 40
0.0
 40
0.0
 40
0.0
 40
0.0
 40
0.1556013982
 40
0.303168084
 40
0.4411839888
 40
0.5691423705
 40
0.6874055353
 40
0.7971278361
 40
0.90035379
 40
1.0
 40
1.0
 40
1.0
 40
1.0
 10
14.4310721517
 20
11.0411223287
 30
0.0
 10
14.4300666047
 20
11.0411223287
 30
0.0
 10
14.4281059947
 20
11.0410346475
 30
0.0
 10
14.4252791228
 20
11.0406269881
 30
0.0
 10
14.4226875107
 20
11.0399482593
 30
0.0
 10
14.4203799655
 20
11.0390096289
 30
0.0
 10
14.4183957957
 20
11.0378255717
 30
0.0
 10
14.4167724054
 20
11.0364104053
 30
0.0
 10
14.415541417
 20
11.0347894586
 30
0.0
 10
14.415002779
 20
11.0335785138
 30
0.0
 10
14.4148126639
 20
11.0329632716
 30
0.0
  0
ENDSEC
  0
SECTION
  2
OBJECTS
  0
DICTIONARY
  5
C
100
AcDbDictionary
280
0
281
1
  3
ACAD_GROUP
350
D
  3
ACAD_MLINESTYLE
350
17
  3
ACAD_LAYOUT
350
1A
  3
ACAD_PLOTSETTINGS
350
19
  3
ACAD_PLOTSTYLENAME
350
E
  0
DICTIONARY
  5
D
102
{ACAD_REACTORS
330
C
102
}
100
AcDbDictionary
280
0
281
1
  0
ACDBDICTIONARYWDFLT
  5
E
102
{ACAD_REACTORS
330
C
102
}
100
AcDbDictionary
281
1
  3
Normal
350
F
100
AcDbDictionaryWithDefault
340
F
  0
DICTIONARY
  5
17
102
{ACAD_REACTORS
330
C
102
}
100
AcDbDictionary
280
0
281
1
  3
Standard
350
18
  0
DICTIONARY
  5
19
102
{ACAD_REACTORS
330
C
102
}
100
AcDbDictionary
281
1
  0
DICTIONARY
  5
1A
102
{ACAD_REACTORS
330
C
102
}
100
AcDbDictionary
281
1
  3
Model
350
2FC
  3
Layout1
350
2FD
  0
ACDBPLACEHOLDER
  5
F
102
{ACAD_REACTORS
330
E
102
}
  0
MLINESTYLE
  5
18
102
{ACAD_REACTORS
330
17
102
}
100
AcDbMlineStyle
  2
STANDARD
 70
0
  3

 62
256
 51
90.0
 52
90.0
 71
2
 49
0.5
 62
256
  6
BYLAYER
 49
-0.5
 62
256
  6
BYLAYER
  0
LAYOUT
  5
2FC
102
{ACAD_REACTORS
330
1A
102
}
100
AcDbPlotSettings
  1

  2
none_device
  4
ANSI_C_(22.00_x_17.00_Inches)
  6

 40
0.0
 41
0.0
 42
0.0
 43
0.0
 44
558.8
 45
431.8
 46
0.0
 47
0.0
 48
0.0
 49
0.0
140
0.0
141
0.0
142
1.0
143
1.0
 70
1024
 72
0
 73
0
 74
0
  7

 75
0
147
1.0
148
0.0
149
0.0
100
AcDbLayout
  1
Model
 70
0
 71
0
 10
0.0
 20
0.0
 11
22.0
 21
17.0
 12
0.0
 22
0.0
 32
0.0
 14
0.0
 24
0.0
 34
0.0
 15
0.0
 25
0.0
 35
0.0
146
0.0
 13
0.0
 23
0.0
 33
0.0
 16
1.0
 26
0.0
 36
0.0
 17
0.0
 27
1.0
 37
0.0
 76
0
330
216
345
0
346
0
  0
LAYOUT
  5
2FD
102
{ACAD_REACTORS
330
1A
102
}
100
AcDbPlotSettings
  1

  2
none_device
  4
ANSI_C_(22.00_x_17.00_Inches)
  6

 40
0.0
 41
0.0
 42
0.0
 43
0.0
 44
558.8
 45
431.8
 46
0.0
 47
0.0
 48
0.0
 49
0.0
140
0.0
141
0.0
142
1.0
143
1.0
 70
0
 72
0
 73
0
 74
0
  7

 75
0
147
1.0
148
0.0
149
0.0
100
AcDbLayout
  1
Layout1
 70
0
 71
1
 10
0.0
 20
0.0
 11
22.0
 21
17.0
 12
0.0
 22
0.0
 32
0.0
 14
0.0
 24
0.0
 34
0.0
 15
0.0
 25
0.0
 35
0.0
146
0.0
 13
0.0
 23
0.0
 33
0.0
 16
1.0
 26
0.0
 36
0.0
 17
0.0
 27
1.0
 37
0.0
 76
0
330
217
345
0
346
0
  0
ENDSEC
  0
EOF