999
DXF file: _cgs_temp_output.dxf
999
Pro/ENGINEER 2016360 by Parametric Technology Corporation
  0
SECTION
  2
HEADER
  9
$ACADVER
  1
AC1021
  9
$DWGCODEPAGE
  3
ANSI_1252
  9
$EXTMAX
 10
22.0
 20
17.0
 30
0.0
  9
$EXTMIN
 10
0.0
 20
0.0
 30
0.0
  9
$LIMMIN
 10
0.0
 20
0.0
  9
$LIMMAX
 10
22.0
 20
17.0
  9
$VIEWCTR
 10
11.0
 20
8.5
  9
$VIEWSIZE
 40
17.0
  9
$CLAYER
  8
0
  9
$LTSCALE
 40
1.21
  9
$CELTYPE
  6
BYLAYER
  9
$DIMSCALE
 40
1.0
  9
$DIMASZ
 40
0.1875
  9
$DIMEXO
 40
0.0625
  9
$DIMDLI
 40
0.836
  9
$DIMEXE
 40
0.125
  9
$DIMCEN
 40
0.198
  9
$DIMLFAC
 40
1.0
  9
$DIMBLK
  1
_CLOSED
  9
$DIMALT
 70
0
  9
$DIMALTF
 40
25.4
  9
$DIMTXT
 40
0.15625
  9
$DIMTOL
 70
0
  9
$DIMLIM
 70
0
  9
$DIMTFAC
 40
1.0
  9
$DIMGAP
 40
0.09
  9
$DIMDSEP
 70
46
  9
$AUNITS
 70
0
  9
$PDMODE
 70
3
  9
$PDSIZE
 40
0.3125
  9
$HANDSEED
  5
3A6
  9
$TILEMODE
 70
1
  9
$MEASUREMENT
 70
0
  9
$INSUNITS
 70
1
  0
ENDSEC
  0
SECTION
  2
CLASSES
  0
CLASS
  1
ACDBDICTIONARYWDFLT
  2
AcDbDictionaryWithDefault
  3
AutoCAD 2000
 90
0
 91
1
280
0
281
0
  0
CLASS
  1
ACDBPLACEHOLDER
  2
AcDbPlaceHolder
  3
AutoCAD 2000
 90
0
 91
1
280
0
281
0
  0
CLASS
  1
LAYOUT
  2
AcDbLayout
  3
AutoCAD 2000
 90
0
 91
0
280
0
281
0
  0
ENDSEC
  0
SECTION
  2
TABLES
  0
TABLE
  2
VPORT
  5
8
100
AcDbSymbolTable
 70
2
  0
VPORT
  5
1F4
100
AcDbSymbolTableRecord
100
AcDbViewportTableRecord
  2
*ACTIVE
 70
0
 10
0.0
 20
0.0
 11
1.0
 21
1.0
 12
11.0
 22
8.5
 13
0.0
 23
0.0
 14
1.0
 24
1.0
 15
0.0
 25
0.0
 16
0.0
 26
0.0
 36
1.0
 17
0.0
 27
0.0
 37
0.0
 40
17.0
 41
1.2941176471
 42
50.0
 43
0.0
 44
0.0
 50
0.0
 51
0.0
 71
0
 72
100
 73
1
 74
1
 75
0
 76
0
 77
0
 78
0
  0
ENDTAB
  0
TABLE
  2
LTYPE
  5
5
100
AcDbSymbolTable
 70
6
  0
LTYPE
  5
14
100
AcDbSymbolTableRecord
100
AcDbLinetypeTableRecord
  2
BYBLOCK
 70
0
  3

 72
65
 73
0
 40
0.0
  0
LTYPE
  5
15
100
AcDbSymbolTableRecord
100
AcDbLinetypeTableRecord
  2
BYLAYER
 70
0
  3

 72
65
 73
0
 40
0.0
  0
LTYPE
  5
16
100
AcDbSymbolTableRecord
100
AcDbLinetypeTableRecord
  2
CONTINUOUS
 70
64
  3
Solid line
 72
65
 73
0
 40
0.0
  0
LTYPE
  5
1F5
100
AcDbSymbolTableRecord
100
AcDbLinetypeTableRecord
  2
CENTER
 70
64
  3
____ _ ____ _ ____ _ ____ _ ____ _ ____ _ ____
 72
65
 73
4
 40
0.6
 49
0.375
 74
0
 49
-0.075
 74
0
 49
0.075
 74
0
 49
-0.075
 74
0
  0
LTYPE
  5
1F6
100
AcDbSymbolTableRecord
100
AcDbLinetypeTableRecord
  2
HIDDEN
 70
64
  3
- - - - - - - - - - - - - - - - - - - -
 72
65
 73
2
 40
0.2
 49
0.1
 74
0
 49
-0.1
 74
0
  0
LTYPE
  5
1F7
100
AcDbSymbolTableRecord
100
AcDbLinetypeTableRecord
  2
PHANTOM
 70
64
  3
_____ _ _ _____ _ _ _____ _ _ _____
 72
65
 73
6
 40
0.8
 49
0.45
 74
0
 49
-0.05
 74
0
 49
0.1
 74
0
 49
-0.05
 74
0
 49
0.1
 74
0
 49
-0.05
 74
0
  0
LTYPE
  5
1F8
100
AcDbSymbolTableRecord
100
AcDbLinetypeTableRecord
  2
DOT
 70
64
  3
. . . . . . . . . . . . . . . . . . . .
 72
65
 73
2
 40
0.2
 49
0.1
 74
0
 49
-0.1
 74
0
  0
LTYPE
  5
1F9
100
AcDbSymbolTableRecord
100
AcDbLinetypeTableRecord
  2
DASHED
 70
64
  3
- - - - - - - - - - - - - - - - - - - -
 72
65
 73
2
 40
0.2
 49
0.1
 74
0
 49
-0.1
 74
0
  0
ENDTAB
  0
TABLE
  2
LAYER
  5
2
100
AcDbSymbolTable
 70
36
  0
LAYER
  5
10
100
AcDbSymbolTableRecord
100
AcDbLayerTableRecord
  2
0
 70
0
 62
7
  6
CONTINUOUS
370
-3
390
F
  0
LAYER
  5
1FA
100
AcDbSymbolTableRecord
100
AcDbLayerTableRecord
  2
DEFAULT_1
 70
0
 62
7
  6
CENTER
370
-3
390
F
  0
LAYER
  5
1FB
100
AcDbSymbolTableRecord
100
AcDbLayerTableRecord
  2
DEFAULT_2
 70
0
 62
8
  6
HIDDEN
370
-3
390
F
  0
LAYER
  5
1FC
100
AcDbSymbolTableRecord
100
AcDbLayerTableRecord
  2
DEFAULT_3
 70
0
 62
7
  6
PHANTOM
370
-3
390
F
  0
LAYER
  5
1FD
100
AcDbSymbolTableRecord
100
AcDbLayerTableRecord
  2
01_ALL_DTM_PLN
 70
0
 62
7
  6
CONTINUOUS
370
-3
390
F
  0
LAYER
  5
1FE
100
AcDbSymbolTableRecord
100
AcDbLayerTableRecord
  2
01__ASM_ALL_DTM_PLN
 70
0
 62
7
  6
CONTINUOUS
370
-3
390
F
  0
LAYER
  5
1FF
100
AcDbSymbolTableRecord
100
AcDbLayerTableRecord
  2
01__ASM_DEF_DTM_PLN
 70
0
 62
7
  6
CONTINUOUS
370
-3
390
F
  0
LAYER
  5
200
100
AcDbSymbolTableRecord
100
AcDbLayerTableRecord
  2
01___PRT_ALL_DTM_PLN
 70
0
 62
7
  6
CONTINUOUS
370
-3
390
F
  0
LAYER
  5
201
100
AcDbSymbolTableRecord
100
AcDbLayerTableRecord
  2
01___PRT_DEF_DTM_PLN
 70
0
 62
7
  6
CONTINUOUS
370
-3
390
F
  0
LAYER
  5
202
100
AcDbSymbolTableRecord
100
AcDbLayerTableRecord
  2
02_ALL_AXES
 70
0
 62
7
  6
CONTINUOUS
370
-3
390
F
  0
LAYER
  5
203
100
AcDbSymbolTableRecord
100
AcDbLayerTableRecord
  2
02__ASM_ALL_AXES
 70
0
 62
7
  6
CONTINUOUS
370
-3
390
F
  0
LAYER
  5
204
100
AcDbSymbolTableRecord
100
AcDbLayerTableRecord
  2
02___PRT_ALL_AXES
 70
0
 62
7
  6
CONTINUOUS
370
-3
390
F
  0
LAYER
  5
205
100
AcDbSymbolTableRecord
100
AcDbLayerTableRecord
  2
03_ALL_CURVES
 70
0
 62
7
  6
CONTINUOUS
370
-3
390
F
  0
LAYER
  5
206
100
AcDbSymbolTableRecord
100
AcDbLayerTableRecord
  2
03__ASM_ALL_CURVES
 70
0
 62
7
  6
CONTINUOUS
370
-3
390
F
  0
LAYER
  5
207
100
AcDbSymbolTableRecord
100
AcDbLayerTableRecord
  2
03___PRT_ALL_CURVES
 70
0
 62
7
  6
CONTINUOUS
370
-3
390
F
  0
LAYER
  5
208
100
AcDbSymbolTableRecord
100
AcDbLayerTableRecord
  2
04_ALL_DTM_PNT
 70
0
 62
7
  6
CONTINUOUS
370
-3
390
F
  0
LAYER
  5
209
100
AcDbSymbolTableRecord
100
AcDbLayerTableRecord
  2
04__ASM_ALL_DTM_PNT
 70
0
 62
7
  6
CONTINUOUS
370
-3
390
F
  0
LAYER
  5
20A
100
AcDbSymbolTableRecord
100
AcDbLayerTableRecord
  2
04___PRT_ALL_DTM_PNT
 70
0
 62
7
  6
CONTINUOUS
370
-3
390
F
  0
LAYER
  5
20B
100
AcDbSymbolTableRecord
100
AcDbLayerTableRecord
  2
05_ALL_DTM_CSYS
 70
0
 62
7
  6
CONTINUOUS
370
-3
390
F
  0
LAYER
  5
20C
100
AcDbSymbolTableRecord
100
AcDbLayerTableRecord
  2
05__ASM_ALL_DTM_CSYS
 70
0
 62
7
  6
CONTINUOUS
370
-3
390
F
  0
LAYER
  5
20D
100
AcDbSymbolTableRecord
100
AcDbLayerTableRecord
  2
05__ASM_DEF_DTM_CSYS
 70
0
 62
7
  6
CONTINUOUS
370
-3
390
F
  0
LAYER
  5
20E
100
AcDbSymbolTableRecord
100
AcDbLayerTableRecord
  2
05___PRT_ALL_DTM_CSYS
 70
0
 62
7
  6
CONTINUOUS
370
-3
390
F
  0
LAYER
  5
20F
100
AcDbSymbolTableRecord
100
AcDbLayerTableRecord
  2
05___PRT_DEF_DTM_CSYS
 70
0
 62
7
  6
CONTINUOUS
370
-3
390
F
  0
LAYER
  5
210
100
AcDbSymbolTableRecord
100
AcDbLayerTableRecord
  2
06_ALL_SURFS
 70
0
 62
7
  6
CONTINUOUS
370
-3
390
F
  0
LAYER
  5
211
100
AcDbSymbolTableRecord
100
AcDbLayerTableRecord
  2
06__ASM_ALL_SURFS
 70
0
 62
7
  6
CONTINUOUS
370
-3
390
F
  0
LAYER
  5
212
100
AcDbSymbolTableRecord
100
AcDbLayerTableRecord
  2
06___PRT_ALL_SURFS
 70
0
 62
7
  6
CONTINUOUS
370
-3
390
F
  0
LAYER
  5
213
100
AcDbSymbolTableRecord
100
AcDbLayerTableRecord
  2
07__ASM_ALL_SKELETONS
 70
0
 62
7
  6
CONTINUOUS
370
-3
390
F
  0
LAYER
  5
214
100
AcDbSymbolTableRecord
100
AcDbLayerTableRecord
  2
LAYER_DIM
 70
0
 62
7
  6
CONTINUOUS
370
-3
390
F
  0
LAYER
  5
215
100
AcDbSymbolTableRecord
100
AcDbLayerTableRecord
  2
LAYER_FEATURE
 70
0
 62
7
  6
CONTINUOUS
370
-3
390
F
  0
LAYER
  5
216
100
AcDbSymbolTableRecord
100
AcDbLayerTableRecord
  2
LAYER_GEOM_FEAT
 70
0
 62
7
  6
CONTINUOUS
370
-3
390
F
  0
LAYER
  5
217
100
AcDbSymbolTableRecord
100
AcDbLayerTableRecord
  2
LAYER_PARAMETER_DIM
 70
0
 62
7
  6
CONTINUOUS
370
-3
390
F
  0
LAYER
  5
218
100
AcDbSymbolTableRecord
100
AcDbLayerTableRecord
  2
LAYER_PROTRUSION_FEAT
 70
0
 62
7
  6
CONTINUOUS
370
-3
390
F
  0
LAYER
  5
219
100
AcDbSymbolTableRecord
100
AcDbLayerTableRecord
  2
LAYER_ROUND_FEAT
 70
0
 62
7
  6
CONTINUOUS
370
-3
390
F
  0
ENDTAB
  0
TABLE
  2
STYLE
  5
3
100
AcDbSymbolTable
 70
1
  0
STYLE
  5
11
100
AcDbSymbolTableRecord
100
AcDbTextStyleTableRecord
  2
STANDARD
 70
0
 40
0.0
 41
0.8
 50
0.0
 71
0
 42
0.2
  3
txt
  4

  0
STYLE
  5
21A
100
AcDbSymbolTableRecord
100
AcDbTextStyleTableRecord
  2
TEXTSTYLE_1
 70
0
 40
0.0
 41
0.8
 50
0.0
 71
0
 42
0.2
  3
gdt
  4

  0
ENDTAB
  0
TABLE
  2
VIEW
  5
6
100
AcDbSymbolTable
 70
0
  0
ENDTAB
  0
TABLE
  2
UCS
  5
7
100
AcDbSymbolTable
 70
0
  0
ENDTAB
  0
TABLE
  2
APPID
  5
9
100
AcDbSymbolTable
 70
1
  0
APPID
  5
21B
100
AcDbSymbolTableRecord
100
AcDbRegAppTableRecord
  2
ACAD
 70
0
  0
ENDTAB
  0
TABLE
  2
BLOCK_RECORD
  5
1
100
AcDbSymbolTable
 70
0
  0
BLOCK_RECORD
  5
21C
100
AcDbSymbolTableRecord
100
AcDbBlockTableRecord
  2
*Model_Space
  0
BLOCK_RECORD
  5
21D
100
AcDbSymbolTableRecord
100
AcDbBlockTableRecord
  2
*Paper_Space
  0
ENDTAB
  0
TABLE
  2
DIMSTYLE
  5
A
100
AcDbSymbolTable
 70
1
100
AcDbDimStyleTable
 71
0
  0
DIMSTYLE
105
21E
100
AcDbSymbolTableRecord
100
AcDbDimStyleTableRecord
  2
STANDARD
 70
0
  3

  4

 40
1.0
 41
0.1875
 42
0.0625
 43
0.38
 44
0.125
 45
0.0
 46
0.0
 47
0.0001
 48
0.0001
140
0.15625
141
0.09
142
0.0
143
25.4
144
1.0
145
0.0
146
1.0
147
0.09
 71
0.0
 72
0.0
 73
1
 74
1
 75
0
 76
0
 77
0
 78
4
 79
1
170
0
171
3
172
0
173
0
174
0
175
0
176
0
177
0
178
0
270
2
179
4
271
4
272
4
273
2
274
2
275
0
280
0
281
0
282
0
283
1
284
4
285
0
286
0
287
3
288
0
340
11
278
46
  0
ENDTAB
  0
ENDSEC
  0
SECTION
  2
BLOCKS
  0
BLOCK
  5
20
100
AcDbEntity
  8
0
100
AcDbBlockBegin
  2
*Model_Space
 70
0
 10
0.0
 20
0.0
 30
0.0
  3
*Model_Space
  1

  0
ENDBLK
  5
21
100
AcDbEntity
  8
0
100
AcDbBlockEnd
  0
BLOCK
  5
1C
100
AcDbEntity
  8
0
100
AcDbBlockBegin
  2
*Paper_Space
 70
0
 10
0.0
 20
0.0
 30
0.0
  3
*Paper_Space
  1

  0
ENDBLK
  5
1D
100
AcDbEntity
  8
0
100
AcDbBlockEnd
  0
ENDSEC
  0
SECTION
  2
ENTITIES
  0
MTEXT
  5
21F
100
AcDbEntity
  8
0
100
AcDbMText
 62
7
  6
CONTINUOUS
  7
STANDARD
 71
1
 72
1
 10
15.9560215477
 20
0.9479130325
 30
0.0
 11
1.0
 21
0.0
 31
0.0
 44
0.9
  1
SCALE: 1:0.500
 40
0.3
 41
3.36
  0
LINE
  5
220
100
AcDbEntity
  8
0
100
AcDbLine
 62
7
  6
CONTINUOUS
 10
0.0
 20
0.0
 11
0.0
 21
17.0
  0
LINE
  5
221
100
AcDbEntity
  8
0
100
AcDbLine
 62
7
  6
CONTINUOUS
 10
0.0
 20
0.0
 11
22.0
 21
0.0
  0
LINE
  5
222
100
AcDbEntity
  8
0
100
AcDbLine
 62
7
  6
CONTINUOUS
 10
0.0
 20
17.0
 11
22.0
 21
17.0
  0
LINE
  5
223
100
AcDbEntity
  8
0
100
AcDbLine
 62
7
  6
CONTINUOUS
 10
22.0
 20
0.0
 11
22.0
 21
17.0
  0
LINE
  5
224
100
AcDbEntity
  8
0
100
AcDbLine
 62
7
  6
CONTINUOUS
 10
3.1928672762
 20
5.6151198968
 11
3.1928672762
 21
5.5726198968
  0
LINE
  5
225
100
AcDbEntity
  8
0
100
AcDbLine
 62
7
  6
CONTINUOUS
 10
3.1928672762
 20
5.5726198968
 11
3.2375039689
 21
5.4250212328
  0
LINE
  5
226
100
AcDbEntity
  8
0
100
AcDbLine
 62
7
  6
CONTINUOUS
 10
3.4428672762
 20
5.5726198968
 11
3.4428672762
 21
5.5976198968
  0
LINE
  5
227
100
AcDbEntity
  8
LAYER_FEATURE
100
AcDbLine
 62
7
  6
CONTINUOUS
 10
3.5053672762
 20
5.5976198968
 11
3.5053672762
 21
5.5726198968
  0
LINE
  5
228
100
AcDbEntity
  8
0
100
AcDbLine
 62
7
  6
CONTINUOUS
 10
3.3982305834
 20
5.4250212328
 11
3.4428672762
 21
5.5726198968
  0
LINE
  5
229
100
AcDbEntity
  8
LAYER_FEATURE
100
AcDbLine
 62
7
  6
CONTINUOUS
 10
3.7553672762
 20
5.5726198968
 11
3.7553672762
 21
5.5976198968
  0
LINE
  5
22A
100
AcDbEntity
  8
LAYER_FEATURE
100
AcDbLine
 62
7
  6
CONTINUOUS
 10
3.5053672762
 20
5.5726198968
 11
3.5500039689
 21
5.4250212328
  0
LINE
  5
22B
100
AcDbEntity
  8
LAYER_FEATURE
100
AcDbLine
 62
7
  6
CONTINUOUS
 10
3.8178672762
 20
5.5976198968
 11
3.8178672762
 21
5.5726198968
  0
LINE
  5
22C
100
AcDbEntity
  8
LAYER_FEATURE
100
AcDbLine
 62
7
  6
CONTINUOUS
 10
3.7107305834
 20
5.4250212328
 11
3.7553672762
 21
5.5726198968
  0
LINE
  5
22D
100
AcDbEntity
  8
LAYER_FEATURE
100
AcDbLine
 62
7
  6
CONTINUOUS
 10
3.8178672762
 20
5.5726198968
 11
3.8625039689
 21
5.4250212328
  0
LINE
  5
22E
100
AcDbEntity
  8
LAYER_FEATURE
100
AcDbLine
 62
7
  6
CONTINUOUS
 10
4.0678672762
 20
5.5726198968
 11
4.0678672762
 21
5.5976198968
  0
LINE
  5
22F
100
AcDbEntity
  8
LAYER_FEATURE
100
AcDbLine
 62
7
  6
CONTINUOUS
 10
4.1303672762
 20
5.5976198968
 11
4.1303672762
 21
5.5726198968
  0
LINE
  5
230
100
AcDbEntity
  8
LAYER_FEATURE
100
AcDbLine
 62
7
  6
CONTINUOUS
 10
4.0232305834
 20
5.4250212328
 11
4.0678672762
 21
5.5726198968
  0
LINE
  5
231
100
AcDbEntity
  8
LAYER_FEATURE
100
AcDbLine
 62
7
  6
CONTINUOUS
 10
4.3803672762
 20
5.5726198968
 11
4.3803672762
 21
5.5976198968
  0
LINE
  5
232
100
AcDbEntity
  8
LAYER_FEATURE
100
AcDbLine
 62
7
  6
CONTINUOUS
 10
4.1303672762
 20
5.5726198968
 11
4.1750039689
 21
5.4250212328
  0
LINE
  5
233
100
AcDbEntity
  8
LAYER_FEATURE
100
AcDbLine
 62
7
  6
CONTINUOUS
 10
4.4428672762
 20
5.5976198968
 11
4.4428672762
 21
5.5726198968
  0
LINE
  5
234
100
AcDbEntity
  8
LAYER_FEATURE
100
AcDbLine
 62
7
  6
CONTINUOUS
 10
4.3357305834
 20
5.4250212328
 11
4.3803672762
 21
5.5726198968
  0
LINE
  5
235
100
AcDbEntity
  8
LAYER_FEATURE
100
AcDbLine
 62
7
  6
CONTINUOUS
 10
4.4428672762
 20
5.5726198968
 11
4.4875039689
 21
5.4250212328
  0
LINE
  5
236
100
AcDbEntity
  8
LAYER_FEATURE
100
AcDbLine
 62
7
  6
CONTINUOUS
 10
4.6928672762
 20
5.5726198968
 11
4.6928672762
 21
5.5976198968
  0
LINE
  5
237
100
AcDbEntity
  8
LAYER_FEATURE
100
AcDbLine
 62
7
  6
CONTINUOUS
 10
4.7553672762
 20
5.5976198968
 11
4.7553672762
 21
5.5726198968
  0
LINE
  5
238
100
AcDbEntity
  8
LAYER_FEATURE
100
AcDbLine
 62
7
  6
CONTINUOUS
 10
4.6482305834
 20
5.4250212328
 11
4.6928672762
 21
5.5726198968
  0
LINE
  5
239
100
AcDbEntity
  8
LAYER_FEATURE
100
AcDbLine
 62
7
  6
CONTINUOUS
 10
4.7553672762
 20
5.5726198968
 11
4.8000039689
 21
5.4250212328
  0
LINE
  5
23A
100
AcDbEntity
  8
LAYER_FEATURE
100
AcDbLine
 62
7
  6
CONTINUOUS
 10
5.0053672762
 20
5.5726198968
 11
5.0053672762
 21
5.5976198968
  0
LINE
  5
23B
100
AcDbEntity
  8
LAYER_FEATURE
100
AcDbLine
 62
7
  6
CONTINUOUS
 10
5.0678672762
 20
5.5976198968
 11
5.0678672762
 21
5.5726198968
  0
LINE
  5
23C
100
AcDbEntity
  8
LAYER_FEATURE
100
AcDbLine
 62
7
  6
CONTINUOUS
 10
4.9607305834
 20
5.4250212328
 11
5.0053672762
 21
5.5726198968
  0
LINE
  5
23D
100
AcDbEntity
  8
LAYER_FEATURE
100
AcDbLine
 62
7
  6
CONTINUOUS
 10
5.0678672762
 20
5.5726198968
 11
5.1125039689
 21
5.4250212328
  0
LINE
  5
23E
100
AcDbEntity
  8
LAYER_FEATURE
100
AcDbLine
 62
7
  6
CONTINUOUS
 10
5.3178672762
 20
5.5726198968
 11
5.3178672762
 21
5.5976198968
  0
LINE
  5
23F
100
AcDbEntity
  8
LAYER_FEATURE
100
AcDbLine
 62
7
  6
CONTINUOUS
 10
5.2732305834
 20
5.4250212328
 11
5.3178672762
 21
5.5726198968
  0
LINE
  5
240
100
AcDbEntity
  8
LAYER_FEATURE
100
AcDbLine
 62
7
  6
CONTINUOUS
 10
5.3803672762
 20
5.5976198968
 11
5.3803672762
 21
5.5726198968
  0
LINE
  5
241
100
AcDbEntity
  8
LAYER_FEATURE
100
AcDbLine
 62
7
  6
CONTINUOUS
 10
5.3803672762
 20
5.5726198968
 11
5.4250039689
 21
5.4250212328
  0
LINE
  5
242
100
AcDbEntity
  8
LAYER_FEATURE
100
AcDbLine
 62
7
  6
CONTINUOUS
 10
5.6303672762
 20
5.5726198968
 11
5.6303672762
 21
5.5976198968
  0
LINE
  5
243
100
AcDbEntity
  8
LAYER_FEATURE
100
AcDbLine
 62
7
  6
CONTINUOUS
 10
5.6928672762
 20
5.5976198968
 11
5.6928672762
 21
5.5726198968
  0
LINE
  5
244
100
AcDbEntity
  8
LAYER_FEATURE
100
AcDbLine
 62
7
  6
CONTINUOUS
 10
5.5857305834
 20
5.4250212328
 11
5.6303672762
 21
5.5726198968
  0
LINE
  5
245
100
AcDbEntity
  8
LAYER_FEATURE
100
AcDbLine
 62
7
  6
CONTINUOUS
 10
5.6928672762
 20
5.5726198968
 11
5.7375039689
 21
5.4250212328
  0
LINE
  5
246
100
AcDbEntity
  8
LAYER_FEATURE
100
AcDbLine
 62
7
  6
CONTINUOUS
 10
5.9428672762
 20
5.5726198968
 11
5.9428672762
 21
5.5976198968
  0
LINE
  5
247
100
AcDbEntity
  8
LAYER_FEATURE
100
AcDbLine
 62
7
  6
CONTINUOUS
 10
5.8982305834
 20
5.4250212328
 11
5.9428672762
 21
5.5726198968
  0
LINE
  5
248
100
AcDbEntity
  8
LAYER_FEATURE
100
AcDbLine
 62
7
  6
CONTINUOUS
 10
6.0053672762
 20
5.5976198968
 11
6.0053672762
 21
5.5726198968
  0
LINE
  5
249
100
AcDbEntity
  8
0
100
AcDbLine
 62
7
  6
CONTINUOUS
 10
3.2474746622
 20
5.4176198968
 11
3.3882598901
 21
5.4176198968
  0
LINE
  5
24A
100
AcDbEntity
  8
LAYER_FEATURE
100
AcDbLine
 62
7
  6
CONTINUOUS
 10
3.5599746622
 20
5.4176198968
 11
3.7007598901
 21
5.4176198968
  0
LINE
  5
24B
100
AcDbEntity
  8
LAYER_FEATURE
100
AcDbLine
 62
7
  6
CONTINUOUS
 10
3.8724746622
 20
5.4176198968
 11
4.0132598901
 21
5.4176198968
  0
LINE
  5
24C
100
AcDbEntity
  8
LAYER_FEATURE
100
AcDbLine
 62
7
  6
CONTINUOUS
 10
4.1849746622
 20
5.4176198968
 11
4.3257598901
 21
5.4176198968
  0
LINE
  5
24D
100
AcDbEntity
  8
LAYER_FEATURE
100
AcDbLine
 62
7
  6
CONTINUOUS
 10
4.4974746622
 20
5.4176198968
 11
4.6382598901
 21
5.4176198968
  0
LINE
  5
24E
100
AcDbEntity
  8
LAYER_FEATURE
100
AcDbLine
 62
7
  6
CONTINUOUS
 10
4.8099746622
 20
5.4176198968
 11
4.9507598901
 21
5.4176198968
  0
LINE
  5
24F
100
AcDbEntity
  8
LAYER_FEATURE
100
AcDbLine
 62
7
  6
CONTINUOUS
 10
5.1224746622
 20
5.4176198968
 11
5.2632598901
 21
5.4176198968
  0
LINE
  5
250
100
AcDbEntity
  8
LAYER_FEATURE
100
AcDbLine
 62
7
  6
CONTINUOUS
 10
5.4349746622
 20
5.4176198968
 11
5.5757598901
 21
5.4176198968
  0
LINE
  5
251
100
AcDbEntity
  8
LAYER_FEATURE
100
AcDbLine
 62
7
  6
CONTINUOUS
 10
5.7474746622
 20
5.4176198968
 11
5.8882598901
 21
5.4176198968
  0
LINE
  5
252
100
AcDbEntity
  8
LAYER_FEATURE
100
AcDbLine
 62
7
  6
CONTINUOUS
 10
6.0599746622
 20
5.4176198968
 11
6.2007598901
 21
5.4176198968
  0
LINE
  5
253
100
AcDbEntity
  8
LAYER_FEATURE
100
AcDbLine
 62
7
  6
CONTINUOUS
 10
6.3724746622
 20
5.4176198968
 11
6.5132598901
 21
5.4176198968
  0
LINE
  5
254
100
AcDbEntity
  8
LAYER_FEATURE
100
AcDbLine
 62
7
  6
CONTINUOUS
 10
6.6849746622
 20
5.4176198968
 11
6.8257598901
 21
5.4176198968
  0
LINE
  5
255
100
AcDbEntity
  8
LAYER_FEATURE
100
AcDbLine
 62
7
  6
CONTINUOUS
 10
6.9974746622
 20
5.4176198968
 11
7.1382598901
 21
5.4176198968
  0
LINE
  5
256
100
AcDbEntity
  8
LAYER_FEATURE
100
AcDbLine
 62
7
  6
CONTINUOUS
 10
7.3099746622
 20
5.4176198968
 11
7.4507598901
 21
5.4176198968
  0
LINE
  5
257
100
AcDbEntity
  8
LAYER_FEATURE
100
AcDbLine
 62
7
  6
CONTINUOUS
 10
7.6224746622
 20
5.4176198968
 11
7.7632598901
 21
5.4176198968
  0
LINE
  5
258
100
AcDbEntity
  8
LAYER_FEATURE
100
AcDbLine
 62
7
  6
CONTINUOUS
 10
7.9349746622
 20
5.4176198968
 11
8.0757598901
 21
5.4176198968
  0
LINE
  5
259
100
AcDbEntity
  8
LAYER_FEATURE
100
AcDbLine
 62
7
  6
CONTINUOUS
 10
8.2474746622
 20
5.4176198968
 11
8.3882598901
 21
5.4176198968
  0
LINE
  5
25A
100
AcDbEntity
  8
LAYER_FEATURE
100
AcDbLine
 62
7
  6
CONTINUOUS
 10
8.5599746622
 20
5.4176198968
 11
8.7007598901
 21
5.4176198968
  0
LINE
  5
25B
100
AcDbEntity
  8
LAYER_FEATURE
100
AcDbLine
 62
7
  6
CONTINUOUS
 10
8.8724746622
 20
5.4176198968
 11
9.0132598901
 21
5.4176198968
  0
LINE
  5
25C
100
AcDbEntity
  8
LAYER_FEATURE
100
AcDbLine
 62
7
  6
CONTINUOUS
 10
6.0053672762
 20
5.5726198968
 11
6.0500039689
 21
5.4250212328
  0
LINE
  5
25D
100
AcDbEntity
  8
LAYER_FEATURE
100
AcDbLine
 62
7
  6
CONTINUOUS
 10
6.2553672762
 20
5.5726198968
 11
6.2553672762
 21
5.5976198968
  0
LINE
  5
25E
100
AcDbEntity
  8
LAYER_FEATURE
100
AcDbLine
 62
7
  6
CONTINUOUS
 10
6.3178672762
 20
5.5976198968
 11
6.3178672762
 21
5.5726198968
  0
LINE
  5
25F
100
AcDbEntity
  8
LAYER_FEATURE
100
AcDbLine
 62
7
  6
CONTINUOUS
 10
6.2107305834
 20
5.4250212328
 11
6.2553672762
 21
5.5726198968
  0
LINE
  5
260
100
AcDbEntity
  8
LAYER_FEATURE
100
AcDbLine
 62
7
  6
CONTINUOUS
 10
3.4428672762
 20
5.5976198968
 11
3.5053672762
 21
5.5976198968
  0
LINE
  5
261
100
AcDbEntity
  8
LAYER_FEATURE
100
AcDbLine
 62
7
  6
CONTINUOUS
 10
3.7553672762
 20
5.5976198968
 11
3.8178672762
 21
5.5976198968
  0
LINE
  5
262
100
AcDbEntity
  8
LAYER_FEATURE
100
AcDbLine
 62
7
  6
CONTINUOUS
 10
4.0678672762
 20
5.5976198968
 11
4.1303672762
 21
5.5976198968
  0
LINE
  5
263
100
AcDbEntity
  8
LAYER_FEATURE
100
AcDbLine
 62
7
  6
CONTINUOUS
 10
4.3803672762
 20
5.5976198968
 11
4.4428672762
 21
5.5976198968
  0
LINE
  5
264
100
AcDbEntity
  8
LAYER_FEATURE
100
AcDbLine
 62
7
  6
CONTINUOUS
 10
4.6928672762
 20
5.5976198968
 11
4.7553672762
 21
5.5976198968
  0
LINE
  5
265
100
AcDbEntity
  8
LAYER_FEATURE
100
AcDbLine
 62
7
  6
CONTINUOUS
 10
5.0053672762
 20
5.5976198968
 11
5.0678672762
 21
5.5976198968
  0
LINE
  5
266
100
AcDbEntity
  8
LAYER_FEATURE
100
AcDbLine
 62
7
  6
CONTINUOUS
 10
5.3178672762
 20
5.5976198968
 11
5.3803672762
 21
5.5976198968
  0
LINE
  5
267
100
AcDbEntity
  8
LAYER_FEATURE
100
AcDbLine
 62
7
  6
CONTINUOUS
 10
5.6303672762
 20
5.5976198968
 11
5.6928672762
 21
5.5976198968
  0
LINE
  5
268
100
AcDbEntity
  8
LAYER_FEATURE
100
AcDbLine
 62
7
  6
CONTINUOUS
 10
5.9428672762
 20
5.5976198968
 11
6.0053672762
 21
5.5976198968
  0
LINE
  5
269
100
AcDbEntity
  8
LAYER_FEATURE
100
AcDbLine
 62
7
  6
CONTINUOUS
 10
6.2553672762
 20
5.5976198968
 11
6.3178672762
 21
5.5976198968
  0
LINE
  5
26A
100
AcDbEntity
  8
LAYER_FEATURE
100
AcDbLine
 62
7
  6
CONTINUOUS
 10
6.5678672762
 20
5.5976198968
 11
6.6303672762
 21
5.5976198968
  0
LINE
  5
26B
100
AcDbEntity
  8
LAYER_FEATURE
100
AcDbLine
 62
7
  6
CONTINUOUS
 10
6.8803672762
 20
5.5976198968
 11
6.9428672762
 21
5.5976198968
  0
LINE
  5
26C
100
AcDbEntity
  8
LAYER_FEATURE
100
AcDbLine
 62
7
  6
CONTINUOUS
 10
7.1928672762
 20
5.5976198968
 11
7.2553672762
 21
5.5976198968
  0
LINE
  5
26D
100
AcDbEntity
  8
LAYER_FEATURE
100
AcDbLine
 62
7
  6
CONTINUOUS
 10
7.5053672762
 20
5.5976198968
 11
7.5678672762
 21
5.5976198968
  0
LINE
  5
26E
100
AcDbEntity
  8
LAYER_FEATURE
100
AcDbLine
 62
7
  6
CONTINUOUS
 10
7.8178672762
 20
5.5976198968
 11
7.8803672762
 21
5.5976198968
  0
LINE
  5
26F
100
AcDbEntity
  8
LAYER_FEATURE
100
AcDbLine
 62
7
  6
CONTINUOUS
 10
8.1303672762
 20
5.5976198968
 11
8.1928672762
 21
5.5976198968
  0
LINE
  5
270
100
AcDbEntity
  8
LAYER_FEATURE
100
AcDbLine
 62
7
  6
CONTINUOUS
 10
8.4428672762
 20
5.5976198968
 11
8.5053672762
 21
5.5976198968
  0
LINE
  5
271
100
AcDbEntity
  8
LAYER_FEATURE
100
AcDbLine
 62
7
  6
CONTINUOUS
 10
8.7553672762
 20
5.5976198968
 11
8.8178672762
 21
5.5976198968
  0
LINE
  5
272
100
AcDbEntity
  8
0
100
AcDbLine
 62
7
  6
CONTINUOUS
 10
9.0603672762
 20
5.6226198968
 11
3.2003672762
 21
5.6226198968
  0
LINE
  5
273
100
AcDbEntity
  8
LAYER_FEATURE
100
AcDbLine
 62
7
  6
CONTINUOUS
 10
6.3178672762
 20
5.5726198968
 11
6.3625039689
 21
5.4250212328
  0
LINE
  5
274
100
AcDbEntity
  8
LAYER_FEATURE
100
AcDbLine
 62
7
  6
CONTINUOUS
 10
6.5232305834
 20
5.4250212328
 11
6.5678672762
 21
5.5726198968
  0
LINE
  5
275
100
AcDbEntity
  8
LAYER_FEATURE
100
AcDbLine
 62
7
  6
CONTINUOUS
 10
6.5678672762
 20
5.5726198968
 11
6.5678672762
 21
5.5976198968
  0
LINE
  5
276
100
AcDbEntity
  8
LAYER_FEATURE
100
AcDbLine
 62
7
  6
CONTINUOUS
 10
6.6303672762
 20
5.5976198968
 11
6.6303672762
 21
5.5726198968
  0
LINE
  5
277
100
AcDbEntity
  8
LAYER_FEATURE
100
AcDbLine
 62
7
  6
CONTINUOUS
 10
6.6303672762
 20
5.5726198968
 11
6.6750039689
 21
5.4250212328
  0
LINE
  5
278
100
AcDbEntity
  8
LAYER_FEATURE
100
AcDbLine
 62
7
  6
CONTINUOUS
 10
6.8803672762
 20
5.5726198968
 11
6.8803672762
 21
5.5976198968
  0
LINE
  5
279
100
AcDbEntity
  8
LAYER_FEATURE
100
AcDbLine
 62
7
  6
CONTINUOUS
 10
6.8357305834
 20
5.4250212328
 11
6.8803672762
 21
5.5726198968
  0
LINE
  5
27A
100
AcDbEntity
  8
LAYER_FEATURE
100
AcDbLine
 62
7
  6
CONTINUOUS
 10
6.9428672762
 20
5.5726198968
 11
6.9875039689
 21
5.4250212328
  0
LINE
  5
27B
100
AcDbEntity
  8
LAYER_FEATURE
100
AcDbLine
 62
7
  6
CONTINUOUS
 10
6.9428672762
 20
5.5976198968
 11
6.9428672762
 21
5.5726198968
  0
LINE
  5
27C
100
AcDbEntity
  8
LAYER_FEATURE
100
AcDbLine
 62
7
  6
CONTINUOUS
 10
7.1482305834
 20
5.4250212328
 11
7.1928672762
 21
5.5726198968
  0
LINE
  5
27D
100
AcDbEntity
  8
LAYER_FEATURE
100
AcDbLine
 62
7
  6
CONTINUOUS
 10
7.1928672762
 20
5.5726198968
 11
7.1928672762
 21
5.5976198968
  0
LINE
  5
27E
100
AcDbEntity
  8
LAYER_FEATURE
100
AcDbLine
 62
7
  6
CONTINUOUS
 10
7.2553672762
 20
5.5976198968
 11
7.2553672762
 21
5.5726198968
  0
LINE
  5
27F
100
AcDbEntity
  8
LAYER_FEATURE
100
AcDbLine
 62
7
  6
CONTINUOUS
 10
7.2553672762
 20
5.5726198968
 11
7.3000039689
 21
5.4250212328
  0
LINE
  5
280
100
AcDbEntity
  8
LAYER_FEATURE
100
AcDbLine
 62
7
  6
CONTINUOUS
 10
7.5053672762
 20
5.5726198968
 11
7.5053672762
 21
5.5976198968
  0
LINE
  5
281
100
AcDbEntity
  8
LAYER_FEATURE
100
AcDbLine
 62
7
  6
CONTINUOUS
 10
7.4607305834
 20
5.4250212328
 11
7.5053672762
 21
5.5726198968
  0
LINE
  5
282
100
AcDbEntity
  8
LAYER_FEATURE
100
AcDbLine
 62
7
  6
CONTINUOUS
 10
7.5678672762
 20
5.5726198968
 11
7.6125039689
 21
5.4250212328
  0
LINE
  5
283
100
AcDbEntity
  8
LAYER_FEATURE
100
AcDbLine
 62
7
  6
CONTINUOUS
 10
7.5678672762
 20
5.5976198968
 11
7.5678672762
 21
5.5726198968
  0
LINE
  5
284
100
AcDbEntity
  8
LAYER_FEATURE
100
AcDbLine
 62
7
  6
CONTINUOUS
 10
7.8178672762
 20
5.5726198968
 11
7.8178672762
 21
5.5976198968
  0
LINE
  5
285
100
AcDbEntity
  8
LAYER_FEATURE
100
AcDbLine
 62
7
  6
CONTINUOUS
 10
7.8803672762
 20
5.5976198968
 11
7.8803672762
 21
5.5726198968
  0
LINE
  5
286
100
AcDbEntity
  8
LAYER_FEATURE
100
AcDbLine
 62
7
  6
CONTINUOUS
 10
7.7732305834
 20
5.4250212328
 11
7.8178672762
 21
5.5726198968
  0
LINE
  5
287
100
AcDbEntity
  8
LAYER_FEATURE
100
AcDbLine
 62
7
  6
CONTINUOUS
 10
7.8803672762
 20
5.5726198968
 11
7.9250039689
 21
5.4250212328
  0
LINE
  5
288
100
AcDbEntity
  8
LAYER_FEATURE
100
AcDbLine
 62
7
  6
CONTINUOUS
 10
8.0857305834
 20
5.4250212328
 11
8.1303672762
 21
5.5726198968
  0
LINE
  5
289
100
AcDbEntity
  8
LAYER_FEATURE
100
AcDbLine
 62
7
  6
CONTINUOUS
 10
8.1303672762
 20
5.5726198968
 11
8.1303672762
 21
5.5976198968
  0
LINE
  5
28A
100
AcDbEntity
  8
LAYER_FEATURE
100
AcDbLine
 62
7
  6
CONTINUOUS
 10
8.1928672762
 20
5.5976198968
 11
8.1928672762
 21
5.5726198968
  0
LINE
  5
28B
100
AcDbEntity
  8
LAYER_FEATURE
100
AcDbLine
 62
7
  6
CONTINUOUS
 10
8.1928672762
 20
5.5726198968
 11
8.2375039689
 21
5.4250212328
  0
LINE
  5
28C
100
AcDbEntity
  8
LAYER_FEATURE
100
AcDbLine
 62
7
  6
CONTINUOUS
 10
8.4428672762
 20
5.5726198968
 11
8.4428672762
 21
5.5976198968
  0
LINE
  5
28D
100
AcDbEntity
  8
LAYER_FEATURE
100
AcDbLine
 62
7
  6
CONTINUOUS
 10
8.5053672762
 20
5.5976198968
 11
8.5053672762
 21
5.5726198968
  0
LINE
  5
28E
100
AcDbEntity
  8
LAYER_FEATURE
100
AcDbLine
 62
7
  6
CONTINUOUS
 10
8.3982305834
 20
5.4250212328
 11
8.4428672762
 21
5.5726198968
  0
LINE
  5
28F
100
AcDbEntity
  8
LAYER_FEATURE
100
AcDbLine
 62
7
  6
CONTINUOUS
 10
8.5053672762
 20
5.5726198968
 11
8.5500039689
 21
5.4250212328
  0
LINE
  5
290
100
AcDbEntity
  8
LAYER_FEATURE
100
AcDbLine
 62
7
  6
CONTINUOUS
 10
8.7107305834
 20
5.4250212328
 11
8.7553672762
 21
5.5726198968
  0
LINE
  5
291
100
AcDbEntity
  8
LAYER_FEATURE
100
AcDbLine
 62
7
  6
CONTINUOUS
 10
8.7553672762
 20
5.5726198968
 11
8.7553672762
 21
5.5976198968
  0
LINE
  5
292
100
AcDbEntity
  8
LAYER_FEATURE
100
AcDbLine
 62
7
  6
CONTINUOUS
 10
8.8178672762
 20
5.5976198968
 11
8.8178672762
 21
5.5726198968
  0
LINE
  5
293
100
AcDbEntity
  8
0
100
AcDbLine
 62
7
  6
CONTINUOUS
 10
9.0678672762
 20
5.5726198968
 11
9.0678672762
 21
5.6151198968
  0
LINE
  5
294
100
AcDbEntity
  8
LAYER_FEATURE
100
AcDbLine
 62
7
  6
CONTINUOUS
 10
9.0232305834
 20
5.4250212328
 11
9.0678672762
 21
5.5726198968
  0
LINE
  5
295
100
AcDbEntity
  8
LAYER_FEATURE
100
AcDbLine
 62
7
  6
CONTINUOUS
 10
8.8178672762
 20
5.5726198968
 11
8.8625039689
 21
5.4250212328
  0
LINE
  5
296
100
AcDbEntity
  8
0
100
AcDbLine
 62
7
  6
CONTINUOUS
 10
3.1333720839
 20
13.6000477814
 11
3.1333720839
 21
11.6000477814
  0
LINE
  5
297
100
AcDbEntity
  8
0
100
AcDbLine
 62
7
  6
CONTINUOUS
 10
9.0083720839
 20
11.6000477814
 11
3.1333720839
 21
11.6000477814
  0
LINE
  5
298
100
AcDbEntity
  8
0
100
AcDbLine
 62
7
  6
CONTINUOUS
 10
3.1333720839
 20
13.6000477814
 11
9.0083720839
 21
13.6000477814
  0
LINE
  5
299
100
AcDbEntity
  8
0
100
AcDbLine
 62
7
  6
CONTINUOUS
 10
9.0083720839
 20
11.6000477814
 11
9.0083720839
 21
13.6000477814
  0
LINE
  5
29A
100
AcDbEntity
  8
LAYER_FEATURE
100
AcDbLine
 62
7
  6
CONTINUOUS
 10
14.5603552569
 20
5.3581247044
 11
14.5603552569
 21
5.5131247044
  0
LINE
  5
29B
100
AcDbEntity
  8
0
100
AcDbLine
 62
7
  6
CONTINUOUS
 10
14.5603552569
 20
5.5131247044
 11
14.5603552569
 21
5.5631247044
  0
LINE
  5
29C
100
AcDbEntity
  8
LAYER_FEATURE
100
AcDbLine
 62
7
  6
CONTINUOUS
 10
14.5603552569
 20
5.3581247044
 11
16.5603552569
 21
5.3581247044
  0
LINE
  5
29D
100
AcDbEntity
  8
LAYER_FEATURE
100
AcDbLine
 62
7
  6
CONTINUOUS
 10
16.5603552569
 20
5.5131247044
 11
14.5603552569
 21
5.5131247044
  0
LINE
  5
29E
100
AcDbEntity
  8
0
100
AcDbLine
 62
7
  6
CONTINUOUS
 10
14.5603552569
 20
5.5631247044
 11
16.5603552569
 21
5.5631247044
  0
LINE
  5
29F
100
AcDbEntity
  8
0
100
AcDbLine
 62
7
  6
CONTINUOUS
 10
16.5603552569
 20
5.5631247044
 11
16.5603552569
 21
5.5131247044
  0
LINE
  5
2A0
100
AcDbEntity
  8
LAYER_FEATURE
100
AcDbLine
 62
7
  6
CONTINUOUS
 10
16.5603552569
 20
5.3581247044
 11
16.5603552569
 21
5.5131247044
  0
LINE
  5
2A1
100
AcDbEntity
  8
0
100
AcDbLine
 62
7
  6
CONTINUOUS
 10
12.515099026
 20
11.7865310303
 11
12.5280633053
 21
11.7601126066
  0
LINE
  5
2A2
100
AcDbEntity
  8
0
100
AcDbLine
 62
7
  6
CONTINUOUS
 10
12.5148421356
 20
11.7887451381
 11
12.515099026
 21
11.7865310303
  0
LINE
  5
2A3
100
AcDbEntity
  8
0
100
AcDbLine
 62
7
  6
CONTINUOUS
 10
12.7622392092
 20
11.6683638058
 11
12.7583285538
 21
11.7601126066
  0
LINE
  5
2A4
100
AcDbEntity
  8
0
100
AcDbLine
 62
7
  6
CONTINUOUS
 10
12.5280633053
 20
11.7601126066
 11
12.6142001938
 21
11.6683638058
  0
LINE
  5
2A5
100
AcDbEntity
  8
0
100
AcDbLine
 62
7
  6
CONTINUOUS
 10
12.7583285538
 20
11.7601126066
 11
12.7507025071
 21
11.7756528558
  0
LINE
  5
2A6
100
AcDbEntity
  8
LAYER_FEATURE
100
AcDbLine
 62
7
  6
CONTINUOUS
 10
12.8082688192
 20
11.7756528558
 11
12.8158948659
 21
11.7601126066
  0
LINE
  5
2A7
100
AcDbEntity
  8
LAYER_FEATURE
100
AcDbLine
 62
7
  6
CONTINUOUS
 10
13.0500707698
 20
11.6683638058
 11
13.0461601144
 21
11.7601126066
  0
LINE
  5
2A8
100
AcDbEntity
  8
0
100
AcDbLine
 62
7
  6
CONTINUOUS
 10
12.7620815821
 20
11.6671646664
 11
12.7622392092
 21
11.6683638058
  0
LINE
  5
2A9
100
AcDbEntity
  8
0
100
AcDbLine
 62
7
  6
CONTINUOUS
 10
12.9989739739
 20
13.3553992048
 11
12.5148413271
 21
11.7887453856
  0
LINE
  5
2AA
100
AcDbEntity
  8
LAYER_FEATURE
100
AcDbLine
 62
7
  6
CONTINUOUS
 10
12.8158948659
 20
11.7601126066
 11
12.9020317545
 21
11.6683638058
  0
LINE
  5
2AB
100
AcDbEntity
  8
LAYER_FEATURE
100
AcDbLine
 62
7
  6
CONTINUOUS
 10
13.0461601144
 20
11.7601126066
 11
13.0385340677
 21
11.7756528558
  0
LINE
  5
2AC
100
AcDbEntity
  8
LAYER_FEATURE
100
AcDbLine
 62
7
  6
CONTINUOUS
 10
13.0961003799
 20
11.7756528558
 11
13.1037264265
 21
11.7601126066
  0
LINE
  5
2AD
100
AcDbEntity
  8
LAYER_FEATURE
100
AcDbLine
 62
7
  6
CONTINUOUS
 10
13.0499131428
 20
11.6671646664
 11
13.0500707698
 21
11.6683638058
  0
LINE
  5
2AE
100
AcDbEntity
  8
0
100
AcDbLine
 62
7
  6
CONTINUOUS
 10
12.763130854
 20
11.7756528558
 11
12.7583285538
 21
11.7601126066
  0
LINE
  5
2AF
100
AcDbEntity
  8
0
100
AcDbLine
 62
7
  6
CONTINUOUS
 10
12.7620880908
 20
11.6671626719
 11
12.7956140934
 21
11.7756528558
  0
LINE
  5
2B0
100
AcDbEntity
  8
LAYER_FEATURE
100
AcDbLine
 62
7
  6
CONTINUOUS
 10
13.1037264265
 20
11.7601126066
 11
13.1898633151
 21
11.6683638058
  0
LINE
  5
2B1
100
AcDbEntity
  8
LAYER_FEATURE
100
AcDbLine
 62
7
  6
CONTINUOUS
 10
13.333991675
 20
11.7601126066
 11
13.3263656284
 21
11.7756528558
  0
LINE
  5
2B2
100
AcDbEntity
  8
LAYER_FEATURE
100
AcDbLine
 62
7
  6
CONTINUOUS
 10
13.3379023304
 20
11.6683638058
 11
13.333991675
 21
11.7601126066
  0
LINE
  5
2B3
100
AcDbEntity
  8
LAYER_FEATURE
100
AcDbLine
 62
7
  6
CONTINUOUS
 10
13.0509624146
 20
11.7756528558
 11
13.0461601144
 21
11.7601126066
  0
LINE
  5
2B4
100
AcDbEntity
  8
LAYER_FEATURE
100
AcDbLine
 62
7
  6
CONTINUOUS
 10
13.0499196515
 20
11.6671626719
 11
13.083445654
 21
11.7756528558
  0
LINE
  5
2B5
100
AcDbEntity
  8
LAYER_FEATURE
100
AcDbLine
 62
7
  6
CONTINUOUS
 10
13.3915579872
 20
11.7601126066
 11
13.4776948757
 21
11.6683638058
  0
LINE
  5
2B6
100
AcDbEntity
  8
LAYER_FEATURE
100
AcDbLine
 62
7
  6
CONTINUOUS
 10
13.3839319405
 20
11.7756528558
 11
13.3915579872
 21
11.7601126066
  0
LINE
  5
2B7
100
AcDbEntity
  8
LAYER_FEATURE
100
AcDbLine
 62
7
  6
CONTINUOUS
 10
13.6257338911
 20
11.6683638058
 11
13.6218232357
 21
11.7601126066
  0
LINE
  5
2B8
100
AcDbEntity
  8
LAYER_FEATURE
100
AcDbLine
 62
7
  6
CONTINUOUS
 10
13.3377447034
 20
11.6671646664
 11
13.3379023304
 21
11.6683638058
  0
LINE
  5
2B9
100
AcDbEntity
  8
LAYER_FEATURE
100
AcDbLine
 62
7
  6
CONTINUOUS
 10
13.3387939753
 20
11.7756528558
 11
13.333991675
 21
11.7601126066
  0
LINE
  5
2BA
100
AcDbEntity
  8
LAYER_FEATURE
100
AcDbLine
 62
7
  6
CONTINUOUS
 10
13.6793895478
 20
11.7601126066
 11
13.7655264363
 21
11.6683638058
  0
LINE
  5
2BB
100
AcDbEntity
  8
LAYER_FEATURE
100
AcDbLine
 62
7
  6
CONTINUOUS
 10
13.6218232357
 20
11.7601126066
 11
13.614197189
 21
11.7756528558
  0
LINE
  5
2BC
100
AcDbEntity
  8
LAYER_FEATURE
100
AcDbLine
 62
7
  6
CONTINUOUS
 10
13.6717635011
 20
11.7756528558
 11
13.6793895478
 21
11.7601126066
  0
LINE
  5
2BD
100
AcDbEntity
  8
LAYER_FEATURE
100
AcDbLine
 62
7
  6
CONTINUOUS
 10
13.625576264
 20
11.6671646664
 11
13.6257338911
 21
11.6683638058
  0
LINE
  5
2BE
100
AcDbEntity
  8
LAYER_FEATURE
100
AcDbLine
 62
7
  6
CONTINUOUS
 10
13.3377512121
 20
11.6671626719
 11
13.3712772146
 21
11.7756528558
  0
LINE
  5
2BF
100
AcDbEntity
  8
LAYER_FEATURE
100
AcDbLine
 62
7
  6
CONTINUOUS
 10
13.9096547963
 20
11.7601126066
 11
13.9020287496
 21
11.7756528558
  0
LINE
  5
2C0
100
AcDbEntity
  8
LAYER_FEATURE
100
AcDbLine
 62
7
  6
CONTINUOUS
 10
13.9595950618
 20
11.7756528558
 11
13.9672211084
 21
11.7601126066
  0
LINE
  5
2C1
100
AcDbEntity
  8
LAYER_FEATURE
100
AcDbLine
 62
7
  6
CONTINUOUS
 10
13.9135654517
 20
11.6683638058
 11
13.9096547963
 21
11.7601126066
  0
LINE
  5
2C2
100
AcDbEntity
  8
LAYER_FEATURE
100
AcDbLine
 62
7
  6
CONTINUOUS
 10
13.9134078246
 20
11.6671646664
 11
13.9135654517
 21
11.6683638058
  0
LINE
  5
2C3
100
AcDbEntity
  8
LAYER_FEATURE
100
AcDbLine
 62
7
  6
CONTINUOUS
 10
13.6266255359
 20
11.7756528558
 11
13.6218232357
 21
11.7601126066
  0
LINE
  5
2C4
100
AcDbEntity
  8
LAYER_FEATURE
100
AcDbLine
 62
7
  6
CONTINUOUS
 10
13.6255827727
 20
11.6671626719
 11
13.6591087752
 21
11.7756528558
  0
LINE
  5
2C5
100
AcDbEntity
  8
LAYER_FEATURE
100
AcDbLine
 62
7
  6
CONTINUOUS
 10
13.9672211084
 20
11.7601126066
 11
14.053357997
 21
11.6683638058
  0
LINE
  5
2C6
100
AcDbEntity
  8
LAYER_FEATURE
100
AcDbLine
 62
7
  6
CONTINUOUS
 10
14.1974863569
 20
11.7601126066
 11
14.1898603103
 21
11.7756528558
  0
LINE
  5
2C7
100
AcDbEntity
  8
LAYER_FEATURE
100
AcDbLine
 62
7
  6
CONTINUOUS
 10
14.2474266224
 20
11.7756528558
 11
14.255052669
 21
11.7601126066
  0
LINE
  5
2C8
100
AcDbEntity
  8
LAYER_FEATURE
100
AcDbLine
 62
7
  6
CONTINUOUS
 10
14.2013970123
 20
11.6683638058
 11
14.1974863569
 21
11.7601126066
  0
LINE
  5
2C9
100
AcDbEntity
  8
LAYER_FEATURE
100
AcDbLine
 62
7
  6
CONTINUOUS
 10
13.9144570965
 20
11.7756528558
 11
13.9096547963
 21
11.7601126066
  0
LINE
  5
2CA
100
AcDbEntity
  8
LAYER_FEATURE
100
AcDbLine
 62
7
  6
CONTINUOUS
 10
13.9134143333
 20
11.6671626719
 11
13.9469403359
 21
11.7756528558
  0
LINE
  5
2CB
100
AcDbEntity
  8
LAYER_FEATURE
100
AcDbLine
 62
7
  6
CONTINUOUS
 10
14.255052669
 20
11.7601126066
 11
14.3411895576
 21
11.6683638058
  0
LINE
  5
2CC
100
AcDbEntity
  8
LAYER_FEATURE
100
AcDbLine
 62
7
  6
CONTINUOUS
 10
14.4853179175
 20
11.7601126066
 11
14.4776918709
 21
11.7756528558
  0
LINE
  5
2CD
100
AcDbEntity
  8
LAYER_FEATURE
100
AcDbLine
 62
7
  6
CONTINUOUS
 10
14.4892285729
 20
11.6683638058
 11
14.4853179175
 21
11.7601126066
  0
LINE
  5
2CE
100
AcDbEntity
  8
LAYER_FEATURE
100
AcDbLine
 62
7
  6
CONTINUOUS
 10
14.2012393853
 20
11.6671646664
 11
14.2013970123
 21
11.6683638058
  0
LINE
  5
2CF
100
AcDbEntity
  8
LAYER_FEATURE
100
AcDbLine
 62
7
  6
CONTINUOUS
 10
14.5428842297
 20
11.7601126066
 11
14.6290211182
 21
11.6683638058
  0
LINE
  5
2D0
100
AcDbEntity
  8
LAYER_FEATURE
100
AcDbLine
 62
7
  6
CONTINUOUS
 10
14.535258183
 20
11.7756528558
 11
14.5428842297
 21
11.7601126066
  0
LINE
  5
2D1
100
AcDbEntity
  8
LAYER_FEATURE
100
AcDbLine
 62
7
  6
CONTINUOUS
 10
14.4890709459
 20
11.6671646664
 11
14.4892285729
 21
11.6683638058
  0
LINE
  5
2D2
100
AcDbEntity
  8
LAYER_FEATURE
100
AcDbLine
 62
7
  6
CONTINUOUS
 10
14.2022886571
 20
11.7756528558
 11
14.1974863569
 21
11.7601126066
  0
LINE
  5
2D3
100
AcDbEntity
  8
LAYER_FEATURE
100
AcDbLine
 62
7
  6
CONTINUOUS
 10
14.201245894
 20
11.6671626719
 11
14.2347718965
 21
11.7756528558
  0
LINE
  5
2D4
100
AcDbEntity
  8
0
100
AcDbLine
 62
7
  6
CONTINUOUS
 10
12.6256415279
 20
11.6637630615
 11
12.7553133098
 21
11.6637630615
  0
LINE
  5
2D5
100
AcDbEntity
  8
LAYER_FEATURE
100
AcDbLine
 62
7
  6
CONTINUOUS
 10
12.9134730885
 20
11.6637630615
 11
13.0431448704
 21
11.6637630615
  0
LINE
  5
2D6
100
AcDbEntity
  8
LAYER_FEATURE
100
AcDbLine
 62
7
  6
CONTINUOUS
 10
13.2013046492
 20
11.6637630615
 11
13.3309764311
 21
11.6637630615
  0
LINE
  5
2D7
100
AcDbEntity
  8
LAYER_FEATURE
100
AcDbLine
 62
7
  6
CONTINUOUS
 10
13.4891362098
 20
11.6637630615
 11
13.6188079917
 21
11.6637630615
  0
LINE
  5
2D8
100
AcDbEntity
  8
LAYER_FEATURE
100
AcDbLine
 62
7
  6
CONTINUOUS
 10
13.7769677704
 20
11.6637630615
 11
13.9066395523
 21
11.6637630615
  0
LINE
  5
2D9
100
AcDbEntity
  8
LAYER_FEATURE
100
AcDbLine
 62
7
  6
CONTINUOUS
 10
14.064799331
 20
11.6637630615
 11
14.194471113
 21
11.6637630615
  0
LINE
  5
2DA
100
AcDbEntity
  8
LAYER_FEATURE
100
AcDbLine
 62
7
  6
CONTINUOUS
 10
14.3526308917
 20
11.6637630615
 11
14.4823026736
 21
11.6637630615
  0
LINE
  5
2DB
100
AcDbEntity
  8
LAYER_FEATURE
100
AcDbLine
 62
7
  6
CONTINUOUS
 10
14.6404624523
 20
11.6637630615
 11
14.7701342342
 21
11.6637630615
  0
LINE
  5
2DC
100
AcDbEntity
  8
LAYER_FEATURE
100
AcDbLine
 62
7
  6
CONTINUOUS
 10
14.9282940129
 20
11.6637630615
 11
15.0579657948
 21
11.6637630615
  0
LINE
  5
2DD
100
AcDbEntity
  8
LAYER_FEATURE
100
AcDbLine
 62
7
  6
CONTINUOUS
 10
15.2161255735
 20
11.6637630615
 11
15.3457973555
 21
11.6637630615
  0
LINE
  5
2DE
100
AcDbEntity
  8
LAYER_FEATURE
100
AcDbLine
 62
7
  6
CONTINUOUS
 10
15.5039571342
 20
11.6637630615
 11
15.6336289161
 21
11.6637630615
  0
LINE
  5
2DF
100
AcDbEntity
  8
LAYER_FEATURE
100
AcDbLine
 62
7
  6
CONTINUOUS
 10
15.7917886948
 20
11.6637630615
 11
15.9214604767
 21
11.6637630615
  0
LINE
  5
2E0
100
AcDbEntity
  8
LAYER_FEATURE
100
AcDbLine
 62
7
  6
CONTINUOUS
 10
16.0796202554
 20
11.6637630615
 11
16.2092920373
 21
11.6637630615
  0
LINE
  5
2E1
100
AcDbEntity
  8
LAYER_FEATURE
100
AcDbLine
 62
7
  6
CONTINUOUS
 10
16.367451816
 20
11.6637630615
 11
16.497123598
 21
11.6637630615
  0
LINE
  5
2E2
100
AcDbEntity
  8
LAYER_FEATURE
100
AcDbLine
 62
7
  6
CONTINUOUS
 10
16.6552833767
 20
11.6637630615
 11
16.7849551586
 21
11.6637630615
  0
LINE
  5
2E3
100
AcDbEntity
  8
LAYER_FEATURE
100
AcDbLine
 62
7
  6
CONTINUOUS
 10
16.9431149373
 20
11.6637630615
 11
17.0727867192
 21
11.6637630615
  0
LINE
  5
2E4
100
AcDbEntity
  8
LAYER_FEATURE
100
AcDbLine
 62
7
  6
CONTINUOUS
 10
17.2309464979
 20
11.6637630615
 11
17.3606182798
 21
11.6637630615
  0
LINE
  5
2E5
100
AcDbEntity
  8
LAYER_FEATURE
100
AcDbLine
 62
7
  6
CONTINUOUS
 10
17.5187780585
 20
11.6637630615
 11
17.6484498405
 21
11.6637630615
  0
LINE
  5
2E6
100
AcDbEntity
  8
LAYER_FEATURE
100
AcDbLine
 62
7
  6
CONTINUOUS
 10
17.8066096192
 20
11.6637630615
 11
17.9362814011
 21
11.6637630615
  0
LINE
  5
2E7
100
AcDbEntity
  8
LAYER_FEATURE
100
AcDbLine
 62
7
  6
CONTINUOUS
 10
14.8307157903
 20
11.7601126066
 11
14.9168526788
 21
11.6683638058
  0
LINE
  5
2E8
100
AcDbEntity
  8
LAYER_FEATURE
100
AcDbLine
 62
7
  6
CONTINUOUS
 10
14.7731494782
 20
11.7601126066
 11
14.7655234315
 21
11.7756528558
  0
LINE
  5
2E9
100
AcDbEntity
  8
LAYER_FEATURE
100
AcDbLine
 62
7
  6
CONTINUOUS
 10
14.8230897436
 20
11.7756528558
 11
14.8307157903
 21
11.7601126066
  0
LINE
  5
2EA
100
AcDbEntity
  8
LAYER_FEATURE
100
AcDbLine
 62
7
  6
CONTINUOUS
 10
14.7770601336
 20
11.6683638058
 11
14.7731494782
 21
11.7601126066
  0
LINE
  5
2EB
100
AcDbEntity
  8
LAYER_FEATURE
100
AcDbLine
 62
7
  6
CONTINUOUS
 10
14.4901202178
 20
11.7756528558
 11
14.4853179175
 21
11.7601126066
  0
LINE
  5
2EC
100
AcDbEntity
  8
LAYER_FEATURE
100
AcDbLine
 62
7
  6
CONTINUOUS
 10
14.4890774546
 20
11.6671626719
 11
14.5226034571
 21
11.7756528558
  0
LINE
  5
2ED
100
AcDbEntity
  8
LAYER_FEATURE
100
AcDbLine
 62
7
  6
CONTINUOUS
 10
12.7507025071
 20
11.7756528558
 11
12.8082688192
 21
11.7756528558
  0
LINE
  5
2EE
100
AcDbEntity
  8
LAYER_FEATURE
100
AcDbLine
 62
7
  6
CONTINUOUS
 10
13.0385340677
 20
11.7756528558
 11
13.0961003799
 21
11.7756528558
  0
LINE
  5
2EF
100
AcDbEntity
  8
LAYER_FEATURE
100
AcDbLine
 62
7
  6
CONTINUOUS
 10
13.3263656284
 20
11.7756528558
 11
13.3839319405
 21
11.7756528558
  0
LINE
  5
2F0
100
AcDbEntity
  8
LAYER_FEATURE
100
AcDbLine
 62
7
  6
CONTINUOUS
 10
13.614197189
 20
11.7756528558
 11
13.6717635011
 21
11.7756528558
  0
LINE
  5
2F1
100
AcDbEntity
  8
LAYER_FEATURE
100
AcDbLine
 62
7
  6
CONTINUOUS
 10
13.9020287496
 20
11.7756528558
 11
13.9595950618
 21
11.7756528558
  0
LINE
  5
2F2
100
AcDbEntity
  8
LAYER_FEATURE
100
AcDbLine
 62
7
  6
CONTINUOUS
 10
14.1898603103
 20
11.7756528558
 11
14.2474266224
 21
11.7756528558
  0
LINE
  5
2F3
100
AcDbEntity
  8
LAYER_FEATURE
100
AcDbLine
 62
7
  6
CONTINUOUS
 10
14.4776918709
 20
11.7756528558
 11
14.535258183
 21
11.7756528558
  0
LINE
  5
2F4
100
AcDbEntity
  8
LAYER_FEATURE
100
AcDbLine
 62
7
  6
CONTINUOUS
 10
14.7655234315
 20
11.7756528558
 11
14.8230897436
 21
11.7756528558
  0
LINE
  5
2F5
100
AcDbEntity
  8
LAYER_FEATURE
100
AcDbLine
 62
7
  6
CONTINUOUS
 10
15.0533549921
 20
11.7756528558
 11
15.1109213043
 21
11.7756528558
  0
LINE
  5
2F6
100
AcDbEntity
  8
LAYER_FEATURE
100
AcDbLine
 62
7
  6
CONTINUOUS
 10
15.3411865528
 20
11.7756528558
 11
15.3987528649
 21
11.7756528558
  0
LINE
  5
2F7
100
AcDbEntity
  8
LAYER_FEATURE
100
AcDbLine
 62
7
  6
CONTINUOUS
 10
15.6290181134
 20
11.7756528558
 11
15.6865844255
 21
11.7756528558
  0
LINE
  5
2F8
100
AcDbEntity
  8
LAYER_FEATURE
100
AcDbLine
 62
7
  6
CONTINUOUS
 10
15.916849674
 20
11.7756528558
 11
15.9744159861
 21
11.7756528558
  0
LINE
  5
2F9
100
AcDbEntity
  8
LAYER_FEATURE
100
AcDbLine
 62
7
  6
CONTINUOUS
 10
16.2046812346
 20
11.7756528558
 11
16.2622475468
 21
11.7756528558
  0
LINE
  5
2FA
100
AcDbEntity
  8
LAYER_FEATURE
100
AcDbLine
 62
7
  6
CONTINUOUS
 10
16.4925127953
 20
11.7756528558
 11
16.5500791074
 21
11.7756528558
  0
LINE
  5
2FB
100
AcDbEntity
  8
LAYER_FEATURE
100
AcDbLine
 62
7
  6
CONTINUOUS
 10
16.7803443559
 20
11.7756528558
 11
16.837910668
 21
11.7756528558
  0
LINE
  5
2FC
100
AcDbEntity
  8
LAYER_FEATURE
100
AcDbLine
 62
7
  6
CONTINUOUS
 10
17.0681759165
 20
11.7756528558
 11
17.1257422286
 21
11.7756528558
  0
LINE
  5
2FD
100
AcDbEntity
  8
LAYER_FEATURE
100
AcDbLine
 62
7
  6
CONTINUOUS
 10
17.3560074771
 20
11.7756528558
 11
17.4135737893
 21
11.7756528558
  0
LINE
  5
2FE
100
AcDbEntity
  8
LAYER_FEATURE
100
AcDbLine
 62
7
  6
CONTINUOUS
 10
17.6438390378
 20
11.7756528558
 11
17.7014053499
 21
11.7756528558
  0
LINE
  5
2FF
100
AcDbEntity
  8
0
100
AcDbLine
 62
7
  6
CONTINUOUS
 10
17.9171365943
 20
11.791193105
 11
12.5197191694
 21
11.791193105
  0
LINE
  5
300
100
AcDbEntity
  8
LAYER_FEATURE
100
AcDbLine
 62
7
  6
CONTINUOUS
 10
15.1185473509
 20
11.7601126066
 11
15.2046842395
 21
11.6683638058
  0
LINE
  5
301
100
AcDbEntity
  8
LAYER_FEATURE
100
AcDbLine
 62
7
  6
CONTINUOUS
 10
15.0609810388
 20
11.7601126066
 11
15.0533549921
 21
11.7756528558
  0
LINE
  5
302
100
AcDbEntity
  8
LAYER_FEATURE
100
AcDbLine
 62
7
  6
CONTINUOUS
 10
15.1109213043
 20
11.7756528558
 11
15.1185473509
 21
11.7601126066
  0
LINE
  5
303
100
AcDbEntity
  8
LAYER_FEATURE
100
AcDbLine
 62
7
  6
CONTINUOUS
 10
15.0648916942
 20
11.6683638058
 11
15.0609810388
 21
11.7601126066
  0
LINE
  5
304
100
AcDbEntity
  8
LAYER_FEATURE
100
AcDbLine
 62
7
  6
CONTINUOUS
 10
14.7769025065
 20
11.6671646664
 11
14.7770601336
 21
11.6683638058
  0
LINE
  5
305
100
AcDbEntity
  8
LAYER_FEATURE
100
AcDbLine
 62
7
  6
CONTINUOUS
 10
14.7779517784
 20
11.7756528558
 11
14.7731494782
 21
11.7601126066
  0
LINE
  5
306
100
AcDbEntity
  8
LAYER_FEATURE
100
AcDbLine
 62
7
  6
CONTINUOUS
 10
14.7769090152
 20
11.6671626719
 11
14.8104350177
 21
11.7756528558
  0
LINE
  5
307
100
AcDbEntity
  8
LAYER_FEATURE
100
AcDbLine
 62
7
  6
CONTINUOUS
 10
15.4063789115
 20
11.7601126066
 11
15.4925158001
 21
11.6683638058
  0
LINE
  5
308
100
AcDbEntity
  8
LAYER_FEATURE
100
AcDbLine
 62
7
  6
CONTINUOUS
 10
15.3488125994
 20
11.7601126066
 11
15.3411865528
 21
11.7756528558
  0
LINE
  5
309
100
AcDbEntity
  8
LAYER_FEATURE
100
AcDbLine
 62
7
  6
CONTINUOUS
 10
15.3987528649
 20
11.7756528558
 11
15.4063789115
 21
11.7601126066
  0
LINE
  5
30A
100
AcDbEntity
  8
LAYER_FEATURE
100
AcDbLine
 62
7
  6
CONTINUOUS
 10
15.0647340672
 20
11.6671646664
 11
15.0648916942
 21
11.6683638058
  0
LINE
  5
30B
100
AcDbEntity
  8
LAYER_FEATURE
100
AcDbLine
 62
7
  6
CONTINUOUS
 10
15.6942104722
 20
11.7601126066
 11
15.7803473607
 21
11.6683638058
  0
LINE
  5
30C
100
AcDbEntity
  8
LAYER_FEATURE
100
AcDbLine
 62
7
  6
CONTINUOUS
 10
15.63664416
 20
11.7601126066
 11
15.6290181134
 21
11.7756528558
  0
LINE
  5
30D
100
AcDbEntity
  8
LAYER_FEATURE
100
AcDbLine
 62
7
  6
CONTINUOUS
 10
15.3527232548
 20
11.6683638058
 11
15.3488125994
 21
11.7601126066
  0
LINE
  5
30E
100
AcDbEntity
  8
LAYER_FEATURE
100
AcDbLine
 62
7
  6
CONTINUOUS
 10
15.352566186
 20
11.6671644954
 11
15.3527232548
 21
11.6683638058
  0
LINE
  5
30F
100
AcDbEntity
  8
LAYER_FEATURE
100
AcDbLine
 62
7
  6
CONTINUOUS
 10
15.065783339
 20
11.7756528558
 11
15.0609810388
 21
11.7601126066
  0
LINE
  5
310
100
AcDbEntity
  8
LAYER_FEATURE
100
AcDbLine
 62
7
  6
CONTINUOUS
 10
15.0647405758
 20
11.6671626719
 11
15.0982665784
 21
11.7756528558
  0
LINE
  5
311
100
AcDbEntity
  8
LAYER_FEATURE
100
AcDbLine
 62
7
  6
CONTINUOUS
 10
15.9820420328
 20
11.7601126066
 11
16.0681789213
 21
11.6683638058
  0
LINE
  5
312
100
AcDbEntity
  8
LAYER_FEATURE
100
AcDbLine
 62
7
  6
CONTINUOUS
 10
15.6865844255
 20
11.7756528558
 11
15.6942104722
 21
11.7601126066
  0
LINE
  5
313
100
AcDbEntity
  8
LAYER_FEATURE
100
AcDbLine
 62
7
  6
CONTINUOUS
 10
15.6405548154
 20
11.6683638058
 11
15.63664416
 21
11.7601126066
  0
LINE
  5
314
100
AcDbEntity
  8
LAYER_FEATURE
100
AcDbLine
 62
7
  6
CONTINUOUS
 10
15.3536148996
 20
11.7756528558
 11
15.3488125994
 21
11.7601126066
  0
LINE
  5
315
100
AcDbEntity
  8
LAYER_FEATURE
100
AcDbLine
 62
7
  6
CONTINUOUS
 10
15.3525721365
 20
11.6671626719
 11
15.386098139
 21
11.7756528558
  0
LINE
  5
316
100
AcDbEntity
  8
LAYER_FEATURE
100
AcDbLine
 62
7
  6
CONTINUOUS
 10
16.2698735934
 20
11.7601126066
 11
16.356010482
 21
11.6683638058
  0
LINE
  5
317
100
AcDbEntity
  8
LAYER_FEATURE
100
AcDbLine
 62
7
  6
CONTINUOUS
 10
15.9244757207
 20
11.7601126066
 11
15.916849674
 21
11.7756528558
  0
LINE
  5
318
100
AcDbEntity
  8
LAYER_FEATURE
100
AcDbLine
 62
7
  6
CONTINUOUS
 10
15.9744159861
 20
11.7756528558
 11
15.9820420328
 21
11.7601126066
  0
LINE
  5
319
100
AcDbEntity
  8
LAYER_FEATURE
100
AcDbLine
 62
7
  6
CONTINUOUS
 10
15.9283863761
 20
11.6683638058
 11
15.9244757207
 21
11.7601126066
  0
LINE
  5
31A
100
AcDbEntity
  8
LAYER_FEATURE
100
AcDbLine
 62
7
  6
CONTINUOUS
 10
15.6403971884
 20
11.6671646664
 11
15.6405548154
 21
11.6683638058
  0
LINE
  5
31B
100
AcDbEntity
  8
LAYER_FEATURE
100
AcDbLine
 62
7
  6
CONTINUOUS
 10
15.6414464603
 20
11.7756528558
 11
15.63664416
 21
11.7601126066
  0
LINE
  5
31C
100
AcDbEntity
  8
LAYER_FEATURE
100
AcDbLine
 62
7
  6
CONTINUOUS
 10
15.6404036971
 20
11.6671626719
 11
15.6739296996
 21
11.7756528558
  0
LINE
  5
31D
100
AcDbEntity
  8
LAYER_FEATURE
100
AcDbLine
 62
7
  6
CONTINUOUS
 10
16.557705154
 20
11.7601126066
 11
16.6438420426
 21
11.6683638058
  0
LINE
  5
31E
100
AcDbEntity
  8
LAYER_FEATURE
100
AcDbLine
 62
7
  6
CONTINUOUS
 10
16.2123072813
 20
11.7601126066
 11
16.2046812346
 21
11.7756528558
  0
LINE
  5
31F
100
AcDbEntity
  8
LAYER_FEATURE
100
AcDbLine
 62
7
  6
CONTINUOUS
 10
16.2622475468
 20
11.7756528558
 11
16.2698735934
 21
11.7601126066
  0
LINE
  5
320
100
AcDbEntity
  8
LAYER_FEATURE
100
AcDbLine
 62
7
  6
CONTINUOUS
 10
15.928228749
 20
11.6671646664
 11
15.9283863761
 21
11.6683638058
  0
LINE
  5
321
100
AcDbEntity
  8
LAYER_FEATURE
100
AcDbLine
 62
7
  6
CONTINUOUS
 10
16.8455367147
 20
11.7601126066
 11
16.9316736032
 21
11.6683638058
  0
LINE
  5
322
100
AcDbEntity
  8
LAYER_FEATURE
100
AcDbLine
 62
7
  6
CONTINUOUS
 10
16.5001388419
 20
11.7601126066
 11
16.4925127953
 21
11.7756528558
  0
LINE
  5
323
100
AcDbEntity
  8
LAYER_FEATURE
100
AcDbLine
 62
7
  6
CONTINUOUS
 10
16.2162179367
 20
11.6683638058
 11
16.2123072813
 21
11.7601126066
  0
LINE
  5
324
100
AcDbEntity
  8
LAYER_FEATURE
100
AcDbLine
 62
7
  6
CONTINUOUS
 10
15.9292780209
 20
11.7756528558
 11
15.9244757207
 21
11.7601126066
  0
LINE
  5
325
100
AcDbEntity
  8
LAYER_FEATURE
100
AcDbLine
 62
7
  6
CONTINUOUS
 10
15.9282352577
 20
11.6671626719
 11
15.9617612602
 21
11.7756528558
  0
LINE
  5
326
100
AcDbEntity
  8
0
100
AcDbLine
 62
7
  6
CONTINUOUS
 10
13.0038518162
 20
13.3578469243
 11
18.4012692411
 21
13.3578469243
  0
LINE
  5
327
100
AcDbEntity
  8
LAYER_FEATURE
100
AcDbLine
 62
7
  6
CONTINUOUS
 10
17.1333682753
 20
11.7601126066
 11
17.2195051639
 21
11.6683638058
  0
LINE
  5
328
100
AcDbEntity
  8
LAYER_FEATURE
100
AcDbLine
 62
7
  6
CONTINUOUS
 10
16.5500791074
 20
11.7756528558
 11
16.557705154
 21
11.7601126066
  0
LINE
  5
329
100
AcDbEntity
  8
LAYER_FEATURE
100
AcDbLine
 62
7
  6
CONTINUOUS
 10
16.5040494973
 20
11.6683638058
 11
16.5001388419
 21
11.7601126066
  0
LINE
  5
32A
100
AcDbEntity
  8
LAYER_FEATURE
100
AcDbLine
 62
7
  6
CONTINUOUS
 10
16.2160603097
 20
11.6671646664
 11
16.2162179367
 21
11.6683638058
  0
LINE
  5
32B
100
AcDbEntity
  8
LAYER_FEATURE
100
AcDbLine
 62
7
  6
CONTINUOUS
 10
16.2171095815
 20
11.7756528558
 11
16.2123072813
 21
11.7601126066
  0
LINE
  5
32C
100
AcDbEntity
  8
LAYER_FEATURE
100
AcDbLine
 62
7
  6
CONTINUOUS
 10
16.2160668184
 20
11.6671626719
 11
16.2495928209
 21
11.7756528558
  0
LINE
  5
32D
100
AcDbEntity
  8
LAYER_FEATURE
100
AcDbLine
 62
7
  6
CONTINUOUS
 10
17.4211998359
 20
11.7601126066
 11
17.5073367245
 21
11.6683638058
  0
LINE
  5
32E
100
AcDbEntity
  8
LAYER_FEATURE
100
AcDbLine
 62
7
  6
CONTINUOUS
 10
16.7879704026
 20
11.7601126066
 11
16.7803443559
 21
11.7756528558
  0
LINE
  5
32F
100
AcDbEntity
  8
LAYER_FEATURE
100
AcDbLine
 62
7
  6
CONTINUOUS
 10
16.837910668
 20
11.7756528558
 11
16.8455367147
 21
11.7601126066
  0
LINE
  5
330
100
AcDbEntity
  8
LAYER_FEATURE
100
AcDbLine
 62
7
  6
CONTINUOUS
 10
16.5038918703
 20
11.6671646664
 11
16.5040494973
 21
11.6683638058
  0
LINE
  5
331
100
AcDbEntity
  8
LAYER_FEATURE
100
AcDbLine
 62
7
  6
CONTINUOUS
 10
16.5049411421
 20
11.7756528558
 11
16.5001388419
 21
11.7601126066
  0
LINE
  5
332
100
AcDbEntity
  8
LAYER_FEATURE
100
AcDbLine
 62
7
  6
CONTINUOUS
 10
16.503898379
 20
11.6671626719
 11
16.5374243815
 21
11.7756528558
  0
LINE
  5
333
100
AcDbEntity
  8
LAYER_FEATURE
100
AcDbLine
 62
7
  6
CONTINUOUS
 10
17.7090313966
 20
11.7601126066
 11
17.7951682851
 21
11.6683638058
  0
LINE
  5
334
100
AcDbEntity
  8
LAYER_FEATURE
100
AcDbLine
 62
7
  6
CONTINUOUS
 10
17.0758019632
 20
11.7601126066
 11
17.0681759165
 21
11.7756528558
  0
LINE
  5
335
100
AcDbEntity
  8
LAYER_FEATURE
100
AcDbLine
 62
7
  6
CONTINUOUS
 10
17.1257422286
 20
11.7756528558
 11
17.1333682753
 21
11.7601126066
  0
LINE
  5
336
100
AcDbEntity
  8
LAYER_FEATURE
100
AcDbLine
 62
7
  6
CONTINUOUS
 10
16.7918810579
 20
11.6683638058
 11
16.7879704026
 21
11.7601126066
  0
LINE
  5
337
100
AcDbEntity
  8
LAYER_FEATURE
100
AcDbLine
 62
7
  6
CONTINUOUS
 10
16.7917234309
 20
11.6671646664
 11
16.7918810579
 21
11.6683638058
  0
LINE
  5
338
100
AcDbEntity
  8
LAYER_FEATURE
100
AcDbLine
 62
7
  6
CONTINUOUS
 10
17.3636335238
 20
11.7601126066
 11
17.3560074771
 21
11.7756528558
  0
LINE
  5
339
100
AcDbEntity
  8
LAYER_FEATURE
100
AcDbLine
 62
7
  6
CONTINUOUS
 10
17.4135737893
 20
11.7756528558
 11
17.4211998359
 21
11.7601126066
  0
LINE
  5
33A
100
AcDbEntity
  8
LAYER_FEATURE
100
AcDbLine
 62
7
  6
CONTINUOUS
 10
17.0797126186
 20
11.6683638058
 11
17.0758019632
 21
11.7601126066
  0
LINE
  5
33B
100
AcDbEntity
  8
LAYER_FEATURE
100
AcDbLine
 62
7
  6
CONTINUOUS
 10
16.7927727028
 20
11.7756528558
 11
16.7879704026
 21
11.7601126066
  0
LINE
  5
33C
100
AcDbEntity
  8
LAYER_FEATURE
100
AcDbLine
 62
7
  6
CONTINUOUS
 10
16.7917299396
 20
11.6671626719
 11
16.8252559421
 21
11.7756528558
  0
LINE
  5
33D
100
AcDbEntity
  8
LAYER_FEATURE
100
AcDbLine
 62
7
  6
CONTINUOUS
 10
17.6514650844
 20
11.7601126066
 11
17.6438390378
 21
11.7756528558
  0
LINE
  5
33E
100
AcDbEntity
  8
LAYER_FEATURE
100
AcDbLine
 62
7
  6
CONTINUOUS
 10
17.3675441792
 20
11.6683638058
 11
17.3636335238
 21
11.7601126066
  0
LINE
  5
33F
100
AcDbEntity
  8
LAYER_FEATURE
100
AcDbLine
 62
7
  6
CONTINUOUS
 10
17.0795549915
 20
11.6671646664
 11
17.0797126186
 21
11.6683638058
  0
LINE
  5
340
100
AcDbEntity
  8
LAYER_FEATURE
100
AcDbLine
 62
7
  6
CONTINUOUS
 10
17.0806042634
 20
11.7756528558
 11
17.0758019632
 21
11.7601126066
  0
LINE
  5
341
100
AcDbEntity
  8
LAYER_FEATURE
100
AcDbLine
 62
7
  6
CONTINUOUS
 10
17.0795615002
 20
11.6671626719
 11
17.1130875027
 21
11.7756528558
  0
LINE
  5
342
100
AcDbEntity
  8
LAYER_FEATURE
100
AcDbLine
 62
7
  6
CONTINUOUS
 10
17.7014053499
 20
11.7756528558
 11
17.7090313966
 21
11.7601126066
  0
LINE
  5
343
100
AcDbEntity
  8
LAYER_FEATURE
100
AcDbLine
 62
7
  6
CONTINUOUS
 10
17.3673865522
 20
11.6671646664
 11
17.3675441792
 21
11.6683638058
  0
LINE
  5
344
100
AcDbEntity
  8
LAYER_FEATURE
100
AcDbLine
 62
7
  6
CONTINUOUS
 10
17.368435824
 20
11.7756528558
 11
17.3636335238
 21
11.7601126066
  0
LINE
  5
345
100
AcDbEntity
  8
LAYER_FEATURE
100
AcDbLine
 62
7
  6
CONTINUOUS
 10
17.3673930609
 20
11.6671626719
 11
17.4009190634
 21
11.7756528558
  0
LINE
  5
346
100
AcDbEntity
  8
0
100
AcDbLine
 62
7
  6
CONTINUOUS
 10
17.9392966451
 20
11.7601126066
 11
17.9263323657
 21
11.7865310303
  0
LINE
  5
347
100
AcDbEntity
  8
LAYER_FEATURE
100
AcDbLine
 62
7
  6
CONTINUOUS
 10
17.6553757398
 20
11.6683638058
 11
17.6514650844
 21
11.7601126066
  0
LINE
  5
348
100
AcDbEntity
  8
LAYER_FEATURE
100
AcDbLine
 62
7
  6
CONTINUOUS
 10
17.6552181128
 20
11.6671646664
 11
17.6553757398
 21
11.6683638058
  0
LINE
  5
349
100
AcDbEntity
  8
LAYER_FEATURE
100
AcDbLine
 62
7
  6
CONTINUOUS
 10
17.9432073004
 20
11.6683638058
 11
17.9392966451
 21
11.7601126066
  0
LINE
  5
34A
100
AcDbEntity
  8
LAYER_FEATURE
100
AcDbLine
 62
7
  6
CONTINUOUS
 10
17.6562673846
 20
11.7756528558
 11
17.6514650844
 21
11.7601126066
  0
LINE
  5
34B
100
AcDbEntity
  8
LAYER_FEATURE
100
AcDbLine
 62
7
  6
CONTINUOUS
 10
17.6552246215
 20
11.6671626719
 11
17.688750624
 21
11.7756528558
  0
LINE
  5
34C
100
AcDbEntity
  8
LAYER_FEATURE
100
AcDbLine
 62
7
  6
CONTINUOUS
 10
17.9430496734
 20
11.6671646664
 11
17.9432073004
 21
11.6683638058
  0
LINE
  5
34D
100
AcDbEntity
  8
LAYER_FEATURE
100
AcDbLine
 62
7
  6
CONTINUOUS
 10
18.4234292919
 20
13.3267664259
 11
17.9392966451
 21
11.7601126066
  0
LINE
  5
34E
100
AcDbEntity
  8
LAYER_FEATURE
100
AcDbLine
 62
7
  6
CONTINUOUS
 10
17.9430561821
 20
11.6671626719
 11
18.4271888289
 21
13.2338164912
  0
LINE
  5
34F
100
AcDbEntity
  8
LAYER_FEATURE
100
AcDbLine
 62
7
  6
CONTINUOUS
 10
18.4273399473
 20
13.235017625
 11
18.4234292919
 21
13.3267664259
  0
LINE
  5
350
100
AcDbEntity
  8
LAYER_FEATURE
100
AcDbLine
 62
7
  6
CONTINUOUS
 10
18.4273399473
 20
13.235017625
 11
18.4271823202
 21
13.2338184856
  0
LINE
  5
351
100
AcDbEntity
  8
0
100
AcDbLine
 62
7
  6
CONTINUOUS
 10
18.4104650125
 20
13.3531848495
 11
18.4234292919
 21
13.3267664259
  0
ARC
  5
352
100
AcDbEntity
  8
0
100
AcDbCircle
 62
7
  6
CONTINUOUS
 10
3.2474746622
 20
5.4280365634
 40
0.0104166667
100
AcDbArc
 50
196.8263326308
 51
270.0
  0
ARC
  5
353
100
AcDbEntity
  8
0
100
AcDbCircle
 62
7
  6
CONTINUOUS
 10
3.3882598901
 20
5.4280365634
 40
0.0104166667
100
AcDbArc
 50
270.0
 51
343.1736673692
  0
ARC
  5
354
100
AcDbEntity
  8
LAYER_FEATURE
100
AcDbCircle
 62
7
  6
CONTINUOUS
 10
3.5599746622
 20
5.4280365634
 40
0.0104166667
100
AcDbArc
 50
196.8263326308
 51
270.0
  0
ARC
  5
355
100
AcDbEntity
  8
LAYER_FEATURE
100
AcDbCircle
 62
7
  6
CONTINUOUS
 10
3.7007598901
 20
5.4280365634
 40
0.0104166667
100
AcDbArc
 50
270.0
 51
343.1736673692
  0
ARC
  5
356
100
AcDbEntity
  8
LAYER_FEATURE
100
AcDbCircle
 62
7
  6
CONTINUOUS
 10
3.8724746622
 20
5.4280365634
 40
0.0104166667
100
AcDbArc
 50
196.8263326308
 51
270.0
  0
ARC
  5
357
100
AcDbEntity
  8
LAYER_FEATURE
100
AcDbCircle
 62
7
  6
CONTINUOUS
 10
4.0132598901
 20
5.4280365634
 40
0.0104166667
100
AcDbArc
 50
270.0
 51
343.1736673692
  0
ARC
  5
358
100
AcDbEntity
  8
LAYER_FEATURE
100
AcDbCircle
 62
7
  6
CONTINUOUS
 10
4.1849746622
 20
5.4280365634
 40
0.0104166667
100
AcDbArc
 50
196.8263326308
 51
270.0
  0
ARC
  5
359
100
AcDbEntity
  8
LAYER_FEATURE
100
AcDbCircle
 62
7
  6
CONTINUOUS
 10
4.3257598901
 20
5.4280365634
 40
0.0104166667
100
AcDbArc
 50
270.0
 51
343.1736673692
  0
ARC
  5
35A
100
AcDbEntity
  8
LAYER_FEATURE
100
AcDbCircle
 62
7
  6
CONTINUOUS
 10
4.4974746622
 20
5.4280365634
 40
0.0104166667
100
AcDbArc
 50
196.8263326308
 51
270.0
  0
ARC
  5
35B
100
AcDbEntity
  8
LAYER_FEATURE
100
AcDbCircle
 62
7
  6
CONTINUOUS
 10
4.6382598901
 20
5.4280365634
 40
0.0104166667
100
AcDbArc
 50
270.0
 51
343.1736673692
  0
ARC
  5
35C
100
AcDbEntity
  8
LAYER_FEATURE
100
AcDbCircle
 62
7
  6
CONTINUOUS
 10
4.8099746622
 20
5.4280365634
 40
0.0104166667
100
AcDbArc
 50
196.8263326308
 51
270.0
  0
ARC
  5
35D
100
AcDbEntity
  8
LAYER_FEATURE
100
AcDbCircle
 62
7
  6
CONTINUOUS
 10
4.9507598901
 20
5.4280365634
 40
0.0104166667
100
AcDbArc
 50
270.0
 51
343.1736673692
  0
ARC
  5
35E
100
AcDbEntity
  8
LAYER_FEATURE
100
AcDbCircle
 62
7
  6
CONTINUOUS
 10
5.1224746622
 20
5.4280365634
 40
0.0104166667
100
AcDbArc
 50
196.8263326308
 51
270.0
  0
ARC
  5
35F
100
AcDbEntity
  8
LAYER_FEATURE
100
AcDbCircle
 62
7
  6
CONTINUOUS
 10
5.2632598901
 20
5.4280365634
 40
0.0104166667
100
AcDbArc
 50
270.0
 51
343.1736673692
  0
ARC
  5
360
100
AcDbEntity
  8
LAYER_FEATURE
100
AcDbCircle
 62
7
  6
CONTINUOUS
 10
5.4349746622
 20
5.4280365634
 40
0.0104166667
100
AcDbArc
 50
196.8263326308
 51
270.0
  0
ARC
  5
361
100
AcDbEntity
  8
LAYER_FEATURE
100
AcDbCircle
 62
7
  6
CONTINUOUS
 10
5.5757598901
 20
5.4280365634
 40
0.0104166667
100
AcDbArc
 50
270.0
 51
343.1736673692
  0
ARC
  5
362
100
AcDbEntity
  8
LAYER_FEATURE
100
AcDbCircle
 62
7
  6
CONTINUOUS
 10
5.7474746622
 20
5.4280365634
 40
0.0104166667
100
AcDbArc
 50
196.8263326308
 51
270.0
  0
ARC
  5
363
100
AcDbEntity
  8
LAYER_FEATURE
100
AcDbCircle
 62
7
  6
CONTINUOUS
 10
5.8882598901
 20
5.4280365634
 40
0.0104166667
100
AcDbArc
 50
270.0
 51
343.1736673692
  0
ARC
  5
364
100
AcDbEntity
  8
LAYER_FEATURE
100
AcDbCircle
 62
7
  6
CONTINUOUS
 10
6.0599746622
 20
5.4280365634
 40
0.0104166667
100
AcDbArc
 50
196.8263326308
 51
270.0
  0
ARC
  5
365
100
AcDbEntity
  8
0
100
AcDbCircle
 62
7
  6
CONTINUOUS
 10
3.2003672762
 20
5.6151198968
 40
0.0075
100
AcDbArc
 50
90.0
 51
180.0
  0
ARC
  5
366
100
AcDbEntity
  8
LAYER_FEATURE
100
AcDbCircle
 62
7
  6
CONTINUOUS
 10
6.2007598901
 20
5.4280365634
 40
0.0104166667
100
AcDbArc
 50
270.0
 51
343.1736673692
  0
ARC
  5
367
100
AcDbEntity
  8
LAYER_FEATURE
100
AcDbCircle
 62
7
  6
CONTINUOUS
 10
6.3724746622
 20
5.4280365634
 40
0.0104166667
100
AcDbArc
 50
196.8263326308
 51
270.0
  0
ARC
  5
368
100
AcDbEntity
  8
LAYER_FEATURE
100
AcDbCircle
 62
7
  6
CONTINUOUS
 10
6.5132598901
 20
5.4280365634
 40
0.0104166667
100
AcDbArc
 50
270.0
 51
343.1736673692
  0
ARC
  5
369
100
AcDbEntity
  8
LAYER_FEATURE
100
AcDbCircle
 62
7
  6
CONTINUOUS
 10
6.6849746622
 20
5.4280365634
 40
0.0104166667
100
AcDbArc
 50
196.8263326308
 51
270.0
  0
ARC
  5
36A
100
AcDbEntity
  8
LAYER_FEATURE
100
AcDbCircle
 62
7
  6
CONTINUOUS
 10
6.8257598901
 20
5.4280365634
 40
0.0104166667
100
AcDbArc
 50
270.0
 51
343.1736673692
  0
ARC
  5
36B
100
AcDbEntity
  8
LAYER_FEATURE
100
AcDbCircle
 62
7
  6
CONTINUOUS
 10
6.9974746622
 20
5.4280365634
 40
0.0104166667
100
AcDbArc
 50
196.8263326308
 51
270.0
  0
ARC
  5
36C
100
AcDbEntity
  8
LAYER_FEATURE
100
AcDbCircle
 62
7
  6
CONTINUOUS
 10
7.1382598901
 20
5.4280365634
 40
0.0104166667
100
AcDbArc
 50
270.0
 51
343.1736673692
  0
ARC
  5
36D
100
AcDbEntity
  8
LAYER_FEATURE
100
AcDbCircle
 62
7
  6
CONTINUOUS
 10
7.3099746622
 20
5.4280365634
 40
0.0104166667
100
AcDbArc
 50
196.8263326308
 51
270.0
  0
ARC
  5
36E
100
AcDbEntity
  8
LAYER_FEATURE
100
AcDbCircle
 62
7
  6
CONTINUOUS
 10
7.4507598901
 20
5.4280365634
 40
0.0104166667
100
AcDbArc
 50
270.0
 51
343.1736673692
  0
ARC
  5
36F
100
AcDbEntity
  8
LAYER_FEATURE
100
AcDbCircle
 62
7
  6
CONTINUOUS
 10
7.6224746622
 20
5.4280365634
 40
0.0104166667
100
AcDbArc
 50
196.8263326308
 51
270.0
  0
ARC
  5
370
100
AcDbEntity
  8
LAYER_FEATURE
100
AcDbCircle
 62
7
  6
CONTINUOUS
 10
7.7632598901
 20
5.4280365634
 40
0.0104166667
100
AcDbArc
 50
270.0
 51
343.1736673692
  0
ARC
  5
371
100
AcDbEntity
  8
LAYER_FEATURE
100
AcDbCircle
 62
7
  6
CONTINUOUS
 10
7.9349746622
 20
5.4280365634
 40
0.0104166667
100
AcDbArc
 50
196.8263326308
 51
270.0
  0
ARC
  5
372
100
AcDbEntity
  8
LAYER_FEATURE
100
AcDbCircle
 62
7
  6
CONTINUOUS
 10
8.0757598901
 20
5.4280365634
 40
0.0104166667
100
AcDbArc
 50
270.0
 51
343.1736673692
  0
ARC
  5
373
100
AcDbEntity
  8
LAYER_FEATURE
100
AcDbCircle
 62
7
  6
CONTINUOUS
 10
9.0132598901
 20
5.4280365634
 40
0.0104166667
100
AcDbArc
 50
270.0
 51
343.1736673692
  0
ARC
  5
374
100
AcDbEntity
  8
LAYER_FEATURE
100
AcDbCircle
 62
7
  6
CONTINUOUS
 10
8.8724746622
 20
5.4280365634
 40
0.0104166667
100
AcDbArc
 50
196.8263326308
 51
270.0
  0
ARC
  5
375
100
AcDbEntity
  8
LAYER_FEATURE
100
AcDbCircle
 62
7
  6
CONTINUOUS
 10
8.7007598901
 20
5.4280365634
 40
0.0104166667
100
AcDbArc
 50
270.0
 51
343.1736673692
  0
ARC
  5
376
100
AcDbEntity
  8
LAYER_FEATURE
100
AcDbCircle
 62
7
  6
CONTINUOUS
 10
8.5599746622
 20
5.4280365634
 40
0.0104166667
100
AcDbArc
 50
196.8263326308
 51
270.0
  0
ARC
  5
377
100
AcDbEntity
  8
LAYER_FEATURE
100
AcDbCircle
 62
7
  6
CONTINUOUS
 10
8.3882598901
 20
5.4280365634
 40
0.0104166667
100
AcDbArc
 50
270.0
 51
343.1736673692
  0
ARC
  5
378
100
AcDbEntity
  8
LAYER_FEATURE
100
AcDbCircle
 62
7
  6
CONTINUOUS
 10
8.2474746622
 20
5.4280365634
 40
0.0104166667
100
AcDbArc
 50
196.8263326308
 51
270.0
  0
ARC
  5
379
100
AcDbEntity
  8
0
100
AcDbCircle
 62
7
  6
CONTINUOUS
 10
9.0603672762
 20
5.6151198968
 40
0.0075
100
AcDbArc
 50
0.0
 51
90.0
  0
SPLINE
  5
37A
100
AcDbEntity
  8
0
100
AcDbSpline
 62
7
  6
CONTINUOUS
 70
0
 71
3
 72
11
 73
7
 74
0
 42
0.0000001
 43
0.0000001
 44
0.0000000001
 40
0.0
 40
0.0
 40
0.0
 40
0.0
 40
0.2644444522
 40
0.5366447956
 40
0.7886683147
 40
1.0
 40
1.0
 40
1.0
 40
1.0
 10
18.4012692411
 20
13.3578469243
 30
0.0
 10
18.4022148999
 20
13.3578469243
 30
0.0
 10
18.404137039
 20
13.3575845423
 30
0.0
 10
18.4068079906
 20
13.3566113828
 30
0.0
 10
18.4090272518
 20
13.3551603698
 30
0.0
 10
18.4101320828
 20
13.3538632891
 30
0.0
 10
18.4104650125
 20
13.3531848495
 30
0.0
  0
SPLINE
  5
37B
100
AcDbEntity
  8
0
100
AcDbSpline
 62
7
  6
CONTINUOUS
 70
0
 71
3
 72
11
 73
7
 74
0
 42
0.0000001
 43
0.0000001
 44
0.0000000001
 40
0.0
 40
0.0
 40
0.0
 40
0.0
 40
0.2022595964
 40
0.4301234434
 40
0.6973865799
 40
1.0
 40
1.0
 40
1.0
 40
1.0
 10
12.9989745393
 20
13.355399032
 30
0.0
 10
12.9990881476
 20
13.3557730307
 30
0.0
 10
12.9995398142
 20
13.356511922
 30
0.0
 10
13.000674597
 20
13.3572887482
 30
0.0
 10
13.0021621657
 20
13.3577495374
 30
0.0
 10
13.003267006
 20
13.3578469243
 30
0.0
 10
13.0038518162
 20
13.3578469243
 30
0.0
  0
SPLINE
  5
37C
100
AcDbEntity
  8
LAYER_FEATURE
100
AcDbSpline
 62
7
  6
CONTINUOUS
 70
0
 71
3
 72
11
 73
7
 74
0
 42
0.0000001
 43
0.0000001
 44
0.0000000001
 40
0.0
 40
0.0
 40
0.0
 40
0.0
 40
0.3031989198
 40
0.5698064717
 40
0.7975221248
 40
1.0
 40
1.0
 40
1.0
 40
1.0
 10
17.9362814011
 20
11.6637630615
 30
0.0
 10
17.93709519
 20
11.6637630615
 30
0.0
 10
17.9386301458
 20
11.663894972
 30
0.0
 10
17.9406938888
 20
11.6645389425
 30
0.0
 10
17.9422700804
 20
11.66561649
 30
0.0
 10
17.9428932285
 20
11.6666442007
 30
0.0
 10
17.9430540966
 20
11.6671632982
 30
0.0
  0
SPLINE
  5
37D
100
AcDbEntity
  8
LAYER_FEATURE
100
AcDbSpline
 62
7
  6
CONTINUOUS
 70
0
 71
3
 72
11
 73
7
 74
0
 42
0.0000001
 43
0.0000001
 44
0.0000000001
 40
0.0
 40
0.0
 40
0.0
 40
0.0
 40
0.2303535243
 40
0.4849227465
 40
0.7474881959
 40
1.0
 40
1.0
 40
1.0
 40
1.0
 10
17.7951682851
 20
11.6683638058
 30
0.0
 10
17.7958315261
 20
11.6676573539
 30
0.0
 10
17.7974436184
 20
11.6663705846
 30
0.0
 10
17.8002592228
 20
11.6649337251
 30
0.0
 10
17.8033776194
 20
11.6640037208
 30
0.0
 10
17.8055474076
 20
11.6637630615
 30
0.0
 10
17.8066096192
 20
11.6637630615
 30
0.0
  0
SPLINE
  5
37E
100
AcDbEntity
  8
LAYER_FEATURE
100
AcDbSpline
 62
7
  6
CONTINUOUS
 70
0
 71
3
 72
11
 73
7
 74
0
 42
0.0000001
 43
0.0000001
 44
0.0000000001
 40
0.0
 40
0.0
 40
0.0
 40
0.0
 40
0.3031989198
 40
0.5698064717
 40
0.7975221248
 40
1.0
 40
1.0
 40
1.0
 40
1.0
 10
17.6484498405
 20
11.6637630615
 30
0.0
 10
17.6492636294
 20
11.6637630615
 30
0.0
 10
17.6507985852
 20
11.663894972
 30
0.0
 10
17.6528623282
 20
11.6645389425
 30
0.0
 10
17.6544385197
 20
11.66561649
 30
0.0
 10
17.6550616679
 20
11.6666442007
 30
0.0
 10
17.655222536
 20
11.6671632982
 30
0.0
  0
SPLINE
  5
37F
100
AcDbEntity
  8
LAYER_FEATURE
100
AcDbSpline
 62
7
  6
CONTINUOUS
 70
0
 71
3
 72
11
 73
7
 74
0
 42
0.0000001
 43
0.0000001
 44
0.0000000001
 40
0.0
 40
0.0
 40
0.0
 40
0.0
 40
0.2303535243
 40
0.4849227465
 40
0.7474881959
 40
1.0
 40
1.0
 40
1.0
 40
1.0
 10
17.5073367245
 20
11.6683638058
 30
0.0
 10
17.5079999655
 20
11.6676573539
 30
0.0
 10
17.5096120578
 20
11.6663705846
 30
0.0
 10
17.5124276622
 20
11.6649337251
 30
0.0
 10
17.5155460588
 20
11.6640037208
 30
0.0
 10
17.5177158469
 20
11.6637630615
 30
0.0
 10
17.5187780585
 20
11.6637630615
 30
0.0
  0
SPLINE
  5
380
100
AcDbEntity
  8
LAYER_FEATURE
100
AcDbSpline
 62
7
  6
CONTINUOUS
 70
0
 71
3
 72
11
 73
7
 74
0
 42
0.0000001
 43
0.0000001
 44
0.0000000001
 40
0.0
 40
0.0
 40
0.0
 40
0.0
 40
0.3031989198
 40
0.5698064717
 40
0.7975221248
 40
1.0
 40
1.0
 40
1.0
 40
1.0
 10
17.3606182798
 20
11.6637630615
 30
0.0
 10
17.3614320687
 20
11.6637630615
 30
0.0
 10
17.3629670246
 20
11.663894972
 30
0.0
 10
17.3650307675
 20
11.6645389425
 30
0.0
 10
17.3666069591
 20
11.66561649
 30
0.0
 10
17.3672301073
 20
11.6666442007
 30
0.0
 10
17.3673909754
 20
11.6671632982
 30
0.0
  0
SPLINE
  5
381
100
AcDbEntity
  8
LAYER_FEATURE
100
AcDbSpline
 62
7
  6
CONTINUOUS
 70
0
 71
3
 72
11
 73
7
 74
0
 42
0.0000001
 43
0.0000001
 44
0.0000000001
 40
0.0
 40
0.0
 40
0.0
 40
0.0
 40
0.2303535243
 40
0.4849227465
 40
0.7474881959
 40
1.0
 40
1.0
 40
1.0
 40
1.0
 10
17.2195051639
 20
11.6683638058
 30
0.0
 10
17.2201684049
 20
11.6676573539
 30
0.0
 10
17.2217804972
 20
11.6663705846
 30
0.0
 10
17.2245961015
 20
11.6649337251
 30
0.0
 10
17.2277144982
 20
11.6640037208
 30
0.0
 10
17.2298842863
 20
11.6637630615
 30
0.0
 10
17.2309464979
 20
11.6637630615
 30
0.0
  0
SPLINE
  5
382
100
AcDbEntity
  8
LAYER_FEATURE
100
AcDbSpline
 62
7
  6
CONTINUOUS
 70
0
 71
3
 72
11
 73
7
 74
0
 42
0.0000001
 43
0.0000001
 44
0.0000000001
 40
0.0
 40
0.0
 40
0.0
 40
0.0
 40
0.3031989198
 40
0.5698064717
 40
0.7975221248
 40
1.0
 40
1.0
 40
1.0
 40
1.0
 10
17.0727867192
 20
11.6637630615
 30
0.0
 10
17.0736005081
 20
11.6637630615
 30
0.0
 10
17.0751354639
 20
11.663894972
 30
0.0
 10
17.0771992069
 20
11.6645389425
 30
0.0
 10
17.0787753985
 20
11.66561649
 30
0.0
 10
17.0793985467
 20
11.6666442007
 30
0.0
 10
17.0795594148
 20
11.6671632982
 30
0.0
  0
SPLINE
  5
383
100
AcDbEntity
  8
LAYER_FEATURE
100
AcDbSpline
 62
7
  6
CONTINUOUS
 70
0
 71
3
 72
11
 73
7
 74
0
 42
0.0000001
 43
0.0000001
 44
0.0000000001
 40
0.0
 40
0.0
 40
0.0
 40
0.0
 40
0.2303535243
 40
0.4849227465
 40
0.7474881959
 40
1.0
 40
1.0
 40
1.0
 40
1.0
 10
16.9316736032
 20
11.6683638058
 30
0.0
 10
16.9323368442
 20
11.6676573539
 30
0.0
 10
16.9339489365
 20
11.6663705846
 30
0.0
 10
16.9367645409
 20
11.6649337251
 30
0.0
 10
16.9398829376
 20
11.6640037208
 30
0.0
 10
16.9420527257
 20
11.6637630615
 30
0.0
 10
16.9431149373
 20
11.6637630615
 30
0.0
  0
SPLINE
  5
384
100
AcDbEntity
  8
LAYER_FEATURE
100
AcDbSpline
 62
7
  6
CONTINUOUS
 70
0
 71
3
 72
11
 73
7
 74
0
 42
0.0000001
 43
0.0000001
 44
0.0000000001
 40
0.0
 40
0.0
 40
0.0
 40
0.0
 40
0.3031989198
 40
0.5698064717
 40
0.7975221248
 40
1.0
 40
1.0
 40
1.0
 40
1.0
 10
16.7849551586
 20
11.6637630615
 30
0.0
 10
16.7857689475
 20
11.6637630615
 30
0.0
 10
16.7873039033
 20
11.663894972
 30
0.0
 10
16.7893676463
 20
11.6645389425
 30
0.0
 10
16.7909438379
 20
11.66561649
 30
0.0
 10
16.791566986
 20
11.6666442007
 30
0.0
 10
16.7917278541
 20
11.6671632982
 30
0.0
  0
SPLINE
  5
385
100
AcDbEntity
  8
LAYER_FEATURE
100
AcDbSpline
 62
7
  6
CONTINUOUS
 70
0
 71
3
 72
11
 73
7
 74
0
 42
0.0000001
 43
0.0000001
 44
0.0000000001
 40
0.0
 40
0.0
 40
0.0
 40
0.0
 40
0.2303535243
 40
0.4849227465
 40
0.7474881959
 40
1.0
 40
1.0
 40
1.0
 40
1.0
 10
16.6438420426
 20
11.6683638058
 30
0.0
 10
16.6445052836
 20
11.6676573539
 30
0.0
 10
16.6461173759
 20
11.6663705846
 30
0.0
 10
16.6489329803
 20
11.6649337251
 30
0.0
 10
16.6520513769
 20
11.6640037208
 30
0.0
 10
16.654221165
 20
11.6637630615
 30
0.0
 10
16.6552833767
 20
11.6637630615
 30
0.0
  0
SPLINE
  5
386
100
AcDbEntity
  8
LAYER_FEATURE
100
AcDbSpline
 62
7
  6
CONTINUOUS
 70
0
 71
3
 72
11
 73
7
 74
0
 42
0.0000001
 43
0.0000001
 44
0.0000000001
 40
0.0
 40
0.0
 40
0.0
 40
0.0
 40
0.3031989198
 40
0.5698064717
 40
0.7975221248
 40
1.0
 40
1.0
 40
1.0
 40
1.0
 10
16.497123598
 20
11.6637630615
 30
0.0
 10
16.4979373869
 20
11.6637630615
 30
0.0
 10
16.4994723427
 20
11.663894972
 30
0.0
 10
16.5015360857
 20
11.6645389425
 30
0.0
 10
16.5031122772
 20
11.66561649
 30
0.0
 10
16.5037354254
 20
11.6666442007
 30
0.0
 10
16.5038962935
 20
11.6671632982
 30
0.0
  0
SPLINE
  5
387
100
AcDbEntity
  8
LAYER_FEATURE
100
AcDbSpline
 62
7
  6
CONTINUOUS
 70
0
 71
3
 72
11
 73
7
 74
0
 42
0.0000001
 43
0.0000001
 44
0.0000000001
 40
0.0
 40
0.0
 40
0.0
 40
0.0
 40
0.2303535243
 40
0.4849227465
 40
0.7474881959
 40
1.0
 40
1.0
 40
1.0
 40
1.0
 10
16.356010482
 20
11.6683638058
 30
0.0
 10
16.356673723
 20
11.6676573539
 30
0.0
 10
16.3582858153
 20
11.6663705846
 30
0.0
 10
16.3611014197
 20
11.6649337251
 30
0.0
 10
16.3642198163
 20
11.6640037208
 30
0.0
 10
16.3663896044
 20
11.6637630615
 30
0.0
 10
16.367451816
 20
11.6637630615
 30
0.0
  0
SPLINE
  5
388
100
AcDbEntity
  8
LAYER_FEATURE
100
AcDbSpline
 62
7
  6
CONTINUOUS
 70
0
 71
3
 72
11
 73
7
 74
0
 42
0.0000001
 43
0.0000001
 44
0.0000000001
 40
0.0
 40
0.0
 40
0.0
 40
0.0
 40
0.3031989198
 40
0.5698064717
 40
0.7975221248
 40
1.0
 40
1.0
 40
1.0
 40
1.0
 10
16.2092920373
 20
11.6637630615
 30
0.0
 10
16.2101058262
 20
11.6637630615
 30
0.0
 10
16.2116407821
 20
11.663894972
 30
0.0
 10
16.213704525
 20
11.6645389425
 30
0.0
 10
16.2152807166
 20
11.66561649
 30
0.0
 10
16.2159038648
 20
11.6666442007
 30
0.0
 10
16.2160647329
 20
11.6671632982
 30
0.0
  0
SPLINE
  5
389
100
AcDbEntity
  8
LAYER_FEATURE
100
AcDbSpline
 62
7
  6
CONTINUOUS
 70
0
 71
3
 72
11
 73
7
 74
0
 42
0.0000001
 43
0.0000001
 44
0.0000000001
 40
0.0
 40
0.0
 40
0.0
 40
0.0
 40
0.2303535243
 40
0.4849227465
 40
0.7474881959
 40
1.0
 40
1.0
 40
1.0
 40
1.0
 10
16.0681789213
 20
11.6683638058
 30
0.0
 10
16.0688421624
 20
11.6676573539
 30
0.0
 10
16.0704542547
 20
11.6663705846
 30
0.0
 10
16.073269859
 20
11.6649337251
 30
0.0
 10
16.0763882557
 20
11.6640037208
 30
0.0
 10
16.0785580438
 20
11.6637630615
 30
0.0
 10
16.0796202554
 20
11.6637630615
 30
0.0
  0
SPLINE
  5
38A
100
AcDbEntity
  8
LAYER_FEATURE
100
AcDbSpline
 62
7
  6
CONTINUOUS
 70
0
 71
3
 72
11
 73
7
 74
0
 42
0.0000001
 43
0.0000001
 44
0.0000000001
 40
0.0
 40
0.0
 40
0.0
 40
0.0
 40
0.3031989198
 40
0.5698064717
 40
0.7975221248
 40
1.0
 40
1.0
 40
1.0
 40
1.0
 10
15.9214604767
 20
11.6637630615
 30
0.0
 10
15.9222742656
 20
11.6637630615
 30
0.0
 10
15.9238092214
 20
11.663894972
 30
0.0
 10
15.9258729644
 20
11.6645389425
 30
0.0
 10
15.927449156
 20
11.66561649
 30
0.0
 10
15.9280723042
 20
11.6666442007
 30
0.0
 10
15.9282331723
 20
11.6671632982
 30
0.0
  0
SPLINE
  5
38B
100
AcDbEntity
  8
LAYER_FEATURE
100
AcDbSpline
 62
7
  6
CONTINUOUS
 70
0
 71
3
 72
11
 73
7
 74
0
 42
0.0000001
 43
0.0000001
 44
0.0000000001
 40
0.0
 40
0.0
 40
0.0
 40
0.0
 40
0.2303535243
 40
0.4849227465
 40
0.7474881959
 40
1.0
 40
1.0
 40
1.0
 40
1.0
 10
15.7803473607
 20
11.6683638058
 30
0.0
 10
15.7810106017
 20
11.6676573539
 30
0.0
 10
15.782622694
 20
11.6663705846
 30
0.0
 10
15.7854382984
 20
11.6649337251
 30
0.0
 10
15.7885566951
 20
11.6640037208
 30
0.0
 10
15.7907264832
 20
11.6637630615
 30
0.0
 10
15.7917886948
 20
11.6637630615
 30
0.0
  0
SPLINE
  5
38C
100
AcDbEntity
  8
LAYER_FEATURE
100
AcDbSpline
 62
7
  6
CONTINUOUS
 70
0
 71
3
 72
11
 73
7
 74
0
 42
0.0000001
 43
0.0000001
 44
0.0000000001
 40
0.0
 40
0.0
 40
0.0
 40
0.0
 40
0.3031989198
 40
0.5698064717
 40
0.7975221248
 40
1.0
 40
1.0
 40
1.0
 40
1.0
 10
15.6336289161
 20
11.6637630615
 30
0.0
 10
15.634442705
 20
11.6637630615
 30
0.0
 10
15.6359776608
 20
11.663894972
 30
0.0
 10
15.6380414038
 20
11.6645389425
 30
0.0
 10
15.6396175954
 20
11.66561649
 30
0.0
 10
15.6402407435
 20
11.6666442007
 30
0.0
 10
15.6404016116
 20
11.6671632982
 30
0.0
  0
SPLINE
  5
38D
100
AcDbEntity
  8
LAYER_FEATURE
100
AcDbSpline
 62
7
  6
CONTINUOUS
 70
0
 71
3
 72
11
 73
7
 74
0
 42
0.0000001
 43
0.0000001
 44
0.0000000001
 40
0.0
 40
0.0
 40
0.0
 40
0.0
 40
0.2303535243
 40
0.4849227465
 40
0.7474881959
 40
1.0
 40
1.0
 40
1.0
 40
1.0
 10
15.4925158001
 20
11.6683638058
 30
0.0
 10
15.4931790411
 20
11.6676573539
 30
0.0
 10
15.4947911334
 20
11.6663705846
 30
0.0
 10
15.4976067378
 20
11.6649337251
 30
0.0
 10
15.5007251344
 20
11.6640037208
 30
0.0
 10
15.5028949225
 20
11.6637630615
 30
0.0
 10
15.5039571342
 20
11.6637630615
 30
0.0
  0
SPLINE
  5
38E
100
AcDbEntity
  8
LAYER_FEATURE
100
AcDbSpline
 62
7
  6
CONTINUOUS
 70
0
 71
3
 72
11
 73
7
 74
0
 42
0.0000001
 43
0.0000001
 44
0.0000000001
 40
0.0
 40
0.0
 40
0.0
 40
0.0
 40
0.3031998681
 40
0.5698108327
 40
0.7975264813
 40
1.0
 40
1.0
 40
1.0
 40
1.0
 10
15.3457973555
 20
11.6637630615
 30
0.0
 10
15.3466111472
 20
11.6637630615
 30
0.0
 10
15.3481461138
 20
11.66389498
 30
0.0
 10
15.3502098721
 20
11.664538954
 30
0.0
 10
15.3517860465
 20
11.6656165157
 30
0.0
 10
15.352409204
 20
11.666644208
 30
0.0
 10
15.3525700628
 20
11.6671632963
 30
0.0
  0
SPLINE
  5
38F
100
AcDbEntity
  8
LAYER_FEATURE
100
AcDbSpline
 62
7
  6
CONTINUOUS
 70
0
 71
3
 72
11
 73
7
 74
0
 42
0.0000001
 43
0.0000001
 44
0.0000000001
 40
0.0
 40
0.0
 40
0.0
 40
0.0
 40
0.2303535243
 40
0.4849227465
 40
0.7474881959
 40
1.0
 40
1.0
 40
1.0
 40
1.0
 10
15.2046842395
 20
11.6683638058
 30
0.0
 10
15.2053474805
 20
11.6676573539
 30
0.0
 10
15.2069595728
 20
11.6663705846
 30
0.0
 10
15.2097751772
 20
11.6649337251
 30
0.0
 10
15.2128935738
 20
11.6640037208
 30
0.0
 10
15.2150633619
 20
11.6637630615
 30
0.0
 10
15.2161255735
 20
11.6637630615
 30
0.0
  0
SPLINE
  5
390
100
AcDbEntity
  8
LAYER_FEATURE
100
AcDbSpline
 62
7
  6
CONTINUOUS
 70
0
 71
3
 72
11
 73
7
 74
0
 42
0.0000001
 43
0.0000001
 44
0.0000000001
 40
0.0
 40
0.0
 40
0.0
 40
0.0
 40
0.3031989198
 40
0.5698064717
 40
0.7975221248
 40
1.0
 40
1.0
 40
1.0
 40
1.0
 10
15.0579657948
 20
11.6637630615
 30
0.0
 10
15.0587795837
 20
11.6637630615
 30
0.0
 10
15.0603145396
 20
11.663894972
 30
0.0
 10
15.0623782825
 20
11.6645389425
 30
0.0
 10
15.0639544741
 20
11.66561649
 30
0.0
 10
15.0645776223
 20
11.6666442007
 30
0.0
 10
15.0647384904
 20
11.6671632982
 30
0.0
  0
SPLINE
  5
391
100
AcDbEntity
  8
LAYER_FEATURE
100
AcDbSpline
 62
7
  6
CONTINUOUS
 70
0
 71
3
 72
11
 73
7
 74
0
 42
0.0000001
 43
0.0000001
 44
0.0000000001
 40
0.0
 40
0.0
 40
0.0
 40
0.0
 40
0.2303535243
 40
0.4849227465
 40
0.7474881959
 40
1.0
 40
1.0
 40
1.0
 40
1.0
 10
14.9168526788
 20
11.6683638058
 30
0.0
 10
14.9175159199
 20
11.6676573539
 30
0.0
 10
14.9191280122
 20
11.6663705846
 30
0.0
 10
14.9219436165
 20
11.6649337251
 30
0.0
 10
14.9250620132
 20
11.6640037208
 30
0.0
 10
14.9272318013
 20
11.6637630615
 30
0.0
 10
14.9282940129
 20
11.6637630615
 30
0.0
  0
SPLINE
  5
392
100
AcDbEntity
  8
LAYER_FEATURE
100
AcDbSpline
 62
7
  6
CONTINUOUS
 70
0
 71
3
 72
11
 73
7
 74
0
 42
0.0000001
 43
0.0000001
 44
0.0000000001
 40
0.0
 40
0.0
 40
0.0
 40
0.0
 40
0.3031989198
 40
0.5698064717
 40
0.7975221248
 40
1.0
 40
1.0
 40
1.0
 40
1.0
 10
14.7701342342
 20
11.6637630615
 30
0.0
 10
14.7709480231
 20
11.6637630615
 30
0.0
 10
14.7724829789
 20
11.663894972
 30
0.0
 10
14.7745467219
 20
11.6645389425
 30
0.0
 10
14.7761229135
 20
11.66561649
 30
0.0
 10
14.7767460617
 20
11.6666442007
 30
0.0
 10
14.7769069298
 20
11.6671632982
 30
0.0
  0
SPLINE
  5
393
100
AcDbEntity
  8
LAYER_FEATURE
100
AcDbSpline
 62
7
  6
CONTINUOUS
 70
0
 71
3
 72
11
 73
7
 74
0
 42
0.0000001
 43
0.0000001
 44
0.0000000001
 40
0.0
 40
0.0
 40
0.0
 40
0.0
 40
0.2303535243
 40
0.4849227465
 40
0.7474881959
 40
1.0
 40
1.0
 40
1.0
 40
1.0
 10
14.6290211182
 20
11.6683638058
 30
0.0
 10
14.6296843592
 20
11.6676573539
 30
0.0
 10
14.6312964515
 20
11.6663705846
 30
0.0
 10
14.6341120559
 20
11.6649337251
 30
0.0
 10
14.6372304526
 20
11.6640037208
 30
0.0
 10
14.6394002407
 20
11.6637630615
 30
0.0
 10
14.6404624523
 20
11.6637630615
 30
0.0
  0
SPLINE
  5
394
100
AcDbEntity
  8
LAYER_FEATURE
100
AcDbSpline
 62
7
  6
CONTINUOUS
 70
0
 71
3
 72
11
 73
7
 74
0
 42
0.0000001
 43
0.0000001
 44
0.0000000001
 40
0.0
 40
0.0
 40
0.0
 40
0.0
 40
0.3031989198
 40
0.5698064717
 40
0.7975221248
 40
1.0
 40
1.0
 40
1.0
 40
1.0
 10
14.4823026736
 20
11.6637630615
 30
0.0
 10
14.4831164625
 20
11.6637630615
 30
0.0
 10
14.4846514183
 20
11.663894972
 30
0.0
 10
14.4867151613
 20
11.6645389425
 30
0.0
 10
14.4882913528
 20
11.66561649
 30
0.0
 10
14.488914501
 20
11.6666442007
 30
0.0
 10
14.4890753691
 20
11.6671632982
 30
0.0
  0
SPLINE
  5
395
100
AcDbEntity
  8
LAYER_FEATURE
100
AcDbSpline
 62
7
  6
CONTINUOUS
 70
0
 71
3
 72
11
 73
7
 74
0
 42
0.0000001
 43
0.0000001
 44
0.0000000001
 40
0.0
 40
0.0
 40
0.0
 40
0.0
 40
0.2303535243
 40
0.4849227465
 40
0.7474881959
 40
1.0
 40
1.0
 40
1.0
 40
1.0
 10
14.3411895576
 20
11.6683638058
 30
0.0
 10
14.3418527986
 20
11.6676573539
 30
0.0
 10
14.3434648909
 20
11.6663705846
 30
0.0
 10
14.3462804953
 20
11.6649337251
 30
0.0
 10
14.3493988919
 20
11.6640037208
 30
0.0
 10
14.35156868
 20
11.6637630615
 30
0.0
 10
14.3526308917
 20
11.6637630615
 30
0.0
  0
SPLINE
  5
396
100
AcDbEntity
  8
LAYER_FEATURE
100
AcDbSpline
 62
7
  6
CONTINUOUS
 70
0
 71
3
 72
11
 73
7
 74
0
 42
0.0000001
 43
0.0000001
 44
0.0000000001
 40
0.0
 40
0.0
 40
0.0
 40
0.0
 40
0.3031989198
 40
0.5698064717
 40
0.7975221248
 40
1.0
 40
1.0
 40
1.0
 40
1.0
 10
14.194471113
 20
11.6637630615
 30
0.0
 10
14.1952849018
 20
11.6637630615
 30
0.0
 10
14.1968198577
 20
11.663894972
 30
0.0
 10
14.1988836007
 20
11.6645389425
 30
0.0
 10
14.2004597922
 20
11.66561649
 30
0.0
 10
14.2010829404
 20
11.6666442007
 30
0.0
 10
14.2012438085
 20
11.6671632982
 30
0.0
  0
SPLINE
  5
397
100
AcDbEntity
  8
LAYER_FEATURE
100
AcDbSpline
 62
7
  6
CONTINUOUS
 70
0
 71
3
 72
11
 73
7
 74
0
 42
0.0000001
 43
0.0000001
 44
0.0000000001
 40
0.0
 40
0.0
 40
0.0
 40
0.0
 40
0.2303535243
 40
0.4849227465
 40
0.7474881959
 40
1.0
 40
1.0
 40
1.0
 40
1.0
 10
14.053357997
 20
11.6683638058
 30
0.0
 10
14.054021238
 20
11.6676573539
 30
0.0
 10
14.0556333303
 20
11.6663705846
 30
0.0
 10
14.0584489346
 20
11.6649337251
 30
0.0
 10
14.0615673313
 20
11.6640037208
 30
0.0
 10
14.0637371194
 20
11.6637630615
 30
0.0
 10
14.064799331
 20
11.6637630615
 30
0.0
  0
SPLINE
  5
398
100
AcDbEntity
  8
LAYER_FEATURE
100
AcDbSpline
 62
7
  6
CONTINUOUS
 70
0
 71
3
 72
11
 73
7
 74
0
 42
0.0000001
 43
0.0000001
 44
0.0000000001
 40
0.0
 40
0.0
 40
0.0
 40
0.0
 40
0.3031989198
 40
0.5698064717
 40
0.7975221248
 40
1.0
 40
1.0
 40
1.0
 40
1.0
 10
13.9066395523
 20
11.6637630615
 30
0.0
 10
13.9074533412
 20
11.6637630615
 30
0.0
 10
13.9089882971
 20
11.663894972
 30
0.0
 10
13.91105204
 20
11.6645389425
 30
0.0
 10
13.9126282316
 20
11.66561649
 30
0.0
 10
13.9132513798
 20
11.6666442007
 30
0.0
 10
13.9134122479
 20
11.6671632982
 30
0.0
  0
SPLINE
  5
399
100
AcDbEntity
  8
LAYER_FEATURE
100
AcDbSpline
 62
7
  6
CONTINUOUS
 70
0
 71
3
 72
11
 73
7
 74
0
 42
0.0000001
 43
0.0000001
 44
0.0000000001
 40
0.0
 40
0.0
 40
0.0
 40
0.0
 40
0.2303535243
 40
0.4849227465
 40
0.7474881959
 40
1.0
 40
1.0
 40
1.0
 40
1.0
 10
13.7655264363
 20
11.6683638058
 30
0.0
 10
13.7661896774
 20
11.6676573539
 30
0.0
 10
13.7678017696
 20
11.6663705846
 30
0.0
 10
13.770617374
 20
11.6649337251
 30
0.0
 10
13.7737357707
 20
11.6640037208
 30
0.0
 10
13.7759055588
 20
11.6637630615
 30
0.0
 10
13.7769677704
 20
11.6637630615
 30
0.0
  0
SPLINE
  5
39A
100
AcDbEntity
  8
LAYER_FEATURE
100
AcDbSpline
 62
7
  6
CONTINUOUS
 70
0
 71
3
 72
11
 73
7
 74
0
 42
0.0000001
 43
0.0000001
 44
0.0000000001
 40
0.0
 40
0.0
 40
0.0
 40
0.0
 40
0.3031989198
 40
0.5698064717
 40
0.7975221248
 40
1.0
 40
1.0
 40
1.0
 40
1.0
 10
13.6188079917
 20
11.6637630615
 30
0.0
 10
13.6196217806
 20
11.6637630615
 30
0.0
 10
13.6211567364
 20
11.663894972
 30
0.0
 10
13.6232204794
 20
11.6645389425
 30
0.0
 10
13.624796671
 20
11.66561649
 30
0.0
 10
13.6254198191
 20
11.6666442007
 30
0.0
 10
13.6255806873
 20
11.6671632982
 30
0.0
  0
SPLINE
  5
39B
100
AcDbEntity
  8
LAYER_FEATURE
100
AcDbSpline
 62
7
  6
CONTINUOUS
 70
0
 71
3
 72
11
 73
7
 74
0
 42
0.0000001
 43
0.0000001
 44
0.0000000001
 40
0.0
 40
0.0
 40
0.0
 40
0.0
 40
0.2303535243
 40
0.4849227465
 40
0.7474881959
 40
1.0
 40
1.0
 40
1.0
 40
1.0
 10
13.4776948757
 20
11.6683638058
 30
0.0
 10
13.4783581167
 20
11.6676573539
 30
0.0
 10
13.479970209
 20
11.6663705846
 30
0.0
 10
13.4827858134
 20
11.6649337251
 30
0.0
 10
13.4859042101
 20
11.6640037208
 30
0.0
 10
13.4880739982
 20
11.6637630615
 30
0.0
 10
13.4891362098
 20
11.6637630615
 30
0.0
  0
SPLINE
  5
39C
100
AcDbEntity
  8
LAYER_FEATURE
100
AcDbSpline
 62
7
  6
CONTINUOUS
 70
0
 71
3
 72
11
 73
7
 74
0
 42
0.0000001
 43
0.0000001
 44
0.0000000001
 40
0.0
 40
0.0
 40
0.0
 40
0.0
 40
0.3031989198
 40
0.5698064717
 40
0.7975221248
 40
1.0
 40
1.0
 40
1.0
 40
1.0
 10
13.3309764311
 20
11.6637630615
 30
0.0
 10
13.33179022
 20
11.6637630615
 30
0.0
 10
13.3333251758
 20
11.663894972
 30
0.0
 10
13.3353889188
 20
11.6645389425
 30
0.0
 10
13.3369651103
 20
11.66561649
 30
0.0
 10
13.3375882585
 20
11.6666442007
 30
0.0
 10
13.3377491266
 20
11.6671632982
 30
0.0
  0
SPLINE
  5
39D
100
AcDbEntity
  8
LAYER_FEATURE
100
AcDbSpline
 62
7
  6
CONTINUOUS
 70
0
 71
3
 72
11
 73
7
 74
0
 42
0.0000001
 43
0.0000001
 44
0.0000000001
 40
0.0
 40
0.0
 40
0.0
 40
0.0
 40
0.2303535243
 40
0.4849227465
 40
0.7474881959
 40
1.0
 40
1.0
 40
1.0
 40
1.0
 10
13.1898633151
 20
11.6683638058
 30
0.0
 10
13.1905265561
 20
11.6676573539
 30
0.0
 10
13.1921386484
 20
11.6663705846
 30
0.0
 10
13.1949542528
 20
11.6649337251
 30
0.0
 10
13.1980726494
 20
11.6640037208
 30
0.0
 10
13.2002424375
 20
11.6637630615
 30
0.0
 10
13.2013046492
 20
11.6637630615
 30
0.0
  0
SPLINE
  5
39E
100
AcDbEntity
  8
LAYER_FEATURE
100
AcDbSpline
 62
7
  6
CONTINUOUS
 70
0
 71
3
 72
11
 73
7
 74
0
 42
0.0000001
 43
0.0000001
 44
0.0000000001
 40
0.0
 40
0.0
 40
0.0
 40
0.0
 40
0.3031989198
 40
0.5698064717
 40
0.7975221248
 40
1.0
 40
1.0
 40
1.0
 40
1.0
 10
13.0431448704
 20
11.6637630615
 30
0.0
 10
13.0439586593
 20
11.6637630615
 30
0.0
 10
13.0454936152
 20
11.663894972
 30
0.0
 10
13.0475573582
 20
11.6645389425
 30
0.0
 10
13.0491335497
 20
11.66561649
 30
0.0
 10
13.0497566979
 20
11.6666442007
 30
0.0
 10
13.049917566
 20
11.6671632982
 30
0.0
  0
SPLINE
  5
39F
100
AcDbEntity
  8
LAYER_FEATURE
100
AcDbSpline
 62
7
  6
CONTINUOUS
 70
0
 71
3
 72
11
 73
7
 74
0
 42
0.0000001
 43
0.0000001
 44
0.0000000001
 40
0.0
 40
0.0
 40
0.0
 40
0.0
 40
0.2303535243
 40
0.4849227465
 40
0.7474881959
 40
1.0
 40
1.0
 40
1.0
 40
1.0
 10
12.9020317545
 20
11.6683638058
 30
0.0
 10
12.9026949955
 20
11.6676573539
 30
0.0
 10
12.9043070878
 20
11.6663705846
 30
0.0
 10
12.9071226921
 20
11.6649337251
 30
0.0
 10
12.9102410888
 20
11.6640037208
 30
0.0
 10
12.9124108769
 20
11.6637630615
 30
0.0
 10
12.9134730885
 20
11.6637630615
 30
0.0
  0
SPLINE
  5
3A0
100
AcDbEntity
  8
0
100
AcDbSpline
 62
7
  6
CONTINUOUS
 70
0
 71
3
 72
11
 73
7
 74
0
 42
0.0000001
 43
0.0000001
 44
0.0000000001
 40
0.0
 40
0.0
 40
0.0
 40
0.0
 40
0.3031989198
 40
0.5698064717
 40
0.7975221248
 40
1.0
 40
1.0
 40
1.0
 40
1.0
 10
12.7553133098
 20
11.6637630615
 30
0.0
 10
12.7561270987
 20
11.6637630615
 30
0.0
 10
12.7576620545
 20
11.663894972
 30
0.0
 10
12.7597257975
 20
11.6645389425
 30
0.0
 10
12.7613019891
 20
11.66561649
 30
0.0
 10
12.7619251373
 20
11.6666442007
 30
0.0
 10
12.7620860054
 20
11.6671632982
 30
0.0
  0
SPLINE
  5
3A1
100
AcDbEntity
  8
0
100
AcDbSpline
 62
7
  6
CONTINUOUS
 70
0
 71
3
 72
11
 73
7
 74
0
 42
0.0000001
 43
0.0000001
 44
0.0000000001
 40
0.0
 40
0.0
 40
0.0
 40
0.0
 40
0.2303535243
 40
0.4849227465
 40
0.7474881959
 40
1.0
 40
1.0
 40
1.0
 40
1.0
 10
12.6142001938
 20
11.6683638058
 30
0.0
 10
12.6148634349
 20
11.6676573539
 30
0.0
 10
12.6164755271
 20
11.6663705846
 30
0.0
 10
12.6192911315
 20
11.6649337251
 30
0.0
 10
12.6224095282
 20
11.6640037208
 30
0.0
 10
12.6245793163
 20
11.6637630615
 30
0.0
 10
12.6256415279
 20
11.6637630615
 30
0.0
  0
SPLINE
  5
3A2
100
AcDbEntity
  8
0
100
AcDbSpline
 62
7
  6
CONTINUOUS
 70
0
 71
3
 72
11
 73
7
 74
0
 42
0.0000001
 43
0.0000001
 44
0.0000000001
 40
0.0
 40
0.0
 40
0.0
 40
0.0
 40
0.2113316853
 40
0.4633552044
 40
0.7355555478
 40
1.0
 40
1.0
 40
1.0
 40
1.0
 10
17.9263323657
 20
11.7865310303
 30
0.0
 10
17.9259994359
 20
11.7872094698
 30
0.0
 10
17.924894605
 20
11.7885065506
 30
0.0
 10
17.9226753438
 20
11.7899575635
 30
0.0
 10
17.9200043922
 20
11.790930723
 30
0.0
 10
17.9180822531
 20
11.791193105
 30
0.0
 10
17.9171365943
 20
11.791193105
 30
0.0
  0
SPLINE
  5
3A3
100
AcDbEntity
  8
0
100
AcDbSpline
 62
7
  6
CONTINUOUS
 70
0
 71
3
 72
11
 73
7
 74
0
 42
0.0000001
 43
0.0000001
 44
0.0000000001
 40
0.0
 40
0.0
 40
0.0
 40
0.0
 40
0.3026134201
 40
0.5698765566
 40
0.7977404036
 40
1.0
 40
1.0
 40
1.0
 40
1.0
 10
12.5197191694
 20
11.791193105
 30
0.0
 10
12.5191343592
 20
11.791193105
 30
0.0
 10
12.5180295189
 20
11.7910957182
 30
0.0
 10
12.5165419502
 20
11.790634929
 30
0.0
 10
12.5154071674
 20
11.7898581027
 30
0.0
 10
12.5149555008
 20
11.7891192115
 30
0.0
 10
12.5148418925
 20
11.7887452128
 30
0.0
  0
ENDSEC
  0
SECTION
  2
OBJECTS
  0
DICTIONARY
  5
C
100
AcDbDictionary
280
0
281
1
  3
ACAD_GROUP
350
D
  3
ACAD_MLINESTYLE
350
17
  3
ACAD_LAYOUT
350
1A
  3
ACAD_PLOTSETTINGS
350
19
  3
ACAD_PLOTSTYLENAME
350
E
  0
DICTIONARY
  5
D
102
{ACAD_REACTORS
330
C
102
}
100
AcDbDictionary
280
0
281
1
  0
ACDBDICTIONARYWDFLT
  5
E
102
{ACAD_REACTORS
330
C
102
}
100
AcDbDictionary
281
1
  3
Normal
350
F
100
AcDbDictionaryWithDefault
340
F
  0
DICTIONARY
  5
17
102
{ACAD_REACTORS
330
C
102
}
100
AcDbDictionary
280
0
281
1
  3
Standard
350
18
  0
DICTIONARY
  5
19
102
{ACAD_REACTORS
330
C
102
}
100
AcDbDictionary
281
1
  0
DICTIONARY
  5
1A
102
{ACAD_REACTORS
330
C
102
}
100
AcDbDictionary
281
1
  3
Model
350
3A4
  3
Layout1
350
3A5
  0
ACDBPLACEHOLDER
  5
F
102
{ACAD_REACTORS
330
E
102
}
  0
MLINESTYLE
  5
18
102
{ACAD_REACTORS
330
17
102
}
100
AcDbMlineStyle
  2
STANDARD
 70
0
  3

 62
256
 51
90.0
 52
90.0
 71
2
 49
0.5
 62
256
  6
BYLAYER
 49
-0.5
 62
256
  6
BYLAYER
  0
LAYOUT
  5
3A4
102
{ACAD_REACTORS
330
1A
102
}
100
AcDbPlotSettings
  1

  2
none_device
  4
ANSI_C_(22.00_x_17.00_Inches)
  6

 40
0.0
 41
0.0
 42
0.0
 43
0.0
 44
558.8
 45
431.8
 46
0.0
 47
0.0
 48
0.0
 49
0.0
140
0.0
141
0.0
142
1.0
143
1.0
 70
1024
 72
0
 73
0
 74
0
  7

 75
0
147
1.0
148
0.0
149
0.0
100
AcDbLayout
  1
Model
 70
0
 71
0
 10
0.0
 20
0.0
 11
22.0
 21
17.0
 12
0.0
 22
0.0
 32
0.0
 14
0.0
 24
0.0
 34
0.0
 15
0.0
 25
0.0
 35
0.0
146
0.0
 13
0.0
 23
0.0
 33
0.0
 16
1.0
 26
0.0
 36
0.0
 17
0.0
 27
1.0
 37
0.0
 76
0
330
21C
345
0
346
0
  0
LAYOUT
  5
3A5
102
{ACAD_REACTORS
330
1A
102
}
100
AcDbPlotSettings
  1

  2
none_device
  4
ANSI_C_(22.00_x_17.00_Inches)
  6

 40
0.0
 41
0.0
 42
0.0
 43
0.0
 44
558.8
 45
431.8
 46
0.0
 47
0.0
 48
0.0
 49
0.0
140
0.0
141
0.0
142
1.0
143
1.0
 70
0
 72
0
 73
0
 74
0
  7

 75
0
147
1.0
148
0.0
149
0.0
100
AcDbLayout
  1
Layout1
 70
0
 71
1
 10
0.0
 20
0.0
 11
22.0
 21
17.0
 12
0.0
 22
0.0
 32
0.0
 14
0.0
 24
0.0
 34
0.0
 15
0.0
 25
0.0
 35
0.0
146
0.0
 13
0.0
 23
0.0
 33
0.0
 16
1.0
 26
0.0
 36
0.0
 17
0.0
 27
1.0
 37
0.0
 76
0
330
21D
345
0
346
0
  0
ENDSEC
  0
EOF