999
DXF file: _cgs_temp_output.dxf
999
Pro/ENGINEER 2015110 by Parametric Technology Corporation
  0
SECTION
  2
HEADER
  9
$ACADVER
  1
AC1021
  9
$DWGCODEPAGE
  3
ANSI_1252
  9
$EXTMAX
 10
22.0
 20
17.0
 30
0.0
  9
$EXTMIN
 10
0.0
 20
0.0
 30
0.0
  9
$LIMMIN
 10
0.0
 20
0.0
  9
$LIMMAX
 10
22.0
 20
17.0
  9
$VIEWCTR
 10
11.0
 20
8.5
  9
$VIEWSIZE
 40
17.0
  9
$CLAYER
  8
0
  9
$LTSCALE
 40
1.21
  9
$CELTYPE
  6
BYLAYER
  9
$DIMSCALE
 40
1.0
  9
$DIMASZ
 40
0.1875
  9
$DIMEXO
 40
0.0625
  9
$DIMDLI
 40
0.836
  9
$DIMEXE
 40
0.125
  9
$DIMCEN
 40
0.198
  9
$DIMLFAC
 40
1.0
  9
$DIMBLK
  1
_CLOSED
  9
$DIMALT
 70
0
  9
$DIMALTF
 40
25.4
  9
$DIMTXT
 40
0.15625
  9
$DIMTOL
 70
0
  9
$DIMLIM
 70
0
  9
$DIMTFAC
 40
1.0
  9
$DIMGAP
 40
0.09
  9
$DIMDSEP
 70
46
  9
$AUNITS
 70
0
  9
$PDMODE
 70
3
  9
$PDSIZE
 40
0.3125
  9
$HANDSEED
  5
2A3
  9
$TILEMODE
 70
1
  9
$MEASUREMENT
 70
0
  9
$INSUNITS
 70
1
  0
ENDSEC
  0
SECTION
  2
CLASSES
  0
CLASS
  1
ACDBDICTIONARYWDFLT
  2
AcDbDictionaryWithDefault
  3
AutoCAD 2000
 90
0
 91
1
280
0
281
0
  0
CLASS
  1
ACDBPLACEHOLDER
  2
AcDbPlaceHolder
  3
AutoCAD 2000
 90
0
 91
1
280
0
281
0
  0
CLASS
  1
LAYOUT
  2
AcDbLayout
  3
AutoCAD 2000
 90
0
 91
0
280
0
281
0
  0
ENDSEC
  0
SECTION
  2
TABLES
  0
TABLE
  2
VPORT
  5
8
100
AcDbSymbolTable
 70
2
  0
VPORT
  5
1F4
100
AcDbSymbolTableRecord
100
AcDbViewportTableRecord
  2
*ACTIVE
 70
0
 10
0.0
 20
0.0
 11
1.0
 21
1.0
 12
11.0
 22
8.5
 13
0.0
 23
0.0
 14
1.0
 24
1.0
 15
0.0
 25
0.0
 16
0.0
 26
0.0
 36
1.0
 17
0.0
 27
0.0
 37
0.0
 40
17.0
 41
1.2941176471
 42
50.0
 43
0.0
 44
0.0
 50
0.0
 51
0.0
 71
0
 72
100
 73
1
 74
1
 75
0
 76
0
 77
0
 78
0
  0
ENDTAB
  0
TABLE
  2
LTYPE
  5
5
100
AcDbSymbolTable
 70
6
  0
LTYPE
  5
14
100
AcDbSymbolTableRecord
100
AcDbLinetypeTableRecord
  2
BYBLOCK
 70
0
  3

 72
65
 73
0
 40
0.0
  0
LTYPE
  5
15
100
AcDbSymbolTableRecord
100
AcDbLinetypeTableRecord
  2
BYLAYER
 70
0
  3

 72
65
 73
0
 40
0.0
  0
LTYPE
  5
16
100
AcDbSymbolTableRecord
100
AcDbLinetypeTableRecord
  2
CONTINUOUS
 70
64
  3
Solid line
 72
65
 73
0
 40
0.0
  0
LTYPE
  5
1F5
100
AcDbSymbolTableRecord
100
AcDbLinetypeTableRecord
  2
CENTER
 70
64
  3
____ _ ____ _ ____ _ ____ _ ____ _ ____ _ ____
 72
65
 73
4
 40
0.6
 49
0.375
 74
0
 49
-0.075
 74
0
 49
0.075
 74
0
 49
-0.075
 74
0
  0
LTYPE
  5
1F6
100
AcDbSymbolTableRecord
100
AcDbLinetypeTableRecord
  2
HIDDEN
 70
64
  3
- - - - - - - - - - - - - - - - - - - -
 72
65
 73
2
 40
0.2
 49
0.1
 74
0
 49
-0.1
 74
0
  0
LTYPE
  5
1F7
100
AcDbSymbolTableRecord
100
AcDbLinetypeTableRecord
  2
PHANTOM
 70
64
  3
_____ _ _ _____ _ _ _____ _ _ _____
 72
65
 73
6
 40
0.8
 49
0.45
 74
0
 49
-0.05
 74
0
 49
0.1
 74
0
 49
-0.05
 74
0
 49
0.1
 74
0
 49
-0.05
 74
0
  0
LTYPE
  5
1F8
100
AcDbSymbolTableRecord
100
AcDbLinetypeTableRecord
  2
DOT
 70
64
  3
. . . . . . . . . . . . . . . . . . . .
 72
65
 73
2
 40
0.2
 49
0.1
 74
0
 49
-0.1
 74
0
  0
LTYPE
  5
1F9
100
AcDbSymbolTableRecord
100
AcDbLinetypeTableRecord
  2
DASHED
 70
64
  3
- - - - - - - - - - - - - - - - - - - -
 72
65
 73
2
 40
0.2
 49
0.1
 74
0
 49
-0.1
 74
0
  0
ENDTAB
  0
TABLE
  2
LAYER
  5
2
100
AcDbSymbolTable
 70
36
  0
LAYER
  5
10
100
AcDbSymbolTableRecord
100
AcDbLayerTableRecord
  2
0
 70
0
 62
7
  6
CONTINUOUS
370
-3
390
F
  0
LAYER
  5
1FA
100
AcDbSymbolTableRecord
100
AcDbLayerTableRecord
  2
DEFAULT_1
 70
0
 62
7
  6
CENTER
370
-3
390
F
  0
LAYER
  5
1FB
100
AcDbSymbolTableRecord
100
AcDbLayerTableRecord
  2
DEFAULT_2
 70
0
 62
8
  6
HIDDEN
370
-3
390
F
  0
LAYER
  5
1FC
100
AcDbSymbolTableRecord
100
AcDbLayerTableRecord
  2
DEFAULT_3
 70
0
 62
7
  6
PHANTOM
370
-3
390
F
  0
LAYER
  5
1FD
100
AcDbSymbolTableRecord
100
AcDbLayerTableRecord
  2
01_ALL_DTM_PLN
 70
0
 62
7
  6
CONTINUOUS
370
-3
390
F
  0
LAYER
  5
1FE
100
AcDbSymbolTableRecord
100
AcDbLayerTableRecord
  2
01__ASM_ALL_DTM_PLN
 70
0
 62
7
  6
CONTINUOUS
370
-3
390
F
  0
LAYER
  5
1FF
100
AcDbSymbolTableRecord
100
AcDbLayerTableRecord
  2
01__ASM_DEF_DTM_PLN
 70
0
 62
7
  6
CONTINUOUS
370
-3
390
F
  0
LAYER
  5
200
100
AcDbSymbolTableRecord
100
AcDbLayerTableRecord
  2
01___PRT_ALL_DTM_PLN
 70
0
 62
7
  6
CONTINUOUS
370
-3
390
F
  0
LAYER
  5
201
100
AcDbSymbolTableRecord
100
AcDbLayerTableRecord
  2
01___PRT_DEF_DTM_PLN
 70
0
 62
7
  6
CONTINUOUS
370
-3
390
F
  0
LAYER
  5
202
100
AcDbSymbolTableRecord
100
AcDbLayerTableRecord
  2
02_ALL_AXES
 70
0
 62
7
  6
CONTINUOUS
370
-3
390
F
  0
LAYER
  5
203
100
AcDbSymbolTableRecord
100
AcDbLayerTableRecord
  2
02__ASM_ALL_AXES
 70
0
 62
7
  6
CONTINUOUS
370
-3
390
F
  0
LAYER
  5
204
100
AcDbSymbolTableRecord
100
AcDbLayerTableRecord
  2
02___PRT_ALL_AXES
 70
0
 62
7
  6
CONTINUOUS
370
-3
390
F
  0
LAYER
  5
205
100
AcDbSymbolTableRecord
100
AcDbLayerTableRecord
  2
03_ALL_CURVES
 70
0
 62
7
  6
CONTINUOUS
370
-3
390
F
  0
LAYER
  5
206
100
AcDbSymbolTableRecord
100
AcDbLayerTableRecord
  2
03__ASM_ALL_CURVES
 70
0
 62
7
  6
CONTINUOUS
370
-3
390
F
  0
LAYER
  5
207
100
AcDbSymbolTableRecord
100
AcDbLayerTableRecord
  2
03___PRT_ALL_CURVES
 70
0
 62
7
  6
CONTINUOUS
370
-3
390
F
  0
LAYER
  5
208
100
AcDbSymbolTableRecord
100
AcDbLayerTableRecord
  2
04_ALL_DTM_PNT
 70
0
 62
7
  6
CONTINUOUS
370
-3
390
F
  0
LAYER
  5
209
100
AcDbSymbolTableRecord
100
AcDbLayerTableRecord
  2
04__ASM_ALL_DTM_PNT
 70
0
 62
7
  6
CONTINUOUS
370
-3
390
F
  0
LAYER
  5
20A
100
AcDbSymbolTableRecord
100
AcDbLayerTableRecord
  2
04___PRT_ALL_DTM_PNT
 70
0
 62
7
  6
CONTINUOUS
370
-3
390
F
  0
LAYER
  5
20B
100
AcDbSymbolTableRecord
100
AcDbLayerTableRecord
  2
05_ALL_DTM_CSYS
 70
0
 62
7
  6
CONTINUOUS
370
-3
390
F
  0
LAYER
  5
20C
100
AcDbSymbolTableRecord
100
AcDbLayerTableRecord
  2
05__ASM_ALL_DTM_CSYS
 70
0
 62
7
  6
CONTINUOUS
370
-3
390
F
  0
LAYER
  5
20D
100
AcDbSymbolTableRecord
100
AcDbLayerTableRecord
  2
05__ASM_DEF_DTM_CSYS
 70
0
 62
7
  6
CONTINUOUS
370
-3
390
F
  0
LAYER
  5
20E
100
AcDbSymbolTableRecord
100
AcDbLayerTableRecord
  2
05___PRT_ALL_DTM_CSYS
 70
0
 62
7
  6
CONTINUOUS
370
-3
390
F
  0
LAYER
  5
20F
100
AcDbSymbolTableRecord
100
AcDbLayerTableRecord
  2
05___PRT_DEF_DTM_CSYS
 70
0
 62
7
  6
CONTINUOUS
370
-3
390
F
  0
LAYER
  5
210
100
AcDbSymbolTableRecord
100
AcDbLayerTableRecord
  2
06_ALL_SURFS
 70
0
 62
7
  6
CONTINUOUS
370
-3
390
F
  0
LAYER
  5
211
100
AcDbSymbolTableRecord
100
AcDbLayerTableRecord
  2
06__ASM_ALL_SURFS
 70
0
 62
7
  6
CONTINUOUS
370
-3
390
F
  0
LAYER
  5
212
100
AcDbSymbolTableRecord
100
AcDbLayerTableRecord
  2
06___PRT_ALL_SURFS
 70
0
 62
7
  6
CONTINUOUS
370
-3
390
F
  0
LAYER
  5
213
100
AcDbSymbolTableRecord
100
AcDbLayerTableRecord
  2
07__ASM_ALL_SKELETONS
 70
0
 62
7
  6
CONTINUOUS
370
-3
390
F
  0
ENDTAB
  0
TABLE
  2
STYLE
  5
3
100
AcDbSymbolTable
 70
1
  0
STYLE
  5
11
100
AcDbSymbolTableRecord
100
AcDbTextStyleTableRecord
  2
STANDARD
 70
0
 40
0.0
 41
0.8
 50
0.0
 71
0
 42
0.2
  3
txt
  4

  0
STYLE
  5
214
100
AcDbSymbolTableRecord
100
AcDbTextStyleTableRecord
  2
TEXTSTYLE_1
 70
0
 40
0.0
 41
0.8
 50
0.0
 71
0
 42
0.2
  3
gdt
  4

  0
ENDTAB
  0
TABLE
  2
VIEW
  5
6
100
AcDbSymbolTable
 70
0
  0
ENDTAB
  0
TABLE
  2
UCS
  5
7
100
AcDbSymbolTable
 70
0
  0
ENDTAB
  0
TABLE
  2
APPID
  5
9
100
AcDbSymbolTable
 70
1
  0
APPID
  5
215
100
AcDbSymbolTableRecord
100
AcDbRegAppTableRecord
  2
ACAD
 70
0
  0
ENDTAB
  0
TABLE
  2
BLOCK_RECORD
  5
1
100
AcDbSymbolTable
 70
0
  0
BLOCK_RECORD
  5
216
100
AcDbSymbolTableRecord
100
AcDbBlockTableRecord
  2
*Model_Space
  0
BLOCK_RECORD
  5
217
100
AcDbSymbolTableRecord
100
AcDbBlockTableRecord
  2
*Paper_Space
  0
ENDTAB
  0
TABLE
  2
DIMSTYLE
  5
A
100
AcDbSymbolTable
 70
1
100
AcDbDimStyleTable
 71
0
  0
DIMSTYLE
105
218
100
AcDbSymbolTableRecord
100
AcDbDimStyleTableRecord
  2
STANDARD
 70
0
  3

  4

 40
1.0
 41
0.1875
 42
0.0625
 43
0.38
 44
0.125
 45
0.0
 46
0.0
 47
0.0001
 48
0.0001
140
0.15625
141
0.09
142
0.0
143
25.4
144
1.0
145
0.0
146
1.0
147
0.09
 71
0.0
 72
0.0
 73
1
 74
1
 75
0
 76
0
 77
0
 78
4
170
0
171
2
172
0
173
0
174
0
175
0
176
0
177
0
178
0
270
2
271
4
272
4
273
2
274
2
275
0
280
0
281
0
282
0
283
1
284
4
285
0
286
0
287
3
288
0
340
11
278
46
  0
ENDTAB
  0
ENDSEC
  0
SECTION
  2
BLOCKS
  0
BLOCK
  5
20
100
AcDbEntity
  8
0
100
AcDbBlockBegin
  2
*Model_Space
 70
0
 10
0.0
 20
0.0
 30
0.0
  3
*Model_Space
  1

  0
ENDBLK
  5
21
100
AcDbEntity
  8
0
100
AcDbBlockEnd
  0
BLOCK
  5
1C
100
AcDbEntity
  8
0
100
AcDbBlockBegin
  2
*Paper_Space
 70
0
 10
0.0
 20
0.0
 30
0.0
  3
*Paper_Space
  1

  0
ENDBLK
  5
1D
100
AcDbEntity
  8
0
100
AcDbBlockEnd
  0
ENDSEC
  0
SECTION
  2
ENTITIES
  0
MTEXT
  5
219
100
AcDbEntity
  8
0
100
AcDbMText
 62
7
  6
CONTINUOUS
  7
STANDARD
 71
1
 72
1
 10
15.9560215477
 20
0.9479130325
 30
0.0
 11
1.0
 21
0.0
 31
0.0
 44
0.9
  1
SCALE: 1:1.000
 40
0.3
 41
3.36
  0
LINE
  5
21A
100
AcDbEntity
  8
0
100
AcDbLine
 62
7
  6
CONTINUOUS
 10
0.0
 20
0.0
 11
0.0
 21
17.0
  0
LINE
  5
21B
100
AcDbEntity
  8
0
100
AcDbLine
 62
7
  6
CONTINUOUS
 10
0.0
 20
0.0
 11
22.0
 21
0.0
  0
LINE
  5
21C
100
AcDbEntity
  8
0
100
AcDbLine
 62
7
  6
CONTINUOUS
 10
0.0
 20
17.0
 11
22.0
 21
17.0
  0
LINE
  5
21D
100
AcDbEntity
  8
0
100
AcDbLine
 62
7
  6
CONTINUOUS
 10
22.0
 20
0.0
 11
22.0
 21
17.0
  0
LINE
  5
21E
100
AcDbEntity
  8
0
100
AcDbLine
 62
7
  6
CONTINUOUS
 10
5.1854853864
 20
5.6301592668
 11
5.1854853864
 21
5.5392143849
  0
LINE
  5
21F
100
AcDbEntity
  8
0
100
AcDbLine
 62
7
  6
CONTINUOUS
 10
5.3068623424
 20
5.4100805267
 11
5.3790690603
 21
5.4100805267
  0
LINE
  5
220
100
AcDbEntity
  8
0
100
AcDbLine
 62
7
  6
CONTINUOUS
 10
5.6218229723
 20
5.4100805267
 11
5.6940296903
 21
5.4100805267
  0
LINE
  5
221
100
AcDbEntity
  8
0
100
AcDbLine
 62
7
  6
CONTINUOUS
 10
5.9367836022
 20
5.4100805267
 11
6.0089903202
 21
5.4100805267
  0
LINE
  5
222
100
AcDbEntity
  8
0
100
AcDbLine
 62
7
  6
CONTINUOUS
 10
6.2517442322
 20
5.4100805267
 11
6.3239509501
 21
5.4100805267
  0
LINE
  5
223
100
AcDbEntity
  8
0
100
AcDbLine
 62
7
  6
CONTINUOUS
 10
6.5667048621
 20
5.4100805267
 11
6.63891158
 21
5.4100805267
  0
LINE
  5
224
100
AcDbEntity
  8
0
100
AcDbLine
 62
7
  6
CONTINUOUS
 10
6.881665492
 20
5.4100805267
 11
6.9538722099
 21
5.4100805267
  0
LINE
  5
225
100
AcDbEntity
  8
0
100
AcDbLine
 62
7
  6
CONTINUOUS
 10
5.1854853864
 20
5.5392143849
 11
5.2196609507
 21
5.5392143849
  0
LINE
  5
226
100
AcDbEntity
  8
0
100
AcDbLine
 62
7
  6
CONTINUOUS
 10
5.466270452
 20
5.5392143849
 11
5.5346215806
 21
5.5392143849
  0
LINE
  5
227
100
AcDbEntity
  8
0
100
AcDbLine
 62
7
  6
CONTINUOUS
 10
5.7812310819
 20
5.5392143849
 11
5.8495822106
 21
5.5392143849
  0
LINE
  5
228
100
AcDbEntity
  8
0
100
AcDbLine
 62
7
  6
CONTINUOUS
 10
6.0961917118
 20
5.5392143849
 11
6.1645428405
 21
5.5392143849
  0
LINE
  5
229
100
AcDbEntity
  8
0
100
AcDbLine
 62
7
  6
CONTINUOUS
 10
6.4111523418
 20
5.5392143849
 11
6.4795034704
 21
5.5392143849
  0
LINE
  5
22A
100
AcDbEntity
  8
0
100
AcDbLine
 62
7
  6
CONTINUOUS
 10
6.7261129717
 20
5.5392143849
 11
6.7944641003
 21
5.5392143849
  0
LINE
  5
22B
100
AcDbEntity
  8
0
100
AcDbLine
 62
7
  6
CONTINUOUS
 10
7.0410736016
 20
5.5392143849
 11
7.0752491659
 21
5.5392143849
  0
LINE
  5
22C
100
AcDbEntity
  8
0
100
AcDbLine
 62
7
  6
CONTINUOUS
 10
7.0752491659
 20
5.6301592668
 11
5.1854853864
 21
5.6301592668
  0
LINE
  5
22D
100
AcDbEntity
  8
0
100
AcDbLine
 62
7
  6
CONTINUOUS
 10
7.0752491659
 20
5.5392143849
 11
7.0752491659
 21
5.6301592668
  0
LINE
  5
22E
100
AcDbEntity
  8
0
100
AcDbLine
 62
7
  6
CONTINUOUS
 10
5.1259901941
 20
13.5842997499
 11
5.1259901941
 21
11.6157958129
  0
LINE
  5
22F
100
AcDbEntity
  8
0
100
AcDbLine
 62
7
  6
CONTINUOUS
 10
7.0157539736
 20
11.6157958129
 11
5.1259901941
 21
11.6157958129
  0
LINE
  5
230
100
AcDbEntity
  8
0
100
AcDbLine
 62
7
  6
CONTINUOUS
 10
7.0157539736
 20
13.5842997499
 11
7.0157539736
 21
11.6157958129
  0
LINE
  5
231
100
AcDbEntity
  8
0
100
AcDbLine
 62
7
  6
CONTINUOUS
 10
5.1259901941
 20
13.5842997499
 11
7.0157539736
 21
13.5842997499
  0
LINE
  5
232
100
AcDbEntity
  8
0
100
AcDbLine
 62
7
  6
CONTINUOUS
 10
14.5761032884
 20
5.3505853344
 11
14.5761032884
 21
5.5706640745
  0
LINE
  5
233
100
AcDbEntity
  8
0
100
AcDbLine
 62
7
  6
CONTINUOUS
 10
14.5761032884
 20
5.3505853344
 11
16.5446072254
 21
5.3505853344
  0
LINE
  5
234
100
AcDbEntity
  8
0
100
AcDbLine
 62
7
  6
CONTINUOUS
 10
16.5446072254
 20
5.4797191926
 11
14.5761032884
 21
5.4797191926
  0
LINE
  5
235
100
AcDbEntity
  8
0
100
AcDbLine
 62
7
  6
CONTINUOUS
 10
16.5446072254
 20
5.5706640745
 11
14.5761032884
 21
5.5706640745
  0
LINE
  5
236
100
AcDbEntity
  8
0
100
AcDbLine
 62
7
  6
CONTINUOUS
 10
16.5446072254
 20
5.3505853344
 11
16.5446072254
 21
5.5706640745
  0
LINE
  5
237
100
AcDbEntity
  8
0
100
AcDbLine
 62
7
  6
CONTINUOUS
 10
14.3486933623
 20
11.8082155095
 11
14.3764353588
 21
11.7516832643
  0
LINE
  5
238
100
AcDbEntity
  8
0
100
AcDbLine
 62
7
  6
CONTINUOUS
 10
14.8252018729
 20
13.350197615
 11
14.3486933623
 21
11.8082155095
  0
LINE
  5
239
100
AcDbEntity
  8
0
100
AcDbLine
 62
7
  6
CONTINUOUS
 10
14.5276221717
 20
11.6714123708
 11
14.5941289631
 21
11.6714123708
  0
LINE
  5
23A
100
AcDbEntity
  8
0
100
AcDbLine
 62
7
  6
CONTINUOUS
 10
14.8177201226
 20
11.6714123708
 11
14.884226914
 21
11.6714123708
  0
LINE
  5
23B
100
AcDbEntity
  8
0
100
AcDbLine
 62
7
  6
CONTINUOUS
 10
15.1078180735
 20
11.6714123708
 11
15.1743248649
 21
11.6714123708
  0
LINE
  5
23C
100
AcDbEntity
  8
0
100
AcDbLine
 62
7
  6
CONTINUOUS
 10
15.3979160243
 20
11.6714123708
 11
15.4644228157
 21
11.6714123708
  0
LINE
  5
23D
100
AcDbEntity
  8
0
100
AcDbLine
 62
7
  6
CONTINUOUS
 10
15.6880139752
 20
11.6714123708
 11
15.7545207666
 21
11.6714123708
  0
LINE
  5
23E
100
AcDbEntity
  8
0
100
AcDbLine
 62
7
  6
CONTINUOUS
 10
15.9781119261
 20
11.6714123708
 11
16.0446187175
 21
11.6714123708
  0
LINE
  5
23F
100
AcDbEntity
  8
0
100
AcDbLine
 62
7
  6
CONTINUOUS
 10
14.3764353588
 20
11.7516832643
 11
14.4079131381
 21
11.7516832643
  0
LINE
  5
240
100
AcDbEntity
  8
0
100
AcDbLine
 62
7
  6
CONTINUOUS
 10
14.6350555304
 20
11.7516832643
 11
14.6980110889
 21
11.7516832643
  0
LINE
  5
241
100
AcDbEntity
  8
0
100
AcDbLine
 62
7
  6
CONTINUOUS
 10
14.9251534813
 20
11.7516832643
 11
14.9881090398
 21
11.7516832643
  0
LINE
  5
242
100
AcDbEntity
  8
0
100
AcDbLine
 62
7
  6
CONTINUOUS
 10
15.2152514322
 20
11.7516832643
 11
15.2782069907
 21
11.7516832643
  0
LINE
  5
243
100
AcDbEntity
  8
0
100
AcDbLine
 62
7
  6
CONTINUOUS
 10
15.505349383
 20
11.7516832643
 11
15.5683049415
 21
11.7516832643
  0
LINE
  5
244
100
AcDbEntity
  8
0
100
AcDbLine
 62
7
  6
CONTINUOUS
 10
15.7954473339
 20
11.7516832643
 11
15.8584028924
 21
11.7516832643
  0
LINE
  5
245
100
AcDbEntity
  8
0
100
AcDbLine
 62
7
  6
CONTINUOUS
 10
16.0855452848
 20
11.7516832643
 11
16.117023064
 21
11.7516832643
  0
LINE
  5
246
100
AcDbEntity
  8
0
100
AcDbLine
 62
7
  6
CONTINUOUS
 10
16.0892810675
 20
11.8082155095
 11
14.3486933623
 21
11.8082155095
  0
LINE
  5
247
100
AcDbEntity
  8
0
100
AcDbLine
 62
7
  6
CONTINUOUS
 10
14.6196957354
 20
11.6841382441
 11
14.6405687253
 21
11.7516832643
  0
LINE
  5
248
100
AcDbEntity
  8
0
100
AcDbLine
 62
7
  6
CONTINUOUS
 10
14.9097936862
 20
11.6841382441
 11
14.9306666762
 21
11.7516832643
  0
LINE
  5
249
100
AcDbEntity
  8
0
100
AcDbLine
 62
7
  6
CONTINUOUS
 10
15.1998916371
 20
11.6841382441
 11
15.220764627
 21
11.7516832643
  0
LINE
  5
24A
100
AcDbEntity
  8
0
100
AcDbLine
 62
7
  6
CONTINUOUS
 10
15.489989588
 20
11.6841382441
 11
15.5108625779
 21
11.7516832643
  0
LINE
  5
24B
100
AcDbEntity
  8
0
100
AcDbLine
 62
7
  6
CONTINUOUS
 10
16.117023064
 20
11.7516832643
 11
16.0892810675
 21
11.8082155095
  0
LINE
  5
24C
100
AcDbEntity
  8
0
100
AcDbLine
 62
7
  6
CONTINUOUS
 10
15.7800875388
 20
11.6841382441
 11
15.8009605288
 21
11.7516832643
  0
LINE
  5
24D
100
AcDbEntity
  8
0
100
AcDbLine
 62
7
  6
CONTINUOUS
 10
16.5657895781
 20
13.350197615
 11
16.0892810675
 21
11.8082155095
  0
LINE
  5
24E
100
AcDbEntity
  8
0
100
AcDbLine
 62
7
  6
CONTINUOUS
 10
16.0701854897
 20
11.6841382441
 11
16.0910584796
 21
11.7516832643
  0
LINE
  5
24F
100
AcDbEntity
  8
0
100
AcDbLine
 62
7
  6
CONTINUOUS
 10
16.5935315747
 20
13.2936653699
 11
16.117023064
 21
11.7516832643
  0
LINE
  5
250
100
AcDbEntity
  8
0
100
AcDbLine
 62
7
  6
CONTINUOUS
 10
16.0701854897
 20
11.6841382441
 11
16.0704077404
 21
11.6848458523
  0
LINE
  5
251
100
AcDbEntity
  8
0
100
AcDbLine
 62
7
  6
CONTINUOUS
 10
14.8252018729
 20
13.350197615
 11
16.5657895781
 21
13.350197615
  0
LINE
  5
252
100
AcDbEntity
  8
0
100
AcDbLine
 62
7
  6
CONTINUOUS
 10
16.5935315747
 20
13.2936653699
 11
16.5657895781
 21
13.350197615
  0
ARC
  5
253
100
AcDbEntity
  8
0
100
AcDbCircle
 62
7
  6
CONTINUOUS
 10
5.2150129455
 20
5.5392143849
 40
0.2263779528
100
AcDbArc
 50
331.3145979859
 51
354.0364298817
  0
ARC
  5
254
100
AcDbEntity
  8
0
100
AcDbCircle
 62
7
  6
CONTINUOUS
 10
5.7858790872
 20
5.5392143849
 40
0.2263779528
100
AcDbArc
 50
185.9635701183
 51
208.6854020141
  0
ARC
  5
255
100
AcDbEntity
  8
0
100
AcDbCircle
 62
7
  6
CONTINUOUS
 10
5.5299735754
 20
5.5392143849
 40
0.2263779528
100
AcDbArc
 50
331.3145979859
 51
354.0364298817
  0
ARC
  5
256
100
AcDbEntity
  8
0
100
AcDbCircle
 62
7
  6
CONTINUOUS
 10
6.1008397171
 20
5.5392143849
 40
0.2263779528
100
AcDbArc
 50
185.9635701183
 51
208.6854020141
  0
ARC
  5
257
100
AcDbEntity
  8
0
100
AcDbCircle
 62
7
  6
CONTINUOUS
 10
5.8449342053
 20
5.5392143849
 40
0.2263779528
100
AcDbArc
 50
331.3145979859
 51
354.0364298817
  0
ARC
  5
258
100
AcDbEntity
  8
0
100
AcDbCircle
 62
7
  6
CONTINUOUS
 10
6.415800347
 20
5.5392143849
 40
0.2263779528
100
AcDbArc
 50
185.9635701183
 51
208.6854020141
  0
ARC
  5
259
100
AcDbEntity
  8
0
100
AcDbCircle
 62
7
  6
CONTINUOUS
 10
5.4709184573
 20
5.5392143849
 40
0.2263779528
100
AcDbArc
 50
185.9635701183
 51
208.6854020141
  0
ARC
  5
25A
100
AcDbEntity
  8
0
100
AcDbCircle
 62
7
  6
CONTINUOUS
 10
6.7898160951
 20
5.5392143849
 40
0.2263779528
100
AcDbArc
 50
331.3145979859
 51
354.0364298817
  0
ARC
  5
25B
100
AcDbEntity
  8
0
100
AcDbCircle
 62
7
  6
CONTINUOUS
 10
7.0457216069
 20
5.5392143849
 40
0.2263779528
100
AcDbArc
 50
185.9635701183
 51
208.6854020141
  0
ARC
  5
25C
100
AcDbEntity
  8
0
100
AcDbCircle
 62
7
  6
CONTINUOUS
 10
6.4748554651
 20
5.5392143849
 40
0.2263779528
100
AcDbArc
 50
331.3145979859
 51
354.0364298817
  0
ARC
  5
25D
100
AcDbEntity
  8
0
100
AcDbCircle
 62
7
  6
CONTINUOUS
 10
6.730760977
 20
5.5392143849
 40
0.2263779528
100
AcDbArc
 50
185.9635701183
 51
208.6854020141
  0
ARC
  5
25E
100
AcDbEntity
  8
0
100
AcDbCircle
 62
7
  6
CONTINUOUS
 10
6.1598948352
 20
5.5392143849
 40
0.2263779528
100
AcDbArc
 50
331.3145979859
 51
354.0364298817
  0
ARC
  5
25F
100
AcDbEntity
  8
0
100
AcDbCircle
 62
7
  6
CONTINUOUS
 10
5.3068623424
 20
5.4494506054
 40
0.0393700787
100
AcDbArc
 50
208.6854020141
 51
270.0
  0
ARC
  5
260
100
AcDbEntity
  8
0
100
AcDbCircle
 62
7
  6
CONTINUOUS
 10
5.3790690603
 20
5.4494506054
 40
0.0393700787
100
AcDbArc
 50
270.0
 51
331.3145979859
  0
ARC
  5
261
100
AcDbEntity
  8
0
100
AcDbCircle
 62
7
  6
CONTINUOUS
 10
5.6218229723
 20
5.4494506054
 40
0.0393700787
100
AcDbArc
 50
208.6854020141
 51
270.0
  0
ARC
  5
262
100
AcDbEntity
  8
0
100
AcDbCircle
 62
7
  6
CONTINUOUS
 10
5.6940296903
 20
5.4494506054
 40
0.0393700787
100
AcDbArc
 50
270.0
 51
331.3145979859
  0
ARC
  5
263
100
AcDbEntity
  8
0
100
AcDbCircle
 62
7
  6
CONTINUOUS
 10
5.9367836022
 20
5.4494506054
 40
0.0393700787
100
AcDbArc
 50
208.6854020141
 51
270.0
  0
ARC
  5
264
100
AcDbEntity
  8
0
100
AcDbCircle
 62
7
  6
CONTINUOUS
 10
6.0089903202
 20
5.4494506054
 40
0.0393700787
100
AcDbArc
 50
270.0
 51
331.3145979859
  0
ARC
  5
265
100
AcDbEntity
  8
0
100
AcDbCircle
 62
7
  6
CONTINUOUS
 10
6.2517442322
 20
5.4494506054
 40
0.0393700787
100
AcDbArc
 50
208.6854020141
 51
270.0
  0
ARC
  5
266
100
AcDbEntity
  8
0
100
AcDbCircle
 62
7
  6
CONTINUOUS
 10
6.9538722099
 20
5.4494506054
 40
0.0393700787
100
AcDbArc
 50
270.0
 51
331.3145979859
  0
ARC
  5
267
100
AcDbEntity
  8
0
100
AcDbCircle
 62
7
  6
CONTINUOUS
 10
6.881665492
 20
5.4494506054
 40
0.0393700787
100
AcDbArc
 50
208.6854020141
 51
270.0
  0
ARC
  5
268
100
AcDbEntity
  8
0
100
AcDbCircle
 62
7
  6
CONTINUOUS
 10
6.63891158
 20
5.4494506054
 40
0.0393700787
100
AcDbArc
 50
270.0
 51
331.3145979859
  0
ARC
  5
269
100
AcDbEntity
  8
0
100
AcDbCircle
 62
7
  6
CONTINUOUS
 10
6.5667048621
 20
5.4494506054
 40
0.0393700787
100
AcDbArc
 50
208.6854020141
 51
270.0
  0
ARC
  5
26A
100
AcDbEntity
  8
0
100
AcDbCircle
 62
7
  6
CONTINUOUS
 10
6.3239509501
 20
5.4494506054
 40
0.0393700787
100
AcDbArc
 50
270.0
 51
331.3145979859
  0
ARC
  5
26B
100
AcDbEntity
  8
0
100
AcDbCircle
 62
7
  6
CONTINUOUS
 10
5.2196609507
 20
5.5129676658
 40
0.0262467192
100
AcDbArc
 50
5.9635701183
 51
90.0
  0
ARC
  5
26C
100
AcDbEntity
  8
0
100
AcDbCircle
 62
7
  6
CONTINUOUS
 10
5.466270452
 20
5.5129676658
 40
0.0262467192
100
AcDbArc
 50
90.0
 51
174.0364298817
  0
ARC
  5
26D
100
AcDbEntity
  8
0
100
AcDbCircle
 62
7
  6
CONTINUOUS
 10
5.5346215806
 20
5.5129676658
 40
0.0262467192
100
AcDbArc
 50
5.9635701183
 51
90.0
  0
ARC
  5
26E
100
AcDbEntity
  8
0
100
AcDbCircle
 62
7
  6
CONTINUOUS
 10
5.7812310819
 20
5.5129676658
 40
0.0262467192
100
AcDbArc
 50
90.0
 51
174.0364298817
  0
ARC
  5
26F
100
AcDbEntity
  8
0
100
AcDbCircle
 62
7
  6
CONTINUOUS
 10
5.8495822106
 20
5.5129676658
 40
0.0262467192
100
AcDbArc
 50
5.9635701183
 51
90.0
  0
ARC
  5
270
100
AcDbEntity
  8
0
100
AcDbCircle
 62
7
  6
CONTINUOUS
 10
6.0961917118
 20
5.5129676658
 40
0.0262467192
100
AcDbArc
 50
90.0
 51
174.0364298817
  0
ARC
  5
271
100
AcDbEntity
  8
0
100
AcDbCircle
 62
7
  6
CONTINUOUS
 10
6.1645428405
 20
5.5129676658
 40
0.0262467192
100
AcDbArc
 50
5.9635701183
 51
90.0
  0
ARC
  5
272
100
AcDbEntity
  8
0
100
AcDbCircle
 62
7
  6
CONTINUOUS
 10
6.4111523418
 20
5.5129676658
 40
0.0262467192
100
AcDbArc
 50
90.0
 51
174.0364298817
  0
ARC
  5
273
100
AcDbEntity
  8
0
100
AcDbCircle
 62
7
  6
CONTINUOUS
 10
6.4795034704
 20
5.5129676658
 40
0.0262467192
100
AcDbArc
 50
5.9635701183
 51
90.0
  0
ARC
  5
274
100
AcDbEntity
  8
0
100
AcDbCircle
 62
7
  6
CONTINUOUS
 10
6.7261129717
 20
5.5129676658
 40
0.0262467192
100
AcDbArc
 50
90.0
 51
174.0364298817
  0
ARC
  5
275
100
AcDbEntity
  8
0
100
AcDbCircle
 62
7
  6
CONTINUOUS
 10
6.7944641003
 20
5.5129676658
 40
0.0262467192
100
AcDbArc
 50
5.9635701183
 51
90.0
  0
ARC
  5
276
100
AcDbEntity
  8
0
100
AcDbCircle
 62
7
  6
CONTINUOUS
 10
7.0410736016
 20
5.5129676658
 40
0.0262467192
100
AcDbArc
 50
90.0
 51
174.0364298817
  0
SPLINE
  5
277
100
AcDbEntity
  8
0
100
AcDbSpline
 62
7
  6
CONTINUOUS
 70
0
 71
3
 72
11
 73
7
 74
0
 42
0.0000001
 43
0.0000001
 44
0.0000000001
 40
0.0
 40
0.0
 40
0.0
 40
0.0
 40
0.2022134238
 40
0.4300345643
 40
0.6962213441
 40
1.0
 40
1.0
 40
1.0
 40
1.0
 10
14.6179851595
 20
11.7431173251
 30
0.0
 10
14.6183891256
 20
11.7444239274
 30
0.0
 10
14.6199677357
 20
11.7470077091
 30
0.0
 10
14.6239311784
 20
11.7497230367
 30
0.0
 10
14.629131155
 20
11.7513571466
 30
0.0
 10
14.6330009919
 20
11.7516832643
 30
0.0
 10
14.6350555304
 20
11.7516832643
 30
0.0
  0
SPLINE
  5
278
100
AcDbEntity
  8
0
100
AcDbSpline
 62
7
  6
CONTINUOUS
 70
0
 71
3
 72
11
 73
7
 74
0
 42
0.0000001
 43
0.0000001
 44
0.0000000001
 40
0.0
 40
0.0
 40
0.0
 40
0.0
 40
0.2022134238
 40
0.4300345643
 40
0.6962213441
 40
1.0
 40
1.0
 40
1.0
 40
1.0
 10
14.9080831104
 20
11.7431173251
 30
0.0
 10
14.9084870765
 20
11.7444239274
 30
0.0
 10
14.9100656866
 20
11.7470077091
 30
0.0
 10
14.9140291293
 20
11.7497230367
 30
0.0
 10
14.9192291059
 20
11.7513571466
 30
0.0
 10
14.9230989428
 20
11.7516832643
 30
0.0
 10
14.9251534813
 20
11.7516832643
 30
0.0
  0
SPLINE
  5
279
100
AcDbEntity
  8
0
100
AcDbSpline
 62
7
  6
CONTINUOUS
 70
0
 71
3
 72
11
 73
7
 74
0
 42
0.0000001
 43
0.0000001
 44
0.0000000001
 40
0.0
 40
0.0
 40
0.0
 40
0.0
 40
0.2022134238
 40
0.4300345643
 40
0.6962213441
 40
1.0
 40
1.0
 40
1.0
 40
1.0
 10
15.1981810612
 20
11.7431173251
 30
0.0
 10
15.1985850274
 20
11.7444239274
 30
0.0
 10
15.2001636374
 20
11.7470077091
 30
0.0
 10
15.2041270801
 20
11.7497230367
 30
0.0
 10
15.2093270568
 20
11.7513571466
 30
0.0
 10
15.2131968936
 20
11.7516832643
 30
0.0
 10
15.2152514322
 20
11.7516832643
 30
0.0
  0
SPLINE
  5
27A
100
AcDbEntity
  8
0
100
AcDbSpline
 62
7
  6
CONTINUOUS
 70
0
 71
3
 72
11
 73
7
 74
0
 42
0.0000001
 43
0.0000001
 44
0.0000000001
 40
0.0
 40
0.0
 40
0.0
 40
0.0
 40
0.2022134238
 40
0.4300345643
 40
0.6962213441
 40
1.0
 40
1.0
 40
1.0
 40
1.0
 10
15.4882790121
 20
11.7431173251
 30
0.0
 10
15.4886829782
 20
11.7444239274
 30
0.0
 10
15.4902615883
 20
11.7470077091
 30
0.0
 10
15.494225031
 20
11.7497230367
 30
0.0
 10
15.4994250076
 20
11.7513571466
 30
0.0
 10
15.5032948445
 20
11.7516832643
 30
0.0
 10
15.505349383
 20
11.7516832643
 30
0.0
  0
SPLINE
  5
27B
100
AcDbEntity
  8
0
100
AcDbSpline
 62
7
  6
CONTINUOUS
 70
0
 71
3
 72
11
 73
7
 74
0
 42
0.0000001
 43
0.0000001
 44
0.0000000001
 40
0.0
 40
0.0
 40
0.0
 40
0.0
 40
0.2022134238
 40
0.4300345643
 40
0.6962213441
 40
1.0
 40
1.0
 40
1.0
 40
1.0
 10
15.778376963
 20
11.7431173251
 30
0.0
 10
15.7787809291
 20
11.7444239274
 30
0.0
 10
15.7803595392
 20
11.7470077091
 30
0.0
 10
15.7843229819
 20
11.7497230367
 30
0.0
 10
15.7895229585
 20
11.7513571466
 30
0.0
 10
15.7933927954
 20
11.7516832643
 30
0.0
 10
15.7954473339
 20
11.7516832643
 30
0.0
  0
SPLINE
  5
27C
100
AcDbEntity
  8
0
100
AcDbSpline
 62
7
  6
CONTINUOUS
 70
0
 71
3
 72
11
 73
7
 74
0
 42
0.0000001
 43
0.0000001
 44
0.0000000001
 40
0.0
 40
0.0
 40
0.0
 40
0.0
 40
0.2022134238
 40
0.4300345643
 40
0.6962213441
 40
1.0
 40
1.0
 40
1.0
 40
1.0
 10
16.0684749138
 20
11.7431173251
 30
0.0
 10
16.06887888
 20
11.7444239274
 30
0.0
 10
16.07045749
 20
11.7470077091
 30
0.0
 10
16.0744209327
 20
11.7497230367
 30
0.0
 10
16.0796209094
 20
11.7513571466
 30
0.0
 10
16.0834907462
 20
11.7516832643
 30
0.0
 10
16.0855452848
 20
11.7516832643
 30
0.0
  0
SPLINE
  5
27D
100
AcDbEntity
  8
0
100
AcDbSpline
 62
7
  6
CONTINUOUS
 70
0
 71
3
 72
11
 73
7
 74
0
 42
0.0000001
 43
0.0000001
 44
0.0000000001
 40
0.0
 40
0.0
 40
0.0
 40
0.0
 40
0.2600402092
 40
0.5283846119
 40
0.7814277418
 40
1.0
 40
1.0
 40
1.0
 40
1.0
 10
14.4079131381
 20
11.7516832643
 30
0.0
 10
14.4110010664
 20
11.7516832643
 30
0.0
 10
14.417287429
 20
11.7508905148
 30
0.0
 10
14.4261237491
 20
11.7478594388
 30
0.0
 10
14.4337199948
 20
11.7433209862
 30
0.0
 10
14.4377240228
 20
11.7392437743
 30
0.0
 10
14.4391316567
 20
11.7370631301
 30
0.0
  0
SPLINE
  5
27E
100
AcDbEntity
  8
0
100
AcDbSpline
 62
7
  6
CONTINUOUS
 70
0
 71
3
 72
11
 73
7
 74
0
 42
0.0000001
 43
0.0000001
 44
0.0000000001
 40
0.0
 40
0.0
 40
0.0
 40
0.0
 40
0.2600402092
 40
0.5283846119
 40
0.7814277418
 40
1.0
 40
1.0
 40
1.0
 40
1.0
 10
14.6980110889
 20
11.7516832643
 30
0.0
 10
14.7010990173
 20
11.7516832643
 30
0.0
 10
14.7073853798
 20
11.7508905148
 30
0.0
 10
14.7162217
 20
11.7478594388
 30
0.0
 10
14.7238179457
 20
11.7433209862
 30
0.0
 10
14.7278219737
 20
11.7392437743
 30
0.0
 10
14.7292296076
 20
11.7370631301
 30
0.0
  0
SPLINE
  5
27F
100
AcDbEntity
  8
0
100
AcDbSpline
 62
7
  6
CONTINUOUS
 70
0
 71
3
 72
9
 73
5
 74
0
 42
0.0000001
 43
0.0000001
 44
0.0000000001
 40
0.0
 40
0.0
 40
0.0
 40
0.0
 40
0.4753060626
 40
1.0
 40
1.0
 40
1.0
 40
1.0
 10
14.4391316567
 20
11.7370631301
 30
0.0
 10
14.4454359539
 20
11.7272967912
 30
0.0
 10
14.4609626861
 20
11.7081835282
 30
0.0
 10
14.479390126
 20
11.6919566466
 30
0.0
 10
14.4895654963
 20
11.6841382441
 30
0.0
  0
SPLINE
  5
280
100
AcDbEntity
  8
0
100
AcDbSpline
 62
7
  6
CONTINUOUS
 70
0
 71
3
 72
11
 73
7
 74
0
 42
0.0000001
 43
0.0000001
 44
0.0000000001
 40
0.0
 40
0.0
 40
0.0
 40
0.0
 40
0.3035629193
 40
0.5696876465
 40
0.7977200727
 40
1.0
 40
1.0
 40
1.0
 40
1.0
 10
16.0446187175
 20
11.6714123708
 30
0.0
 10
16.047685566
 20
11.6714123708
 30
0.0
 10
16.0534634172
 20
11.6718961783
 30
0.0
 10
16.0612327312
 20
11.6743246385
 30
0.0
 10
16.0671719349
 20
11.6783519687
 30
0.0
 10
16.0695626375
 20
11.6821918717
 30
0.0
 10
16.0701854897
 20
11.6841382441
 30
0.0
  0
SPLINE
  5
281
100
AcDbEntity
  8
0
100
AcDbSpline
 62
7
  6
CONTINUOUS
 70
0
 71
3
 72
9
 73
5
 74
0
 42
0.0000001
 43
0.0000001
 44
0.0000000001
 40
0.0
 40
0.0
 40
0.0
 40
0.0
 40
0.4963920005
 40
1.0
 40
1.0
 40
1.0
 40
1.0
 10
15.9400552506
 20
11.6841382441
 30
0.0
 10
15.9453848478
 20
11.6800431661
 30
0.0
 10
15.9577345688
 20
11.6738759928
 30
0.0
 10
15.9712930402
 20
11.6714123708
 30
0.0
 10
15.9781119261
 20
11.6714123708
 30
0.0
  0
SPLINE
  5
282
100
AcDbEntity
  8
0
100
AcDbSpline
 62
7
  6
CONTINUOUS
 70
0
 71
3
 72
9
 73
5
 74
0
 42
0.0000001
 43
0.0000001
 44
0.0000000001
 40
0.0
 40
0.0
 40
0.0
 40
0.0
 40
0.475306739
 40
1.0
 40
1.0
 40
1.0
 40
1.0
 10
15.889621411
 20
11.7370631301
 30
0.0
 10
15.8959257154
 20
11.7272967801
 30
0.0
 10
15.9114526325
 20
11.7081836846
 30
0.0
 10
15.9298798964
 20
11.6919566343
 30
0.0
 10
15.9400552506
 20
11.6841382441
 30
0.0
  0
SPLINE
  5
283
100
AcDbEntity
  8
0
100
AcDbSpline
 62
7
  6
CONTINUOUS
 70
0
 71
3
 72
11
 73
7
 74
0
 42
0.0000001
 43
0.0000001
 44
0.0000000001
 40
0.0
 40
0.0
 40
0.0
 40
0.0
 40
0.3035629193
 40
0.5696876465
 40
0.7977200727
 40
1.0
 40
1.0
 40
1.0
 40
1.0
 10
15.7545207666
 20
11.6714123708
 30
0.0
 10
15.7575876151
 20
11.6714123708
 30
0.0
 10
15.7633654663
 20
11.6718961783
 30
0.0
 10
15.7711347803
 20
11.6743246385
 30
0.0
 10
15.777073984
 20
11.6783519687
 30
0.0
 10
15.7794646867
 20
11.6821918717
 30
0.0
 10
15.7800875388
 20
11.6841382441
 30
0.0
  0
SPLINE
  5
284
100
AcDbEntity
  8
0
100
AcDbSpline
 62
7
  6
CONTINUOUS
 70
0
 71
3
 72
9
 73
5
 74
0
 42
0.0000001
 43
0.0000001
 44
0.0000000001
 40
0.0
 40
0.0
 40
0.0
 40
0.0
 40
0.4963920005
 40
1.0
 40
1.0
 40
1.0
 40
1.0
 10
15.6499572997
 20
11.6841382441
 30
0.0
 10
15.6552868969
 20
11.6800431661
 30
0.0
 10
15.6676366179
 20
11.6738759928
 30
0.0
 10
15.6811950893
 20
11.6714123708
 30
0.0
 10
15.6880139752
 20
11.6714123708
 30
0.0
  0
SPLINE
  5
285
100
AcDbEntity
  8
0
100
AcDbSpline
 62
7
  6
CONTINUOUS
 70
0
 71
3
 72
9
 73
5
 74
0
 42
0.0000001
 43
0.0000001
 44
0.0000000001
 40
0.0
 40
0.0
 40
0.0
 40
0.0
 40
0.4753060626
 40
1.0
 40
1.0
 40
1.0
 40
1.0
 10
15.5995234602
 20
11.7370631301
 30
0.0
 10
15.6058277574
 20
11.7272967912
 30
0.0
 10
15.6213544896
 20
11.7081835282
 30
0.0
 10
15.6397819295
 20
11.6919566466
 30
0.0
 10
15.6499572997
 20
11.6841382441
 30
0.0
  0
SPLINE
  5
286
100
AcDbEntity
  8
0
100
AcDbSpline
 62
7
  6
CONTINUOUS
 70
0
 71
3
 72
11
 73
7
 74
0
 42
0.0000001
 43
0.0000001
 44
0.0000000001
 40
0.0
 40
0.0
 40
0.0
 40
0.0
 40
0.3035629193
 40
0.5696876465
 40
0.7977200727
 40
1.0
 40
1.0
 40
1.0
 40
1.0
 10
15.4644228157
 20
11.6714123708
 30
0.0
 10
15.4674896643
 20
11.6714123708
 30
0.0
 10
15.4732675155
 20
11.6718961783
 30
0.0
 10
15.4810368294
 20
11.6743246385
 30
0.0
 10
15.4869760332
 20
11.6783519687
 30
0.0
 10
15.4893667358
 20
11.6821918717
 30
0.0
 10
15.489989588
 20
11.6841382441
 30
0.0
  0
SPLINE
  5
287
100
AcDbEntity
  8
0
100
AcDbSpline
 62
7
  6
CONTINUOUS
 70
0
 71
3
 72
9
 73
5
 74
0
 42
0.0000001
 43
0.0000001
 44
0.0000000001
 40
0.0
 40
0.0
 40
0.0
 40
0.0
 40
0.4963920005
 40
1.0
 40
1.0
 40
1.0
 40
1.0
 10
15.3598593489
 20
11.6841382441
 30
0.0
 10
15.365188946
 20
11.6800431661
 30
0.0
 10
15.377538667
 20
11.6738759928
 30
0.0
 10
15.3910971385
 20
11.6714123708
 30
0.0
 10
15.3979160243
 20
11.6714123708
 30
0.0
  0
SPLINE
  5
288
100
AcDbEntity
  8
0
100
AcDbSpline
 62
7
  6
CONTINUOUS
 70
0
 71
3
 72
9
 73
5
 74
0
 42
0.0000001
 43
0.0000001
 44
0.0000000001
 40
0.0
 40
0.0
 40
0.0
 40
0.0
 40
0.4753060626
 40
1.0
 40
1.0
 40
1.0
 40
1.0
 10
15.3094255093
 20
11.7370631301
 30
0.0
 10
15.3157298065
 20
11.7272967912
 30
0.0
 10
15.3312565387
 20
11.7081835282
 30
0.0
 10
15.3496839786
 20
11.6919566466
 30
0.0
 10
15.3598593489
 20
11.6841382441
 30
0.0
  0
SPLINE
  5
289
100
AcDbEntity
  8
0
100
AcDbSpline
 62
7
  6
CONTINUOUS
 70
0
 71
3
 72
11
 73
7
 74
0
 42
0.0000001
 43
0.0000001
 44
0.0000000001
 40
0.0
 40
0.0
 40
0.0
 40
0.0
 40
0.3035629193
 40
0.5696876465
 40
0.7977200727
 40
1.0
 40
1.0
 40
1.0
 40
1.0
 10
15.1743248649
 20
11.6714123708
 30
0.0
 10
15.1773917134
 20
11.6714123708
 30
0.0
 10
15.1831695646
 20
11.6718961783
 30
0.0
 10
15.1909388786
 20
11.6743246385
 30
0.0
 10
15.1968780823
 20
11.6783519687
 30
0.0
 10
15.1992687849
 20
11.6821918717
 30
0.0
 10
15.1998916371
 20
11.6841382441
 30
0.0
  0
SPLINE
  5
28A
100
AcDbEntity
  8
0
100
AcDbSpline
 62
7
  6
CONTINUOUS
 70
0
 71
3
 72
9
 73
5
 74
0
 42
0.0000001
 43
0.0000001
 44
0.0000000001
 40
0.0
 40
0.0
 40
0.0
 40
0.0
 40
0.4963920005
 40
1.0
 40
1.0
 40
1.0
 40
1.0
 10
15.069761398
 20
11.6841382441
 30
0.0
 10
15.0750909952
 20
11.6800431661
 30
0.0
 10
15.0874407162
 20
11.6738759928
 30
0.0
 10
15.1009991876
 20
11.6714123708
 30
0.0
 10
15.1078180735
 20
11.6714123708
 30
0.0
  0
SPLINE
  5
28B
100
AcDbEntity
  8
0
100
AcDbSpline
 62
7
  6
CONTINUOUS
 70
0
 71
3
 72
9
 73
5
 74
0
 42
0.0000001
 43
0.0000001
 44
0.0000000001
 40
0.0
 40
0.0
 40
0.0
 40
0.0
 40
0.4753060626
 40
1.0
 40
1.0
 40
1.0
 40
1.0
 10
15.0193275584
 20
11.7370631301
 30
0.0
 10
15.0256318556
 20
11.7272967912
 30
0.0
 10
15.0411585878
 20
11.7081835282
 30
0.0
 10
15.0595860278
 20
11.6919566466
 30
0.0
 10
15.069761398
 20
11.6841382441
 30
0.0
  0
SPLINE
  5
28C
100
AcDbEntity
  8
0
100
AcDbSpline
 62
7
  6
CONTINUOUS
 70
0
 71
3
 72
11
 73
7
 74
0
 42
0.0000001
 43
0.0000001
 44
0.0000000001
 40
0.0
 40
0.0
 40
0.0
 40
0.0
 40
0.3035629193
 40
0.5696876465
 40
0.7977200727
 40
1.0
 40
1.0
 40
1.0
 40
1.0
 10
14.884226914
 20
11.6714123708
 30
0.0
 10
14.8872937625
 20
11.6714123708
 30
0.0
 10
14.8930716137
 20
11.6718961783
 30
0.0
 10
14.9008409277
 20
11.6743246385
 30
0.0
 10
14.9067801314
 20
11.6783519687
 30
0.0
 10
14.9091708341
 20
11.6821918717
 30
0.0
 10
14.9097936862
 20
11.6841382441
 30
0.0
  0
SPLINE
  5
28D
100
AcDbEntity
  8
0
100
AcDbSpline
 62
7
  6
CONTINUOUS
 70
0
 71
3
 72
9
 73
5
 74
0
 42
0.0000001
 43
0.0000001
 44
0.0000000001
 40
0.0
 40
0.0
 40
0.0
 40
0.0
 40
0.4963920005
 40
1.0
 40
1.0
 40
1.0
 40
1.0
 10
14.7796634471
 20
11.6841382441
 30
0.0
 10
14.7849930443
 20
11.6800431661
 30
0.0
 10
14.7973427653
 20
11.6738759928
 30
0.0
 10
14.8109012367
 20
11.6714123708
 30
0.0
 10
14.8177201226
 20
11.6714123708
 30
0.0
  0
SPLINE
  5
28E
100
AcDbEntity
  8
0
100
AcDbSpline
 62
7
  6
CONTINUOUS
 70
0
 71
3
 72
9
 73
5
 74
0
 42
0.0000001
 43
0.0000001
 44
0.0000000001
 40
0.0
 40
0.0
 40
0.0
 40
0.0
 40
0.4753060626
 40
1.0
 40
1.0
 40
1.0
 40
1.0
 10
14.7292296076
 20
11.7370631301
 30
0.0
 10
14.7355339048
 20
11.7272967912
 30
0.0
 10
14.751060637
 20
11.7081835282
 30
0.0
 10
14.7694880769
 20
11.6919566466
 30
0.0
 10
14.7796634471
 20
11.6841382441
 30
0.0
  0
SPLINE
  5
28F
100
AcDbEntity
  8
0
100
AcDbSpline
 62
7
  6
CONTINUOUS
 70
0
 71
3
 72
11
 73
7
 74
0
 42
0.0000001
 43
0.0000001
 44
0.0000000001
 40
0.0
 40
0.0
 40
0.0
 40
0.0
 40
0.3035629193
 40
0.5696876465
 40
0.7977200727
 40
1.0
 40
1.0
 40
1.0
 40
1.0
 10
14.5941289631
 20
11.6714123708
 30
0.0
 10
14.5971958117
 20
11.6714123708
 30
0.0
 10
14.6029736629
 20
11.6718961783
 30
0.0
 10
14.6107429768
 20
11.6743246385
 30
0.0
 10
14.6166821806
 20
11.6783519687
 30
0.0
 10
14.6190728832
 20
11.6821918717
 30
0.0
 10
14.6196957354
 20
11.6841382441
 30
0.0
  0
SPLINE
  5
290
100
AcDbEntity
  8
0
100
AcDbSpline
 62
7
  6
CONTINUOUS
 70
0
 71
3
 72
9
 73
5
 74
0
 42
0.0000001
 43
0.0000001
 44
0.0000000001
 40
0.0
 40
0.0
 40
0.0
 40
0.0
 40
0.4963920005
 40
1.0
 40
1.0
 40
1.0
 40
1.0
 10
14.4895654963
 20
11.6841382441
 30
0.0
 10
14.4948950934
 20
11.6800431661
 30
0.0
 10
14.5072448144
 20
11.6738759928
 30
0.0
 10
14.5208032859
 20
11.6714123708
 30
0.0
 10
14.5276221717
 20
11.6714123708
 30
0.0
  0
SPLINE
  5
291
100
AcDbEntity
  8
0
100
AcDbSpline
 62
7
  6
CONTINUOUS
 70
0
 71
3
 72
11
 73
7
 74
0
 42
0.0000001
 43
0.0000001
 44
0.0000000001
 40
0.0
 40
0.0
 40
0.0
 40
0.0
 40
0.2600402092
 40
0.5283846119
 40
0.7814277418
 40
1.0
 40
1.0
 40
1.0
 40
1.0
 10
14.9881090398
 20
11.7516832643
 30
0.0
 10
14.9911969682
 20
11.7516832643
 30
0.0
 10
14.9974833307
 20
11.7508905148
 30
0.0
 10
15.0063196508
 20
11.7478594388
 30
0.0
 10
15.0139158966
 20
11.7433209862
 30
0.0
 10
15.0179199246
 20
11.7392437743
 30
0.0
 10
15.0193275584
 20
11.7370631301
 30
0.0
  0
SPLINE
  5
292
100
AcDbEntity
  8
0
100
AcDbSpline
 62
7
  6
CONTINUOUS
 70
0
 71
3
 72
11
 73
7
 74
0
 42
0.0000001
 43
0.0000001
 44
0.0000000001
 40
0.0
 40
0.0
 40
0.0
 40
0.0
 40
0.2600402092
 40
0.5283846119
 40
0.7814277418
 40
1.0
 40
1.0
 40
1.0
 40
1.0
 10
15.2782069907
 20
11.7516832643
 30
0.0
 10
15.281294919
 20
11.7516832643
 30
0.0
 10
15.2875812816
 20
11.7508905148
 30
0.0
 10
15.2964176017
 20
11.7478594388
 30
0.0
 10
15.3040138474
 20
11.7433209862
 30
0.0
 10
15.3080178754
 20
11.7392437743
 30
0.0
 10
15.3094255093
 20
11.7370631301
 30
0.0
  0
SPLINE
  5
293
100
AcDbEntity
  8
0
100
AcDbSpline
 62
7
  6
CONTINUOUS
 70
0
 71
3
 72
11
 73
7
 74
0
 42
0.0000001
 43
0.0000001
 44
0.0000000001
 40
0.0
 40
0.0
 40
0.0
 40
0.0
 40
0.2600402092
 40
0.5283846119
 40
0.7814277418
 40
1.0
 40
1.0
 40
1.0
 40
1.0
 10
15.5683049415
 20
11.7516832643
 30
0.0
 10
15.5713928699
 20
11.7516832643
 30
0.0
 10
15.5776792324
 20
11.7508905148
 30
0.0
 10
15.5865155526
 20
11.7478594388
 30
0.0
 10
15.5941117983
 20
11.7433209862
 30
0.0
 10
15.5981158263
 20
11.7392437743
 30
0.0
 10
15.5995234602
 20
11.7370631301
 30
0.0
  0
SPLINE
  5
294
100
AcDbEntity
  8
0
100
AcDbSpline
 62
7
  6
CONTINUOUS
 70
0
 71
3
 72
11
 73
7
 74
0
 42
0.0000001
 43
0.0000001
 44
0.0000000001
 40
0.0
 40
0.0
 40
0.0
 40
0.0
 40
0.2600402092
 40
0.5283846119
 40
0.7814277418
 40
1.0
 40
1.0
 40
1.0
 40
1.0
 10
15.8584028924
 20
11.7516832643
 30
0.0
 10
15.8614908208
 20
11.7516832643
 30
0.0
 10
15.8677771833
 20
11.7508905148
 30
0.0
 10
15.8766135034
 20
11.7478594388
 30
0.0
 10
15.8842097492
 20
11.7433209862
 30
0.0
 10
15.8882137772
 20
11.7392437743
 30
0.0
 10
15.889621411
 20
11.7370631301
 30
0.0
  0
SPLINE
  5
295
100
AcDbEntity
  8
0
100
AcDbSpline
 62
7
  6
CONTINUOUS
 70
0
 71
3
 72
9
 73
5
 74
0
 42
0.0000001
 43
0.0000001
 44
0.0000000001
 40
0.0
 40
0.0
 40
0.0
 40
0.0
 40
0.4826708941
 40
1.0
 40
1.0
 40
1.0
 40
1.0
 10
15.4902120986
 20
11.6848457719
 30
0.0
 10
15.4927248704
 20
11.6929779199
 30
0.0
 10
15.4949544256
 20
11.7108604085
 30
0.0
 10
15.4913850651
 20
11.7284153917
 30
0.0
 10
15.488479904
 20
11.7370631301
 30
0.0
  0
SPLINE
  5
296
100
AcDbEntity
  8
0
100
AcDbSpline
 62
7
  6
CONTINUOUS
 70
0
 71
3
 72
9
 73
5
 74
0
 42
0.0000001
 43
0.0000001
 44
0.0000000001
 40
0.0
 40
0.0
 40
0.0
 40
0.0
 40
0.4826697913
 40
1.0
 40
1.0
 40
1.0
 40
1.0
 10
16.0704080058
 20
11.6848457703
 30
0.0
 10
16.072920891
 20
11.6929778541
 30
0.0
 10
16.0751499227
 20
11.7108604
 30
0.0
 10
16.0715809701
 20
11.7284153819
 30
0.0
 10
16.0686758058
 20
11.7370631301
 30
0.0
  0
SPLINE
  5
297
100
AcDbEntity
  8
0
100
AcDbSpline
 62
7
  6
CONTINUOUS
 70
0
 71
3
 72
9
 73
5
 74
0
 42
0.0000001
 43
0.0000001
 44
0.0000000001
 40
0.0
 40
0.0
 40
0.0
 40
0.0
 40
0.4826708941
 40
1.0
 40
1.0
 40
1.0
 40
1.0
 10
15.2001141477
 20
11.6848457719
 30
0.0
 10
15.2026269195
 20
11.6929779199
 30
0.0
 10
15.2048564747
 20
11.7108604085
 30
0.0
 10
15.2012871142
 20
11.7284153917
 30
0.0
 10
15.1983819532
 20
11.7370631301
 30
0.0
  0
SPLINE
  5
298
100
AcDbEntity
  8
0
100
AcDbSpline
 62
7
  6
CONTINUOUS
 70
0
 71
3
 72
9
 73
5
 74
0
 42
0.0000001
 43
0.0000001
 44
0.0000000001
 40
0.0
 40
0.0
 40
0.0
 40
0.0
 40
0.2658506332
 40
1.0
 40
1.0
 40
1.0
 40
1.0
 10
16.0686758058
 20
11.7370631301
 30
0.0
 10
16.0685033167
 20
11.737576575
 30
0.0
 10
16.067975398
 20
11.7395436369
 30
0.0
 10
16.0680331007
 20
11.7416883094
 30
0.0
 10
16.0684749138
 20
11.7431173251
 30
0.0
  0
SPLINE
  5
299
100
AcDbEntity
  8
0
100
AcDbSpline
 62
7
  6
CONTINUOUS
 70
0
 71
3
 72
9
 73
5
 74
0
 42
0.0000001
 43
0.0000001
 44
0.0000000001
 40
0.0
 40
0.0
 40
0.0
 40
0.0
 40
0.2658506332
 40
1.0
 40
1.0
 40
1.0
 40
1.0
 10
14.9082840023
 20
11.7370631301
 30
0.0
 10
14.9081115132
 20
11.737576575
 30
0.0
 10
14.9075835945
 20
11.7395436369
 30
0.0
 10
14.9076412973
 20
11.7416883094
 30
0.0
 10
14.9080831104
 20
11.7431173251
 30
0.0
  0
SPLINE
  5
29A
100
AcDbEntity
  8
0
100
AcDbSpline
 62
7
  6
CONTINUOUS
 70
0
 71
3
 72
9
 73
5
 74
0
 42
0.0000001
 43
0.0000001
 44
0.0000000001
 40
0.0
 40
0.0
 40
0.0
 40
0.0
 40
0.4826708941
 40
1.0
 40
1.0
 40
1.0
 40
1.0
 10
14.619918246
 20
11.6848457719
 30
0.0
 10
14.6224310178
 20
11.6929779199
 30
0.0
 10
14.624660573
 20
11.7108604085
 30
0.0
 10
14.6210912125
 20
11.7284153917
 30
0.0
 10
14.6181860514
 20
11.7370631301
 30
0.0
  0
SPLINE
  5
29B
100
AcDbEntity
  8
0
100
AcDbSpline
 62
7
  6
CONTINUOUS
 70
0
 71
3
 72
9
 73
5
 74
0
 42
0.0000001
 43
0.0000001
 44
0.0000000001
 40
0.0
 40
0.0
 40
0.0
 40
0.0
 40
0.2658506332
 40
1.0
 40
1.0
 40
1.0
 40
1.0
 10
15.1983819532
 20
11.7370631301
 30
0.0
 10
15.1982094641
 20
11.737576575
 30
0.0
 10
15.1976815454
 20
11.7395436369
 30
0.0
 10
15.1977392481
 20
11.7416883094
 30
0.0
 10
15.1981810612
 20
11.7431173251
 30
0.0
  0
SPLINE
  5
29C
100
AcDbEntity
  8
0
100
AcDbSpline
 62
7
  6
CONTINUOUS
 70
0
 71
3
 72
9
 73
5
 74
0
 42
0.0000001
 43
0.0000001
 44
0.0000000001
 40
0.0
 40
0.0
 40
0.0
 40
0.0
 40
0.4826708941
 40
1.0
 40
1.0
 40
1.0
 40
1.0
 10
15.7803100494
 20
11.6848457719
 30
0.0
 10
15.7828228212
 20
11.6929779199
 30
0.0
 10
15.7850523765
 20
11.7108604085
 30
0.0
 10
15.7814830159
 20
11.7284153917
 30
0.0
 10
15.7785778549
 20
11.7370631301
 30
0.0
  0
SPLINE
  5
29D
100
AcDbEntity
  8
0
100
AcDbSpline
 62
7
  6
CONTINUOUS
 70
0
 71
3
 72
9
 73
5
 74
0
 42
0.0000001
 43
0.0000001
 44
0.0000000001
 40
0.0
 40
0.0
 40
0.0
 40
0.0
 40
0.2658506332
 40
1.0
 40
1.0
 40
1.0
 40
1.0
 10
15.488479904
 20
11.7370631301
 30
0.0
 10
15.488307415
 20
11.737576575
 30
0.0
 10
15.4877794963
 20
11.7395436369
 30
0.0
 10
15.487837199
 20
11.7416883094
 30
0.0
 10
15.4882790121
 20
11.7431173251
 30
0.0
  0
SPLINE
  5
29E
100
AcDbEntity
  8
0
100
AcDbSpline
 62
7
  6
CONTINUOUS
 70
0
 71
3
 72
9
 73
5
 74
0
 42
0.0000001
 43
0.0000001
 44
0.0000000001
 40
0.0
 40
0.0
 40
0.0
 40
0.0
 40
0.2658506332
 40
1.0
 40
1.0
 40
1.0
 40
1.0
 10
14.6181860514
 20
11.7370631301
 30
0.0
 10
14.6180135624
 20
11.737576575
 30
0.0
 10
14.6174856437
 20
11.7395436369
 30
0.0
 10
14.6175433464
 20
11.7416883094
 30
0.0
 10
14.6179851595
 20
11.7431173251
 30
0.0
  0
SPLINE
  5
29F
100
AcDbEntity
  8
0
100
AcDbSpline
 62
7
  6
CONTINUOUS
 70
0
 71
3
 72
9
 73
5
 74
0
 42
0.0000001
 43
0.0000001
 44
0.0000000001
 40
0.0
 40
0.0
 40
0.0
 40
0.0
 40
0.2658506332
 40
1.0
 40
1.0
 40
1.0
 40
1.0
 10
15.7785778549
 20
11.7370631301
 30
0.0
 10
15.7784053658
 20
11.737576575
 30
0.0
 10
15.7778774471
 20
11.7395436369
 30
0.0
 10
15.7779351499
 20
11.7416883094
 30
0.0
 10
15.778376963
 20
11.7431173251
 30
0.0
  0
SPLINE
  5
2A0
100
AcDbEntity
  8
0
100
AcDbSpline
 62
7
  6
CONTINUOUS
 70
0
 71
3
 72
9
 73
5
 74
0
 42
0.0000001
 43
0.0000001
 44
0.0000000001
 40
0.0
 40
0.0
 40
0.0
 40
0.0
 40
0.4826708941
 40
1.0
 40
1.0
 40
1.0
 40
1.0
 10
14.9100161968
 20
11.6848457719
 30
0.0
 10
14.9125289686
 20
11.6929779199
 30
0.0
 10
14.9147585239
 20
11.7108604085
 30
0.0
 10
14.9111891633
 20
11.7284153917
 30
0.0
 10
14.9082840023
 20
11.7370631301
 30
0.0
  0
ENDSEC
  0
SECTION
  2
OBJECTS
  0
DICTIONARY
  5
C
100
AcDbDictionary
280
0
281
1
  3
ACAD_GROUP
350
D
  3
ACAD_MLINESTYLE
350
17
  3
ACAD_LAYOUT
350
1A
  3
ACAD_PLOTSETTINGS
350
19
  3
ACAD_PLOTSTYLENAME
350
E
  0
DICTIONARY
  5
D
102
{ACAD_REACTORS
330
C
102
}
100
AcDbDictionary
280
0
281
1
  0
ACDBDICTIONARYWDFLT
  5
E
102
{ACAD_REACTORS
330
C
102
}
100
AcDbDictionary
281
1
  3
Normal
350
F
100
AcDbDictionaryWithDefault
340
F
  0
DICTIONARY
  5
17
102
{ACAD_REACTORS
330
C
102
}
100
AcDbDictionary
280
0
281
1
  3
Standard
350
18
  0
DICTIONARY
  5
19
102
{ACAD_REACTORS
330
C
102
}
100
AcDbDictionary
281
1
  0
DICTIONARY
  5
1A
102
{ACAD_REACTORS
330
C
102
}
100
AcDbDictionary
281
1
  3
Model
350
2A1
  3
Layout1
350
2A2
  0
ACDBPLACEHOLDER
  5
F
102
{ACAD_REACTORS
330
E
102
}
  0
MLINESTYLE
  5
18
102
{ACAD_REACTORS
330
17
102
}
100
AcDbMlineStyle
  2
STANDARD
 70
0
  3

 62
256
 51
90.0
 52
90.0
 71
2
 49
0.5
 62
256
  6
BYLAYER
 49
-0.5
 62
256
  6
BYLAYER
  0
LAYOUT
  5
2A1
102
{ACAD_REACTORS
330
1A
102
}
100
AcDbPlotSettings
  1

  2
none_device
  4
ANSI_C_(22.00_x_17.00_Inches)
  6

 40
0.0
 41
0.0
 42
0.0
 43
0.0
 44
558.8
 45
431.8
 46
0.0
 47
0.0
 48
0.0
 49
0.0
140
0.0
141
0.0
142
1.0
143
1.0
 70
1024
 72
0
 73
0
 74
0
  7

 75
0
147
1.0
148
0.0
149
0.0
100
AcDbLayout
  1
Model
 70
0
 71
0
 10
0.0
 20
0.0
 11
22.0
 21
17.0
 12
0.0
 22
0.0
 32
0.0
 14
0.0
 24
0.0
 34
0.0
 15
0.0
 25
0.0
 35
0.0
146
0.0
 13
0.0
 23
0.0
 33
0.0
 16
1.0
 26
0.0
 36
0.0
 17
0.0
 27
1.0
 37
0.0
 76
0
330
216
345
0
346
0
  0
LAYOUT
  5
2A2
102
{ACAD_REACTORS
330
1A
102
}
100
AcDbPlotSettings
  1

  2
none_device
  4
ANSI_C_(22.00_x_17.00_Inches)
  6

 40
0.0
 41
0.0
 42
0.0
 43
0.0
 44
558.8
 45
431.8
 46
0.0
 47
0.0
 48
0.0
 49
0.0
140
0.0
141
0.0
142
1.0
143
1.0
 70
0
 72
0
 73
0
 74
0
  7

 75
0
147
1.0
148
0.0
149
0.0
100
AcDbLayout
  1
Layout1
 70
0
 71
1
 10
0.0
 20
0.0
 11
22.0
 21
17.0
 12
0.0
 22
0.0
 32
0.0
 14
0.0
 24
0.0
 34
0.0
 15
0.0
 25
0.0
 35
0.0
146
0.0
 13
0.0
 23
0.0
 33
0.0
 16
1.0
 26
0.0
 36
0.0
 17
0.0
 27
1.0
 37
0.0
 76
0
330
217
345
0
346
0
  0
ENDSEC
  0
EOF