999
DXF file: _cgs_temp_output.dxf
999
Pro/ENGINEER 2015110 by Parametric Technology Corporation
  0
SECTION
  2
HEADER
  9
$ACADVER
  1
AC1021
  9
$DWGCODEPAGE
  3
ANSI_1252
  9
$EXTMAX
 10
22.0
 20
17.0
 30
0.0
  9
$EXTMIN
 10
0.0
 20
0.0
 30
0.0
  9
$LIMMIN
 10
0.0
 20
0.0
  9
$LIMMAX
 10
22.0
 20
17.0
  9
$VIEWCTR
 10
11.0
 20
8.5
  9
$VIEWSIZE
 40
17.0
  9
$CLAYER
  8
0
  9
$LTSCALE
 40
1.21
  9
$CELTYPE
  6
BYLAYER
  9
$DIMSCALE
 40
1.0
  9
$DIMASZ
 40
0.1875
  9
$DIMEXO
 40
0.0625
  9
$DIMDLI
 40
0.836
  9
$DIMEXE
 40
0.125
  9
$DIMCEN
 40
0.198
  9
$DIMLFAC
 40
1.0
  9
$DIMBLK
  1
_CLOSED
  9
$DIMALT
 70
0
  9
$DIMALTF
 40
25.4
  9
$DIMTXT
 40
0.15625
  9
$DIMTOL
 70
0
  9
$DIMLIM
 70
0
  9
$DIMTFAC
 40
1.0
  9
$DIMGAP
 40
0.09
  9
$DIMDSEP
 70
46
  9
$AUNITS
 70
0
  9
$PDMODE
 70
3
  9
$PDSIZE
 40
0.3125
  9
$HANDSEED
  5
290
  9
$TILEMODE
 70
1
  9
$MEASUREMENT
 70
0
  9
$INSUNITS
 70
1
  0
ENDSEC
  0
SECTION
  2
CLASSES
  0
CLASS
  1
ACDBDICTIONARYWDFLT
  2
AcDbDictionaryWithDefault
  3
AutoCAD 2000
 90
0
 91
1
280
0
281
0
  0
CLASS
  1
ACDBPLACEHOLDER
  2
AcDbPlaceHolder
  3
AutoCAD 2000
 90
0
 91
1
280
0
281
0
  0
CLASS
  1
LAYOUT
  2
AcDbLayout
  3
AutoCAD 2000
 90
0
 91
0
280
0
281
0
  0
ENDSEC
  0
SECTION
  2
TABLES
  0
TABLE
  2
VPORT
  5
8
100
AcDbSymbolTable
 70
2
  0
VPORT
  5
1F4
100
AcDbSymbolTableRecord
100
AcDbViewportTableRecord
  2
*ACTIVE
 70
0
 10
0.0
 20
0.0
 11
1.0
 21
1.0
 12
11.0
 22
8.5
 13
0.0
 23
0.0
 14
1.0
 24
1.0
 15
0.0
 25
0.0
 16
0.0
 26
0.0
 36
1.0
 17
0.0
 27
0.0
 37
0.0
 40
17.0
 41
1.2941176471
 42
50.0
 43
0.0
 44
0.0
 50
0.0
 51
0.0
 71
0
 72
100
 73
1
 74
1
 75
0
 76
0
 77
0
 78
0
  0
ENDTAB
  0
TABLE
  2
LTYPE
  5
5
100
AcDbSymbolTable
 70
6
  0
LTYPE
  5
14
100
AcDbSymbolTableRecord
100
AcDbLinetypeTableRecord
  2
BYBLOCK
 70
0
  3

 72
65
 73
0
 40
0.0
  0
LTYPE
  5
15
100
AcDbSymbolTableRecord
100
AcDbLinetypeTableRecord
  2
BYLAYER
 70
0
  3

 72
65
 73
0
 40
0.0
  0
LTYPE
  5
16
100
AcDbSymbolTableRecord
100
AcDbLinetypeTableRecord
  2
CONTINUOUS
 70
64
  3
Solid line
 72
65
 73
0
 40
0.0
  0
LTYPE
  5
1F5
100
AcDbSymbolTableRecord
100
AcDbLinetypeTableRecord
  2
CENTER
 70
64
  3
____ _ ____ _ ____ _ ____ _ ____ _ ____ _ ____
 72
65
 73
4
 40
0.6
 49
0.375
 74
0
 49
-0.075
 74
0
 49
0.075
 74
0
 49
-0.075
 74
0
  0
LTYPE
  5
1F6
100
AcDbSymbolTableRecord
100
AcDbLinetypeTableRecord
  2
HIDDEN
 70
64
  3
- - - - - - - - - - - - - - - - - - - -
 72
65
 73
2
 40
0.2
 49
0.1
 74
0
 49
-0.1
 74
0
  0
LTYPE
  5
1F7
100
AcDbSymbolTableRecord
100
AcDbLinetypeTableRecord
  2
PHANTOM
 70
64
  3
_____ _ _ _____ _ _ _____ _ _ _____
 72
65
 73
6
 40
0.8
 49
0.45
 74
0
 49
-0.05
 74
0
 49
0.1
 74
0
 49
-0.05
 74
0
 49
0.1
 74
0
 49
-0.05
 74
0
  0
LTYPE
  5
1F8
100
AcDbSymbolTableRecord
100
AcDbLinetypeTableRecord
  2
DOT
 70
64
  3
. . . . . . . . . . . . . . . . . . . .
 72
65
 73
2
 40
0.2
 49
0.1
 74
0
 49
-0.1
 74
0
  0
LTYPE
  5
1F9
100
AcDbSymbolTableRecord
100
AcDbLinetypeTableRecord
  2
DASHED
 70
64
  3
- - - - - - - - - - - - - - - - - - - -
 72
65
 73
2
 40
0.2
 49
0.1
 74
0
 49
-0.1
 74
0
  0
ENDTAB
  0
TABLE
  2
LAYER
  5
2
100
AcDbSymbolTable
 70
36
  0
LAYER
  5
10
100
AcDbSymbolTableRecord
100
AcDbLayerTableRecord
  2
0
 70
0
 62
7
  6
CONTINUOUS
370
-3
390
F
  0
LAYER
  5
1FA
100
AcDbSymbolTableRecord
100
AcDbLayerTableRecord
  2
DEFAULT_1
 70
0
 62
7
  6
CENTER
370
-3
390
F
  0
LAYER
  5
1FB
100
AcDbSymbolTableRecord
100
AcDbLayerTableRecord
  2
DEFAULT_2
 70
0
 62
8
  6
HIDDEN
370
-3
390
F
  0
LAYER
  5
1FC
100
AcDbSymbolTableRecord
100
AcDbLayerTableRecord
  2
DEFAULT_3
 70
0
 62
7
  6
PHANTOM
370
-3
390
F
  0
LAYER
  5
1FD
100
AcDbSymbolTableRecord
100
AcDbLayerTableRecord
  2
01_ALL_DTM_PLN
 70
0
 62
7
  6
CONTINUOUS
370
-3
390
F
  0
LAYER
  5
1FE
100
AcDbSymbolTableRecord
100
AcDbLayerTableRecord
  2
01__ASM_ALL_DTM_PLN
 70
0
 62
7
  6
CONTINUOUS
370
-3
390
F
  0
LAYER
  5
1FF
100
AcDbSymbolTableRecord
100
AcDbLayerTableRecord
  2
01__ASM_DEF_DTM_PLN
 70
0
 62
7
  6
CONTINUOUS
370
-3
390
F
  0
LAYER
  5
200
100
AcDbSymbolTableRecord
100
AcDbLayerTableRecord
  2
01___PRT_ALL_DTM_PLN
 70
0
 62
7
  6
CONTINUOUS
370
-3
390
F
  0
LAYER
  5
201
100
AcDbSymbolTableRecord
100
AcDbLayerTableRecord
  2
01___PRT_DEF_DTM_PLN
 70
0
 62
7
  6
CONTINUOUS
370
-3
390
F
  0
LAYER
  5
202
100
AcDbSymbolTableRecord
100
AcDbLayerTableRecord
  2
02_ALL_AXES
 70
0
 62
7
  6
CONTINUOUS
370
-3
390
F
  0
LAYER
  5
203
100
AcDbSymbolTableRecord
100
AcDbLayerTableRecord
  2
02__ASM_ALL_AXES
 70
0
 62
7
  6
CONTINUOUS
370
-3
390
F
  0
LAYER
  5
204
100
AcDbSymbolTableRecord
100
AcDbLayerTableRecord
  2
02___PRT_ALL_AXES
 70
0
 62
7
  6
CONTINUOUS
370
-3
390
F
  0
LAYER
  5
205
100
AcDbSymbolTableRecord
100
AcDbLayerTableRecord
  2
03_ALL_CURVES
 70
0
 62
7
  6
CONTINUOUS
370
-3
390
F
  0
LAYER
  5
206
100
AcDbSymbolTableRecord
100
AcDbLayerTableRecord
  2
03__ASM_ALL_CURVES
 70
0
 62
7
  6
CONTINUOUS
370
-3
390
F
  0
LAYER
  5
207
100
AcDbSymbolTableRecord
100
AcDbLayerTableRecord
  2
03___PRT_ALL_CURVES
 70
0
 62
7
  6
CONTINUOUS
370
-3
390
F
  0
LAYER
  5
208
100
AcDbSymbolTableRecord
100
AcDbLayerTableRecord
  2
04_ALL_DTM_PNT
 70
0
 62
7
  6
CONTINUOUS
370
-3
390
F
  0
LAYER
  5
209
100
AcDbSymbolTableRecord
100
AcDbLayerTableRecord
  2
04__ASM_ALL_DTM_PNT
 70
0
 62
7
  6
CONTINUOUS
370
-3
390
F
  0
LAYER
  5
20A
100
AcDbSymbolTableRecord
100
AcDbLayerTableRecord
  2
04___PRT_ALL_DTM_PNT
 70
0
 62
7
  6
CONTINUOUS
370
-3
390
F
  0
LAYER
  5
20B
100
AcDbSymbolTableRecord
100
AcDbLayerTableRecord
  2
05_ALL_DTM_CSYS
 70
0
 62
7
  6
CONTINUOUS
370
-3
390
F
  0
LAYER
  5
20C
100
AcDbSymbolTableRecord
100
AcDbLayerTableRecord
  2
05__ASM_ALL_DTM_CSYS
 70
0
 62
7
  6
CONTINUOUS
370
-3
390
F
  0
LAYER
  5
20D
100
AcDbSymbolTableRecord
100
AcDbLayerTableRecord
  2
05__ASM_DEF_DTM_CSYS
 70
0
 62
7
  6
CONTINUOUS
370
-3
390
F
  0
LAYER
  5
20E
100
AcDbSymbolTableRecord
100
AcDbLayerTableRecord
  2
05___PRT_ALL_DTM_CSYS
 70
0
 62
7
  6
CONTINUOUS
370
-3
390
F
  0
LAYER
  5
20F
100
AcDbSymbolTableRecord
100
AcDbLayerTableRecord
  2
05___PRT_DEF_DTM_CSYS
 70
0
 62
7
  6
CONTINUOUS
370
-3
390
F
  0
LAYER
  5
210
100
AcDbSymbolTableRecord
100
AcDbLayerTableRecord
  2
06_ALL_SURFS
 70
0
 62
7
  6
CONTINUOUS
370
-3
390
F
  0
LAYER
  5
211
100
AcDbSymbolTableRecord
100
AcDbLayerTableRecord
  2
06__ASM_ALL_SURFS
 70
0
 62
7
  6
CONTINUOUS
370
-3
390
F
  0
LAYER
  5
212
100
AcDbSymbolTableRecord
100
AcDbLayerTableRecord
  2
06___PRT_ALL_SURFS
 70
0
 62
7
  6
CONTINUOUS
370
-3
390
F
  0
LAYER
  5
213
100
AcDbSymbolTableRecord
100
AcDbLayerTableRecord
  2
07__ASM_ALL_SKELETONS
 70
0
 62
7
  6
CONTINUOUS
370
-3
390
F
  0
ENDTAB
  0
TABLE
  2
STYLE
  5
3
100
AcDbSymbolTable
 70
1
  0
STYLE
  5
11
100
AcDbSymbolTableRecord
100
AcDbTextStyleTableRecord
  2
STANDARD
 70
0
 40
0.0
 41
0.8
 50
0.0
 71
0
 42
0.2
  3
txt
  4

  0
STYLE
  5
214
100
AcDbSymbolTableRecord
100
AcDbTextStyleTableRecord
  2
TEXTSTYLE_1
 70
0
 40
0.0
 41
0.8
 50
0.0
 71
0
 42
0.2
  3
gdt
  4

  0
ENDTAB
  0
TABLE
  2
VIEW
  5
6
100
AcDbSymbolTable
 70
0
  0
ENDTAB
  0
TABLE
  2
UCS
  5
7
100
AcDbSymbolTable
 70
0
  0
ENDTAB
  0
TABLE
  2
APPID
  5
9
100
AcDbSymbolTable
 70
1
  0
APPID
  5
215
100
AcDbSymbolTableRecord
100
AcDbRegAppTableRecord
  2
ACAD
 70
0
  0
ENDTAB
  0
TABLE
  2
BLOCK_RECORD
  5
1
100
AcDbSymbolTable
 70
0
  0
BLOCK_RECORD
  5
216
100
AcDbSymbolTableRecord
100
AcDbBlockTableRecord
  2
*Model_Space
  0
BLOCK_RECORD
  5
217
100
AcDbSymbolTableRecord
100
AcDbBlockTableRecord
  2
*Paper_Space
  0
ENDTAB
  0
TABLE
  2
DIMSTYLE
  5
A
100
AcDbSymbolTable
 70
1
100
AcDbDimStyleTable
 71
0
  0
DIMSTYLE
105
218
100
AcDbSymbolTableRecord
100
AcDbDimStyleTableRecord
  2
STANDARD
 70
0
  3

  4

 40
1.0
 41
0.1875
 42
0.0625
 43
0.38
 44
0.125
 45
0.0
 46
0.0
 47
0.0001
 48
0.0001
140
0.15625
141
0.09
142
0.0
143
25.4
144
1.0
145
0.0
146
1.0
147
0.09
 71
0.0
 72
0.0
 73
1
 74
1
 75
0
 76
0
 77
0
 78
4
170
0
171
2
172
0
173
0
174
0
175
0
176
0
177
0
178
0
270
2
271
4
272
4
273
2
274
2
275
0
280
0
281
0
282
0
283
1
284
4
285
0
286
0
287
3
288
0
340
11
278
46
  0
ENDTAB
  0
ENDSEC
  0
SECTION
  2
BLOCKS
  0
BLOCK
  5
20
100
AcDbEntity
  8
0
100
AcDbBlockBegin
  2
*Model_Space
 70
0
 10
0.0
 20
0.0
 30
0.0
  3
*Model_Space
  1

  0
ENDBLK
  5
21
100
AcDbEntity
  8
0
100
AcDbBlockEnd
  0
BLOCK
  5
1C
100
AcDbEntity
  8
0
100
AcDbBlockBegin
  2
*Paper_Space
 70
0
 10
0.0
 20
0.0
 30
0.0
  3
*Paper_Space
  1

  0
ENDBLK
  5
1D
100
AcDbEntity
  8
0
100
AcDbBlockEnd
  0
ENDSEC
  0
SECTION
  2
ENTITIES
  0
MTEXT
  5
219
100
AcDbEntity
  8
0
100
AcDbMText
 62
7
  6
CONTINUOUS
  7
STANDARD
 71
1
 72
1
 10
15.9560215477
 20
0.9479130325
 30
0.0
 11
1.0
 21
0.0
 31
0.0
 44
0.9
  1
SCALE: 1:3.000
 40
0.3
 41
3.36
  0
LINE
  5
21A
100
AcDbEntity
  8
0
100
AcDbLine
 62
7
  6
CONTINUOUS
 10
0.0
 20
0.0
 11
0.0
 21
17.0
  0
LINE
  5
21B
100
AcDbEntity
  8
0
100
AcDbLine
 62
7
  6
CONTINUOUS
 10
0.0
 20
0.0
 11
22.0
 21
0.0
  0
LINE
  5
21C
100
AcDbEntity
  8
0
100
AcDbLine
 62
7
  6
CONTINUOUS
 10
0.0
 20
17.0
 11
22.0
 21
17.0
  0
LINE
  5
21D
100
AcDbEntity
  8
0
100
AcDbLine
 62
7
  6
CONTINUOUS
 10
22.0
 20
0.0
 11
22.0
 21
17.0
  0
LINE
  5
21E
100
AcDbEntity
  8
0
100
AcDbLine
 62
7
  6
CONTINUOUS
 10
4.3587137329
 20
5.7451198968
 11
4.3587137329
 21
5.5407891881
  0
LINE
  5
21F
100
AcDbEntity
  8
0
100
AcDbLine
 62
7
  6
CONTINUOUS
 10
4.4694420793
 20
5.4915765897
 11
4.4694420793
 21
5.4796671408
  0
LINE
  5
220
100
AcDbEntity
  8
0
100
AcDbLine
 62
7
  6
CONTINUOUS
 10
4.8385365675
 20
5.4796671408
 11
4.8385365675
 21
5.4915765897
  0
LINE
  5
221
100
AcDbEntity
  8
0
100
AcDbLine
 62
7
  6
CONTINUOUS
 10
5.0599932604
 20
5.4915765897
 11
5.0599932604
 21
5.4796671408
  0
LINE
  5
222
100
AcDbEntity
  8
0
100
AcDbLine
 62
7
  6
CONTINUOUS
 10
5.4290877486
 20
5.4796671408
 11
5.4290877486
 21
5.4915765897
  0
LINE
  5
223
100
AcDbEntity
  8
0
100
AcDbLine
 62
7
  6
CONTINUOUS
 10
5.6505444415
 20
5.4915765897
 11
5.6505444415
 21
5.4796671408
  0
LINE
  5
224
100
AcDbEntity
  8
0
100
AcDbLine
 62
7
  6
CONTINUOUS
 10
6.0196389297
 20
5.4796671408
 11
6.0196389297
 21
5.4915765897
  0
LINE
  5
225
100
AcDbEntity
  8
0
100
AcDbLine
 62
7
  6
CONTINUOUS
 10
6.2410956226
 20
5.4915765897
 11
6.2410956226
 21
5.4796671408
  0
LINE
  5
226
100
AcDbEntity
  8
0
100
AcDbLine
 62
7
  6
CONTINUOUS
 10
4.3587137329
 20
5.5407891881
 11
4.4202294809
 21
5.5407891881
  0
LINE
  5
227
100
AcDbEntity
  8
0
100
AcDbLine
 62
7
  6
CONTINUOUS
 10
4.8877491659
 20
5.5407891881
 11
5.010780662
 21
5.5407891881
  0
LINE
  5
228
100
AcDbEntity
  8
0
100
AcDbLine
 62
7
  6
CONTINUOUS
 10
5.478300347
 20
5.5407891881
 11
5.6013318431
 21
5.5407891881
  0
LINE
  5
229
100
AcDbEntity
  8
0
100
AcDbLine
 62
7
  6
CONTINUOUS
 10
6.0688515281
 20
5.5407891881
 11
6.1918830242
 21
5.5407891881
  0
LINE
  5
22A
100
AcDbEntity
  8
0
100
AcDbLine
 62
7
  6
CONTINUOUS
 10
6.6594027092
 20
5.5407891881
 11
6.7824342053
 21
5.5407891881
  0
LINE
  5
22B
100
AcDbEntity
  8
0
100
AcDbLine
 62
7
  6
CONTINUOUS
 10
7.2499538903
 20
5.5407891881
 11
7.3729853864
 21
5.5407891881
  0
LINE
  5
22C
100
AcDbEntity
  8
0
100
AcDbLine
 62
7
  6
CONTINUOUS
 10
7.8405050714
 20
5.5407891881
 11
7.9020208195
 21
5.5407891881
  0
LINE
  5
22D
100
AcDbEntity
  8
0
100
AcDbLine
 62
7
  6
CONTINUOUS
 10
7.9020208195
 20
5.7451198968
 11
4.3587137329
 21
5.7451198968
  0
LINE
  5
22E
100
AcDbEntity
  8
0
100
AcDbLine
 62
7
  6
CONTINUOUS
 10
6.6101901108
 20
5.4796671408
 11
6.6101901108
 21
5.4915765897
  0
LINE
  5
22F
100
AcDbEntity
  8
0
100
AcDbLine
 62
7
  6
CONTINUOUS
 10
6.8316468037
 20
5.4915765897
 11
6.8316468037
 21
5.4796671408
  0
LINE
  5
230
100
AcDbEntity
  8
0
100
AcDbLine
 62
7
  6
CONTINUOUS
 10
7.2007412919
 20
5.4796671408
 11
7.2007412919
 21
5.4915765897
  0
LINE
  5
231
100
AcDbEntity
  8
0
100
AcDbLine
 62
7
  6
CONTINUOUS
 10
7.4221979848
 20
5.4915765897
 11
7.4221979848
 21
5.4796671408
  0
LINE
  5
232
100
AcDbEntity
  8
0
100
AcDbLine
 62
7
  6
CONTINUOUS
 10
7.791292473
 20
5.4796671408
 11
7.791292473
 21
5.4915765897
  0
LINE
  5
233
100
AcDbEntity
  8
0
100
AcDbLine
 62
7
  6
CONTINUOUS
 10
7.9020208195
 20
5.5407891881
 11
7.9020208195
 21
5.7451198968
  0
LINE
  5
234
100
AcDbEntity
  8
0
100
AcDbLine
 62
7
  6
CONTINUOUS
 10
4.2992185406
 20
13.485874553
 11
4.2992185406
 21
11.7142210097
  0
LINE
  5
235
100
AcDbEntity
  8
0
100
AcDbLine
 62
7
  6
CONTINUOUS
 10
7.8425256272
 20
11.7142210097
 11
4.2992185406
 21
11.7142210097
  0
LINE
  5
236
100
AcDbEntity
  8
0
100
AcDbLine
 62
7
  6
CONTINUOUS
 10
4.2992185406
 20
13.485874553
 11
7.8425256272
 21
13.485874553
  0
LINE
  5
237
100
AcDbEntity
  8
0
100
AcDbLine
 62
7
  6
CONTINUOUS
 10
7.8425256272
 20
13.485874553
 11
7.8425256272
 21
11.7142210097
  0
LINE
  5
238
100
AcDbEntity
  8
0
100
AcDbLine
 62
7
  6
CONTINUOUS
 10
14.6745284853
 20
5.2356247044
 11
14.6745284853
 21
5.6856247044
  0
LINE
  5
239
100
AcDbEntity
  8
0
100
AcDbLine
 62
7
  6
CONTINUOUS
 10
16.4461820286
 20
5.2356247044
 11
14.6745284853
 21
5.2356247044
  0
LINE
  5
23A
100
AcDbEntity
  8
0
100
AcDbLine
 62
7
  6
CONTINUOUS
 10
16.4461820286
 20
5.4812939958
 11
14.6745284853
 21
5.4812939958
  0
LINE
  5
23B
100
AcDbEntity
  8
0
100
AcDbLine
 62
7
  6
CONTINUOUS
 10
16.4461820286
 20
5.6856247044
 11
14.6745284853
 21
5.6856247044
  0
LINE
  5
23C
100
AcDbEntity
  8
0
100
AcDbLine
 62
7
  6
CONTINUOUS
 10
16.4461820286
 20
5.2356247044
 11
16.4461820286
 21
5.6856247044
  0
LINE
  5
23D
100
AcDbEntity
  8
0
100
AcDbLine
 62
7
  6
CONTINUOUS
 10
13.5937179547
 20
11.9567752883
 11
13.6560473754
 21
11.8297612829
  0
LINE
  5
23E
100
AcDbEntity
  8
0
100
AcDbLine
 62
7
  6
CONTINUOUS
 10
13.7730468392
 20
11.7991702412
 11
13.7766797197
 21
11.7917672091
  0
LINE
  5
23F
100
AcDbEntity
  8
0
100
AcDbLine
 62
7
  6
CONTINUOUS
 10
14.0225756142
 20
13.3445591833
 11
13.5937179547
 21
11.9567752883
  0
LINE
  5
240
100
AcDbEntity
  8
0
100
AcDbLine
 62
7
  6
CONTINUOUS
 10
14.1166382559
 20
11.7917672091
 11
14.1130053754
 21
11.7991702412
  0
LINE
  5
241
100
AcDbEntity
  8
0
100
AcDbLine
 62
7
  6
CONTINUOUS
 10
14.3169804971
 20
11.7991702412
 11
14.3206133776
 21
11.7917672091
  0
LINE
  5
242
100
AcDbEntity
  8
0
100
AcDbLine
 62
7
  6
CONTINUOUS
 10
14.1515581123
 20
11.8297612829
 11
14.1229792715
 21
11.7372801204
  0
LINE
  5
243
100
AcDbEntity
  8
0
100
AcDbLine
 62
7
  6
CONTINUOUS
 10
14.6605719137
 20
11.7917672091
 11
14.6569390332
 21
11.7991702412
  0
LINE
  5
244
100
AcDbEntity
  8
0
100
AcDbLine
 62
7
  6
CONTINUOUS
 10
14.8609141549
 20
11.7991702412
 11
14.8645470354
 21
11.7917672091
  0
LINE
  5
245
100
AcDbEntity
  8
0
100
AcDbLine
 62
7
  6
CONTINUOUS
 10
13.6560473754
 20
11.8297612829
 11
13.7127071315
 21
11.8297612829
  0
LINE
  5
246
100
AcDbEntity
  8
0
100
AcDbLine
 62
7
  6
CONTINUOUS
 10
14.1433212773
 20
11.8297612829
 11
14.2566407894
 21
11.8297612829
  0
LINE
  5
247
100
AcDbEntity
  8
0
100
AcDbLine
 62
7
  6
CONTINUOUS
 10
14.6872549352
 20
11.8297612829
 11
14.8005744472
 21
11.8297612829
  0
LINE
  5
248
100
AcDbEntity
  8
0
100
AcDbLine
 62
7
  6
CONTINUOUS
 10
15.231188593
 20
11.8297612829
 11
15.3445081051
 21
11.8297612829
  0
LINE
  5
249
100
AcDbEntity
  8
0
100
AcDbLine
 62
7
  6
CONTINUOUS
 10
15.7751222509
 20
11.8297612829
 11
15.888441763
 21
11.8297612829
  0
LINE
  5
24A
100
AcDbEntity
  8
0
100
AcDbLine
 62
7
  6
CONTINUOUS
 10
16.3190559088
 20
11.8297612829
 11
16.4323754209
 21
11.8297612829
  0
LINE
  5
24B
100
AcDbEntity
  8
0
100
AcDbLine
 62
7
  6
CONTINUOUS
 10
16.8629895667
 20
11.8297612829
 11
16.9196493227
 21
11.8297612829
  0
LINE
  5
24C
100
AcDbEntity
  8
0
100
AcDbLine
 62
7
  6
CONTINUOUS
 10
14.6954917702
 20
11.8297612829
 11
14.6669129294
 21
11.7372801204
  0
LINE
  5
24D
100
AcDbEntity
  8
0
100
AcDbLine
 62
7
  6
CONTINUOUS
 10
16.8573199019
 20
11.9567752883
 11
13.5937179547
 21
11.9567752883
  0
LINE
  5
24E
100
AcDbEntity
  8
0
100
AcDbLine
 62
7
  6
CONTINUOUS
 10
15.2045055716
 20
11.7917672091
 11
15.2008726911
 21
11.7991702412
  0
LINE
  5
24F
100
AcDbEntity
  8
0
100
AcDbLine
 62
7
  6
CONTINUOUS
 10
15.4048478128
 20
11.7991702412
 11
15.4084806933
 21
11.7917672091
  0
LINE
  5
250
100
AcDbEntity
  8
0
100
AcDbLine
 62
7
  6
CONTINUOUS
 10
15.239425428
 20
11.8297612829
 11
15.2108465873
 21
11.7372801204
  0
LINE
  5
251
100
AcDbEntity
  8
0
100
AcDbLine
 62
7
  6
CONTINUOUS
 10
15.7484392295
 20
11.7917672091
 11
15.744806349
 21
11.7991702412
  0
LINE
  5
252
100
AcDbEntity
  8
0
100
AcDbLine
 62
7
  6
CONTINUOUS
 10
15.9487814707
 20
11.7991702412
 11
15.9524143512
 21
11.7917672091
  0
LINE
  5
253
100
AcDbEntity
  8
0
100
AcDbLine
 62
7
  6
CONTINUOUS
 10
16.2923728874
 20
11.7917672091
 11
16.2887400069
 21
11.7991702412
  0
LINE
  5
254
100
AcDbEntity
  8
0
100
AcDbLine
 62
7
  6
CONTINUOUS
 10
15.7833590859
 20
11.8297612829
 11
15.7547802452
 21
11.7372801204
  0
LINE
  5
255
100
AcDbEntity
  8
0
100
AcDbLine
 62
7
  6
CONTINUOUS
 10
16.4927151286
 20
11.7991702412
 11
16.4963480091
 21
11.7917672091
  0
LINE
  5
256
100
AcDbEntity
  8
0
100
AcDbLine
 62
7
  6
CONTINUOUS
 10
14.0225756142
 20
13.3445591833
 11
17.2861775615
 21
13.3445591833
  0
LINE
  5
257
100
AcDbEntity
  8
0
100
AcDbLine
 62
7
  6
CONTINUOUS
 10
16.8363065452
 20
11.7917672091
 11
16.8326736647
 21
11.7991702412
  0
LINE
  5
258
100
AcDbEntity
  8
0
100
AcDbLine
 62
7
  6
CONTINUOUS
 10
16.3272927438
 20
11.8297612829
 11
16.298713903
 21
11.7372801204
  0
LINE
  5
259
100
AcDbEntity
  8
0
100
AcDbLine
 62
7
  6
CONTINUOUS
 10
16.9196493227
 20
11.8297612829
 11
16.8573199019
 21
11.9567752883
  0
LINE
  5
25A
100
AcDbEntity
  8
0
100
AcDbLine
 62
7
  6
CONTINUOUS
 10
17.2861775615
 20
13.3445591833
 11
16.8573199019
 21
11.9567752883
  0
LINE
  5
25B
100
AcDbEntity
  8
0
100
AcDbLine
 62
7
  6
CONTINUOUS
 10
16.8712264017
 20
11.8297612829
 11
16.8426475609
 21
11.7372801204
  0
LINE
  5
25C
100
AcDbEntity
  8
0
100
AcDbLine
 62
7
  6
CONTINUOUS
 10
17.3485069823
 20
13.2175451779
 11
16.9196493227
 21
11.8297612829
  0
LINE
  5
25D
100
AcDbEntity
  8
0
100
AcDbLine
 62
7
  6
CONTINUOUS
 10
17.3485069823
 20
13.2175451779
 11
17.2861775615
 21
13.3445591833
  0
ARC
  5
25E
100
AcDbEntity
  8
0
100
AcDbCircle
 62
7
  6
CONTINUOUS
 10
4.6539893234
 20
5.4796671408
 40
0.1845472441
100
AcDbArc
 50
180.0
 51
360.0
  0
ARC
  5
25F
100
AcDbEntity
  8
0
100
AcDbCircle
 62
7
  6
CONTINUOUS
 10
5.2445405045
 20
5.4796671408
 40
0.1845472441
100
AcDbArc
 50
180.0
 51
360.0
  0
ARC
  5
260
100
AcDbEntity
  8
0
100
AcDbCircle
 62
7
  6
CONTINUOUS
 10
7.6067452289
 20
5.4796671408
 40
0.1845472441
100
AcDbArc
 50
180.0
 51
360.0
  0
ARC
  5
261
100
AcDbEntity
  8
0
100
AcDbCircle
 62
7
  6
CONTINUOUS
 10
7.0161940478
 20
5.4796671408
 40
0.1845472441
100
AcDbArc
 50
180.0
 51
360.0
  0
ARC
  5
262
100
AcDbEntity
  8
0
100
AcDbCircle
 62
7
  6
CONTINUOUS
 10
6.4256428667
 20
5.4796671408
 40
0.1845472441
100
AcDbArc
 50
180.0
 51
360.0
  0
ARC
  5
263
100
AcDbEntity
  8
0
100
AcDbCircle
 62
7
  6
CONTINUOUS
 10
5.8350916856
 20
5.4796671408
 40
0.1845472441
100
AcDbArc
 50
180.0
 51
360.0
  0
ARC
  5
264
100
AcDbEntity
  8
0
100
AcDbCircle
 62
7
  6
CONTINUOUS
 10
4.4202294809
 20
5.4915765897
 40
0.0492125984
100
AcDbArc
 50
0.0
 51
90.0
  0
ARC
  5
265
100
AcDbEntity
  8
0
100
AcDbCircle
 62
7
  6
CONTINUOUS
 10
4.8877491659
 20
5.4915765897
 40
0.0492125984
100
AcDbArc
 50
90.0
 51
180.0
  0
ARC
  5
266
100
AcDbEntity
  8
0
100
AcDbCircle
 62
7
  6
CONTINUOUS
 10
5.010780662
 20
5.4915765897
 40
0.0492125984
100
AcDbArc
 50
0.0
 51
90.0
  0
ARC
  5
267
100
AcDbEntity
  8
0
100
AcDbCircle
 62
7
  6
CONTINUOUS
 10
5.478300347
 20
5.4915765897
 40
0.0492125984
100
AcDbArc
 50
90.0
 51
180.0
  0
ARC
  5
268
100
AcDbEntity
  8
0
100
AcDbCircle
 62
7
  6
CONTINUOUS
 10
5.6013318431
 20
5.4915765897
 40
0.0492125984
100
AcDbArc
 50
0.0
 51
90.0
  0
ARC
  5
269
100
AcDbEntity
  8
0
100
AcDbCircle
 62
7
  6
CONTINUOUS
 10
6.0688515281
 20
5.4915765897
 40
0.0492125984
100
AcDbArc
 50
90.0
 51
180.0
  0
ARC
  5
26A
100
AcDbEntity
  8
0
100
AcDbCircle
 62
7
  6
CONTINUOUS
 10
6.1918830242
 20
5.4915765897
 40
0.0492125984
100
AcDbArc
 50
0.0
 51
90.0
  0
ARC
  5
26B
100
AcDbEntity
  8
0
100
AcDbCircle
 62
7
  6
CONTINUOUS
 10
6.6594027092
 20
5.4915765897
 40
0.0492125984
100
AcDbArc
 50
90.0
 51
180.0
  0
ARC
  5
26C
100
AcDbEntity
  8
0
100
AcDbCircle
 62
7
  6
CONTINUOUS
 10
6.7824342053
 20
5.4915765897
 40
0.0492125984
100
AcDbArc
 50
0.0
 51
90.0
  0
ARC
  5
26D
100
AcDbEntity
  8
0
100
AcDbCircle
 62
7
  6
CONTINUOUS
 10
7.2499538903
 20
5.4915765897
 40
0.0492125984
100
AcDbArc
 50
90.0
 51
180.0
  0
ARC
  5
26E
100
AcDbEntity
  8
0
100
AcDbCircle
 62
7
  6
CONTINUOUS
 10
7.3729853864
 20
5.4915765897
 40
0.0492125984
100
AcDbArc
 50
0.0
 51
90.0
  0
ARC
  5
26F
100
AcDbEntity
  8
0
100
AcDbCircle
 62
7
  6
CONTINUOUS
 10
7.8405050714
 20
5.4915765897
 40
0.0492125984
100
AcDbArc
 50
90.0
 51
180.0
  0
SPLINE
  5
270
100
AcDbEntity
  8
0
100
AcDbSpline
 62
7
  6
CONTINUOUS
 70
0
 71
3
 72
12
 73
8
 74
0
 42
0.0000001
 43
0.0000001
 44
0.0000000001
 40
0.0
 40
0.0
 40
0.0
 40
0.0
 40
0.0998505012
 40
0.2032586121
 40
0.4308028638
 40
0.6965967924
 40
1.0
 40
1.0
 40
1.0
 40
1.0
 10
14.1113144264
 20
11.8137001438
 30
0.0
 10
14.1116886906
 20
11.8149115124
 30
0.0
 10
14.1127510909
 20
11.8172942848
 30
0.0
 10
14.1160776855
 20
11.8216881409
 30
0.0
 10
14.1224666752
 20
11.8260972636
 30
0.0
 10
14.1322119285
 20
11.8291463703
 30
0.0
 10
14.1394687677
 20
11.8297612829
 30
0.0
 10
14.1433212773
 20
11.8297612829
 30
0.0
  0
SPLINE
  5
271
100
AcDbEntity
  8
0
100
AcDbSpline
 62
7
  6
CONTINUOUS
 70
0
 71
3
 72
12
 73
8
 74
0
 42
0.0000001
 43
0.0000001
 44
0.0000000001
 40
0.0
 40
0.0
 40
0.0
 40
0.0
 40
0.0998505012
 40
0.2032586121
 40
0.4308028638
 40
0.6965967924
 40
1.0
 40
1.0
 40
1.0
 40
1.0
 10
14.6552480843
 20
11.8137001438
 30
0.0
 10
14.6556223485
 20
11.8149115124
 30
0.0
 10
14.6566847488
 20
11.8172942848
 30
0.0
 10
14.6600113434
 20
11.8216881409
 30
0.0
 10
14.6664003331
 20
11.8260972636
 30
0.0
 10
14.6761455864
 20
11.8291463703
 30
0.0
 10
14.6834024256
 20
11.8297612829
 30
0.0
 10
14.6872549352
 20
11.8297612829
 30
0.0
  0
SPLINE
  5
272
100
AcDbEntity
  8
0
100
AcDbSpline
 62
7
  6
CONTINUOUS
 70
0
 71
3
 72
12
 73
8
 74
0
 42
0.0000001
 43
0.0000001
 44
0.0000000001
 40
0.0
 40
0.0
 40
0.0
 40
0.0
 40
0.0998505012
 40
0.2032586121
 40
0.4308028638
 40
0.6965967924
 40
1.0
 40
1.0
 40
1.0
 40
1.0
 10
15.1991817422
 20
11.8137001438
 30
0.0
 10
15.1995560064
 20
11.8149115124
 30
0.0
 10
15.2006184066
 20
11.8172942848
 30
0.0
 10
15.2039450012
 20
11.8216881409
 30
0.0
 10
15.210333991
 20
11.8260972636
 30
0.0
 10
15.2200792443
 20
11.8291463703
 30
0.0
 10
15.2273360835
 20
11.8297612829
 30
0.0
 10
15.231188593
 20
11.8297612829
 30
0.0
  0
SPLINE
  5
273
100
AcDbEntity
  8
0
100
AcDbSpline
 62
7
  6
CONTINUOUS
 70
0
 71
3
 72
12
 73
8
 74
0
 42
0.0000001
 43
0.0000001
 44
0.0000000001
 40
0.0
 40
0.0
 40
0.0
 40
0.0
 40
0.0998505012
 40
0.2032586121
 40
0.4308028638
 40
0.6965967924
 40
1.0
 40
1.0
 40
1.0
 40
1.0
 10
15.7431154001
 20
11.8137001438
 30
0.0
 10
15.7434896642
 20
11.8149115124
 30
0.0
 10
15.7445520645
 20
11.8172942848
 30
0.0
 10
15.7478786591
 20
11.8216881409
 30
0.0
 10
15.7542676489
 20
11.8260972636
 30
0.0
 10
15.7640129022
 20
11.8291463703
 30
0.0
 10
15.7712697414
 20
11.8297612829
 30
0.0
 10
15.7751222509
 20
11.8297612829
 30
0.0
  0
SPLINE
  5
274
100
AcDbEntity
  8
0
100
AcDbSpline
 62
7
  6
CONTINUOUS
 70
0
 71
3
 72
12
 73
8
 74
0
 42
0.0000001
 43
0.0000001
 44
0.0000000001
 40
0.0
 40
0.0
 40
0.0
 40
0.0
 40
0.0998505012
 40
0.2032586121
 40
0.4308028638
 40
0.6965967924
 40
1.0
 40
1.0
 40
1.0
 40
1.0
 10
16.2870490579
 20
11.8137001438
 30
0.0
 10
16.2874233221
 20
11.8149115124
 30
0.0
 10
16.2884857224
 20
11.8172942848
 30
0.0
 10
16.291812317
 20
11.8216881409
 30
0.0
 10
16.2982013067
 20
11.8260972636
 30
0.0
 10
16.30794656
 20
11.8291463703
 30
0.0
 10
16.3152033992
 20
11.8297612829
 30
0.0
 10
16.3190559088
 20
11.8297612829
 30
0.0
  0
SPLINE
  5
275
100
AcDbEntity
  8
0
100
AcDbSpline
 62
7
  6
CONTINUOUS
 70
0
 71
3
 72
12
 73
8
 74
0
 42
0.0000001
 43
0.0000001
 44
0.0000000001
 40
0.0
 40
0.0
 40
0.0
 40
0.0
 40
0.0998505012
 40
0.2032586121
 40
0.4308028638
 40
0.6965967924
 40
1.0
 40
1.0
 40
1.0
 40
1.0
 10
16.8309827158
 20
11.8137001438
 30
0.0
 10
16.83135698
 20
11.8149115124
 30
0.0
 10
16.8324193803
 20
11.8172942848
 30
0.0
 10
16.8357459749
 20
11.8216881409
 30
0.0
 10
16.8421349646
 20
11.8260972636
 30
0.0
 10
16.8518802179
 20
11.8291463703
 30
0.0
 10
16.8591370571
 20
11.8297612829
 30
0.0
 10
16.8629895667
 20
11.8297612829
 30
0.0
  0
SPLINE
  5
276
100
AcDbEntity
  8
0
100
AcDbSpline
 62
7
  6
CONTINUOUS
 70
0
 71
3
 72
22
 73
18
 74
0
 42
0.0000001
 43
0.0000001
 44
0.0000000001
 40
0.0
 40
0.0
 40
0.0
 40
0.0
 40
0.0543638652
 40
0.1139897827
 40
0.1785859422
 40
0.2474346754
 40
0.3195212549
 40
0.3936295013
 40
0.5423780262
 40
0.6144855911
 40
0.6833644673
 40
0.7479972825
 40
0.8076654255
 40
0.8620702763
 40
0.9114799765
 40
0.9568762682
 40
1.0
 40
1.0
 40
1.0
 40
1.0
 10
16.4963480091
 20
11.7917672091
 30
0.0
 10
16.4996024368
 20
11.7851353827
 30
0.0
 10
16.5078678933
 20
11.7719172692
 30
0.0
 10
16.523928355
 20
11.7536193395
 30
0.0
 10
16.5437903101
 20
11.7363694121
 30
0.0
 10
16.5669232261
 20
11.7206215357
 30
0.0
 10
16.5927197193
 20
11.7067809147
 30
0.0
 10
16.6297619379
 20
11.6913636564
 30
0.0
 10
16.6688372604
 20
11.6812029667
 30
0.0
 10
16.7080313687
 20
11.6769566612
 30
0.0
 10
16.7360318569
 20
11.676884579
 30
0.0
 10
16.7621774794
 20
11.6798954783
 30
0.0
 10
16.7857912245
 20
11.6859239606
 30
0.0
 10
16.8062622718
 20
11.6948435172
 30
0.0
 10
16.8230496697
 20
11.7064966207
 30
0.0
 10
16.8356290345
 20
11.7206595394
 30
0.0
 10
16.8409171542
 20
11.7316815043
 30
0.0
 10
16.8426475167
 20
11.7372801341
 30
0.0
  0
SPLINE
  5
277
100
AcDbEntity
  8
0
100
AcDbSpline
 62
7
  6
CONTINUOUS
 70
0
 71
3
 72
22
 73
18
 74
0
 42
0.0000001
 43
0.0000001
 44
0.0000000001
 40
0.0
 40
0.0
 40
0.0
 40
0.0
 40
0.0543584801
 40
0.1139931193
 40
0.1785851223
 40
0.2474347922
 40
0.3195206538
 40
0.3936289374
 40
0.5423775589
 40
0.61448485
 40
0.6833635144
 40
0.7479964468
 40
0.8076650003
 40
0.8620701055
 40
0.9114796451
 40
0.9568754971
 40
1.0
 40
1.0
 40
1.0
 40
1.0
 10
15.9524143512
 20
11.7917672091
 30
0.0
 10
15.9556684527
 20
11.7851360475
 30
0.0
 10
15.9639349229
 20
11.7719181306
 30
0.0
 10
15.9799939357
 20
11.7536190961
 30
0.0
 10
15.9998576858
 20
11.736370064
 30
0.0
 10
16.0229894216
 20
11.720621605
 30
0.0
 10
16.0487860576
 20
11.7067811505
 30
0.0
 10
16.0858279249
 20
11.6913634395
 30
0.0
 10
16.1249033197
 20
11.6812030667
 30
0.0
 10
16.164097333
 20
11.6769569439
 30
0.0
 10
16.1920977326
 20
11.6768848413
 30
0.0
 10
16.2182433843
 20
11.6798955399
 30
0.0
 10
16.2418572726
 20
11.6859237358
 30
0.0
 10
16.2623284796
 20
11.6948431263
 30
0.0
 10
16.2791155786
 20
11.7064965424
 30
0.0
 10
16.2916949514
 20
11.7206594087
 30
0.0
 10
16.2969829118
 20
11.7316815822
 30
0.0
 10
16.298712925
 20
11.7372804224
 30
0.0
  0
SPLINE
  5
278
100
AcDbEntity
  8
0
100
AcDbSpline
 62
7
  6
CONTINUOUS
 70
0
 71
3
 72
22
 73
18
 74
0
 42
0.0000001
 43
0.0000001
 44
0.0000000001
 40
0.0
 40
0.0
 40
0.0
 40
0.0
 40
0.054355361
 40
0.1139948059
 40
0.1785845249
 40
0.2474342261
 40
0.3195205635
 40
0.3936289088
 40
0.542376833
 40
0.6144846978
 40
0.683363856
 40
0.7479961799
 40
0.8076638328
 40
0.8620688697
 40
0.9114791329
 40
0.9568753365
 40
1.0
 40
1.0
 40
1.0
 40
1.0
 10
15.4084806933
 20
11.7917672091
 30
0.0
 10
15.4117346071
 20
11.7851364299
 30
0.0
 10
15.4200017398
 20
11.7719186978
 30
0.0
 10
15.4360599226
 20
11.7536190734
 30
0.0
 10
15.4559243527
 20
11.736370259
 30
0.0
 10
15.4790554644
 20
11.7206213982
 30
0.0
 10
15.5048522072
 20
11.7067808958
 30
0.0
 10
15.541894416
 20
11.6913640989
 30
0.0
 10
15.5809696228
 20
11.6812035273
 30
0.0
 10
15.6201635904
 20
11.6769565264
 30
0.0
 10
15.6481640768
 20
11.6768843438
 30
0.0
 10
15.6743095208
 20
11.6798956964
 30
0.0
 10
15.6979230589
 20
11.6859242827
 30
0.0
 10
15.7183942283
 20
11.6948435595
 30
0.0
 10
15.7351819619
 20
11.7064961103
 30
0.0
 10
15.7477620825
 20
11.7206589917
 30
0.0
 10
15.7530483899
 20
11.73168183
 30
0.0
 10
15.7547790931
 20
11.737280478
 30
0.0
  0
SPLINE
  5
279
100
AcDbEntity
  8
0
100
AcDbSpline
 62
7
  6
CONTINUOUS
 70
0
 71
3
 72
22
 73
18
 74
0
 42
0.0000001
 43
0.0000001
 44
0.0000000001
 40
0.0
 40
0.0
 40
0.0
 40
0.0
 40
0.054355361
 40
0.1139948059
 40
0.1785845249
 40
0.2474342261
 40
0.3195205635
 40
0.3936289088
 40
0.542376833
 40
0.6144846978
 40
0.683363856
 40
0.7479961799
 40
0.8076638328
 40
0.8620688697
 40
0.9114791329
 40
0.9568753365
 40
1.0
 40
1.0
 40
1.0
 40
1.0
 10
14.8645470354
 20
11.7917672091
 30
0.0
 10
14.8678009493
 20
11.7851364299
 30
0.0
 10
14.8760680819
 20
11.7719186978
 30
0.0
 10
14.8921262648
 20
11.7536190734
 30
0.0
 10
14.9119906948
 20
11.736370259
 30
0.0
 10
14.9351218065
 20
11.7206213982
 30
0.0
 10
14.9609185494
 20
11.7067808958
 30
0.0
 10
14.9979607581
 20
11.6913640989
 30
0.0
 10
15.0370359649
 20
11.6812035273
 30
0.0
 10
15.0762299325
 20
11.6769565264
 30
0.0
 10
15.1042304189
 20
11.6768843438
 30
0.0
 10
15.1303758629
 20
11.6798956964
 30
0.0
 10
15.153989401
 20
11.6859242827
 30
0.0
 10
15.1744605705
 20
11.6948435595
 30
0.0
 10
15.191248304
 20
11.7064961103
 30
0.0
 10
15.2038284246
 20
11.7206589917
 30
0.0
 10
15.209114732
 20
11.73168183
 30
0.0
 10
15.2108454353
 20
11.737280478
 30
0.0
  0
SPLINE
  5
27A
100
AcDbEntity
  8
0
100
AcDbSpline
 62
7
  6
CONTINUOUS
 70
0
 71
3
 72
22
 73
18
 74
0
 42
0.0000001
 43
0.0000001
 44
0.0000000001
 40
0.0
 40
0.0
 40
0.0
 40
0.0
 40
0.0543510446
 40
0.1139967155
 40
0.17858412
 40
0.2474339296
 40
0.3195212835
 40
0.3936286797
 40
0.542377399
 40
0.6144844489
 40
0.6833628404
 40
0.7479964754
 40
0.80766483
 40
0.8620687011
 40
0.9114782297
 40
0.9568753218
 40
1.0
 40
1.0
 40
1.0
 40
1.0
 10
14.3206133776
 20
11.7917672091
 30
0.0
 10
14.3238670302
 20
11.7851369622
 30
0.0
 10
14.3321350929
 20
11.7719195645
 30
0.0
 10
14.3481921136
 20
11.7536190925
 30
0.0
 10
14.3680571281
 20
11.7363700525
 30
0.0
 10
14.3911880475
 20
11.7206212557
 30
0.0
 10
14.4169851712
 20
11.7067814263
 30
0.0
 10
14.4540273252
 20
11.6913645038
 30
0.0
 10
14.4931021238
 20
11.681202478
 30
0.0
 10
14.5322961869
 20
11.6769572897
 30
0.0
 10
14.5602965281
 20
11.6768852245
 30
0.0
 10
14.5864422721
 20
11.6798951615
 30
0.0
 10
14.6100560446
 20
11.6859236007
 30
0.0
 10
14.6305265327
 20
11.694844121
 30
0.0
 10
14.6473137622
 20
11.7064967199
 30
0.0
 10
14.6598951963
 20
11.7206586881
 30
0.0
 10
14.6651806731
 20
11.7316819577
 30
0.0
 10
14.6669120376
 20
11.737280398
 30
0.0
  0
SPLINE
  5
27B
100
AcDbEntity
  8
0
100
AcDbSpline
 62
7
  6
CONTINUOUS
 70
0
 71
3
 72
22
 73
18
 74
0
 42
0.0000001
 43
0.0000001
 44
0.0000000001
 40
0.0
 40
0.0
 40
0.0
 40
0.0
 40
0.0543510446
 40
0.1139967155
 40
0.17858412
 40
0.2474339296
 40
0.3195212835
 40
0.3936286797
 40
0.542377399
 40
0.6144844489
 40
0.6833628404
 40
0.7479964754
 40
0.80766483
 40
0.8620687011
 40
0.9114782297
 40
0.9568753218
 40
1.0
 40
1.0
 40
1.0
 40
1.0
 10
13.7766797197
 20
11.7917672091
 30
0.0
 10
13.7799333723
 20
11.7851369622
 30
0.0
 10
13.788201435
 20
11.7719195645
 30
0.0
 10
13.8042584558
 20
11.7536190925
 30
0.0
 10
13.8241234702
 20
11.7363700525
 30
0.0
 10
13.8472543896
 20
11.7206212557
 30
0.0
 10
13.8730515133
 20
11.7067814263
 30
0.0
 10
13.9100936673
 20
11.6913645038
 30
0.0
 10
13.9491684659
 20
11.681202478
 30
0.0
 10
13.988362529
 20
11.6769572897
 30
0.0
 10
14.0163628702
 20
11.6768852245
 30
0.0
 10
14.0425086142
 20
11.6798951615
 30
0.0
 10
14.0661223868
 20
11.6859236007
 30
0.0
 10
14.0865928748
 20
11.694844121
 30
0.0
 10
14.1033801043
 20
11.7064967199
 30
0.0
 10
14.1159615384
 20
11.7206586881
 30
0.0
 10
14.1212470152
 20
11.7316819577
 30
0.0
 10
14.1229783797
 20
11.737280398
 30
0.0
  0
SPLINE
  5
27C
100
AcDbEntity
  8
0
100
AcDbSpline
 62
7
  6
CONTINUOUS
 70
0
 71
3
 72
12
 73
8
 74
0
 42
0.0000001
 43
0.0000001
 44
0.0000000001
 40
0.0
 40
0.0
 40
0.0
 40
0.0
 40
0.2645728461
 40
0.5363566288
 40
0.6665425376
 40
0.7886507655
 40
1.0
 40
1.0
 40
1.0
 40
1.0
 10
13.7127071315
 20
11.8297612829
 30
0.0
 10
13.7189191054
 20
11.8297612829
 30
0.0
 10
13.7315355034
 20
11.8280560088
 30
0.0
 10
13.7463514209
 20
11.8226345102
 30
0.0
 10
13.7570219504
 20
11.8164283082
 30
0.0
 10
13.7656414154
 20
11.8097833215
 30
0.0
 10
13.770860724
 20
11.8036250757
 30
0.0
 10
13.7730468392
 20
11.7991702412
 30
0.0
  0
SPLINE
  5
27D
100
AcDbEntity
  8
0
100
AcDbSpline
 62
7
  6
CONTINUOUS
 70
0
 71
3
 72
12
 73
8
 74
0
 42
0.0000001
 43
0.0000001
 44
0.0000000001
 40
0.0
 40
0.0
 40
0.0
 40
0.0
 40
0.2645728461
 40
0.5363566288
 40
0.6665425376
 40
0.7886507655
 40
1.0
 40
1.0
 40
1.0
 40
1.0
 10
14.2566407894
 20
11.8297612829
 30
0.0
 10
14.2628527632
 20
11.8297612829
 30
0.0
 10
14.2754691613
 20
11.8280560088
 30
0.0
 10
14.2902850788
 20
11.8226345102
 30
0.0
 10
14.3009556083
 20
11.8164283082
 30
0.0
 10
14.3095750733
 20
11.8097833215
 30
0.0
 10
14.3147943818
 20
11.8036250757
 30
0.0
 10
14.3169804971
 20
11.7991702412
 30
0.0
  0
SPLINE
  5
27E
100
AcDbEntity
  8
0
100
AcDbSpline
 62
7
  6
CONTINUOUS
 70
0
 71
3
 72
12
 73
8
 74
0
 42
0.0000001
 43
0.0000001
 44
0.0000000001
 40
0.0
 40
0.0
 40
0.0
 40
0.0
 40
0.2645728461
 40
0.5363566288
 40
0.6665425376
 40
0.7886507655
 40
1.0
 40
1.0
 40
1.0
 40
1.0
 10
14.8005744472
 20
11.8297612829
 30
0.0
 10
14.8067864211
 20
11.8297612829
 30
0.0
 10
14.8194028192
 20
11.8280560088
 30
0.0
 10
14.8342187367
 20
11.8226345102
 30
0.0
 10
14.8448892661
 20
11.8164283082
 30
0.0
 10
14.8535087312
 20
11.8097833215
 30
0.0
 10
14.8587280397
 20
11.8036250757
 30
0.0
 10
14.8609141549
 20
11.7991702412
 30
0.0
  0
SPLINE
  5
27F
100
AcDbEntity
  8
0
100
AcDbSpline
 62
7
  6
CONTINUOUS
 70
0
 71
3
 72
12
 73
8
 74
0
 42
0.0000001
 43
0.0000001
 44
0.0000000001
 40
0.0
 40
0.0
 40
0.0
 40
0.0
 40
0.2645728461
 40
0.5363566288
 40
0.6665425376
 40
0.7886507655
 40
1.0
 40
1.0
 40
1.0
 40
1.0
 10
15.3445081051
 20
11.8297612829
 30
0.0
 10
15.350720079
 20
11.8297612829
 30
0.0
 10
15.3633364771
 20
11.8280560088
 30
0.0
 10
15.3781523945
 20
11.8226345102
 30
0.0
 10
15.388822924
 20
11.8164283082
 30
0.0
 10
15.3974423891
 20
11.8097833215
 30
0.0
 10
15.4026616976
 20
11.8036250757
 30
0.0
 10
15.4048478128
 20
11.7991702412
 30
0.0
  0
SPLINE
  5
280
100
AcDbEntity
  8
0
100
AcDbSpline
 62
7
  6
CONTINUOUS
 70
0
 71
3
 72
12
 73
8
 74
0
 42
0.0000001
 43
0.0000001
 44
0.0000000001
 40
0.0
 40
0.0
 40
0.0
 40
0.0
 40
0.2645728461
 40
0.5363566288
 40
0.6665425376
 40
0.7886507655
 40
1.0
 40
1.0
 40
1.0
 40
1.0
 10
15.888441763
 20
11.8297612829
 30
0.0
 10
15.8946537369
 20
11.8297612829
 30
0.0
 10
15.9072701349
 20
11.8280560088
 30
0.0
 10
15.9220860524
 20
11.8226345102
 30
0.0
 10
15.9327565819
 20
11.8164283082
 30
0.0
 10
15.9413760469
 20
11.8097833215
 30
0.0
 10
15.9465953555
 20
11.8036250757
 30
0.0
 10
15.9487814707
 20
11.7991702412
 30
0.0
  0
SPLINE
  5
281
100
AcDbEntity
  8
0
100
AcDbSpline
 62
7
  6
CONTINUOUS
 70
0
 71
3
 72
12
 73
8
 74
0
 42
0.0000001
 43
0.0000001
 44
0.0000000001
 40
0.0
 40
0.0
 40
0.0
 40
0.0
 40
0.2645728461
 40
0.5363566288
 40
0.6665425376
 40
0.7886507655
 40
1.0
 40
1.0
 40
1.0
 40
1.0
 10
16.4323754209
 20
11.8297612829
 30
0.0
 10
16.4385873948
 20
11.8297612829
 30
0.0
 10
16.4512037928
 20
11.8280560088
 30
0.0
 10
16.4660197103
 20
11.8226345102
 30
0.0
 10
16.4766902398
 20
11.8164283082
 30
0.0
 10
16.4853097048
 20
11.8097833215
 30
0.0
 10
16.4905290133
 20
11.8036250757
 30
0.0
 10
16.4927151286
 20
11.7991702412
 30
0.0
  0
SPLINE
  5
282
100
AcDbEntity
  8
0
100
AcDbSpline
 62
7
  6
CONTINUOUS
 70
0
 71
3
 72
11
 73
7
 74
0
 42
0.0000001
 43
0.0000001
 44
0.0000000001
 40
0.0
 40
0.0
 40
0.0
 40
0.0
 40
0.2336854563
 40
0.4744444727
 40
0.7285054322
 40
1.0
 40
1.0
 40
1.0
 40
1.0
 10
16.298712925
 20
11.7372804224
 30
0.0
 10
16.3000036232
 20
11.7414575079
 30
0.0
 10
16.3017001114
 20
11.7502529418
 30
0.0
 10
16.3014015696
 20
11.7639695501
 30
0.0
 10
16.2983220714
 20
11.7780511384
 30
0.0
 10
16.2946105399
 20
11.7872073527
 30
0.0
 10
16.2923728874
 20
11.7917672091
 30
0.0
  0
SPLINE
  5
283
100
AcDbEntity
  8
0
100
AcDbSpline
 62
7
  6
CONTINUOUS
 70
0
 71
3
 72
11
 73
7
 74
0
 42
0.0000001
 43
0.0000001
 44
0.0000000001
 40
0.0
 40
0.0
 40
0.0
 40
0.0
 40
0.2337006148
 40
0.4744600685
 40
0.7284408233
 40
1.0
 40
1.0
 40
1.0
 40
1.0
 10
16.8426475167
 20
11.7372801341
 30
0.0
 10
16.8439385843
 20
11.7414574145
 30
0.0
 10
16.8456326121
 20
11.7502537457
 30
0.0
 10
16.8453348354
 20
11.7639688017
 30
0.0
 10
16.8422577322
 20
11.7780508419
 30
0.0
 10
16.8385447362
 20
11.7872062554
 30
0.0
 10
16.8363065452
 20
11.7917672091
 30
0.0
  0
SPLINE
  5
284
100
AcDbEntity
  8
0
100
AcDbSpline
 62
7
  6
CONTINUOUS
 70
0
 71
3
 72
11
 73
7
 74
0
 42
0.0000001
 43
0.0000001
 44
0.0000000001
 40
0.0
 40
0.0
 40
0.0
 40
0.0
 40
0.2336745839
 40
0.4744432871
 40
0.7285352633
 40
1.0
 40
1.0
 40
1.0
 40
1.0
 10
15.2108454353
 20
11.737280478
 30
0.0
 10
15.2121365817
 20
11.7414572048
 30
0.0
 10
15.2138324749
 20
11.7502527567
 30
0.0
 10
15.213534722
 20
11.7639699171
 30
0.0
 10
15.2104536726
 20
11.7780513857
 30
0.0
 10
15.2067429747
 20
11.787207861
 30
0.0
 10
15.2045055716
 20
11.7917672091
 30
0.0
  0
SPLINE
  5
285
100
AcDbEntity
  8
0
100
AcDbSpline
 62
7
  6
CONTINUOUS
 70
0
 71
3
 72
9
 73
5
 74
0
 42
0.0000001
 43
0.0000001
 44
0.0000000001
 40
0.0
 40
0.0
 40
0.0
 40
0.0
 40
0.5259283906
 40
1.0
 40
1.0
 40
1.0
 40
1.0
 10
14.1130053754
 20
11.7991702412
 30
0.0
 10
14.1118546443
 20
11.8015151845
 30
0.0
 10
14.1102429749
 20
11.8063265789
 30
0.0
 10
14.1106193899
 20
11.8114505421
 30
0.0
 10
14.1113144264
 20
11.8137001438
 30
0.0
  0
SPLINE
  5
286
100
AcDbEntity
  8
0
100
AcDbSpline
 62
7
  6
CONTINUOUS
 70
0
 71
3
 72
11
 73
7
 74
0
 42
0.0000001
 43
0.0000001
 44
0.0000000001
 40
0.0
 40
0.0
 40
0.0
 40
0.0
 40
0.2336627515
 40
0.4744485601
 40
0.7285753422
 40
1.0
 40
1.0
 40
1.0
 40
1.0
 10
14.1229783797
 20
11.737280398
 30
0.0
 10
14.1242699527
 20
11.741456754
 30
0.0
 10
14.1259645471
 20
11.7502526735
 30
0.0
 10
14.1256679433
 20
11.7639705473
 30
0.0
 10
14.1225848898
 20
11.7780518423
 30
0.0
 10
14.1188753251
 20
11.7872085412
 30
0.0
 10
14.1166382559
 20
11.7917672091
 30
0.0
  0
SPLINE
  5
287
100
AcDbEntity
  8
0
100
AcDbSpline
 62
7
  6
CONTINUOUS
 70
0
 71
3
 72
9
 73
5
 74
0
 42
0.0000001
 43
0.0000001
 44
0.0000000001
 40
0.0
 40
0.0
 40
0.0
 40
0.0
 40
0.5259283906
 40
1.0
 40
1.0
 40
1.0
 40
1.0
 10
14.6569390332
 20
11.7991702412
 30
0.0
 10
14.6557883022
 20
11.8015151845
 30
0.0
 10
14.6541766328
 20
11.8063265789
 30
0.0
 10
14.6545530478
 20
11.8114505421
 30
0.0
 10
14.6552480843
 20
11.8137001438
 30
0.0
  0
SPLINE
  5
288
100
AcDbEntity
  8
0
100
AcDbSpline
 62
7
  6
CONTINUOUS
 70
0
 71
3
 72
9
 73
5
 74
0
 42
0.0000001
 43
0.0000001
 44
0.0000000001
 40
0.0
 40
0.0
 40
0.0
 40
0.0
 40
0.5259283906
 40
1.0
 40
1.0
 40
1.0
 40
1.0
 10
15.2008726911
 20
11.7991702412
 30
0.0
 10
15.1997219601
 20
11.8015151845
 30
0.0
 10
15.1981102907
 20
11.8063265789
 30
0.0
 10
15.1984867057
 20
11.8114505421
 30
0.0
 10
15.1991817422
 20
11.8137001438
 30
0.0
  0
SPLINE
  5
289
100
AcDbEntity
  8
0
100
AcDbSpline
 62
7
  6
CONTINUOUS
 70
0
 71
3
 72
9
 73
5
 74
0
 42
0.0000001
 43
0.0000001
 44
0.0000000001
 40
0.0
 40
0.0
 40
0.0
 40
0.0
 40
0.5259283906
 40
1.0
 40
1.0
 40
1.0
 40
1.0
 10
15.744806349
 20
11.7991702412
 30
0.0
 10
15.743655618
 20
11.8015151845
 30
0.0
 10
15.7420439485
 20
11.8063265789
 30
0.0
 10
15.7424203636
 20
11.8114505421
 30
0.0
 10
15.7431154001
 20
11.8137001438
 30
0.0
  0
SPLINE
  5
28A
100
AcDbEntity
  8
0
100
AcDbSpline
 62
7
  6
CONTINUOUS
 70
0
 71
3
 72
11
 73
7
 74
0
 42
0.0000001
 43
0.0000001
 44
0.0000000001
 40
0.0
 40
0.0
 40
0.0
 40
0.0
 40
0.2336745839
 40
0.4744432871
 40
0.7285352633
 40
1.0
 40
1.0
 40
1.0
 40
1.0
 10
15.7547790931
 20
11.737280478
 30
0.0
 10
15.7560702396
 20
11.7414572048
 30
0.0
 10
15.7577661327
 20
11.7502527567
 30
0.0
 10
15.7574683799
 20
11.7639699171
 30
0.0
 10
15.7543873305
 20
11.7780513857
 30
0.0
 10
15.7506766326
 20
11.787207861
 30
0.0
 10
15.7484392295
 20
11.7917672091
 30
0.0
  0
SPLINE
  5
28B
100
AcDbEntity
  8
0
100
AcDbSpline
 62
7
  6
CONTINUOUS
 70
0
 71
3
 72
9
 73
5
 74
0
 42
0.0000001
 43
0.0000001
 44
0.0000000001
 40
0.0
 40
0.0
 40
0.0
 40
0.0
 40
0.5259283906
 40
1.0
 40
1.0
 40
1.0
 40
1.0
 10
16.2887400069
 20
11.7991702412
 30
0.0
 10
16.2875892758
 20
11.8015151845
 30
0.0
 10
16.2859776064
 20
11.8063265789
 30
0.0
 10
16.2863540214
 20
11.8114505421
 30
0.0
 10
16.2870490579
 20
11.8137001438
 30
0.0
  0
SPLINE
  5
28C
100
AcDbEntity
  8
0
100
AcDbSpline
 62
7
  6
CONTINUOUS
 70
0
 71
3
 72
11
 73
7
 74
0
 42
0.0000001
 43
0.0000001
 44
0.0000000001
 40
0.0
 40
0.0
 40
0.0
 40
0.0
 40
0.2336627515
 40
0.4744485601
 40
0.7285753422
 40
1.0
 40
1.0
 40
1.0
 40
1.0
 10
14.6669120376
 20
11.737280398
 30
0.0
 10
14.6682036106
 20
11.741456754
 30
0.0
 10
14.669898205
 20
11.7502526735
 30
0.0
 10
14.6696016012
 20
11.7639705473
 30
0.0
 10
14.6665185477
 20
11.7780518423
 30
0.0
 10
14.662808983
 20
11.7872085412
 30
0.0
 10
14.6605719137
 20
11.7917672091
 30
0.0
  0
SPLINE
  5
28D
100
AcDbEntity
  8
0
100
AcDbSpline
 62
7
  6
CONTINUOUS
 70
0
 71
3
 72
9
 73
5
 74
0
 42
0.0000001
 43
0.0000001
 44
0.0000000001
 40
0.0
 40
0.0
 40
0.0
 40
0.0
 40
0.5259283906
 40
1.0
 40
1.0
 40
1.0
 40
1.0
 10
16.8326736647
 20
11.7991702412
 30
0.0
 10
16.8315229337
 20
11.8015151845
 30
0.0
 10
16.8299112643
 20
11.8063265789
 30
0.0
 10
16.8302876793
 20
11.8114505421
 30
0.0
 10
16.8309827158
 20
11.8137001438
 30
0.0
  0
ENDSEC
  0
SECTION
  2
OBJECTS
  0
DICTIONARY
  5
C
100
AcDbDictionary
280
0
281
1
  3
ACAD_GROUP
350
D
  3
ACAD_MLINESTYLE
350
17
  3
ACAD_LAYOUT
350
1A
  3
ACAD_PLOTSETTINGS
350
19
  3
ACAD_PLOTSTYLENAME
350
E
  0
DICTIONARY
  5
D
102
{ACAD_REACTORS
330
C
102
}
100
AcDbDictionary
280
0
281
1
  0
ACDBDICTIONARYWDFLT
  5
E
102
{ACAD_REACTORS
330
C
102
}
100
AcDbDictionary
281
1
  3
Normal
350
F
100
AcDbDictionaryWithDefault
340
F
  0
DICTIONARY
  5
17
102
{ACAD_REACTORS
330
C
102
}
100
AcDbDictionary
280
0
281
1
  3
Standard
350
18
  0
DICTIONARY
  5
19
102
{ACAD_REACTORS
330
C
102
}
100
AcDbDictionary
281
1
  0
DICTIONARY
  5
1A
102
{ACAD_REACTORS
330
C
102
}
100
AcDbDictionary
281
1
  3
Model
350
28E
  3
Layout1
350
28F
  0
ACDBPLACEHOLDER
  5
F
102
{ACAD_REACTORS
330
E
102
}
  0
MLINESTYLE
  5
18
102
{ACAD_REACTORS
330
17
102
}
100
AcDbMlineStyle
  2
STANDARD
 70
0
  3

 62
256
 51
90.0
 52
90.0
 71
2
 49
0.5
 62
256
  6
BYLAYER
 49
-0.5
 62
256
  6
BYLAYER
  0
LAYOUT
  5
28E
102
{ACAD_REACTORS
330
1A
102
}
100
AcDbPlotSettings
  1

  2
none_device
  4
ANSI_C_(22.00_x_17.00_Inches)
  6

 40
0.0
 41
0.0
 42
0.0
 43
0.0
 44
558.8
 45
431.8
 46
0.0
 47
0.0
 48
0.0
 49
0.0
140
0.0
141
0.0
142
1.0
143
1.0
 70
1024
 72
0
 73
0
 74
0
  7

 75
0
147
1.0
148
0.0
149
0.0
100
AcDbLayout
  1
Model
 70
0
 71
0
 10
0.0
 20
0.0
 11
22.0
 21
17.0
 12
0.0
 22
0.0
 32
0.0
 14
0.0
 24
0.0
 34
0.0
 15
0.0
 25
0.0
 35
0.0
146
0.0
 13
0.0
 23
0.0
 33
0.0
 16
1.0
 26
0.0
 36
0.0
 17
0.0
 27
1.0
 37
0.0
 76
0
330
216
345
0
346
0
  0
LAYOUT
  5
28F
102
{ACAD_REACTORS
330
1A
102
}
100
AcDbPlotSettings
  1

  2
none_device
  4
ANSI_C_(22.00_x_17.00_Inches)
  6

 40
0.0
 41
0.0
 42
0.0
 43
0.0
 44
558.8
 45
431.8
 46
0.0
 47
0.0
 48
0.0
 49
0.0
140
0.0
141
0.0
142
1.0
143
1.0
 70
0
 72
0
 73
0
 74
0
  7

 75
0
147
1.0
148
0.0
149
0.0
100
AcDbLayout
  1
Layout1
 70
0
 71
1
 10
0.0
 20
0.0
 11
22.0
 21
17.0
 12
0.0
 22
0.0
 32
0.0
 14
0.0
 24
0.0
 34
0.0
 15
0.0
 25
0.0
 35
0.0
146
0.0
 13
0.0
 23
0.0
 33
0.0
 16
1.0
 26
0.0
 36
0.0
 17
0.0
 27
1.0
 37
0.0
 76
0
330
217
345
0
346
0
  0
ENDSEC
  0
EOF