999
DXF file: _cgs_temp_output.dxf
999
Pro/ENGINEER 2015110 by Parametric Technology Corporation
  0
SECTION
  2
HEADER
  9
$ACADVER
  1
AC1021
  9
$DWGCODEPAGE
  3
ANSI_1252
  9
$EXTMAX
 10
22.0
 20
17.0
 30
0.0
  9
$EXTMIN
 10
0.0
 20
0.0
 30
0.0
  9
$LIMMIN
 10
0.0
 20
0.0
  9
$LIMMAX
 10
22.0
 20
17.0
  9
$VIEWCTR
 10
11.0
 20
8.5
  9
$VIEWSIZE
 40
17.0
  9
$CLAYER
  8
0
  9
$LTSCALE
 40
1.21
  9
$CELTYPE
  6
BYLAYER
  9
$DIMSCALE
 40
1.0
  9
$DIMASZ
 40
0.1875
  9
$DIMEXO
 40
0.0625
  9
$DIMDLI
 40
0.836
  9
$DIMEXE
 40
0.125
  9
$DIMCEN
 40
0.198
  9
$DIMLFAC
 40
1.0
  9
$DIMBLK
  1
_CLOSED
  9
$DIMALT
 70
0
  9
$DIMALTF
 40
25.4
  9
$DIMTXT
 40
0.15625
  9
$DIMTOL
 70
0
  9
$DIMLIM
 70
0
  9
$DIMTFAC
 40
1.0
  9
$DIMGAP
 40
0.09
  9
$DIMDSEP
 70
46
  9
$AUNITS
 70
0
  9
$PDMODE
 70
3
  9
$PDSIZE
 40
0.3125
  9
$HANDSEED
  5
380
  9
$TILEMODE
 70
1
  9
$MEASUREMENT
 70
0
  9
$INSUNITS
 70
1
  0
ENDSEC
  0
SECTION
  2
CLASSES
  0
CLASS
  1
ACDBDICTIONARYWDFLT
  2
AcDbDictionaryWithDefault
  3
AutoCAD 2000
 90
0
 91
1
280
0
281
0
  0
CLASS
  1
ACDBPLACEHOLDER
  2
AcDbPlaceHolder
  3
AutoCAD 2000
 90
0
 91
1
280
0
281
0
  0
CLASS
  1
LAYOUT
  2
AcDbLayout
  3
AutoCAD 2000
 90
0
 91
0
280
0
281
0
  0
ENDSEC
  0
SECTION
  2
TABLES
  0
TABLE
  2
VPORT
  5
8
100
AcDbSymbolTable
 70
2
  0
VPORT
  5
1F4
100
AcDbSymbolTableRecord
100
AcDbViewportTableRecord
  2
*ACTIVE
 70
0
 10
0.0
 20
0.0
 11
1.0
 21
1.0
 12
11.0
 22
8.5
 13
0.0
 23
0.0
 14
1.0
 24
1.0
 15
0.0
 25
0.0
 16
0.0
 26
0.0
 36
1.0
 17
0.0
 27
0.0
 37
0.0
 40
17.0
 41
1.2941176471
 42
50.0
 43
0.0
 44
0.0
 50
0.0
 51
0.0
 71
0
 72
100
 73
1
 74
1
 75
0
 76
0
 77
0
 78
0
  0
ENDTAB
  0
TABLE
  2
LTYPE
  5
5
100
AcDbSymbolTable
 70
6
  0
LTYPE
  5
14
100
AcDbSymbolTableRecord
100
AcDbLinetypeTableRecord
  2
BYBLOCK
 70
0
  3

 72
65
 73
0
 40
0.0
  0
LTYPE
  5
15
100
AcDbSymbolTableRecord
100
AcDbLinetypeTableRecord
  2
BYLAYER
 70
0
  3

 72
65
 73
0
 40
0.0
  0
LTYPE
  5
16
100
AcDbSymbolTableRecord
100
AcDbLinetypeTableRecord
  2
CONTINUOUS
 70
64
  3
Solid line
 72
65
 73
0
 40
0.0
  0
LTYPE
  5
1F5
100
AcDbSymbolTableRecord
100
AcDbLinetypeTableRecord
  2
CENTER
 70
64
  3
____ _ ____ _ ____ _ ____ _ ____ _ ____ _ ____
 72
65
 73
4
 40
0.6
 49
0.375
 74
0
 49
-0.075
 74
0
 49
0.075
 74
0
 49
-0.075
 74
0
  0
LTYPE
  5
1F6
100
AcDbSymbolTableRecord
100
AcDbLinetypeTableRecord
  2
HIDDEN
 70
64
  3
- - - - - - - - - - - - - - - - - - - -
 72
65
 73
2
 40
0.2
 49
0.1
 74
0
 49
-0.1
 74
0
  0
LTYPE
  5
1F7
100
AcDbSymbolTableRecord
100
AcDbLinetypeTableRecord
  2
PHANTOM
 70
64
  3
_____ _ _ _____ _ _ _____ _ _ _____
 72
65
 73
6
 40
0.8
 49
0.45
 74
0
 49
-0.05
 74
0
 49
0.1
 74
0
 49
-0.05
 74
0
 49
0.1
 74
0
 49
-0.05
 74
0
  0
LTYPE
  5
1F8
100
AcDbSymbolTableRecord
100
AcDbLinetypeTableRecord
  2
DOT
 70
64
  3
. . . . . . . . . . . . . . . . . . . .
 72
65
 73
2
 40
0.2
 49
0.1
 74
0
 49
-0.1
 74
0
  0
LTYPE
  5
1F9
100
AcDbSymbolTableRecord
100
AcDbLinetypeTableRecord
  2
DASHED
 70
64
  3
- - - - - - - - - - - - - - - - - - - -
 72
65
 73
2
 40
0.2
 49
0.1
 74
0
 49
-0.1
 74
0
  0
ENDTAB
  0
TABLE
  2
LAYER
  5
2
100
AcDbSymbolTable
 70
36
  0
LAYER
  5
10
100
AcDbSymbolTableRecord
100
AcDbLayerTableRecord
  2
0
 70
0
 62
7
  6
CONTINUOUS
370
-3
390
F
  0
LAYER
  5
1FA
100
AcDbSymbolTableRecord
100
AcDbLayerTableRecord
  2
DEFAULT_1
 70
0
 62
7
  6
CENTER
370
-3
390
F
  0
LAYER
  5
1FB
100
AcDbSymbolTableRecord
100
AcDbLayerTableRecord
  2
DEFAULT_2
 70
0
 62
8
  6
HIDDEN
370
-3
390
F
  0
LAYER
  5
1FC
100
AcDbSymbolTableRecord
100
AcDbLayerTableRecord
  2
DEFAULT_3
 70
0
 62
7
  6
PHANTOM
370
-3
390
F
  0
LAYER
  5
1FD
100
AcDbSymbolTableRecord
100
AcDbLayerTableRecord
  2
01_ALL_DTM_PLN
 70
0
 62
7
  6
CONTINUOUS
370
-3
390
F
  0
LAYER
  5
1FE
100
AcDbSymbolTableRecord
100
AcDbLayerTableRecord
  2
01__ASM_ALL_DTM_PLN
 70
0
 62
7
  6
CONTINUOUS
370
-3
390
F
  0
LAYER
  5
1FF
100
AcDbSymbolTableRecord
100
AcDbLayerTableRecord
  2
01__ASM_DEF_DTM_PLN
 70
0
 62
7
  6
CONTINUOUS
370
-3
390
F
  0
LAYER
  5
200
100
AcDbSymbolTableRecord
100
AcDbLayerTableRecord
  2
01___PRT_ALL_DTM_PLN
 70
0
 62
7
  6
CONTINUOUS
370
-3
390
F
  0
LAYER
  5
201
100
AcDbSymbolTableRecord
100
AcDbLayerTableRecord
  2
01___PRT_DEF_DTM_PLN
 70
0
 62
7
  6
CONTINUOUS
370
-3
390
F
  0
LAYER
  5
202
100
AcDbSymbolTableRecord
100
AcDbLayerTableRecord
  2
02_ALL_AXES
 70
0
 62
7
  6
CONTINUOUS
370
-3
390
F
  0
LAYER
  5
203
100
AcDbSymbolTableRecord
100
AcDbLayerTableRecord
  2
02__ASM_ALL_AXES
 70
0
 62
7
  6
CONTINUOUS
370
-3
390
F
  0
LAYER
  5
204
100
AcDbSymbolTableRecord
100
AcDbLayerTableRecord
  2
02___PRT_ALL_AXES
 70
0
 62
7
  6
CONTINUOUS
370
-3
390
F
  0
LAYER
  5
205
100
AcDbSymbolTableRecord
100
AcDbLayerTableRecord
  2
03_ALL_CURVES
 70
0
 62
7
  6
CONTINUOUS
370
-3
390
F
  0
LAYER
  5
206
100
AcDbSymbolTableRecord
100
AcDbLayerTableRecord
  2
03__ASM_ALL_CURVES
 70
0
 62
7
  6
CONTINUOUS
370
-3
390
F
  0
LAYER
  5
207
100
AcDbSymbolTableRecord
100
AcDbLayerTableRecord
  2
03___PRT_ALL_CURVES
 70
0
 62
7
  6
CONTINUOUS
370
-3
390
F
  0
LAYER
  5
208
100
AcDbSymbolTableRecord
100
AcDbLayerTableRecord
  2
04_ALL_DTM_PNT
 70
0
 62
7
  6
CONTINUOUS
370
-3
390
F
  0
LAYER
  5
209
100
AcDbSymbolTableRecord
100
AcDbLayerTableRecord
  2
04__ASM_ALL_DTM_PNT
 70
0
 62
7
  6
CONTINUOUS
370
-3
390
F
  0
LAYER
  5
20A
100
AcDbSymbolTableRecord
100
AcDbLayerTableRecord
  2
04___PRT_ALL_DTM_PNT
 70
0
 62
7
  6
CONTINUOUS
370
-3
390
F
  0
LAYER
  5
20B
100
AcDbSymbolTableRecord
100
AcDbLayerTableRecord
  2
05_ALL_DTM_CSYS
 70
0
 62
7
  6
CONTINUOUS
370
-3
390
F
  0
LAYER
  5
20C
100
AcDbSymbolTableRecord
100
AcDbLayerTableRecord
  2
05__ASM_ALL_DTM_CSYS
 70
0
 62
7
  6
CONTINUOUS
370
-3
390
F
  0
LAYER
  5
20D
100
AcDbSymbolTableRecord
100
AcDbLayerTableRecord
  2
05__ASM_DEF_DTM_CSYS
 70
0
 62
7
  6
CONTINUOUS
370
-3
390
F
  0
LAYER
  5
20E
100
AcDbSymbolTableRecord
100
AcDbLayerTableRecord
  2
05___PRT_ALL_DTM_CSYS
 70
0
 62
7
  6
CONTINUOUS
370
-3
390
F
  0
LAYER
  5
20F
100
AcDbSymbolTableRecord
100
AcDbLayerTableRecord
  2
05___PRT_DEF_DTM_CSYS
 70
0
 62
7
  6
CONTINUOUS
370
-3
390
F
  0
LAYER
  5
210
100
AcDbSymbolTableRecord
100
AcDbLayerTableRecord
  2
06_ALL_SURFS
 70
0
 62
7
  6
CONTINUOUS
370
-3
390
F
  0
LAYER
  5
211
100
AcDbSymbolTableRecord
100
AcDbLayerTableRecord
  2
06__ASM_ALL_SURFS
 70
0
 62
7
  6
CONTINUOUS
370
-3
390
F
  0
LAYER
  5
212
100
AcDbSymbolTableRecord
100
AcDbLayerTableRecord
  2
06___PRT_ALL_SURFS
 70
0
 62
7
  6
CONTINUOUS
370
-3
390
F
  0
LAYER
  5
213
100
AcDbSymbolTableRecord
100
AcDbLayerTableRecord
  2
07__ASM_ALL_SKELETONS
 70
0
 62
7
  6
CONTINUOUS
370
-3
390
F
  0
LAYER
  5
214
100
AcDbSymbolTableRecord
100
AcDbLayerTableRecord
  2
LAYER_DIM
 70
0
 62
7
  6
CONTINUOUS
370
-3
390
F
  0
LAYER
  5
215
100
AcDbSymbolTableRecord
100
AcDbLayerTableRecord
  2
LAYER_FEATURE
 70
0
 62
7
  6
CONTINUOUS
370
-3
390
F
  0
LAYER
  5
216
100
AcDbSymbolTableRecord
100
AcDbLayerTableRecord
  2
LAYER_GEOM_FEAT
 70
0
 62
7
  6
CONTINUOUS
370
-3
390
F
  0
LAYER
  5
217
100
AcDbSymbolTableRecord
100
AcDbLayerTableRecord
  2
LAYER_PARAMETER_DIM
 70
0
 62
7
  6
CONTINUOUS
370
-3
390
F
  0
LAYER
  5
218
100
AcDbSymbolTableRecord
100
AcDbLayerTableRecord
  2
LAYER_PROTRUSION_FEAT
 70
0
 62
7
  6
CONTINUOUS
370
-3
390
F
  0
LAYER
  5
219
100
AcDbSymbolTableRecord
100
AcDbLayerTableRecord
  2
LAYER_ROUND_FEAT
 70
0
 62
7
  6
CONTINUOUS
370
-3
390
F
  0
ENDTAB
  0
TABLE
  2
STYLE
  5
3
100
AcDbSymbolTable
 70
1
  0
STYLE
  5
11
100
AcDbSymbolTableRecord
100
AcDbTextStyleTableRecord
  2
STANDARD
 70
0
 40
0.0
 41
0.8
 50
0.0
 71
0
 42
0.2
  3
txt
  4

  0
STYLE
  5
21A
100
AcDbSymbolTableRecord
100
AcDbTextStyleTableRecord
  2
TEXTSTYLE_1
 70
0
 40
0.0
 41
0.8
 50
0.0
 71
0
 42
0.2
  3
gdt
  4

  0
ENDTAB
  0
TABLE
  2
VIEW
  5
6
100
AcDbSymbolTable
 70
0
  0
ENDTAB
  0
TABLE
  2
UCS
  5
7
100
AcDbSymbolTable
 70
0
  0
ENDTAB
  0
TABLE
  2
APPID
  5
9
100
AcDbSymbolTable
 70
1
  0
APPID
  5
21B
100
AcDbSymbolTableRecord
100
AcDbRegAppTableRecord
  2
ACAD
 70
0
  0
ENDTAB
  0
TABLE
  2
BLOCK_RECORD
  5
1
100
AcDbSymbolTable
 70
0
  0
BLOCK_RECORD
  5
21C
100
AcDbSymbolTableRecord
100
AcDbBlockTableRecord
  2
*Model_Space
  0
BLOCK_RECORD
  5
21D
100
AcDbSymbolTableRecord
100
AcDbBlockTableRecord
  2
*Paper_Space
  0
ENDTAB
  0
TABLE
  2
DIMSTYLE
  5
A
100
AcDbSymbolTable
 70
1
100
AcDbDimStyleTable
 71
0
  0
DIMSTYLE
105
21E
100
AcDbSymbolTableRecord
100
AcDbDimStyleTableRecord
  2
STANDARD
 70
0
  3

  4

 40
1.0
 41
0.1875
 42
0.0625
 43
0.38
 44
0.125
 45
0.0
 46
0.0
 47
0.0001
 48
0.0001
140
0.15625
141
0.09
142
0.0
143
25.4
144
1.0
145
0.0
146
1.0
147
0.09
 71
0.0
 72
0.0
 73
1
 74
1
 75
0
 76
0
 77
0
 78
4
170
0
171
2
172
0
173
0
174
0
175
0
176
0
177
0
178
0
270
2
271
4
272
4
273
2
274
2
275
0
280
0
281
0
282
0
283
1
284
4
285
0
286
0
287
3
288
0
340
11
278
46
  0
ENDTAB
  0
ENDSEC
  0
SECTION
  2
BLOCKS
  0
BLOCK
  5
20
100
AcDbEntity
  8
0
100
AcDbBlockBegin
  2
*Model_Space
 70
0
 10
0.0
 20
0.0
 30
0.0
  3
*Model_Space
  1

  0
ENDBLK
  5
21
100
AcDbEntity
  8
0
100
AcDbBlockEnd
  0
BLOCK
  5
1C
100
AcDbEntity
  8
0
100
AcDbBlockBegin
  2
*Paper_Space
 70
0
 10
0.0
 20
0.0
 30
0.0
  3
*Paper_Space
  1

  0
ENDBLK
  5
1D
100
AcDbEntity
  8
0
100
AcDbBlockEnd
  0
ENDSEC
  0
SECTION
  2
ENTITIES
  0
MTEXT
  5
21F
100
AcDbEntity
  8
0
100
AcDbMText
 62
7
  6
CONTINUOUS
  7
STANDARD
 71
1
 72
1
 10
15.9560215477
 20
0.9479130325
 30
0.0
 11
1.0
 21
0.0
 31
0.0
 44
0.9
  1
SCALE: 1:0.500
 40
0.3
 41
3.36
  0
LINE
  5
220
100
AcDbEntity
  8
0
100
AcDbLine
 62
7
  6
CONTINUOUS
 10
0.0
 20
0.0
 11
0.0
 21
17.0
  0
LINE
  5
221
100
AcDbEntity
  8
0
100
AcDbLine
 62
7
  6
CONTINUOUS
 10
0.0
 20
0.0
 11
22.0
 21
0.0
  0
LINE
  5
222
100
AcDbEntity
  8
0
100
AcDbLine
 62
7
  6
CONTINUOUS
 10
0.0
 20
17.0
 11
22.0
 21
17.0
  0
LINE
  5
223
100
AcDbEntity
  8
0
100
AcDbLine
 62
7
  6
CONTINUOUS
 10
22.0
 20
0.0
 11
22.0
 21
17.0
  0
LINE
  5
224
100
AcDbEntity
  8
0
100
AcDbLine
 62
7
  6
CONTINUOUS
 10
3.2233672762
 20
5.6676198968
 11
3.2233672762
 21
5.6301198968
  0
LINE
  5
225
100
AcDbEntity
  8
0
100
AcDbLine
 62
7
  6
CONTINUOUS
 10
3.2233672762
 20
5.6301198968
 11
3.2792661289
 21
5.3752692131
  0
LINE
  5
226
100
AcDbEntity
  8
0
100
AcDbLine
 62
7
  6
CONTINUOUS
 10
3.5333672762
 20
5.6301198968
 11
3.5333672762
 21
5.6526198968
  0
LINE
  5
227
100
AcDbEntity
  8
LAYER_FEATURE
100
AcDbLine
 62
7
  6
CONTINUOUS
 10
3.5673672762
 20
5.6526198968
 11
3.5673672762
 21
5.6301198968
  0
LINE
  5
228
100
AcDbEntity
  8
0
100
AcDbLine
 62
7
  6
CONTINUOUS
 10
3.4774684234
 20
5.3752692131
 11
3.5333672762
 21
5.6301198968
  0
LINE
  5
229
100
AcDbEntity
  8
LAYER_FEATURE
100
AcDbLine
 62
7
  6
CONTINUOUS
 10
3.5673672762
 20
5.6301198968
 11
3.6232661289
 21
5.3752692131
  0
LINE
  5
22A
100
AcDbEntity
  8
LAYER_FEATURE
100
AcDbLine
 62
7
  6
CONTINUOUS
 10
3.8773672762
 20
5.6301198968
 11
3.8773672762
 21
5.6526198968
  0
LINE
  5
22B
100
AcDbEntity
  8
LAYER_FEATURE
100
AcDbLine
 62
7
  6
CONTINUOUS
 10
3.9113672762
 20
5.6526198968
 11
3.9113672762
 21
5.6301198968
  0
LINE
  5
22C
100
AcDbEntity
  8
LAYER_FEATURE
100
AcDbLine
 62
7
  6
CONTINUOUS
 10
3.8214684234
 20
5.3752692131
 11
3.8773672762
 21
5.6301198968
  0
LINE
  5
22D
100
AcDbEntity
  8
LAYER_FEATURE
100
AcDbLine
 62
7
  6
CONTINUOUS
 10
3.9113672762
 20
5.6301198968
 11
3.9672661289
 21
5.3752692131
  0
LINE
  5
22E
100
AcDbEntity
  8
LAYER_FEATURE
100
AcDbLine
 62
7
  6
CONTINUOUS
 10
4.2213672762
 20
5.6301198968
 11
4.2213672762
 21
5.6526198968
  0
LINE
  5
22F
100
AcDbEntity
  8
LAYER_FEATURE
100
AcDbLine
 62
7
  6
CONTINUOUS
 10
4.2553672762
 20
5.6526198968
 11
4.2553672762
 21
5.6301198968
  0
LINE
  5
230
100
AcDbEntity
  8
LAYER_FEATURE
100
AcDbLine
 62
7
  6
CONTINUOUS
 10
4.1654684234
 20
5.3752692131
 11
4.2213672762
 21
5.6301198968
  0
LINE
  5
231
100
AcDbEntity
  8
LAYER_FEATURE
100
AcDbLine
 62
7
  6
CONTINUOUS
 10
4.2553672762
 20
5.6301198968
 11
4.3112661289
 21
5.3752692131
  0
LINE
  5
232
100
AcDbEntity
  8
LAYER_FEATURE
100
AcDbLine
 62
7
  6
CONTINUOUS
 10
4.5653672762
 20
5.6301198968
 11
4.5653672762
 21
5.6526198968
  0
LINE
  5
233
100
AcDbEntity
  8
LAYER_FEATURE
100
AcDbLine
 62
7
  6
CONTINUOUS
 10
4.5993672762
 20
5.6526198968
 11
4.5993672762
 21
5.6301198968
  0
LINE
  5
234
100
AcDbEntity
  8
LAYER_FEATURE
100
AcDbLine
 62
7
  6
CONTINUOUS
 10
4.5094684234
 20
5.3752692131
 11
4.5653672762
 21
5.6301198968
  0
LINE
  5
235
100
AcDbEntity
  8
LAYER_FEATURE
100
AcDbLine
 62
7
  6
CONTINUOUS
 10
4.5993672762
 20
5.6301198968
 11
4.6552661289
 21
5.3752692131
  0
LINE
  5
236
100
AcDbEntity
  8
LAYER_FEATURE
100
AcDbLine
 62
7
  6
CONTINUOUS
 10
4.9093672762
 20
5.6301198968
 11
4.9093672762
 21
5.6526198968
  0
LINE
  5
237
100
AcDbEntity
  8
LAYER_FEATURE
100
AcDbLine
 62
7
  6
CONTINUOUS
 10
4.9433672762
 20
5.6526198968
 11
4.9433672762
 21
5.6301198968
  0
LINE
  5
238
100
AcDbEntity
  8
LAYER_FEATURE
100
AcDbLine
 62
7
  6
CONTINUOUS
 10
4.8534684234
 20
5.3752692131
 11
4.9093672762
 21
5.6301198968
  0
LINE
  5
239
100
AcDbEntity
  8
LAYER_FEATURE
100
AcDbLine
 62
7
  6
CONTINUOUS
 10
4.9433672762
 20
5.6301198968
 11
4.9992661289
 21
5.3752692131
  0
LINE
  5
23A
100
AcDbEntity
  8
LAYER_FEATURE
100
AcDbLine
 62
7
  6
CONTINUOUS
 10
5.2533672762
 20
5.6301198968
 11
5.2533672762
 21
5.6526198968
  0
LINE
  5
23B
100
AcDbEntity
  8
LAYER_FEATURE
100
AcDbLine
 62
7
  6
CONTINUOUS
 10
5.2873672762
 20
5.6526198968
 11
5.2873672762
 21
5.6301198968
  0
LINE
  5
23C
100
AcDbEntity
  8
LAYER_FEATURE
100
AcDbLine
 62
7
  6
CONTINUOUS
 10
5.1974684234
 20
5.3752692131
 11
5.2533672762
 21
5.6301198968
  0
LINE
  5
23D
100
AcDbEntity
  8
LAYER_FEATURE
100
AcDbLine
 62
7
  6
CONTINUOUS
 10
5.2873672762
 20
5.6301198968
 11
5.3432661289
 21
5.3752692131
  0
LINE
  5
23E
100
AcDbEntity
  8
LAYER_FEATURE
100
AcDbLine
 62
7
  6
CONTINUOUS
 10
5.5973672762
 20
5.6301198968
 11
5.5973672762
 21
5.6526198968
  0
LINE
  5
23F
100
AcDbEntity
  8
LAYER_FEATURE
100
AcDbLine
 62
7
  6
CONTINUOUS
 10
5.6313672762
 20
5.6526198968
 11
5.6313672762
 21
5.6301198968
  0
LINE
  5
240
100
AcDbEntity
  8
LAYER_FEATURE
100
AcDbLine
 62
7
  6
CONTINUOUS
 10
5.5414684234
 20
5.3752692131
 11
5.5973672762
 21
5.6301198968
  0
LINE
  5
241
100
AcDbEntity
  8
LAYER_FEATURE
100
AcDbLine
 62
7
  6
CONTINUOUS
 10
5.6313672762
 20
5.6301198968
 11
5.6872661289
 21
5.3752692131
  0
LINE
  5
242
100
AcDbEntity
  8
LAYER_FEATURE
100
AcDbLine
 62
7
  6
CONTINUOUS
 10
5.9413672762
 20
5.6301198968
 11
5.9413672762
 21
5.6526198968
  0
LINE
  5
243
100
AcDbEntity
  8
LAYER_FEATURE
100
AcDbLine
 62
7
  6
CONTINUOUS
 10
5.8854684234
 20
5.3752692131
 11
5.9413672762
 21
5.6301198968
  0
LINE
  5
244
100
AcDbEntity
  8
LAYER_FEATURE
100
AcDbLine
 62
7
  6
CONTINUOUS
 10
5.9753672762
 20
5.6526198968
 11
5.9753672762
 21
5.6301198968
  0
LINE
  5
245
100
AcDbEntity
  8
0
100
AcDbLine
 62
7
  6
CONTINUOUS
 10
3.2918828658
 20
5.3651198968
 11
3.4648516865
 21
5.3651198968
  0
LINE
  5
246
100
AcDbEntity
  8
LAYER_FEATURE
100
AcDbLine
 62
7
  6
CONTINUOUS
 10
3.6358828658
 20
5.3651198968
 11
3.8088516865
 21
5.3651198968
  0
LINE
  5
247
100
AcDbEntity
  8
LAYER_FEATURE
100
AcDbLine
 62
7
  6
CONTINUOUS
 10
3.9798828658
 20
5.3651198968
 11
4.1528516865
 21
5.3651198968
  0
LINE
  5
248
100
AcDbEntity
  8
LAYER_FEATURE
100
AcDbLine
 62
7
  6
CONTINUOUS
 10
4.3238828658
 20
5.3651198968
 11
4.4968516865
 21
5.3651198968
  0
LINE
  5
249
100
AcDbEntity
  8
LAYER_FEATURE
100
AcDbLine
 62
7
  6
CONTINUOUS
 10
4.6678828658
 20
5.3651198968
 11
4.8408516865
 21
5.3651198968
  0
LINE
  5
24A
100
AcDbEntity
  8
LAYER_FEATURE
100
AcDbLine
 62
7
  6
CONTINUOUS
 10
5.0118828658
 20
5.3651198968
 11
5.1848516865
 21
5.3651198968
  0
LINE
  5
24B
100
AcDbEntity
  8
LAYER_FEATURE
100
AcDbLine
 62
7
  6
CONTINUOUS
 10
5.3558828658
 20
5.3651198968
 11
5.5288516865
 21
5.3651198968
  0
LINE
  5
24C
100
AcDbEntity
  8
LAYER_FEATURE
100
AcDbLine
 62
7
  6
CONTINUOUS
 10
5.6998828658
 20
5.3651198968
 11
5.8728516865
 21
5.3651198968
  0
LINE
  5
24D
100
AcDbEntity
  8
LAYER_FEATURE
100
AcDbLine
 62
7
  6
CONTINUOUS
 10
6.0438828658
 20
5.3651198968
 11
6.2168516865
 21
5.3651198968
  0
LINE
  5
24E
100
AcDbEntity
  8
LAYER_FEATURE
100
AcDbLine
 62
7
  6
CONTINUOUS
 10
6.3878828658
 20
5.3651198968
 11
6.5608516865
 21
5.3651198968
  0
LINE
  5
24F
100
AcDbEntity
  8
LAYER_FEATURE
100
AcDbLine
 62
7
  6
CONTINUOUS
 10
6.7318828658
 20
5.3651198968
 11
6.9048516865
 21
5.3651198968
  0
LINE
  5
250
100
AcDbEntity
  8
LAYER_FEATURE
100
AcDbLine
 62
7
  6
CONTINUOUS
 10
7.0758828658
 20
5.3651198968
 11
7.2488516865
 21
5.3651198968
  0
LINE
  5
251
100
AcDbEntity
  8
LAYER_FEATURE
100
AcDbLine
 62
7
  6
CONTINUOUS
 10
7.4198828658
 20
5.3651198968
 11
7.5928516865
 21
5.3651198968
  0
LINE
  5
252
100
AcDbEntity
  8
LAYER_FEATURE
100
AcDbLine
 62
7
  6
CONTINUOUS
 10
7.7638828658
 20
5.3651198968
 11
7.9368516865
 21
5.3651198968
  0
LINE
  5
253
100
AcDbEntity
  8
LAYER_FEATURE
100
AcDbLine
 62
7
  6
CONTINUOUS
 10
8.1078828658
 20
5.3651198968
 11
8.2808516865
 21
5.3651198968
  0
LINE
  5
254
100
AcDbEntity
  8
LAYER_FEATURE
100
AcDbLine
 62
7
  6
CONTINUOUS
 10
8.4518828658
 20
5.3651198968
 11
8.6248516865
 21
5.3651198968
  0
LINE
  5
255
100
AcDbEntity
  8
LAYER_FEATURE
100
AcDbLine
 62
7
  6
CONTINUOUS
 10
8.7958828658
 20
5.3651198968
 11
8.9688516865
 21
5.3651198968
  0
LINE
  5
256
100
AcDbEntity
  8
LAYER_FEATURE
100
AcDbLine
 62
7
  6
CONTINUOUS
 10
5.9753672762
 20
5.6301198968
 11
6.0312661289
 21
5.3752692131
  0
LINE
  5
257
100
AcDbEntity
  8
LAYER_FEATURE
100
AcDbLine
 62
7
  6
CONTINUOUS
 10
6.2853672762
 20
5.6301198968
 11
6.2853672762
 21
5.6526198968
  0
LINE
  5
258
100
AcDbEntity
  8
LAYER_FEATURE
100
AcDbLine
 62
7
  6
CONTINUOUS
 10
6.3193672762
 20
5.6526198968
 11
6.3193672762
 21
5.6301198968
  0
LINE
  5
259
100
AcDbEntity
  8
LAYER_FEATURE
100
AcDbLine
 62
7
  6
CONTINUOUS
 10
6.2294684234
 20
5.3752692131
 11
6.2853672762
 21
5.6301198968
  0
LINE
  5
25A
100
AcDbEntity
  8
LAYER_FEATURE
100
AcDbLine
 62
7
  6
CONTINUOUS
 10
3.5333672762
 20
5.6526198968
 11
3.5673672762
 21
5.6526198968
  0
LINE
  5
25B
100
AcDbEntity
  8
LAYER_FEATURE
100
AcDbLine
 62
7
  6
CONTINUOUS
 10
3.8773672762
 20
5.6526198968
 11
3.9113672762
 21
5.6526198968
  0
LINE
  5
25C
100
AcDbEntity
  8
LAYER_FEATURE
100
AcDbLine
 62
7
  6
CONTINUOUS
 10
4.2213672762
 20
5.6526198968
 11
4.2553672762
 21
5.6526198968
  0
LINE
  5
25D
100
AcDbEntity
  8
LAYER_FEATURE
100
AcDbLine
 62
7
  6
CONTINUOUS
 10
4.5653672762
 20
5.6526198968
 11
4.5993672762
 21
5.6526198968
  0
LINE
  5
25E
100
AcDbEntity
  8
LAYER_FEATURE
100
AcDbLine
 62
7
  6
CONTINUOUS
 10
4.9093672762
 20
5.6526198968
 11
4.9433672762
 21
5.6526198968
  0
LINE
  5
25F
100
AcDbEntity
  8
LAYER_FEATURE
100
AcDbLine
 62
7
  6
CONTINUOUS
 10
5.2533672762
 20
5.6526198968
 11
5.2873672762
 21
5.6526198968
  0
LINE
  5
260
100
AcDbEntity
  8
LAYER_FEATURE
100
AcDbLine
 62
7
  6
CONTINUOUS
 10
5.5973672762
 20
5.6526198968
 11
5.6313672762
 21
5.6526198968
  0
LINE
  5
261
100
AcDbEntity
  8
LAYER_FEATURE
100
AcDbLine
 62
7
  6
CONTINUOUS
 10
5.9413672762
 20
5.6526198968
 11
5.9753672762
 21
5.6526198968
  0
LINE
  5
262
100
AcDbEntity
  8
LAYER_FEATURE
100
AcDbLine
 62
7
  6
CONTINUOUS
 10
6.2853672762
 20
5.6526198968
 11
6.3193672762
 21
5.6526198968
  0
LINE
  5
263
100
AcDbEntity
  8
LAYER_FEATURE
100
AcDbLine
 62
7
  6
CONTINUOUS
 10
6.6293672762
 20
5.6526198968
 11
6.6633672762
 21
5.6526198968
  0
LINE
  5
264
100
AcDbEntity
  8
LAYER_FEATURE
100
AcDbLine
 62
7
  6
CONTINUOUS
 10
6.9733672762
 20
5.6526198968
 11
7.0073672762
 21
5.6526198968
  0
LINE
  5
265
100
AcDbEntity
  8
LAYER_FEATURE
100
AcDbLine
 62
7
  6
CONTINUOUS
 10
7.3173672762
 20
5.6526198968
 11
7.3513672762
 21
5.6526198968
  0
LINE
  5
266
100
AcDbEntity
  8
LAYER_FEATURE
100
AcDbLine
 62
7
  6
CONTINUOUS
 10
7.6613672762
 20
5.6526198968
 11
7.6953672762
 21
5.6526198968
  0
LINE
  5
267
100
AcDbEntity
  8
LAYER_FEATURE
100
AcDbLine
 62
7
  6
CONTINUOUS
 10
8.0053672762
 20
5.6526198968
 11
8.0393672762
 21
5.6526198968
  0
LINE
  5
268
100
AcDbEntity
  8
LAYER_FEATURE
100
AcDbLine
 62
7
  6
CONTINUOUS
 10
8.3493672762
 20
5.6526198968
 11
8.3833672762
 21
5.6526198968
  0
LINE
  5
269
100
AcDbEntity
  8
LAYER_FEATURE
100
AcDbLine
 62
7
  6
CONTINUOUS
 10
8.6933672762
 20
5.6526198968
 11
8.7273672762
 21
5.6526198968
  0
LINE
  5
26A
100
AcDbEntity
  8
0
100
AcDbLine
 62
7
  6
CONTINUOUS
 10
9.0298672762
 20
5.6751198968
 11
3.2308672762
 21
5.6751198968
  0
LINE
  5
26B
100
AcDbEntity
  8
LAYER_FEATURE
100
AcDbLine
 62
7
  6
CONTINUOUS
 10
6.3193672762
 20
5.6301198968
 11
6.3752661289
 21
5.3752692131
  0
LINE
  5
26C
100
AcDbEntity
  8
LAYER_FEATURE
100
AcDbLine
 62
7
  6
CONTINUOUS
 10
6.6293672762
 20
5.6301198968
 11
6.6293672762
 21
5.6526198968
  0
LINE
  5
26D
100
AcDbEntity
  8
LAYER_FEATURE
100
AcDbLine
 62
7
  6
CONTINUOUS
 10
6.6633672762
 20
5.6526198968
 11
6.6633672762
 21
5.6301198968
  0
LINE
  5
26E
100
AcDbEntity
  8
LAYER_FEATURE
100
AcDbLine
 62
7
  6
CONTINUOUS
 10
6.5734684234
 20
5.3752692131
 11
6.6293672762
 21
5.6301198968
  0
LINE
  5
26F
100
AcDbEntity
  8
LAYER_FEATURE
100
AcDbLine
 62
7
  6
CONTINUOUS
 10
6.6633672762
 20
5.6301198968
 11
6.7192661289
 21
5.3752692131
  0
LINE
  5
270
100
AcDbEntity
  8
LAYER_FEATURE
100
AcDbLine
 62
7
  6
CONTINUOUS
 10
6.9174684234
 20
5.3752692131
 11
6.9733672762
 21
5.6301198968
  0
LINE
  5
271
100
AcDbEntity
  8
LAYER_FEATURE
100
AcDbLine
 62
7
  6
CONTINUOUS
 10
6.9733672762
 20
5.6301198968
 11
6.9733672762
 21
5.6526198968
  0
LINE
  5
272
100
AcDbEntity
  8
LAYER_FEATURE
100
AcDbLine
 62
7
  6
CONTINUOUS
 10
7.0073672762
 20
5.6526198968
 11
7.0073672762
 21
5.6301198968
  0
LINE
  5
273
100
AcDbEntity
  8
LAYER_FEATURE
100
AcDbLine
 62
7
  6
CONTINUOUS
 10
7.0073672762
 20
5.6301198968
 11
7.0632661289
 21
5.3752692131
  0
LINE
  5
274
100
AcDbEntity
  8
LAYER_FEATURE
100
AcDbLine
 62
7
  6
CONTINUOUS
 10
7.3173672762
 20
5.6301198968
 11
7.3173672762
 21
5.6526198968
  0
LINE
  5
275
100
AcDbEntity
  8
LAYER_FEATURE
100
AcDbLine
 62
7
  6
CONTINUOUS
 10
7.2614684234
 20
5.3752692131
 11
7.3173672762
 21
5.6301198968
  0
LINE
  5
276
100
AcDbEntity
  8
LAYER_FEATURE
100
AcDbLine
 62
7
  6
CONTINUOUS
 10
7.3513672762
 20
5.6526198968
 11
7.3513672762
 21
5.6301198968
  0
LINE
  5
277
100
AcDbEntity
  8
LAYER_FEATURE
100
AcDbLine
 62
7
  6
CONTINUOUS
 10
7.3513672762
 20
5.6301198968
 11
7.4072661289
 21
5.3752692131
  0
LINE
  5
278
100
AcDbEntity
  8
LAYER_FEATURE
100
AcDbLine
 62
7
  6
CONTINUOUS
 10
7.6613672762
 20
5.6301198968
 11
7.6613672762
 21
5.6526198968
  0
LINE
  5
279
100
AcDbEntity
  8
LAYER_FEATURE
100
AcDbLine
 62
7
  6
CONTINUOUS
 10
7.6953672762
 20
5.6526198968
 11
7.6953672762
 21
5.6301198968
  0
LINE
  5
27A
100
AcDbEntity
  8
LAYER_FEATURE
100
AcDbLine
 62
7
  6
CONTINUOUS
 10
7.6054684234
 20
5.3752692131
 11
7.6613672762
 21
5.6301198968
  0
LINE
  5
27B
100
AcDbEntity
  8
LAYER_FEATURE
100
AcDbLine
 62
7
  6
CONTINUOUS
 10
7.6953672762
 20
5.6301198968
 11
7.7512661289
 21
5.3752692131
  0
LINE
  5
27C
100
AcDbEntity
  8
LAYER_FEATURE
100
AcDbLine
 62
7
  6
CONTINUOUS
 10
8.0053672762
 20
5.6301198968
 11
8.0053672762
 21
5.6526198968
  0
LINE
  5
27D
100
AcDbEntity
  8
LAYER_FEATURE
100
AcDbLine
 62
7
  6
CONTINUOUS
 10
8.0393672762
 20
5.6526198968
 11
8.0393672762
 21
5.6301198968
  0
LINE
  5
27E
100
AcDbEntity
  8
LAYER_FEATURE
100
AcDbLine
 62
7
  6
CONTINUOUS
 10
7.9494684234
 20
5.3752692131
 11
8.0053672762
 21
5.6301198968
  0
LINE
  5
27F
100
AcDbEntity
  8
LAYER_FEATURE
100
AcDbLine
 62
7
  6
CONTINUOUS
 10
8.0393672762
 20
5.6301198968
 11
8.0952661289
 21
5.3752692131
  0
LINE
  5
280
100
AcDbEntity
  8
LAYER_FEATURE
100
AcDbLine
 62
7
  6
CONTINUOUS
 10
8.2934684234
 20
5.3752692131
 11
8.3493672762
 21
5.6301198968
  0
LINE
  5
281
100
AcDbEntity
  8
LAYER_FEATURE
100
AcDbLine
 62
7
  6
CONTINUOUS
 10
8.3493672762
 20
5.6301198968
 11
8.3493672762
 21
5.6526198968
  0
LINE
  5
282
100
AcDbEntity
  8
LAYER_FEATURE
100
AcDbLine
 62
7
  6
CONTINUOUS
 10
8.3833672762
 20
5.6526198968
 11
8.3833672762
 21
5.6301198968
  0
LINE
  5
283
100
AcDbEntity
  8
LAYER_FEATURE
100
AcDbLine
 62
7
  6
CONTINUOUS
 10
8.3833672762
 20
5.6301198968
 11
8.4392661289
 21
5.3752692131
  0
LINE
  5
284
100
AcDbEntity
  8
LAYER_FEATURE
100
AcDbLine
 62
7
  6
CONTINUOUS
 10
8.6374684234
 20
5.3752692131
 11
8.6933672762
 21
5.6301198968
  0
LINE
  5
285
100
AcDbEntity
  8
LAYER_FEATURE
100
AcDbLine
 62
7
  6
CONTINUOUS
 10
8.6933672762
 20
5.6301198968
 11
8.6933672762
 21
5.6526198968
  0
LINE
  5
286
100
AcDbEntity
  8
LAYER_FEATURE
100
AcDbLine
 62
7
  6
CONTINUOUS
 10
8.7273672762
 20
5.6526198968
 11
8.7273672762
 21
5.6301198968
  0
LINE
  5
287
100
AcDbEntity
  8
0
100
AcDbLine
 62
7
  6
CONTINUOUS
 10
9.0373672762
 20
5.6301198968
 11
9.0373672762
 21
5.6676198968
  0
LINE
  5
288
100
AcDbEntity
  8
LAYER_FEATURE
100
AcDbLine
 62
7
  6
CONTINUOUS
 10
8.9814684234
 20
5.3752692131
 11
9.0373672762
 21
5.6301198968
  0
LINE
  5
289
100
AcDbEntity
  8
LAYER_FEATURE
100
AcDbLine
 62
7
  6
CONTINUOUS
 10
8.7273672762
 20
5.6301198968
 11
8.7832661289
 21
5.3752692131
  0
LINE
  5
28A
100
AcDbEntity
  8
0
100
AcDbLine
 62
7
  6
CONTINUOUS
 10
3.1638720839
 20
13.6000477814
 11
3.1638720839
 21
11.6000477814
  0
LINE
  5
28B
100
AcDbEntity
  8
0
100
AcDbLine
 62
7
  6
CONTINUOUS
 10
8.9778720839
 20
11.6000477814
 11
3.1638720839
 21
11.6000477814
  0
LINE
  5
28C
100
AcDbEntity
  8
0
100
AcDbLine
 62
7
  6
CONTINUOUS
 10
3.1638720839
 20
13.6000477814
 11
8.9778720839
 21
13.6000477814
  0
LINE
  5
28D
100
AcDbEntity
  8
0
100
AcDbLine
 62
7
  6
CONTINUOUS
 10
8.9778720839
 20
11.6000477814
 11
8.9778720839
 21
13.6000477814
  0
LINE
  5
28E
100
AcDbEntity
  8
LAYER_FEATURE
100
AcDbLine
 62
7
  6
CONTINUOUS
 10
14.5603552569
 20
5.3056247044
 11
14.5603552569
 21
5.5706247044
  0
LINE
  5
28F
100
AcDbEntity
  8
0
100
AcDbLine
 62
7
  6
CONTINUOUS
 10
14.5603552569
 20
5.5706247044
 11
14.5603552569
 21
5.6156247044
  0
LINE
  5
290
100
AcDbEntity
  8
LAYER_FEATURE
100
AcDbLine
 62
7
  6
CONTINUOUS
 10
14.5603552569
 20
5.3056247044
 11
16.5603552569
 21
5.3056247044
  0
LINE
  5
291
100
AcDbEntity
  8
LAYER_FEATURE
100
AcDbLine
 62
7
  6
CONTINUOUS
 10
16.5603552569
 20
5.5706247044
 11
14.5603552569
 21
5.5706247044
  0
LINE
  5
292
100
AcDbEntity
  8
0
100
AcDbLine
 62
7
  6
CONTINUOUS
 10
14.5603552569
 20
5.6156247044
 11
16.5603552569
 21
5.6156247044
  0
LINE
  5
293
100
AcDbEntity
  8
0
100
AcDbLine
 62
7
  6
CONTINUOUS
 10
16.5603552569
 20
5.6156247044
 11
16.5603552569
 21
5.5706247044
  0
LINE
  5
294
100
AcDbEntity
  8
LAYER_FEATURE
100
AcDbLine
 62
7
  6
CONTINUOUS
 10
16.5603552569
 20
5.3056247044
 11
16.5603552569
 21
5.5706247044
  0
LINE
  5
295
100
AcDbEntity
  8
0
100
AcDbLine
 62
7
  6
CONTINUOUS
 10
12.532782381
 20
11.8191655536
 11
12.544221451
 21
11.7958551798
  0
LINE
  5
296
100
AcDbEntity
  8
0
100
AcDbLine
 62
7
  6
CONTINUOUS
 10
12.5325254906
 20
11.8213796614
 11
12.532782381
 21
11.8191655536
  0
LINE
  5
297
100
AcDbEntity
  8
0
100
AcDbLine
 62
7
  6
CONTINUOUS
 10
12.544221451
 20
11.7958551798
 11
12.6734478321
 21
11.6374374544
  0
LINE
  5
298
100
AcDbEntity
  8
0
100
AcDbLine
 62
7
  6
CONTINUOUS
 10
12.8297503591
 20
11.7958551798
 11
12.8228869171
 21
11.8098414041
  0
LINE
  5
299
100
AcDbEntity
  8
LAYER_FEATURE
100
AcDbLine
 62
7
  6
CONTINUOUS
 10
12.8542029909
 20
11.8098414041
 11
12.8610664329
 21
11.7958551798
  0
LINE
  5
29A
100
AcDbEntity
  8
0
100
AcDbLine
 62
7
  6
CONTINUOUS
 10
12.8560042344
 20
11.6374374544
 11
12.8297503591
 21
11.7958551798
  0
LINE
  5
29B
100
AcDbEntity
  8
0
100
AcDbLine
 62
7
  6
CONTINUOUS
 10
12.8558807681
 20
11.6353438625
 11
12.8560042344
 21
11.6374374544
  0
LINE
  5
29C
100
AcDbEntity
  8
0
100
AcDbLine
 62
7
  6
CONTINUOUS
 10
13.0166573289
 20
13.3880337281
 11
12.5325246821
 21
11.8213799089
  0
LINE
  5
29D
100
AcDbEntity
  8
LAYER_FEATURE
100
AcDbLine
 62
7
  6
CONTINUOUS
 10
12.8610664329
 20
11.7958551798
 11
12.9902928141
 21
11.6374374544
  0
LINE
  5
29E
100
AcDbEntity
  8
LAYER_FEATURE
100
AcDbLine
 62
7
  6
CONTINUOUS
 10
13.1727257501
 20
11.6353438625
 11
13.1728492164
 21
11.6374374544
  0
LINE
  5
29F
100
AcDbEntity
  8
0
100
AcDbLine
 62
7
  6
CONTINUOUS
 10
12.8340724293
 20
11.8098414041
 11
12.8297503591
 21
11.7958551798
  0
LINE
  5
2A0
100
AcDbEntity
  8
0
100
AcDbLine
 62
7
  6
CONTINUOUS
 10
12.8558801451
 20
11.6353440551
 11
12.8932788259
 21
11.7563662304
  0
LINE
  5
2A1
100
AcDbEntity
  8
LAYER_FEATURE
100
AcDbLine
 62
7
  6
CONTINUOUS
 10
13.1779114148
 20
11.7958551798
 11
13.307137796
 21
11.6374374544
  0
LINE
  5
2A2
100
AcDbEntity
  8
LAYER_FEATURE
100
AcDbLine
 62
7
  6
CONTINUOUS
 10
13.146595341
 20
11.7958551798
 11
13.139731899
 21
11.8098414041
  0
LINE
  5
2A3
100
AcDbEntity
  8
LAYER_FEATURE
100
AcDbLine
 62
7
  6
CONTINUOUS
 10
13.1710479728
 20
11.8098414041
 11
13.1779114148
 21
11.7958551798
  0
LINE
  5
2A4
100
AcDbEntity
  8
LAYER_FEATURE
100
AcDbLine
 62
7
  6
CONTINUOUS
 10
13.1728492164
 20
11.6374374544
 11
13.146595341
 21
11.7958551798
  0
LINE
  5
2A5
100
AcDbEntity
  8
LAYER_FEATURE
100
AcDbLine
 62
7
  6
CONTINUOUS
 10
13.463440323
 20
11.7958551798
 11
13.456576881
 21
11.8098414041
  0
LINE
  5
2A6
100
AcDbEntity
  8
LAYER_FEATURE
100
AcDbLine
 62
7
  6
CONTINUOUS
 10
13.4878929548
 20
11.8098414041
 11
13.4947563968
 21
11.7958551798
  0
LINE
  5
2A7
100
AcDbEntity
  8
LAYER_FEATURE
100
AcDbLine
 62
7
  6
CONTINUOUS
 10
13.4896941983
 20
11.6374374544
 11
13.463440323
 21
11.7958551798
  0
LINE
  5
2A8
100
AcDbEntity
  8
LAYER_FEATURE
100
AcDbLine
 62
7
  6
CONTINUOUS
 10
13.489570732
 20
11.6353438625
 11
13.4896941983
 21
11.6374374544
  0
LINE
  5
2A9
100
AcDbEntity
  8
LAYER_FEATURE
100
AcDbLine
 62
7
  6
CONTINUOUS
 10
13.1509174112
 20
11.8098414041
 11
13.146595341
 21
11.7958551798
  0
LINE
  5
2AA
100
AcDbEntity
  8
LAYER_FEATURE
100
AcDbLine
 62
7
  6
CONTINUOUS
 10
13.172725127
 20
11.6353440551
 11
13.2101238078
 21
11.7563662304
  0
LINE
  5
2AB
100
AcDbEntity
  8
LAYER_FEATURE
100
AcDbLine
 62
7
  6
CONTINUOUS
 10
13.4947563968
 20
11.7958551798
 11
13.6239827779
 21
11.6374374544
  0
LINE
  5
2AC
100
AcDbEntity
  8
LAYER_FEATURE
100
AcDbLine
 62
7
  6
CONTINUOUS
 10
13.7802853049
 20
11.7958551798
 11
13.7734218629
 21
11.8098414041
  0
LINE
  5
2AD
100
AcDbEntity
  8
LAYER_FEATURE
100
AcDbLine
 62
7
  6
CONTINUOUS
 10
13.8064157139
 20
11.6353438625
 11
13.8065391803
 21
11.6374374544
  0
LINE
  5
2AE
100
AcDbEntity
  8
LAYER_FEATURE
100
AcDbLine
 62
7
  6
CONTINUOUS
 10
13.4677623932
 20
11.8098414041
 11
13.463440323
 21
11.7958551798
  0
LINE
  5
2AF
100
AcDbEntity
  8
LAYER_FEATURE
100
AcDbLine
 62
7
  6
CONTINUOUS
 10
13.489570109
 20
11.6353440551
 11
13.5269687897
 21
11.7563662304
  0
LINE
  5
2B0
100
AcDbEntity
  8
LAYER_FEATURE
100
AcDbLine
 62
7
  6
CONTINUOUS
 10
13.8116013787
 20
11.7958551798
 11
13.9408277599
 21
11.6374374544
  0
LINE
  5
2B1
100
AcDbEntity
  8
LAYER_FEATURE
100
AcDbLine
 62
7
  6
CONTINUOUS
 10
13.8047379367
 20
11.8098414041
 11
13.8116013787
 21
11.7958551798
  0
LINE
  5
2B2
100
AcDbEntity
  8
LAYER_FEATURE
100
AcDbLine
 62
7
  6
CONTINUOUS
 10
13.8065391803
 20
11.6374374544
 11
13.7802853049
 21
11.7958551798
  0
LINE
  5
2B3
100
AcDbEntity
  8
LAYER_FEATURE
100
AcDbLine
 62
7
  6
CONTINUOUS
 10
13.7846073751
 20
11.8098414041
 11
13.7802853049
 21
11.7958551798
  0
LINE
  5
2B4
100
AcDbEntity
  8
LAYER_FEATURE
100
AcDbLine
 62
7
  6
CONTINUOUS
 10
14.1284463606
 20
11.7958551798
 11
14.2576727418
 21
11.6374374544
  0
LINE
  5
2B5
100
AcDbEntity
  8
LAYER_FEATURE
100
AcDbLine
 62
7
  6
CONTINUOUS
 10
14.0971302868
 20
11.7958551798
 11
14.0902668449
 21
11.8098414041
  0
LINE
  5
2B6
100
AcDbEntity
  8
LAYER_FEATURE
100
AcDbLine
 62
7
  6
CONTINUOUS
 10
14.1215829186
 20
11.8098414041
 11
14.1284463606
 21
11.7958551798
  0
LINE
  5
2B7
100
AcDbEntity
  8
LAYER_FEATURE
100
AcDbLine
 62
7
  6
CONTINUOUS
 10
14.1233841622
 20
11.6374374544
 11
14.0971302868
 21
11.7958551798
  0
LINE
  5
2B8
100
AcDbEntity
  8
LAYER_FEATURE
100
AcDbLine
 62
7
  6
CONTINUOUS
 10
14.1232606959
 20
11.6353438625
 11
14.1233841622
 21
11.6374374544
  0
LINE
  5
2B9
100
AcDbEntity
  8
LAYER_FEATURE
100
AcDbLine
 62
7
  6
CONTINUOUS
 10
13.8064150909
 20
11.6353440551
 11
13.8438137717
 21
11.7563662304
  0
LINE
  5
2BA
100
AcDbEntity
  8
LAYER_FEATURE
100
AcDbLine
 62
7
  6
CONTINUOUS
 10
14.4452913426
 20
11.7958551798
 11
14.5745177237
 21
11.6374374544
  0
LINE
  5
2BB
100
AcDbEntity
  8
LAYER_FEATURE
100
AcDbLine
 62
7
  6
CONTINUOUS
 10
14.4139752688
 20
11.7958551798
 11
14.4071118268
 21
11.8098414041
  0
LINE
  5
2BC
100
AcDbEntity
  8
LAYER_FEATURE
100
AcDbLine
 62
7
  6
CONTINUOUS
 10
14.4384279006
 20
11.8098414041
 11
14.4452913426
 21
11.7958551798
  0
LINE
  5
2BD
100
AcDbEntity
  8
LAYER_FEATURE
100
AcDbLine
 62
7
  6
CONTINUOUS
 10
14.101452357
 20
11.8098414041
 11
14.0971302868
 21
11.7958551798
  0
LINE
  5
2BE
100
AcDbEntity
  8
LAYER_FEATURE
100
AcDbLine
 62
7
  6
CONTINUOUS
 10
14.1232600728
 20
11.6353440551
 11
14.1606587536
 21
11.7563662304
  0
LINE
  5
2BF
100
AcDbEntity
  8
LAYER_FEATURE
100
AcDbLine
 62
7
  6
CONTINUOUS
 10
14.7621363245
 20
11.7958551798
 11
14.8913627057
 21
11.6374374544
  0
LINE
  5
2C0
100
AcDbEntity
  8
LAYER_FEATURE
100
AcDbLine
 62
7
  6
CONTINUOUS
 10
14.4402291441
 20
11.6374374544
 11
14.4139752688
 21
11.7958551798
  0
LINE
  5
2C1
100
AcDbEntity
  8
LAYER_FEATURE
100
AcDbLine
 62
7
  6
CONTINUOUS
 10
14.4401056778
 20
11.6353438625
 11
14.4402291441
 21
11.6374374544
  0
LINE
  5
2C2
100
AcDbEntity
  8
LAYER_FEATURE
100
AcDbLine
 62
7
  6
CONTINUOUS
 10
14.418297339
 20
11.8098414041
 11
14.4139752688
 21
11.7958551798
  0
LINE
  5
2C3
100
AcDbEntity
  8
0
100
AcDbLine
 62
7
  6
CONTINUOUS
 10
12.6881645828
 20
11.6311285382
 11
12.8474794166
 21
11.6311285382
  0
LINE
  5
2C4
100
AcDbEntity
  8
LAYER_FEATURE
100
AcDbLine
 62
7
  6
CONTINUOUS
 10
13.0050095647
 20
11.6311285382
 11
13.1643243986
 21
11.6311285382
  0
LINE
  5
2C5
100
AcDbEntity
  8
LAYER_FEATURE
100
AcDbLine
 62
7
  6
CONTINUOUS
 10
13.3218545466
 20
11.6311285382
 11
13.4811693805
 21
11.6311285382
  0
LINE
  5
2C6
100
AcDbEntity
  8
LAYER_FEATURE
100
AcDbLine
 62
7
  6
CONTINUOUS
 10
13.6386995286
 20
11.6311285382
 11
13.7980143624
 21
11.6311285382
  0
LINE
  5
2C7
100
AcDbEntity
  8
LAYER_FEATURE
100
AcDbLine
 62
7
  6
CONTINUOUS
 10
13.9555445105
 20
11.6311285382
 11
14.1148593444
 21
11.6311285382
  0
LINE
  5
2C8
100
AcDbEntity
  8
LAYER_FEATURE
100
AcDbLine
 62
7
  6
CONTINUOUS
 10
14.2723894924
 20
11.6311285382
 11
14.4317043263
 21
11.6311285382
  0
LINE
  5
2C9
100
AcDbEntity
  8
LAYER_FEATURE
100
AcDbLine
 62
7
  6
CONTINUOUS
 10
14.5892344744
 20
11.6311285382
 11
14.7485493082
 21
11.6311285382
  0
LINE
  5
2CA
100
AcDbEntity
  8
LAYER_FEATURE
100
AcDbLine
 62
7
  6
CONTINUOUS
 10
14.9060794563
 20
11.6311285382
 11
15.0653942902
 21
11.6311285382
  0
LINE
  5
2CB
100
AcDbEntity
  8
LAYER_FEATURE
100
AcDbLine
 62
7
  6
CONTINUOUS
 10
15.2229244383
 20
11.6311285382
 11
15.3822392721
 21
11.6311285382
  0
LINE
  5
2CC
100
AcDbEntity
  8
LAYER_FEATURE
100
AcDbLine
 62
7
  6
CONTINUOUS
 10
15.5397694202
 20
11.6311285382
 11
15.6990842541
 21
11.6311285382
  0
LINE
  5
2CD
100
AcDbEntity
  8
LAYER_FEATURE
100
AcDbLine
 62
7
  6
CONTINUOUS
 10
15.8566144021
 20
11.6311285382
 11
16.015929236
 21
11.6311285382
  0
LINE
  5
2CE
100
AcDbEntity
  8
LAYER_FEATURE
100
AcDbLine
 62
7
  6
CONTINUOUS
 10
16.1734593841
 20
11.6311285382
 11
16.3327742179
 21
11.6311285382
  0
LINE
  5
2CF
100
AcDbEntity
  8
LAYER_FEATURE
100
AcDbLine
 62
7
  6
CONTINUOUS
 10
16.490304366
 20
11.6311285382
 11
16.6496191999
 21
11.6311285382
  0
LINE
  5
2D0
100
AcDbEntity
  8
LAYER_FEATURE
100
AcDbLine
 62
7
  6
CONTINUOUS
 10
16.8071493479
 20
11.6311285382
 11
16.9664641818
 21
11.6311285382
  0
LINE
  5
2D1
100
AcDbEntity
  8
LAYER_FEATURE
100
AcDbLine
 62
7
  6
CONTINUOUS
 10
17.1239943299
 20
11.6311285382
 11
17.2833091637
 21
11.6311285382
  0
LINE
  5
2D2
100
AcDbEntity
  8
LAYER_FEATURE
100
AcDbLine
 62
7
  6
CONTINUOUS
 10
17.4408393118
 20
11.6311285382
 11
17.6001541457
 21
11.6311285382
  0
LINE
  5
2D3
100
AcDbEntity
  8
LAYER_FEATURE
100
AcDbLine
 62
7
  6
CONTINUOUS
 10
17.7576842937
 20
11.6311285382
 11
17.9169991276
 21
11.6311285382
  0
LINE
  5
2D4
100
AcDbEntity
  8
LAYER_FEATURE
100
AcDbLine
 62
7
  6
CONTINUOUS
 10
14.7308202507
 20
11.7958551798
 11
14.7239568087
 21
11.8098414041
  0
LINE
  5
2D5
100
AcDbEntity
  8
LAYER_FEATURE
100
AcDbLine
 62
7
  6
CONTINUOUS
 10
14.7552728825
 20
11.8098414041
 11
14.7621363245
 21
11.7958551798
  0
LINE
  5
2D6
100
AcDbEntity
  8
LAYER_FEATURE
100
AcDbLine
 62
7
  6
CONTINUOUS
 10
14.7570741261
 20
11.6374374544
 11
14.7308202507
 21
11.7958551798
  0
LINE
  5
2D7
100
AcDbEntity
  8
LAYER_FEATURE
100
AcDbLine
 62
7
  6
CONTINUOUS
 10
14.7569506598
 20
11.6353438625
 11
14.7570741261
 21
11.6374374544
  0
LINE
  5
2D8
100
AcDbEntity
  8
LAYER_FEATURE
100
AcDbLine
 62
7
  6
CONTINUOUS
 10
14.4401050548
 20
11.6353440551
 11
14.4775037355
 21
11.7563662304
  0
LINE
  5
2D9
100
AcDbEntity
  8
LAYER_FEATURE
100
AcDbLine
 62
7
  6
CONTINUOUS
 10
12.8228869171
 20
11.8098414041
 11
12.8542029909
 21
11.8098414041
  0
LINE
  5
2DA
100
AcDbEntity
  8
LAYER_FEATURE
100
AcDbLine
 62
7
  6
CONTINUOUS
 10
13.139731899
 20
11.8098414041
 11
13.1710479728
 21
11.8098414041
  0
LINE
  5
2DB
100
AcDbEntity
  8
LAYER_FEATURE
100
AcDbLine
 62
7
  6
CONTINUOUS
 10
13.456576881
 20
11.8098414041
 11
13.4878929548
 21
11.8098414041
  0
LINE
  5
2DC
100
AcDbEntity
  8
LAYER_FEATURE
100
AcDbLine
 62
7
  6
CONTINUOUS
 10
13.7734218629
 20
11.8098414041
 11
13.8047379367
 21
11.8098414041
  0
LINE
  5
2DD
100
AcDbEntity
  8
LAYER_FEATURE
100
AcDbLine
 62
7
  6
CONTINUOUS
 10
14.0902668449
 20
11.8098414041
 11
14.1215829186
 21
11.8098414041
  0
LINE
  5
2DE
100
AcDbEntity
  8
LAYER_FEATURE
100
AcDbLine
 62
7
  6
CONTINUOUS
 10
14.4071118268
 20
11.8098414041
 11
14.4384279006
 21
11.8098414041
  0
LINE
  5
2DF
100
AcDbEntity
  8
LAYER_FEATURE
100
AcDbLine
 62
7
  6
CONTINUOUS
 10
14.7239568087
 20
11.8098414041
 11
14.7552728825
 21
11.8098414041
  0
LINE
  5
2E0
100
AcDbEntity
  8
LAYER_FEATURE
100
AcDbLine
 62
7
  6
CONTINUOUS
 10
15.0408017907
 20
11.8098414041
 11
15.0721178645
 21
11.8098414041
  0
LINE
  5
2E1
100
AcDbEntity
  8
LAYER_FEATURE
100
AcDbLine
 62
7
  6
CONTINUOUS
 10
15.3576467726
 20
11.8098414041
 11
15.3889628464
 21
11.8098414041
  0
LINE
  5
2E2
100
AcDbEntity
  8
LAYER_FEATURE
100
AcDbLine
 62
7
  6
CONTINUOUS
 10
15.6744917545
 20
11.8098414041
 11
15.7058078283
 21
11.8098414041
  0
LINE
  5
2E3
100
AcDbEntity
  8
LAYER_FEATURE
100
AcDbLine
 62
7
  6
CONTINUOUS
 10
15.9913367365
 20
11.8098414041
 11
16.0226528103
 21
11.8098414041
  0
LINE
  5
2E4
100
AcDbEntity
  8
LAYER_FEATURE
100
AcDbLine
 62
7
  6
CONTINUOUS
 10
16.3081817184
 20
11.8098414041
 11
16.3394977922
 21
11.8098414041
  0
LINE
  5
2E5
100
AcDbEntity
  8
LAYER_FEATURE
100
AcDbLine
 62
7
  6
CONTINUOUS
 10
16.6250267003
 20
11.8098414041
 11
16.6563427741
 21
11.8098414041
  0
LINE
  5
2E6
100
AcDbEntity
  8
LAYER_FEATURE
100
AcDbLine
 62
7
  6
CONTINUOUS
 10
16.9418716823
 20
11.8098414041
 11
16.9731877561
 21
11.8098414041
  0
LINE
  5
2E7
100
AcDbEntity
  8
LAYER_FEATURE
100
AcDbLine
 62
7
  6
CONTINUOUS
 10
17.2587166642
 20
11.8098414041
 11
17.290032738
 21
11.8098414041
  0
LINE
  5
2E8
100
AcDbEntity
  8
LAYER_FEATURE
100
AcDbLine
 62
7
  6
CONTINUOUS
 10
17.5755616462
 20
11.8098414041
 11
17.60687772
 21
11.8098414041
  0
LINE
  5
2E9
100
AcDbEntity
  8
0
100
AcDbLine
 62
7
  6
CONTINUOUS
 10
17.8786352286
 20
11.8238276284
 11
12.5374025244
 21
11.8238276284
  0
LINE
  5
2EA
100
AcDbEntity
  8
LAYER_FEATURE
100
AcDbLine
 62
7
  6
CONTINUOUS
 10
15.0789813065
 20
11.7958551798
 11
15.2082076876
 21
11.6374374544
  0
LINE
  5
2EB
100
AcDbEntity
  8
LAYER_FEATURE
100
AcDbLine
 62
7
  6
CONTINUOUS
 10
15.0476652327
 20
11.7958551798
 11
15.0408017907
 21
11.8098414041
  0
LINE
  5
2EC
100
AcDbEntity
  8
LAYER_FEATURE
100
AcDbLine
 62
7
  6
CONTINUOUS
 10
15.0721178645
 20
11.8098414041
 11
15.0789813065
 21
11.7958551798
  0
LINE
  5
2ED
100
AcDbEntity
  8
LAYER_FEATURE
100
AcDbLine
 62
7
  6
CONTINUOUS
 10
14.7351423209
 20
11.8098414041
 11
14.7308202507
 21
11.7958551798
  0
LINE
  5
2EE
100
AcDbEntity
  8
LAYER_FEATURE
100
AcDbLine
 62
7
  6
CONTINUOUS
 10
14.7569500367
 20
11.6353440551
 11
14.7943487175
 21
11.7563662304
  0
LINE
  5
2EF
100
AcDbEntity
  8
LAYER_FEATURE
100
AcDbLine
 62
7
  6
CONTINUOUS
 10
15.3958262884
 20
11.7958551798
 11
15.5250526696
 21
11.6374374544
  0
LINE
  5
2F0
100
AcDbEntity
  8
LAYER_FEATURE
100
AcDbLine
 62
7
  6
CONTINUOUS
 10
15.3645102146
 20
11.7958551798
 11
15.3576467726
 21
11.8098414041
  0
LINE
  5
2F1
100
AcDbEntity
  8
LAYER_FEATURE
100
AcDbLine
 62
7
  6
CONTINUOUS
 10
15.3889628464
 20
11.8098414041
 11
15.3958262884
 21
11.7958551798
  0
LINE
  5
2F2
100
AcDbEntity
  8
LAYER_FEATURE
100
AcDbLine
 62
7
  6
CONTINUOUS
 10
15.073919108
 20
11.6374374544
 11
15.0476652327
 21
11.7958551798
  0
LINE
  5
2F3
100
AcDbEntity
  8
LAYER_FEATURE
100
AcDbLine
 62
7
  6
CONTINUOUS
 10
15.0737956417
 20
11.6353438625
 11
15.073919108
 21
11.6374374544
  0
LINE
  5
2F4
100
AcDbEntity
  8
LAYER_FEATURE
100
AcDbLine
 62
7
  6
CONTINUOUS
 10
15.0519873029
 20
11.8098414041
 11
15.0476652327
 21
11.7958551798
  0
LINE
  5
2F5
100
AcDbEntity
  8
LAYER_FEATURE
100
AcDbLine
 62
7
  6
CONTINUOUS
 10
15.7126712703
 20
11.7958551798
 11
15.8418976515
 21
11.6374374544
  0
LINE
  5
2F6
100
AcDbEntity
  8
LAYER_FEATURE
100
AcDbLine
 62
7
  6
CONTINUOUS
 10
15.3907640899
 20
11.6374374544
 11
15.3645102146
 21
11.7958551798
  0
LINE
  5
2F7
100
AcDbEntity
  8
LAYER_FEATURE
100
AcDbLine
 62
7
  6
CONTINUOUS
 10
15.3906410338
 20
11.6353437354
 11
15.3907640899
 21
11.6374374544
  0
LINE
  5
2F8
100
AcDbEntity
  8
LAYER_FEATURE
100
AcDbLine
 62
7
  6
CONTINUOUS
 10
15.0737950186
 20
11.6353440551
 11
15.1111936994
 21
11.7563662304
  0
LINE
  5
2F9
100
AcDbEntity
  8
LAYER_FEATURE
100
AcDbLine
 62
7
  6
CONTINUOUS
 10
16.0295162523
 20
11.7958551798
 11
16.1587426334
 21
11.6374374544
  0
LINE
  5
2FA
100
AcDbEntity
  8
LAYER_FEATURE
100
AcDbLine
 62
7
  6
CONTINUOUS
 10
15.6813551965
 20
11.7958551798
 11
15.6744917545
 21
11.8098414041
  0
LINE
  5
2FB
100
AcDbEntity
  8
LAYER_FEATURE
100
AcDbLine
 62
7
  6
CONTINUOUS
 10
15.7058078283
 20
11.8098414041
 11
15.7126712703
 21
11.7958551798
  0
LINE
  5
2FC
100
AcDbEntity
  8
LAYER_FEATURE
100
AcDbLine
 62
7
  6
CONTINUOUS
 10
15.3688322848
 20
11.8098414041
 11
15.3645102146
 21
11.7958551798
  0
LINE
  5
2FD
100
AcDbEntity
  8
LAYER_FEATURE
100
AcDbLine
 62
7
  6
CONTINUOUS
 10
15.3906400006
 20
11.6353440551
 11
15.4280386814
 21
11.7563662304
  0
LINE
  5
2FE
100
AcDbEntity
  8
LAYER_FEATURE
100
AcDbLine
 62
7
  6
CONTINUOUS
 10
16.3463612342
 20
11.7958551798
 11
16.4755876154
 21
11.6374374544
  0
LINE
  5
2FF
100
AcDbEntity
  8
LAYER_FEATURE
100
AcDbLine
 62
7
  6
CONTINUOUS
 10
15.9982001785
 20
11.7958551798
 11
15.9913367365
 21
11.8098414041
  0
LINE
  5
300
100
AcDbEntity
  8
LAYER_FEATURE
100
AcDbLine
 62
7
  6
CONTINUOUS
 10
16.0226528103
 20
11.8098414041
 11
16.0295162523
 21
11.7958551798
  0
LINE
  5
301
100
AcDbEntity
  8
LAYER_FEATURE
100
AcDbLine
 62
7
  6
CONTINUOUS
 10
15.7076090719
 20
11.6374374544
 11
15.6813551965
 21
11.7958551798
  0
LINE
  5
302
100
AcDbEntity
  8
LAYER_FEATURE
100
AcDbLine
 62
7
  6
CONTINUOUS
 10
15.7074856056
 20
11.6353438625
 11
15.7076090719
 21
11.6374374544
  0
LINE
  5
303
100
AcDbEntity
  8
LAYER_FEATURE
100
AcDbLine
 62
7
  6
CONTINUOUS
 10
15.6856772667
 20
11.8098414041
 11
15.6813551965
 21
11.7958551798
  0
LINE
  5
304
100
AcDbEntity
  8
LAYER_FEATURE
100
AcDbLine
 62
7
  6
CONTINUOUS
 10
16.0244540538
 20
11.6374374544
 11
15.9982001785
 21
11.7958551798
  0
LINE
  5
305
100
AcDbEntity
  8
LAYER_FEATURE
100
AcDbLine
 62
7
  6
CONTINUOUS
 10
16.0243305875
 20
11.6353438625
 11
16.0244540538
 21
11.6374374544
  0
LINE
  5
306
100
AcDbEntity
  8
LAYER_FEATURE
100
AcDbLine
 62
7
  6
CONTINUOUS
 10
15.7074849825
 20
11.6353440551
 11
15.7448836633
 21
11.7563662304
  0
LINE
  5
307
100
AcDbEntity
  8
LAYER_FEATURE
100
AcDbLine
 62
7
  6
CONTINUOUS
 10
16.6632062161
 20
11.7958551798
 11
16.7924325973
 21
11.6374374544
  0
LINE
  5
308
100
AcDbEntity
  8
LAYER_FEATURE
100
AcDbLine
 62
7
  6
CONTINUOUS
 10
16.3150451604
 20
11.7958551798
 11
16.3081817184
 21
11.8098414041
  0
LINE
  5
309
100
AcDbEntity
  8
LAYER_FEATURE
100
AcDbLine
 62
7
  6
CONTINUOUS
 10
16.3394977922
 20
11.8098414041
 11
16.3463612342
 21
11.7958551798
  0
LINE
  5
30A
100
AcDbEntity
  8
LAYER_FEATURE
100
AcDbLine
 62
7
  6
CONTINUOUS
 10
16.0025222487
 20
11.8098414041
 11
15.9982001785
 21
11.7958551798
  0
LINE
  5
30B
100
AcDbEntity
  8
LAYER_FEATURE
100
AcDbLine
 62
7
  6
CONTINUOUS
 10
16.0243299645
 20
11.6353440551
 11
16.0617286452
 21
11.7563662304
  0
LINE
  5
30C
100
AcDbEntity
  8
LAYER_FEATURE
100
AcDbLine
 62
7
  6
CONTINUOUS
 10
16.9800511981
 20
11.7958551798
 11
17.1092775792
 21
11.6374374544
  0
LINE
  5
30D
100
AcDbEntity
  8
LAYER_FEATURE
100
AcDbLine
 62
7
  6
CONTINUOUS
 10
16.6318901423
 20
11.7958551798
 11
16.6250267003
 21
11.8098414041
  0
LINE
  5
30E
100
AcDbEntity
  8
LAYER_FEATURE
100
AcDbLine
 62
7
  6
CONTINUOUS
 10
16.6563427741
 20
11.8098414041
 11
16.6632062161
 21
11.7958551798
  0
LINE
  5
30F
100
AcDbEntity
  8
LAYER_FEATURE
100
AcDbLine
 62
7
  6
CONTINUOUS
 10
16.3412990358
 20
11.6374374544
 11
16.3150451604
 21
11.7958551798
  0
LINE
  5
310
100
AcDbEntity
  8
LAYER_FEATURE
100
AcDbLine
 62
7
  6
CONTINUOUS
 10
16.3411755694
 20
11.6353438625
 11
16.3412990358
 21
11.6374374544
  0
LINE
  5
311
100
AcDbEntity
  8
LAYER_FEATURE
100
AcDbLine
 62
7
  6
CONTINUOUS
 10
16.3193672306
 20
11.8098414041
 11
16.3150451604
 21
11.7958551798
  0
LINE
  5
312
100
AcDbEntity
  8
0
100
AcDbLine
 62
7
  6
CONTINUOUS
 10
13.0215351712
 20
13.3904814476
 11
18.3627678755
 21
13.3904814476
  0
LINE
  5
313
100
AcDbEntity
  8
LAYER_FEATURE
100
AcDbLine
 62
7
  6
CONTINUOUS
 10
17.29689618
 20
11.7958551798
 11
17.4261225612
 21
11.6374374544
  0
LINE
  5
314
100
AcDbEntity
  8
LAYER_FEATURE
100
AcDbLine
 62
7
  6
CONTINUOUS
 10
16.9487351243
 20
11.7958551798
 11
16.9418716823
 21
11.8098414041
  0
LINE
  5
315
100
AcDbEntity
  8
LAYER_FEATURE
100
AcDbLine
 62
7
  6
CONTINUOUS
 10
16.9731877561
 20
11.8098414041
 11
16.9800511981
 21
11.7958551798
  0
LINE
  5
316
100
AcDbEntity
  8
LAYER_FEATURE
100
AcDbLine
 62
7
  6
CONTINUOUS
 10
16.6581440177
 20
11.6374374544
 11
16.6318901423
 21
11.7958551798
  0
LINE
  5
317
100
AcDbEntity
  8
LAYER_FEATURE
100
AcDbLine
 62
7
  6
CONTINUOUS
 10
16.6580205514
 20
11.6353438625
 11
16.6581440177
 21
11.6374374544
  0
LINE
  5
318
100
AcDbEntity
  8
LAYER_FEATURE
100
AcDbLine
 62
7
  6
CONTINUOUS
 10
16.3411749464
 20
11.6353440551
 11
16.3785736272
 21
11.7563662304
  0
LINE
  5
319
100
AcDbEntity
  8
LAYER_FEATURE
100
AcDbLine
 62
7
  6
CONTINUOUS
 10
17.613741162
 20
11.7958551798
 11
17.7429675431
 21
11.6374374544
  0
LINE
  5
31A
100
AcDbEntity
  8
LAYER_FEATURE
100
AcDbLine
 62
7
  6
CONTINUOUS
 10
16.6362122125
 20
11.8098414041
 11
16.6318901423
 21
11.7958551798
  0
LINE
  5
31B
100
AcDbEntity
  8
LAYER_FEATURE
100
AcDbLine
 62
7
  6
CONTINUOUS
 10
16.6580199283
 20
11.6353440551
 11
16.6954186091
 21
11.7563662304
  0
LINE
  5
31C
100
AcDbEntity
  8
LAYER_FEATURE
100
AcDbLine
 62
7
  6
CONTINUOUS
 10
17.2655801062
 20
11.7958551798
 11
17.2587166642
 21
11.8098414041
  0
LINE
  5
31D
100
AcDbEntity
  8
LAYER_FEATURE
100
AcDbLine
 62
7
  6
CONTINUOUS
 10
17.290032738
 20
11.8098414041
 11
17.29689618
 21
11.7958551798
  0
LINE
  5
31E
100
AcDbEntity
  8
LAYER_FEATURE
100
AcDbLine
 62
7
  6
CONTINUOUS
 10
16.9749889996
 20
11.6374374544
 11
16.9487351243
 21
11.7958551798
  0
LINE
  5
31F
100
AcDbEntity
  8
LAYER_FEATURE
100
AcDbLine
 62
7
  6
CONTINUOUS
 10
16.9748655333
 20
11.6353438625
 11
16.9749889996
 21
11.6374374544
  0
LINE
  5
320
100
AcDbEntity
  8
LAYER_FEATURE
100
AcDbLine
 62
7
  6
CONTINUOUS
 10
16.9530571945
 20
11.8098414041
 11
16.9487351243
 21
11.7958551798
  0
LINE
  5
321
100
AcDbEntity
  8
LAYER_FEATURE
100
AcDbLine
 62
7
  6
CONTINUOUS
 10
17.5824250882
 20
11.7958551798
 11
17.5755616462
 21
11.8098414041
  0
LINE
  5
322
100
AcDbEntity
  8
LAYER_FEATURE
100
AcDbLine
 62
7
  6
CONTINUOUS
 10
17.60687772
 20
11.8098414041
 11
17.613741162
 21
11.7958551798
  0
LINE
  5
323
100
AcDbEntity
  8
LAYER_FEATURE
100
AcDbLine
 62
7
  6
CONTINUOUS
 10
17.2918339816
 20
11.6374374544
 11
17.2655801062
 21
11.7958551798
  0
LINE
  5
324
100
AcDbEntity
  8
LAYER_FEATURE
100
AcDbLine
 62
7
  6
CONTINUOUS
 10
16.9748649103
 20
11.6353440551
 11
17.012263591
 21
11.7563662304
  0
LINE
  5
325
100
AcDbEntity
  8
0
100
AcDbLine
 62
7
  6
CONTINUOUS
 10
17.8992700701
 20
11.7958551798
 11
17.8878310001
 21
11.8191655536
  0
LINE
  5
326
100
AcDbEntity
  8
LAYER_FEATURE
100
AcDbLine
 62
7
  6
CONTINUOUS
 10
17.2917105153
 20
11.6353438625
 11
17.2918339816
 21
11.6374374544
  0
LINE
  5
327
100
AcDbEntity
  8
LAYER_FEATURE
100
AcDbLine
 62
7
  6
CONTINUOUS
 10
17.2699021764
 20
11.8098414041
 11
17.2655801062
 21
11.7958551798
  0
LINE
  5
328
100
AcDbEntity
  8
LAYER_FEATURE
100
AcDbLine
 62
7
  6
CONTINUOUS
 10
17.2917098922
 20
11.6353440551
 11
17.329108573
 21
11.7563662304
  0
LINE
  5
329
100
AcDbEntity
  8
LAYER_FEATURE
100
AcDbLine
 62
7
  6
CONTINUOUS
 10
17.6086789635
 20
11.6374374544
 11
17.5824250882
 21
11.7958551798
  0
LINE
  5
32A
100
AcDbEntity
  8
LAYER_FEATURE
100
AcDbLine
 62
7
  6
CONTINUOUS
 10
17.6085554972
 20
11.6353438625
 11
17.6086789635
 21
11.6374374544
  0
LINE
  5
32B
100
AcDbEntity
  8
LAYER_FEATURE
100
AcDbLine
 62
7
  6
CONTINUOUS
 10
17.5867471584
 20
11.8098414041
 11
17.5824250882
 21
11.7958551798
  0
LINE
  5
32C
100
AcDbEntity
  8
LAYER_FEATURE
100
AcDbLine
 62
7
  6
CONTINUOUS
 10
17.6085548741
 20
11.6353440551
 11
17.6459535549
 21
11.7563662304
  0
LINE
  5
32D
100
AcDbEntity
  8
LAYER_FEATURE
100
AcDbLine
 62
7
  6
CONTINUOUS
 10
17.9255239454
 20
11.6374374544
 11
17.8992700701
 21
11.7958551798
  0
LINE
  5
32E
100
AcDbEntity
  8
LAYER_FEATURE
100
AcDbLine
 62
7
  6
CONTINUOUS
 10
17.9254004791
 20
11.6353438625
 11
17.9255239454
 21
11.6374374544
  0
LINE
  5
32F
100
AcDbEntity
  8
LAYER_FEATURE
100
AcDbLine
 62
7
  6
CONTINUOUS
 10
18.3834027169
 20
13.362508999
 11
17.8992700701
 21
11.7958551798
  0
LINE
  5
330
100
AcDbEntity
  8
LAYER_FEATURE
100
AcDbLine
 62
7
  6
CONTINUOUS
 10
17.9253998561
 20
11.6353440551
 11
18.4095325029
 21
13.2019978743
  0
LINE
  5
331
100
AcDbEntity
  8
LAYER_FEATURE
100
AcDbLine
 62
7
  6
CONTINUOUS
 10
18.4096565923
 20
13.2040912737
 11
18.4095331259
 21
13.2019976818
  0
LINE
  5
332
100
AcDbEntity
  8
0
100
AcDbLine
 62
7
  6
CONTINUOUS
 10
18.3719636469
 20
13.3858193729
 11
18.3834027169
 21
13.362508999
  0
LINE
  5
333
100
AcDbEntity
  8
LAYER_FEATURE
100
AcDbLine
 62
7
  6
CONTINUOUS
 10
18.4096565923
 20
13.2040912737
 11
18.3834027169
 21
13.362508999
  0
ARC
  5
334
100
AcDbEntity
  8
0
100
AcDbCircle
 62
7
  6
CONTINUOUS
 10
3.2918828658
 20
5.3780365634
 40
0.0129166667
100
AcDbArc
 50
192.3713234544
 51
270.0
  0
ARC
  5
335
100
AcDbEntity
  8
0
100
AcDbCircle
 62
7
  6
CONTINUOUS
 10
3.4648516865
 20
5.3780365634
 40
0.0129166667
100
AcDbArc
 50
270.0
 51
347.6286765456
  0
ARC
  5
336
100
AcDbEntity
  8
LAYER_FEATURE
100
AcDbCircle
 62
7
  6
CONTINUOUS
 10
3.6358828658
 20
5.3780365634
 40
0.0129166667
100
AcDbArc
 50
192.3713234544
 51
270.0
  0
ARC
  5
337
100
AcDbEntity
  8
LAYER_FEATURE
100
AcDbCircle
 62
7
  6
CONTINUOUS
 10
3.8088516865
 20
5.3780365634
 40
0.0129166667
100
AcDbArc
 50
270.0
 51
347.6286765456
  0
ARC
  5
338
100
AcDbEntity
  8
LAYER_FEATURE
100
AcDbCircle
 62
7
  6
CONTINUOUS
 10
3.9798828658
 20
5.3780365634
 40
0.0129166667
100
AcDbArc
 50
192.3713234544
 51
270.0
  0
ARC
  5
339
100
AcDbEntity
  8
LAYER_FEATURE
100
AcDbCircle
 62
7
  6
CONTINUOUS
 10
4.1528516865
 20
5.3780365634
 40
0.0129166667
100
AcDbArc
 50
270.0
 51
347.6286765456
  0
ARC
  5
33A
100
AcDbEntity
  8
LAYER_FEATURE
100
AcDbCircle
 62
7
  6
CONTINUOUS
 10
4.3238828658
 20
5.3780365634
 40
0.0129166667
100
AcDbArc
 50
192.3713234544
 51
270.0
  0
ARC
  5
33B
100
AcDbEntity
  8
LAYER_FEATURE
100
AcDbCircle
 62
7
  6
CONTINUOUS
 10
4.4968516865
 20
5.3780365634
 40
0.0129166667
100
AcDbArc
 50
270.0
 51
347.6286765456
  0
ARC
  5
33C
100
AcDbEntity
  8
LAYER_FEATURE
100
AcDbCircle
 62
7
  6
CONTINUOUS
 10
4.6678828658
 20
5.3780365634
 40
0.0129166667
100
AcDbArc
 50
192.3713234544
 51
270.0
  0
ARC
  5
33D
100
AcDbEntity
  8
LAYER_FEATURE
100
AcDbCircle
 62
7
  6
CONTINUOUS
 10
4.8408516865
 20
5.3780365634
 40
0.0129166667
100
AcDbArc
 50
270.0
 51
347.6286765456
  0
ARC
  5
33E
100
AcDbEntity
  8
LAYER_FEATURE
100
AcDbCircle
 62
7
  6
CONTINUOUS
 10
5.0118828658
 20
5.3780365634
 40
0.0129166667
100
AcDbArc
 50
192.3713234544
 51
270.0
  0
ARC
  5
33F
100
AcDbEntity
  8
LAYER_FEATURE
100
AcDbCircle
 62
7
  6
CONTINUOUS
 10
5.1848516865
 20
5.3780365634
 40
0.0129166667
100
AcDbArc
 50
270.0
 51
347.6286765456
  0
ARC
  5
340
100
AcDbEntity
  8
LAYER_FEATURE
100
AcDbCircle
 62
7
  6
CONTINUOUS
 10
5.3558828658
 20
5.3780365634
 40
0.0129166667
100
AcDbArc
 50
192.3713234544
 51
270.0
  0
ARC
  5
341
100
AcDbEntity
  8
LAYER_FEATURE
100
AcDbCircle
 62
7
  6
CONTINUOUS
 10
5.5288516865
 20
5.3780365634
 40
0.0129166667
100
AcDbArc
 50
270.0
 51
347.6286765456
  0
ARC
  5
342
100
AcDbEntity
  8
LAYER_FEATURE
100
AcDbCircle
 62
7
  6
CONTINUOUS
 10
5.6998828658
 20
5.3780365634
 40
0.0129166667
100
AcDbArc
 50
192.3713234544
 51
270.0
  0
ARC
  5
343
100
AcDbEntity
  8
LAYER_FEATURE
100
AcDbCircle
 62
7
  6
CONTINUOUS
 10
5.8728516865
 20
5.3780365634
 40
0.0129166667
100
AcDbArc
 50
270.0
 51
347.6286765456
  0
ARC
  5
344
100
AcDbEntity
  8
LAYER_FEATURE
100
AcDbCircle
 62
7
  6
CONTINUOUS
 10
6.0438828658
 20
5.3780365634
 40
0.0129166667
100
AcDbArc
 50
192.3713234544
 51
270.0
  0
ARC
  5
345
100
AcDbEntity
  8
LAYER_FEATURE
100
AcDbCircle
 62
7
  6
CONTINUOUS
 10
6.2168516865
 20
5.3780365634
 40
0.0129166667
100
AcDbArc
 50
270.0
 51
347.6286765456
  0
ARC
  5
346
100
AcDbEntity
  8
LAYER_FEATURE
100
AcDbCircle
 62
7
  6
CONTINUOUS
 10
6.3878828658
 20
5.3780365634
 40
0.0129166667
100
AcDbArc
 50
192.3713234544
 51
270.0
  0
ARC
  5
347
100
AcDbEntity
  8
LAYER_FEATURE
100
AcDbCircle
 62
7
  6
CONTINUOUS
 10
6.5608516865
 20
5.3780365634
 40
0.0129166667
100
AcDbArc
 50
270.0
 51
347.6286765456
  0
ARC
  5
348
100
AcDbEntity
  8
LAYER_FEATURE
100
AcDbCircle
 62
7
  6
CONTINUOUS
 10
6.7318828658
 20
5.3780365634
 40
0.0129166667
100
AcDbArc
 50
192.3713234544
 51
270.0
  0
ARC
  5
349
100
AcDbEntity
  8
LAYER_FEATURE
100
AcDbCircle
 62
7
  6
CONTINUOUS
 10
6.9048516865
 20
5.3780365634
 40
0.0129166667
100
AcDbArc
 50
270.0
 51
347.6286765456
  0
ARC
  5
34A
100
AcDbEntity
  8
LAYER_FEATURE
100
AcDbCircle
 62
7
  6
CONTINUOUS
 10
7.0758828658
 20
5.3780365634
 40
0.0129166667
100
AcDbArc
 50
192.3713234544
 51
270.0
  0
ARC
  5
34B
100
AcDbEntity
  8
LAYER_FEATURE
100
AcDbCircle
 62
7
  6
CONTINUOUS
 10
7.2488516865
 20
5.3780365634
 40
0.0129166667
100
AcDbArc
 50
270.0
 51
347.6286765456
  0
ARC
  5
34C
100
AcDbEntity
  8
LAYER_FEATURE
100
AcDbCircle
 62
7
  6
CONTINUOUS
 10
7.4198828658
 20
5.3780365634
 40
0.0129166667
100
AcDbArc
 50
192.3713234544
 51
270.0
  0
ARC
  5
34D
100
AcDbEntity
  8
LAYER_FEATURE
100
AcDbCircle
 62
7
  6
CONTINUOUS
 10
7.5928516865
 20
5.3780365634
 40
0.0129166667
100
AcDbArc
 50
270.0
 51
347.6286765456
  0
ARC
  5
34E
100
AcDbEntity
  8
LAYER_FEATURE
100
AcDbCircle
 62
7
  6
CONTINUOUS
 10
7.7638828658
 20
5.3780365634
 40
0.0129166667
100
AcDbArc
 50
192.3713234544
 51
270.0
  0
ARC
  5
34F
100
AcDbEntity
  8
LAYER_FEATURE
100
AcDbCircle
 62
7
  6
CONTINUOUS
 10
7.9368516865
 20
5.3780365634
 40
0.0129166667
100
AcDbArc
 50
270.0
 51
347.6286765456
  0
ARC
  5
350
100
AcDbEntity
  8
LAYER_FEATURE
100
AcDbCircle
 62
7
  6
CONTINUOUS
 10
8.9688516865
 20
5.3780365634
 40
0.0129166667
100
AcDbArc
 50
270.0
 51
347.6286765456
  0
ARC
  5
351
100
AcDbEntity
  8
LAYER_FEATURE
100
AcDbCircle
 62
7
  6
CONTINUOUS
 10
8.7958828658
 20
5.3780365634
 40
0.0129166667
100
AcDbArc
 50
192.3713234544
 51
270.0
  0
ARC
  5
352
100
AcDbEntity
  8
LAYER_FEATURE
100
AcDbCircle
 62
7
  6
CONTINUOUS
 10
8.6248516865
 20
5.3780365634
 40
0.0129166667
100
AcDbArc
 50
270.0
 51
347.6286765456
  0
ARC
  5
353
100
AcDbEntity
  8
LAYER_FEATURE
100
AcDbCircle
 62
7
  6
CONTINUOUS
 10
8.4518828658
 20
5.3780365634
 40
0.0129166667
100
AcDbArc
 50
192.3713234544
 51
270.0
  0
ARC
  5
354
100
AcDbEntity
  8
LAYER_FEATURE
100
AcDbCircle
 62
7
  6
CONTINUOUS
 10
8.2808516865
 20
5.3780365634
 40
0.0129166667
100
AcDbArc
 50
270.0
 51
347.6286765456
  0
ARC
  5
355
100
AcDbEntity
  8
LAYER_FEATURE
100
AcDbCircle
 62
7
  6
CONTINUOUS
 10
8.1078828658
 20
5.3780365634
 40
0.0129166667
100
AcDbArc
 50
192.3713234544
 51
270.0
  0
ARC
  5
356
100
AcDbEntity
  8
0
100
AcDbCircle
 62
7
  6
CONTINUOUS
 10
3.2308672762
 20
5.6676198968
 40
0.0075
100
AcDbArc
 50
90.0
 51
180.0
  0
ARC
  5
357
100
AcDbEntity
  8
0
100
AcDbCircle
 62
7
  6
CONTINUOUS
 10
9.0298672762
 20
5.6676198968
 40
0.0075
100
AcDbArc
 50
0.0
 51
90.0
  0
SPLINE
  5
358
100
AcDbEntity
  8
0
100
AcDbSpline
 62
7
  6
CONTINUOUS
 70
0
 71
3
 72
11
 73
7
 74
0
 42
0.0000001
 43
0.0000001
 44
0.0000000001
 40
0.0
 40
0.0
 40
0.0
 40
0.0
 40
0.2644444522
 40
0.5366447956
 40
0.7886683147
 40
1.0
 40
1.0
 40
1.0
 40
1.0
 10
18.3627678755
 20
13.3904814476
 30
0.0
 10
18.3637135343
 20
13.3904814476
 30
0.0
 10
18.3656356734
 20
13.3902190656
 30
0.0
 10
18.368306625
 20
13.3892459061
 30
0.0
 10
18.3705258861
 20
13.3877948932
 30
0.0
 10
18.3716307171
 20
13.3864978124
 30
0.0
 10
18.3719636469
 20
13.3858193729
 30
0.0
  0
SPLINE
  5
359
100
AcDbEntity
  8
0
100
AcDbSpline
 62
7
  6
CONTINUOUS
 70
0
 71
3
 72
11
 73
7
 74
0
 42
0.0000001
 43
0.0000001
 44
0.0000000001
 40
0.0
 40
0.0
 40
0.0
 40
0.0
 40
0.2022595964
 40
0.4301234434
 40
0.6973865799
 40
1.0
 40
1.0
 40
1.0
 40
1.0
 10
13.0166578944
 20
13.3880335553
 30
0.0
 10
13.0167715026
 20
13.3884075541
 30
0.0
 10
13.0172231692
 20
13.3891464453
 30
0.0
 10
13.018357952
 20
13.3899232715
 30
0.0
 10
13.0198455207
 20
13.3903840607
 30
0.0
 10
13.020950361
 20
13.3904814476
 30
0.0
 10
13.0215351712
 20
13.3904814476
 30
0.0
  0
SPLINE
  5
35A
100
AcDbEntity
  8
LAYER_FEATURE
100
AcDbSpline
 62
7
  6
CONTINUOUS
 70
0
 71
3
 72
11
 73
7
 74
0
 42
0.0000001
 43
0.0000001
 44
0.0000000001
 40
0.0
 40
0.0
 40
0.0
 40
0.0
 40
0.3036426578
 40
0.5699433754
 40
0.7976809437
 40
1.0
 40
1.0
 40
1.0
 40
1.0
 10
17.9169991276
 20
11.6311285382
 30
0.0
 10
17.9180097419
 20
11.6311285382
 30
0.0
 10
17.919914009
 20
11.6312892982
 30
0.0
 10
17.9224727821
 20
11.6320930996
 30
0.0
 10
17.9244237048
 20
11.633429022
 30
0.0
 10
17.9252013803
 20
11.6347005906
 30
0.0
 10
17.9253994696
 20
11.6353441741
 30
0.0
  0
SPLINE
  5
35B
100
AcDbEntity
  8
LAYER_FEATURE
100
AcDbSpline
 62
7
  6
CONTINUOUS
 70
0
 71
3
 72
11
 73
7
 74
0
 42
0.0000001
 43
0.0000001
 44
0.0000000001
 40
0.0
 40
0.0
 40
0.0
 40
0.0
 40
0.2257773512
 40
0.4797708448
 40
0.7445211164
 40
1.0
 40
1.0
 40
1.0
 40
1.0
 10
17.7429675431
 20
11.6374374544
 30
0.0
 10
17.7437498946
 20
11.6364783752
 30
0.0
 10
17.7457519577
 20
11.634715262
 30
0.0
 10
17.7493583429
 20
11.6327525662
 30
0.0
 10
17.7534270076
 20
11.6314618406
 30
0.0
 10
17.756283769
 20
11.6311285382
 30
0.0
 10
17.7576842937
 20
11.6311285382
 30
0.0
  0
SPLINE
  5
35C
100
AcDbEntity
  8
LAYER_FEATURE
100
AcDbSpline
 62
7
  6
CONTINUOUS
 70
0
 71
3
 72
11
 73
7
 74
0
 42
0.0000001
 43
0.0000001
 44
0.0000000001
 40
0.0
 40
0.0
 40
0.0
 40
0.0
 40
0.3036426578
 40
0.5699433754
 40
0.7976809437
 40
1.0
 40
1.0
 40
1.0
 40
1.0
 10
17.6001541457
 20
11.6311285382
 30
0.0
 10
17.60116476
 20
11.6311285382
 30
0.0
 10
17.603069027
 20
11.6312892982
 30
0.0
 10
17.6056278001
 20
11.6320930996
 30
0.0
 10
17.6075787228
 20
11.633429022
 30
0.0
 10
17.6083563984
 20
11.6347005906
 30
0.0
 10
17.6085544877
 20
11.6353441741
 30
0.0
  0
SPLINE
  5
35D
100
AcDbEntity
  8
LAYER_FEATURE
100
AcDbSpline
 62
7
  6
CONTINUOUS
 70
0
 71
3
 72
11
 73
7
 74
0
 42
0.0000001
 43
0.0000001
 44
0.0000000001
 40
0.0
 40
0.0
 40
0.0
 40
0.0
 40
0.2257773512
 40
0.4797708448
 40
0.7445211164
 40
1.0
 40
1.0
 40
1.0
 40
1.0
 10
17.4261225612
 20
11.6374374544
 30
0.0
 10
17.4269049126
 20
11.6364783752
 30
0.0
 10
17.4289069758
 20
11.634715262
 30
0.0
 10
17.432513361
 20
11.6327525662
 30
0.0
 10
17.4365820257
 20
11.6314618406
 30
0.0
 10
17.439438787
 20
11.6311285382
 30
0.0
 10
17.4408393118
 20
11.6311285382
 30
0.0
  0
SPLINE
  5
35E
100
AcDbEntity
  8
LAYER_FEATURE
100
AcDbSpline
 62
7
  6
CONTINUOUS
 70
0
 71
3
 72
11
 73
7
 74
0
 42
0.0000001
 43
0.0000001
 44
0.0000000001
 40
0.0
 40
0.0
 40
0.0
 40
0.0
 40
0.3036426578
 40
0.5699433754
 40
0.7976809437
 40
1.0
 40
1.0
 40
1.0
 40
1.0
 10
17.2833091637
 20
11.6311285382
 30
0.0
 10
17.284319778
 20
11.6311285382
 30
0.0
 10
17.2862240451
 20
11.6312892982
 30
0.0
 10
17.2887828182
 20
11.6320930996
 30
0.0
 10
17.2907337409
 20
11.633429022
 30
0.0
 10
17.2915114165
 20
11.6347005906
 30
0.0
 10
17.2917095058
 20
11.6353441741
 30
0.0
  0
SPLINE
  5
35F
100
AcDbEntity
  8
LAYER_FEATURE
100
AcDbSpline
 62
7
  6
CONTINUOUS
 70
0
 71
3
 72
11
 73
7
 74
0
 42
0.0000001
 43
0.0000001
 44
0.0000000001
 40
0.0
 40
0.0
 40
0.0
 40
0.0
 40
0.2257773512
 40
0.4797708448
 40
0.7445211164
 40
1.0
 40
1.0
 40
1.0
 40
1.0
 10
17.1092775792
 20
11.6374374544
 30
0.0
 10
17.1100599307
 20
11.6364783752
 30
0.0
 10
17.1120619938
 20
11.634715262
 30
0.0
 10
17.115668379
 20
11.6327525662
 30
0.0
 10
17.1197370437
 20
11.6314618406
 30
0.0
 10
17.1225938051
 20
11.6311285382
 30
0.0
 10
17.1239943299
 20
11.6311285382
 30
0.0
  0
SPLINE
  5
360
100
AcDbEntity
  8
LAYER_FEATURE
100
AcDbSpline
 62
7
  6
CONTINUOUS
 70
0
 71
3
 72
11
 73
7
 74
0
 42
0.0000001
 43
0.0000001
 44
0.0000000001
 40
0.0
 40
0.0
 40
0.0
 40
0.0
 40
0.3036426578
 40
0.5699433754
 40
0.7976809437
 40
1.0
 40
1.0
 40
1.0
 40
1.0
 10
16.9664641818
 20
11.6311285382
 30
0.0
 10
16.9674747961
 20
11.6311285382
 30
0.0
 10
16.9693790632
 20
11.6312892982
 30
0.0
 10
16.9719378363
 20
11.6320930996
 30
0.0
 10
16.973888759
 20
11.633429022
 30
0.0
 10
16.9746664345
 20
11.6347005906
 30
0.0
 10
16.9748645238
 20
11.6353441741
 30
0.0
  0
SPLINE
  5
361
100
AcDbEntity
  8
LAYER_FEATURE
100
AcDbSpline
 62
7
  6
CONTINUOUS
 70
0
 71
3
 72
11
 73
7
 74
0
 42
0.0000001
 43
0.0000001
 44
0.0000000001
 40
0.0
 40
0.0
 40
0.0
 40
0.0
 40
0.2257773512
 40
0.4797708448
 40
0.7445211164
 40
1.0
 40
1.0
 40
1.0
 40
1.0
 10
16.7924325973
 20
11.6374374544
 30
0.0
 10
16.7932149488
 20
11.6364783752
 30
0.0
 10
16.7952170119
 20
11.634715262
 30
0.0
 10
16.7988233971
 20
11.6327525662
 30
0.0
 10
16.8028920618
 20
11.6314618406
 30
0.0
 10
16.8057488231
 20
11.6311285382
 30
0.0
 10
16.8071493479
 20
11.6311285382
 30
0.0
  0
SPLINE
  5
362
100
AcDbEntity
  8
LAYER_FEATURE
100
AcDbSpline
 62
7
  6
CONTINUOUS
 70
0
 71
3
 72
11
 73
7
 74
0
 42
0.0000001
 43
0.0000001
 44
0.0000000001
 40
0.0
 40
0.0
 40
0.0
 40
0.0
 40
0.3036426578
 40
0.5699433754
 40
0.7976809437
 40
1.0
 40
1.0
 40
1.0
 40
1.0
 10
16.6496191999
 20
11.6311285382
 30
0.0
 10
16.6506298142
 20
11.6311285382
 30
0.0
 10
16.6525340812
 20
11.6312892982
 30
0.0
 10
16.6550928543
 20
11.6320930996
 30
0.0
 10
16.657043777
 20
11.633429022
 30
0.0
 10
16.6578214526
 20
11.6347005906
 30
0.0
 10
16.6580195419
 20
11.6353441741
 30
0.0
  0
SPLINE
  5
363
100
AcDbEntity
  8
LAYER_FEATURE
100
AcDbSpline
 62
7
  6
CONTINUOUS
 70
0
 71
3
 72
11
 73
7
 74
0
 42
0.0000001
 43
0.0000001
 44
0.0000000001
 40
0.0
 40
0.0
 40
0.0
 40
0.0
 40
0.2257773512
 40
0.4797708448
 40
0.7445211164
 40
1.0
 40
1.0
 40
1.0
 40
1.0
 10
16.4755876154
 20
11.6374374544
 30
0.0
 10
16.4763699668
 20
11.6364783752
 30
0.0
 10
16.4783720299
 20
11.634715262
 30
0.0
 10
16.4819784152
 20
11.6327525662
 30
0.0
 10
16.4860470799
 20
11.6314618406
 30
0.0
 10
16.4889038412
 20
11.6311285382
 30
0.0
 10
16.490304366
 20
11.6311285382
 30
0.0
  0
SPLINE
  5
364
100
AcDbEntity
  8
LAYER_FEATURE
100
AcDbSpline
 62
7
  6
CONTINUOUS
 70
0
 71
3
 72
11
 73
7
 74
0
 42
0.0000001
 43
0.0000001
 44
0.0000000001
 40
0.0
 40
0.0
 40
0.0
 40
0.0
 40
0.3036426578
 40
0.5699433754
 40
0.7976809437
 40
1.0
 40
1.0
 40
1.0
 40
1.0
 10
16.3327742179
 20
11.6311285382
 30
0.0
 10
16.3337848322
 20
11.6311285382
 30
0.0
 10
16.3356890993
 20
11.6312892982
 30
0.0
 10
16.3382478724
 20
11.6320930996
 30
0.0
 10
16.3401987951
 20
11.633429022
 30
0.0
 10
16.3409764707
 20
11.6347005906
 30
0.0
 10
16.34117456
 20
11.6353441741
 30
0.0
  0
SPLINE
  5
365
100
AcDbEntity
  8
LAYER_FEATURE
100
AcDbSpline
 62
7
  6
CONTINUOUS
 70
0
 71
3
 72
11
 73
7
 74
0
 42
0.0000001
 43
0.0000001
 44
0.0000000001
 40
0.0
 40
0.0
 40
0.0
 40
0.0
 40
0.2257773512
 40
0.4797708448
 40
0.7445211164
 40
1.0
 40
1.0
 40
1.0
 40
1.0
 10
16.1587426334
 20
11.6374374544
 30
0.0
 10
16.1595249849
 20
11.6364783752
 30
0.0
 10
16.161527048
 20
11.634715262
 30
0.0
 10
16.1651334332
 20
11.6327525662
 30
0.0
 10
16.1692020979
 20
11.6314618406
 30
0.0
 10
16.1720588593
 20
11.6311285382
 30
0.0
 10
16.1734593841
 20
11.6311285382
 30
0.0
  0
SPLINE
  5
366
100
AcDbEntity
  8
LAYER_FEATURE
100
AcDbSpline
 62
7
  6
CONTINUOUS
 70
0
 71
3
 72
11
 73
7
 74
0
 42
0.0000001
 43
0.0000001
 44
0.0000000001
 40
0.0
 40
0.0
 40
0.0
 40
0.0
 40
0.3036426578
 40
0.5699433754
 40
0.7976809437
 40
1.0
 40
1.0
 40
1.0
 40
1.0
 10
16.015929236
 20
11.6311285382
 30
0.0
 10
16.0169398503
 20
11.6311285382
 30
0.0
 10
16.0188441174
 20
11.6312892982
 30
0.0
 10
16.0214028905
 20
11.6320930996
 30
0.0
 10
16.0233538131
 20
11.633429022
 30
0.0
 10
16.0241314887
 20
11.6347005906
 30
0.0
 10
16.024329578
 20
11.6353441741
 30
0.0
  0
SPLINE
  5
367
100
AcDbEntity
  8
LAYER_FEATURE
100
AcDbSpline
 62
7
  6
CONTINUOUS
 70
0
 71
3
 72
11
 73
7
 74
0
 42
0.0000001
 43
0.0000001
 44
0.0000000001
 40
0.0
 40
0.0
 40
0.0
 40
0.0
 40
0.2257773512
 40
0.4797708448
 40
0.7445211164
 40
1.0
 40
1.0
 40
1.0
 40
1.0
 10
15.8418976515
 20
11.6374374544
 30
0.0
 10
15.8426800029
 20
11.6364783752
 30
0.0
 10
15.8446820661
 20
11.634715262
 30
0.0
 10
15.8482884513
 20
11.6327525662
 30
0.0
 10
15.852357116
 20
11.6314618406
 30
0.0
 10
15.8552138773
 20
11.6311285382
 30
0.0
 10
15.8566144021
 20
11.6311285382
 30
0.0
  0
SPLINE
  5
368
100
AcDbEntity
  8
LAYER_FEATURE
100
AcDbSpline
 62
7
  6
CONTINUOUS
 70
0
 71
3
 72
11
 73
7
 74
0
 42
0.0000001
 43
0.0000001
 44
0.0000000001
 40
0.0
 40
0.0
 40
0.0
 40
0.0
 40
0.3036426578
 40
0.5699433754
 40
0.7976809437
 40
1.0
 40
1.0
 40
1.0
 40
1.0
 10
15.6990842541
 20
11.6311285382
 30
0.0
 10
15.7000948684
 20
11.6311285382
 30
0.0
 10
15.7019991354
 20
11.6312892982
 30
0.0
 10
15.7045579085
 20
11.6320930996
 30
0.0
 10
15.7065088312
 20
11.633429022
 30
0.0
 10
15.7072865068
 20
11.6347005906
 30
0.0
 10
15.7074845961
 20
11.6353441741
 30
0.0
  0
SPLINE
  5
369
100
AcDbEntity
  8
LAYER_FEATURE
100
AcDbSpline
 62
7
  6
CONTINUOUS
 70
0
 71
3
 72
11
 73
7
 74
0
 42
0.0000001
 43
0.0000001
 44
0.0000000001
 40
0.0
 40
0.0
 40
0.0
 40
0.0
 40
0.2257773512
 40
0.4797708448
 40
0.7445211164
 40
1.0
 40
1.0
 40
1.0
 40
1.0
 10
15.5250526696
 20
11.6374374544
 30
0.0
 10
15.525835021
 20
11.6364783752
 30
0.0
 10
15.5278370841
 20
11.634715262
 30
0.0
 10
15.5314434694
 20
11.6327525662
 30
0.0
 10
15.535512134
 20
11.6314618406
 30
0.0
 10
15.5383688954
 20
11.6311285382
 30
0.0
 10
15.5397694202
 20
11.6311285382
 30
0.0
  0
SPLINE
  5
36A
100
AcDbEntity
  8
LAYER_FEATURE
100
AcDbSpline
 62
7
  6
CONTINUOUS
 70
0
 71
3
 72
11
 73
7
 74
0
 42
0.0000001
 43
0.0000001
 44
0.0000000001
 40
0.0
 40
0.0
 40
0.0
 40
0.0
 40
0.3036425336
 40
0.5699440902
 40
0.7976822861
 40
1.0
 40
1.0
 40
1.0
 40
1.0
 10
15.3822392721
 20
11.6311285382
 30
0.0
 10
15.383249886
 20
11.6311285382
 30
0.0
 10
15.3851541521
 20
11.631289308
 30
0.0
 10
15.3877129401
 20
11.6320930899
 30
0.0
 10
15.3896638408
 20
11.6334290427
 30
0.0
 10
15.3904415295
 20
11.6347005934
 30
0.0
 10
15.390639627
 20
11.6353441696
 30
0.0
  0
SPLINE
  5
36B
100
AcDbEntity
  8
LAYER_FEATURE
100
AcDbSpline
 62
7
  6
CONTINUOUS
 70
0
 71
3
 72
11
 73
7
 74
0
 42
0.0000001
 43
0.0000001
 44
0.0000000001
 40
0.0
 40
0.0
 40
0.0
 40
0.0
 40
0.2257773512
 40
0.4797708448
 40
0.7445211164
 40
1.0
 40
1.0
 40
1.0
 40
1.0
 10
15.2082076876
 20
11.6374374544
 30
0.0
 10
15.2089900391
 20
11.6364783752
 30
0.0
 10
15.2109921022
 20
11.634715262
 30
0.0
 10
15.2145984874
 20
11.6327525662
 30
0.0
 10
15.2186671521
 20
11.6314618406
 30
0.0
 10
15.2215239135
 20
11.6311285382
 30
0.0
 10
15.2229244383
 20
11.6311285382
 30
0.0
  0
SPLINE
  5
36C
100
AcDbEntity
  8
LAYER_FEATURE
100
AcDbSpline
 62
7
  6
CONTINUOUS
 70
0
 71
3
 72
11
 73
7
 74
0
 42
0.0000001
 43
0.0000001
 44
0.0000000001
 40
0.0
 40
0.0
 40
0.0
 40
0.0
 40
0.3036426578
 40
0.5699433754
 40
0.7976809437
 40
1.0
 40
1.0
 40
1.0
 40
1.0
 10
15.0653942902
 20
11.6311285382
 30
0.0
 10
15.0664049045
 20
11.6311285382
 30
0.0
 10
15.0683091715
 20
11.6312892982
 30
0.0
 10
15.0708679446
 20
11.6320930996
 30
0.0
 10
15.0728188673
 20
11.633429022
 30
0.0
 10
15.0735965429
 20
11.6347005906
 30
0.0
 10
15.0737946322
 20
11.6353441741
 30
0.0
  0
SPLINE
  5
36D
100
AcDbEntity
  8
LAYER_FEATURE
100
AcDbSpline
 62
7
  6
CONTINUOUS
 70
0
 71
3
 72
11
 73
7
 74
0
 42
0.0000001
 43
0.0000001
 44
0.0000000001
 40
0.0
 40
0.0
 40
0.0
 40
0.0
 40
0.2257773512
 40
0.4797708448
 40
0.7445211164
 40
1.0
 40
1.0
 40
1.0
 40
1.0
 10
14.8913627057
 20
11.6374374544
 30
0.0
 10
14.8921450571
 20
11.6364783752
 30
0.0
 10
14.8941471203
 20
11.634715262
 30
0.0
 10
14.8977535055
 20
11.6327525662
 30
0.0
 10
14.9018221702
 20
11.6314618406
 30
0.0
 10
14.9046789315
 20
11.6311285382
 30
0.0
 10
14.9060794563
 20
11.6311285382
 30
0.0
  0
SPLINE
  5
36E
100
AcDbEntity
  8
LAYER_FEATURE
100
AcDbSpline
 62
7
  6
CONTINUOUS
 70
0
 71
3
 72
11
 73
7
 74
0
 42
0.0000001
 43
0.0000001
 44
0.0000000001
 40
0.0
 40
0.0
 40
0.0
 40
0.0
 40
0.3036426578
 40
0.5699433754
 40
0.7976809437
 40
1.0
 40
1.0
 40
1.0
 40
1.0
 10
14.7485493082
 20
11.6311285382
 30
0.0
 10
14.7495599225
 20
11.6311285382
 30
0.0
 10
14.7514641896
 20
11.6312892982
 30
0.0
 10
14.7540229627
 20
11.6320930996
 30
0.0
 10
14.7559738854
 20
11.633429022
 30
0.0
 10
14.756751561
 20
11.6347005906
 30
0.0
 10
14.7569496503
 20
11.6353441741
 30
0.0
  0
SPLINE
  5
36F
100
AcDbEntity
  8
LAYER_FEATURE
100
AcDbSpline
 62
7
  6
CONTINUOUS
 70
0
 71
3
 72
11
 73
7
 74
0
 42
0.0000001
 43
0.0000001
 44
0.0000000001
 40
0.0
 40
0.0
 40
0.0
 40
0.0
 40
0.2257773512
 40
0.4797708448
 40
0.7445211164
 40
1.0
 40
1.0
 40
1.0
 40
1.0
 10
14.5745177237
 20
11.6374374544
 30
0.0
 10
14.5753000752
 20
11.6364783752
 30
0.0
 10
14.5773021383
 20
11.634715262
 30
0.0
 10
14.5809085235
 20
11.6327525662
 30
0.0
 10
14.5849771882
 20
11.6314618406
 30
0.0
 10
14.5878339496
 20
11.6311285382
 30
0.0
 10
14.5892344744
 20
11.6311285382
 30
0.0
  0
SPLINE
  5
370
100
AcDbEntity
  8
LAYER_FEATURE
100
AcDbSpline
 62
7
  6
CONTINUOUS
 70
0
 71
3
 72
11
 73
7
 74
0
 42
0.0000001
 43
0.0000001
 44
0.0000000001
 40
0.0
 40
0.0
 40
0.0
 40
0.0
 40
0.3036426578
 40
0.5699433754
 40
0.7976809437
 40
1.0
 40
1.0
 40
1.0
 40
1.0
 10
14.4317043263
 20
11.6311285382
 30
0.0
 10
14.4327149406
 20
11.6311285382
 30
0.0
 10
14.4346192077
 20
11.6312892982
 30
0.0
 10
14.4371779808
 20
11.6320930996
 30
0.0
 10
14.4391289035
 20
11.633429022
 30
0.0
 10
14.439906579
 20
11.6347005906
 30
0.0
 10
14.4401046683
 20
11.6353441741
 30
0.0
  0
SPLINE
  5
371
100
AcDbEntity
  8
LAYER_FEATURE
100
AcDbSpline
 62
7
  6
CONTINUOUS
 70
0
 71
3
 72
11
 73
7
 74
0
 42
0.0000001
 43
0.0000001
 44
0.0000000001
 40
0.0
 40
0.0
 40
0.0
 40
0.0
 40
0.2257773512
 40
0.4797708448
 40
0.7445211164
 40
1.0
 40
1.0
 40
1.0
 40
1.0
 10
14.2576727418
 20
11.6374374544
 30
0.0
 10
14.2584550933
 20
11.6364783752
 30
0.0
 10
14.2604571564
 20
11.634715262
 30
0.0
 10
14.2640635416
 20
11.6327525662
 30
0.0
 10
14.2681322063
 20
11.6314618406
 30
0.0
 10
14.2709889676
 20
11.6311285382
 30
0.0
 10
14.2723894924
 20
11.6311285382
 30
0.0
  0
SPLINE
  5
372
100
AcDbEntity
  8
LAYER_FEATURE
100
AcDbSpline
 62
7
  6
CONTINUOUS
 70
0
 71
3
 72
11
 73
7
 74
0
 42
0.0000001
 43
0.0000001
 44
0.0000000001
 40
0.0
 40
0.0
 40
0.0
 40
0.0
 40
0.3036426578
 40
0.5699433754
 40
0.7976809437
 40
1.0
 40
1.0
 40
1.0
 40
1.0
 10
14.1148593444
 20
11.6311285382
 30
0.0
 10
14.1158699587
 20
11.6311285382
 30
0.0
 10
14.1177742257
 20
11.6312892982
 30
0.0
 10
14.1203329988
 20
11.6320930996
 30
0.0
 10
14.1222839215
 20
11.633429022
 30
0.0
 10
14.1230615971
 20
11.6347005906
 30
0.0
 10
14.1232596864
 20
11.6353441741
 30
0.0
  0
SPLINE
  5
373
100
AcDbEntity
  8
LAYER_FEATURE
100
AcDbSpline
 62
7
  6
CONTINUOUS
 70
0
 71
3
 72
11
 73
7
 74
0
 42
0.0000001
 43
0.0000001
 44
0.0000000001
 40
0.0
 40
0.0
 40
0.0
 40
0.0
 40
0.2257773512
 40
0.4797708448
 40
0.7445211164
 40
1.0
 40
1.0
 40
1.0
 40
1.0
 10
13.9408277599
 20
11.6374374544
 30
0.0
 10
13.9416101113
 20
11.6364783752
 30
0.0
 10
13.9436121744
 20
11.634715262
 30
0.0
 10
13.9472185597
 20
11.6327525662
 30
0.0
 10
13.9512872244
 20
11.6314618406
 30
0.0
 10
13.9541439857
 20
11.6311285382
 30
0.0
 10
13.9555445105
 20
11.6311285382
 30
0.0
  0
SPLINE
  5
374
100
AcDbEntity
  8
LAYER_FEATURE
100
AcDbSpline
 62
7
  6
CONTINUOUS
 70
0
 71
3
 72
11
 73
7
 74
0
 42
0.0000001
 43
0.0000001
 44
0.0000000001
 40
0.0
 40
0.0
 40
0.0
 40
0.0
 40
0.3036426578
 40
0.5699433754
 40
0.7976809437
 40
1.0
 40
1.0
 40
1.0
 40
1.0
 10
13.7980143624
 20
11.6311285382
 30
0.0
 10
13.7990249767
 20
11.6311285382
 30
0.0
 10
13.8009292438
 20
11.6312892982
 30
0.0
 10
13.8034880169
 20
11.6320930996
 30
0.0
 10
13.8054389396
 20
11.633429022
 30
0.0
 10
13.8062166152
 20
11.6347005906
 30
0.0
 10
13.8064147045
 20
11.6353441741
 30
0.0
  0
SPLINE
  5
375
100
AcDbEntity
  8
LAYER_FEATURE
100
AcDbSpline
 62
7
  6
CONTINUOUS
 70
0
 71
3
 72
11
 73
7
 74
0
 42
0.0000001
 43
0.0000001
 44
0.0000000001
 40
0.0
 40
0.0
 40
0.0
 40
0.0
 40
0.2257773512
 40
0.4797708448
 40
0.7445211164
 40
1.0
 40
1.0
 40
1.0
 40
1.0
 10
13.6239827779
 20
11.6374374544
 30
0.0
 10
13.6247651294
 20
11.6364783752
 30
0.0
 10
13.6267671925
 20
11.634715262
 30
0.0
 10
13.6303735777
 20
11.6327525662
 30
0.0
 10
13.6344422424
 20
11.6314618406
 30
0.0
 10
13.6372990038
 20
11.6311285382
 30
0.0
 10
13.6386995286
 20
11.6311285382
 30
0.0
  0
SPLINE
  5
376
100
AcDbEntity
  8
LAYER_FEATURE
100
AcDbSpline
 62
7
  6
CONTINUOUS
 70
0
 71
3
 72
11
 73
7
 74
0
 42
0.0000001
 43
0.0000001
 44
0.0000000001
 40
0.0
 40
0.0
 40
0.0
 40
0.0
 40
0.3036426578
 40
0.5699433754
 40
0.7976809437
 40
1.0
 40
1.0
 40
1.0
 40
1.0
 10
13.4811693805
 20
11.6311285382
 30
0.0
 10
13.4821799948
 20
11.6311285382
 30
0.0
 10
13.4840842619
 20
11.6312892982
 30
0.0
 10
13.486643035
 20
11.6320930996
 30
0.0
 10
13.4885939576
 20
11.633429022
 30
0.0
 10
13.4893716332
 20
11.6347005906
 30
0.0
 10
13.4895697225
 20
11.6353441741
 30
0.0
  0
SPLINE
  5
377
100
AcDbEntity
  8
LAYER_FEATURE
100
AcDbSpline
 62
7
  6
CONTINUOUS
 70
0
 71
3
 72
11
 73
7
 74
0
 42
0.0000001
 43
0.0000001
 44
0.0000000001
 40
0.0
 40
0.0
 40
0.0
 40
0.0
 40
0.2257773512
 40
0.4797708448
 40
0.7445211164
 40
1.0
 40
1.0
 40
1.0
 40
1.0
 10
13.307137796
 20
11.6374374544
 30
0.0
 10
13.3079201474
 20
11.6364783752
 30
0.0
 10
13.3099222106
 20
11.634715262
 30
0.0
 10
13.3135285958
 20
11.6327525662
 30
0.0
 10
13.3175972605
 20
11.6314618406
 30
0.0
 10
13.3204540218
 20
11.6311285382
 30
0.0
 10
13.3218545466
 20
11.6311285382
 30
0.0
  0
SPLINE
  5
378
100
AcDbEntity
  8
LAYER_FEATURE
100
AcDbSpline
 62
7
  6
CONTINUOUS
 70
0
 71
3
 72
11
 73
7
 74
0
 42
0.0000001
 43
0.0000001
 44
0.0000000001
 40
0.0
 40
0.0
 40
0.0
 40
0.0
 40
0.3036426578
 40
0.5699433754
 40
0.7976809437
 40
1.0
 40
1.0
 40
1.0
 40
1.0
 10
13.1643243986
 20
11.6311285382
 30
0.0
 10
13.1653350129
 20
11.6311285382
 30
0.0
 10
13.1672392799
 20
11.6312892982
 30
0.0
 10
13.169798053
 20
11.6320930996
 30
0.0
 10
13.1717489757
 20
11.633429022
 30
0.0
 10
13.1725266513
 20
11.6347005906
 30
0.0
 10
13.1727247406
 20
11.6353441741
 30
0.0
  0
SPLINE
  5
379
100
AcDbEntity
  8
LAYER_FEATURE
100
AcDbSpline
 62
7
  6
CONTINUOUS
 70
0
 71
3
 72
11
 73
7
 74
0
 42
0.0000001
 43
0.0000001
 44
0.0000000001
 40
0.0
 40
0.0
 40
0.0
 40
0.0
 40
0.2257773512
 40
0.4797708448
 40
0.7445211164
 40
1.0
 40
1.0
 40
1.0
 40
1.0
 10
12.9902928141
 20
11.6374374544
 30
0.0
 10
12.9910751655
 20
11.6364783752
 30
0.0
 10
12.9930772286
 20
11.634715262
 30
0.0
 10
12.9966836139
 20
11.6327525662
 30
0.0
 10
13.0007522786
 20
11.6314618406
 30
0.0
 10
13.0036090399
 20
11.6311285382
 30
0.0
 10
13.0050095647
 20
11.6311285382
 30
0.0
  0
SPLINE
  5
37A
100
AcDbEntity
  8
0
100
AcDbSpline
 62
7
  6
CONTINUOUS
 70
0
 71
3
 72
11
 73
7
 74
0
 42
0.0000001
 43
0.0000001
 44
0.0000000001
 40
0.0
 40
0.0
 40
0.0
 40
0.0
 40
0.3036426578
 40
0.5699433754
 40
0.7976809437
 40
1.0
 40
1.0
 40
1.0
 40
1.0
 10
12.8474794166
 20
11.6311285382
 30
0.0
 10
12.8484900309
 20
11.6311285382
 30
0.0
 10
12.850394298
 20
11.6312892982
 30
0.0
 10
12.8529530711
 20
11.6320930996
 30
0.0
 10
12.8549039938
 20
11.633429022
 30
0.0
 10
12.8556816694
 20
11.6347005906
 30
0.0
 10
12.8558797587
 20
11.6353441741
 30
0.0
  0
SPLINE
  5
37B
100
AcDbEntity
  8
0
100
AcDbSpline
 62
7
  6
CONTINUOUS
 70
0
 71
3
 72
11
 73
7
 74
0
 42
0.0000001
 43
0.0000001
 44
0.0000000001
 40
0.0
 40
0.0
 40
0.0
 40
0.0
 40
0.2257773512
 40
0.4797708448
 40
0.7445211164
 40
1.0
 40
1.0
 40
1.0
 40
1.0
 10
12.6734478321
 20
11.6374374544
 30
0.0
 10
12.6742301836
 20
11.6364783752
 30
0.0
 10
12.6762322467
 20
11.634715262
 30
0.0
 10
12.6798386319
 20
11.6327525662
 30
0.0
 10
12.6839072966
 20
11.6314618406
 30
0.0
 10
12.686764058
 20
11.6311285382
 30
0.0
 10
12.6881645828
 20
11.6311285382
 30
0.0
  0
SPLINE
  5
37C
100
AcDbEntity
  8
0
100
AcDbSpline
 62
7
  6
CONTINUOUS
 70
0
 71
3
 72
11
 73
7
 74
0
 42
0.0000001
 43
0.0000001
 44
0.0000000001
 40
0.0
 40
0.0
 40
0.0
 40
0.0
 40
0.3026134201
 40
0.5698765566
 40
0.7977404036
 40
1.0
 40
1.0
 40
1.0
 40
1.0
 10
12.5374025244
 20
11.8238276284
 30
0.0
 10
12.5368177142
 20
11.8238276284
 30
0.0
 10
12.5357128739
 20
11.8237302415
 30
0.0
 10
12.5342253052
 20
11.8232694523
 30
0.0
 10
12.5330905224
 20
11.822492626
 30
0.0
 10
12.5326388558
 20
11.8217537348
 30
0.0
 10
12.5325252475
 20
11.8213797361
 30
0.0
  0
SPLINE
  5
37D
100
AcDbEntity
  8
0
100
AcDbSpline
 62
7
  6
CONTINUOUS
 70
0
 71
3
 72
11
 73
7
 74
0
 42
0.0000001
 43
0.0000001
 44
0.0000000001
 40
0.0
 40
0.0
 40
0.0
 40
0.0
 40
0.2113316853
 40
0.4633552044
 40
0.7355555478
 40
1.0
 40
1.0
 40
1.0
 40
1.0
 10
17.8878310001
 20
11.8191655536
 30
0.0
 10
17.8874980703
 20
11.8198439932
 30
0.0
 10
17.8863932393
 20
11.8211410739
 30
0.0
 10
17.8841739782
 20
11.8225920869
 30
0.0
 10
17.8815030266
 20
11.8235652463
 30
0.0
 10
17.8795808874
 20
11.8238276284
 30
0.0
 10
17.8786352286
 20
11.8238276284
 30
0.0
  0
ENDSEC
  0
SECTION
  2
OBJECTS
  0
DICTIONARY
  5
C
100
AcDbDictionary
280
0
281
1
  3
ACAD_GROUP
350
D
  3
ACAD_MLINESTYLE
350
17
  3
ACAD_LAYOUT
350
1A
  3
ACAD_PLOTSETTINGS
350
19
  3
ACAD_PLOTSTYLENAME
350
E
  0
DICTIONARY
  5
D
102
{ACAD_REACTORS
330
C
102
}
100
AcDbDictionary
280
0
281
1
  0
ACDBDICTIONARYWDFLT
  5
E
102
{ACAD_REACTORS
330
C
102
}
100
AcDbDictionary
281
1
  3
Normal
350
F
100
AcDbDictionaryWithDefault
340
F
  0
DICTIONARY
  5
17
102
{ACAD_REACTORS
330
C
102
}
100
AcDbDictionary
280
0
281
1
  3
Standard
350
18
  0
DICTIONARY
  5
19
102
{ACAD_REACTORS
330
C
102
}
100
AcDbDictionary
281
1
  0
DICTIONARY
  5
1A
102
{ACAD_REACTORS
330
C
102
}
100
AcDbDictionary
281
1
  3
Model
350
37E
  3
Layout1
350
37F
  0
ACDBPLACEHOLDER
  5
F
102
{ACAD_REACTORS
330
E
102
}
  0
MLINESTYLE
  5
18
102
{ACAD_REACTORS
330
17
102
}
100
AcDbMlineStyle
  2
STANDARD
 70
0
  3

 62
256
 51
90.0
 52
90.0
 71
2
 49
0.5
 62
256
  6
BYLAYER
 49
-0.5
 62
256
  6
BYLAYER
  0
LAYOUT
  5
37E
102
{ACAD_REACTORS
330
1A
102
}
100
AcDbPlotSettings
  1

  2
none_device
  4
ANSI_C_(22.00_x_17.00_Inches)
  6

 40
0.0
 41
0.0
 42
0.0
 43
0.0
 44
558.8
 45
431.8
 46
0.0
 47
0.0
 48
0.0
 49
0.0
140
0.0
141
0.0
142
1.0
143
1.0
 70
1024
 72
0
 73
0
 74
0
  7

 75
0
147
1.0
148
0.0
149
0.0
100
AcDbLayout
  1
Model
 70
0
 71
0
 10
0.0
 20
0.0
 11
22.0
 21
17.0
 12
0.0
 22
0.0
 32
0.0
 14
0.0
 24
0.0
 34
0.0
 15
0.0
 25
0.0
 35
0.0
146
0.0
 13
0.0
 23
0.0
 33
0.0
 16
1.0
 26
0.0
 36
0.0
 17
0.0
 27
1.0
 37
0.0
 76
0
330
21C
345
0
346
0
  0
LAYOUT
  5
37F
102
{ACAD_REACTORS
330
1A
102
}
100
AcDbPlotSettings
  1

  2
none_device
  4
ANSI_C_(22.00_x_17.00_Inches)
  6

 40
0.0
 41
0.0
 42
0.0
 43
0.0
 44
558.8
 45
431.8
 46
0.0
 47
0.0
 48
0.0
 49
0.0
140
0.0
141
0.0
142
1.0
143
1.0
 70
0
 72
0
 73
0
 74
0
  7

 75
0
147
1.0
148
0.0
149
0.0
100
AcDbLayout
  1
Layout1
 70
0
 71
1
 10
0.0
 20
0.0
 11
22.0
 21
17.0
 12
0.0
 22
0.0
 32
0.0
 14
0.0
 24
0.0
 34
0.0
 15
0.0
 25
0.0
 35
0.0
146
0.0
 13
0.0
 23
0.0
 33
0.0
 16
1.0
 26
0.0
 36
0.0
 17
0.0
 27
1.0
 37
0.0
 76
0
330
21D
345
0
346
0
  0
ENDSEC
  0
EOF