999
DXF file: _cgs_temp_output.dxf
999
Pro/ENGINEER 2015110 by Parametric Technology Corporation
  0
SECTION
  2
HEADER
  9
$ACADVER
  1
AC1021
  9
$DWGCODEPAGE
  3
ANSI_1252
  9
$EXTMAX
 10
22.0
 20
17.0
 30
0.0
  9
$EXTMIN
 10
0.0
 20
0.0
 30
0.0
  9
$LIMMIN
 10
0.0
 20
0.0
  9
$LIMMAX
 10
22.0
 20
17.0
  9
$VIEWCTR
 10
11.0
 20
8.5
  9
$VIEWSIZE
 40
17.0
  9
$CLAYER
  8
0
  9
$LTSCALE
 40
1.21
  9
$CELTYPE
  6
BYLAYER
  9
$DIMSCALE
 40
1.0
  9
$DIMASZ
 40
0.1875
  9
$DIMEXO
 40
0.0625
  9
$DIMDLI
 40
0.836
  9
$DIMEXE
 40
0.125
  9
$DIMCEN
 40
0.198
  9
$DIMLFAC
 40
1.0
  9
$DIMBLK
  1
_CLOSED
  9
$DIMALT
 70
0
  9
$DIMALTF
 40
25.4
  9
$DIMTXT
 40
0.15625
  9
$DIMTOL
 70
0
  9
$DIMLIM
 70
0
  9
$DIMTFAC
 40
1.0
  9
$DIMGAP
 40
0.09
  9
$DIMDSEP
 70
46
  9
$AUNITS
 70
0
  9
$PDMODE
 70
3
  9
$PDSIZE
 40
0.3125
  9
$HANDSEED
  5
326
  9
$TILEMODE
 70
1
  9
$MEASUREMENT
 70
0
  9
$INSUNITS
 70
1
  0
ENDSEC
  0
SECTION
  2
CLASSES
  0
CLASS
  1
ACDBDICTIONARYWDFLT
  2
AcDbDictionaryWithDefault
  3
AutoCAD 2000
 90
0
 91
1
280
0
281
0
  0
CLASS
  1
ACDBPLACEHOLDER
  2
AcDbPlaceHolder
  3
AutoCAD 2000
 90
0
 91
1
280
0
281
0
  0
CLASS
  1
LAYOUT
  2
AcDbLayout
  3
AutoCAD 2000
 90
0
 91
0
280
0
281
0
  0
ENDSEC
  0
SECTION
  2
TABLES
  0
TABLE
  2
VPORT
  5
8
100
AcDbSymbolTable
 70
2
  0
VPORT
  5
1F4
100
AcDbSymbolTableRecord
100
AcDbViewportTableRecord
  2
*ACTIVE
 70
0
 10
0.0
 20
0.0
 11
1.0
 21
1.0
 12
11.0
 22
8.5
 13
0.0
 23
0.0
 14
1.0
 24
1.0
 15
0.0
 25
0.0
 16
0.0
 26
0.0
 36
1.0
 17
0.0
 27
0.0
 37
0.0
 40
17.0
 41
1.2941176471
 42
50.0
 43
0.0
 44
0.0
 50
0.0
 51
0.0
 71
0
 72
100
 73
1
 74
1
 75
0
 76
0
 77
0
 78
0
  0
ENDTAB
  0
TABLE
  2
LTYPE
  5
5
100
AcDbSymbolTable
 70
6
  0
LTYPE
  5
14
100
AcDbSymbolTableRecord
100
AcDbLinetypeTableRecord
  2
BYBLOCK
 70
0
  3

 72
65
 73
0
 40
0.0
  0
LTYPE
  5
15
100
AcDbSymbolTableRecord
100
AcDbLinetypeTableRecord
  2
BYLAYER
 70
0
  3

 72
65
 73
0
 40
0.0
  0
LTYPE
  5
16
100
AcDbSymbolTableRecord
100
AcDbLinetypeTableRecord
  2
CONTINUOUS
 70
64
  3
Solid line
 72
65
 73
0
 40
0.0
  0
LTYPE
  5
1F5
100
AcDbSymbolTableRecord
100
AcDbLinetypeTableRecord
  2
CENTER
 70
64
  3
____ _ ____ _ ____ _ ____ _ ____ _ ____ _ ____
 72
65
 73
4
 40
0.6
 49
0.375
 74
0
 49
-0.075
 74
0
 49
0.075
 74
0
 49
-0.075
 74
0
  0
LTYPE
  5
1F6
100
AcDbSymbolTableRecord
100
AcDbLinetypeTableRecord
  2
HIDDEN
 70
64
  3
- - - - - - - - - - - - - - - - - - - -
 72
65
 73
2
 40
0.2
 49
0.1
 74
0
 49
-0.1
 74
0
  0
LTYPE
  5
1F7
100
AcDbSymbolTableRecord
100
AcDbLinetypeTableRecord
  2
PHANTOM
 70
64
  3
_____ _ _ _____ _ _ _____ _ _ _____
 72
65
 73
6
 40
0.8
 49
0.45
 74
0
 49
-0.05
 74
0
 49
0.1
 74
0
 49
-0.05
 74
0
 49
0.1
 74
0
 49
-0.05
 74
0
  0
LTYPE
  5
1F8
100
AcDbSymbolTableRecord
100
AcDbLinetypeTableRecord
  2
DOT
 70
64
  3
. . . . . . . . . . . . . . . . . . . .
 72
65
 73
2
 40
0.2
 49
0.1
 74
0
 49
-0.1
 74
0
  0
LTYPE
  5
1F9
100
AcDbSymbolTableRecord
100
AcDbLinetypeTableRecord
  2
DASHED
 70
64
  3
- - - - - - - - - - - - - - - - - - - -
 72
65
 73
2
 40
0.2
 49
0.1
 74
0
 49
-0.1
 74
0
  0
ENDTAB
  0
TABLE
  2
LAYER
  5
2
100
AcDbSymbolTable
 70
36
  0
LAYER
  5
10
100
AcDbSymbolTableRecord
100
AcDbLayerTableRecord
  2
0
 70
0
 62
7
  6
CONTINUOUS
370
-3
390
F
  0
LAYER
  5
1FA
100
AcDbSymbolTableRecord
100
AcDbLayerTableRecord
  2
DEFAULT_1
 70
0
 62
7
  6
CENTER
370
-3
390
F
  0
LAYER
  5
1FB
100
AcDbSymbolTableRecord
100
AcDbLayerTableRecord
  2
DEFAULT_2
 70
0
 62
8
  6
HIDDEN
370
-3
390
F
  0
LAYER
  5
1FC
100
AcDbSymbolTableRecord
100
AcDbLayerTableRecord
  2
DEFAULT_3
 70
0
 62
7
  6
PHANTOM
370
-3
390
F
  0
LAYER
  5
1FD
100
AcDbSymbolTableRecord
100
AcDbLayerTableRecord
  2
01_ALL_DTM_PLN
 70
0
 62
7
  6
CONTINUOUS
370
-3
390
F
  0
LAYER
  5
1FE
100
AcDbSymbolTableRecord
100
AcDbLayerTableRecord
  2
01__ASM_ALL_DTM_PLN
 70
0
 62
7
  6
CONTINUOUS
370
-3
390
F
  0
LAYER
  5
1FF
100
AcDbSymbolTableRecord
100
AcDbLayerTableRecord
  2
01__ASM_DEF_DTM_PLN
 70
0
 62
7
  6
CONTINUOUS
370
-3
390
F
  0
LAYER
  5
200
100
AcDbSymbolTableRecord
100
AcDbLayerTableRecord
  2
01___PRT_ALL_DTM_PLN
 70
0
 62
7
  6
CONTINUOUS
370
-3
390
F
  0
LAYER
  5
201
100
AcDbSymbolTableRecord
100
AcDbLayerTableRecord
  2
01___PRT_DEF_DTM_PLN
 70
0
 62
7
  6
CONTINUOUS
370
-3
390
F
  0
LAYER
  5
202
100
AcDbSymbolTableRecord
100
AcDbLayerTableRecord
  2
02_ALL_AXES
 70
0
 62
7
  6
CONTINUOUS
370
-3
390
F
  0
LAYER
  5
203
100
AcDbSymbolTableRecord
100
AcDbLayerTableRecord
  2
02__ASM_ALL_AXES
 70
0
 62
7
  6
CONTINUOUS
370
-3
390
F
  0
LAYER
  5
204
100
AcDbSymbolTableRecord
100
AcDbLayerTableRecord
  2
02___PRT_ALL_AXES
 70
0
 62
7
  6
CONTINUOUS
370
-3
390
F
  0
LAYER
  5
205
100
AcDbSymbolTableRecord
100
AcDbLayerTableRecord
  2
03_ALL_CURVES
 70
0
 62
7
  6
CONTINUOUS
370
-3
390
F
  0
LAYER
  5
206
100
AcDbSymbolTableRecord
100
AcDbLayerTableRecord
  2
03__ASM_ALL_CURVES
 70
0
 62
7
  6
CONTINUOUS
370
-3
390
F
  0
LAYER
  5
207
100
AcDbSymbolTableRecord
100
AcDbLayerTableRecord
  2
03___PRT_ALL_CURVES
 70
0
 62
7
  6
CONTINUOUS
370
-3
390
F
  0
LAYER
  5
208
100
AcDbSymbolTableRecord
100
AcDbLayerTableRecord
  2
04_ALL_DTM_PNT
 70
0
 62
7
  6
CONTINUOUS
370
-3
390
F
  0
LAYER
  5
209
100
AcDbSymbolTableRecord
100
AcDbLayerTableRecord
  2
04__ASM_ALL_DTM_PNT
 70
0
 62
7
  6
CONTINUOUS
370
-3
390
F
  0
LAYER
  5
20A
100
AcDbSymbolTableRecord
100
AcDbLayerTableRecord
  2
04___PRT_ALL_DTM_PNT
 70
0
 62
7
  6
CONTINUOUS
370
-3
390
F
  0
LAYER
  5
20B
100
AcDbSymbolTableRecord
100
AcDbLayerTableRecord
  2
05_ALL_DTM_CSYS
 70
0
 62
7
  6
CONTINUOUS
370
-3
390
F
  0
LAYER
  5
20C
100
AcDbSymbolTableRecord
100
AcDbLayerTableRecord
  2
05__ASM_ALL_DTM_CSYS
 70
0
 62
7
  6
CONTINUOUS
370
-3
390
F
  0
LAYER
  5
20D
100
AcDbSymbolTableRecord
100
AcDbLayerTableRecord
  2
05__ASM_DEF_DTM_CSYS
 70
0
 62
7
  6
CONTINUOUS
370
-3
390
F
  0
LAYER
  5
20E
100
AcDbSymbolTableRecord
100
AcDbLayerTableRecord
  2
05___PRT_ALL_DTM_CSYS
 70
0
 62
7
  6
CONTINUOUS
370
-3
390
F
  0
LAYER
  5
20F
100
AcDbSymbolTableRecord
100
AcDbLayerTableRecord
  2
05___PRT_DEF_DTM_CSYS
 70
0
 62
7
  6
CONTINUOUS
370
-3
390
F
  0
LAYER
  5
210
100
AcDbSymbolTableRecord
100
AcDbLayerTableRecord
  2
06_ALL_SURFS
 70
0
 62
7
  6
CONTINUOUS
370
-3
390
F
  0
LAYER
  5
211
100
AcDbSymbolTableRecord
100
AcDbLayerTableRecord
  2
06__ASM_ALL_SURFS
 70
0
 62
7
  6
CONTINUOUS
370
-3
390
F
  0
LAYER
  5
212
100
AcDbSymbolTableRecord
100
AcDbLayerTableRecord
  2
06___PRT_ALL_SURFS
 70
0
 62
7
  6
CONTINUOUS
370
-3
390
F
  0
LAYER
  5
213
100
AcDbSymbolTableRecord
100
AcDbLayerTableRecord
  2
07__ASM_ALL_SKELETONS
 70
0
 62
7
  6
CONTINUOUS
370
-3
390
F
  0
ENDTAB
  0
TABLE
  2
STYLE
  5
3
100
AcDbSymbolTable
 70
1
  0
STYLE
  5
11
100
AcDbSymbolTableRecord
100
AcDbTextStyleTableRecord
  2
STANDARD
 70
0
 40
0.0
 41
0.8
 50
0.0
 71
0
 42
0.2
  3
txt
  4

  0
STYLE
  5
214
100
AcDbSymbolTableRecord
100
AcDbTextStyleTableRecord
  2
TEXTSTYLE_1
 70
0
 40
0.0
 41
0.8
 50
0.0
 71
0
 42
0.2
  3
gdt
  4

  0
ENDTAB
  0
TABLE
  2
VIEW
  5
6
100
AcDbSymbolTable
 70
0
  0
ENDTAB
  0
TABLE
  2
UCS
  5
7
100
AcDbSymbolTable
 70
0
  0
ENDTAB
  0
TABLE
  2
APPID
  5
9
100
AcDbSymbolTable
 70
1
  0
APPID
  5
215
100
AcDbSymbolTableRecord
100
AcDbRegAppTableRecord
  2
ACAD
 70
0
  0
ENDTAB
  0
TABLE
  2
BLOCK_RECORD
  5
1
100
AcDbSymbolTable
 70
0
  0
BLOCK_RECORD
  5
216
100
AcDbSymbolTableRecord
100
AcDbBlockTableRecord
  2
*Model_Space
  0
BLOCK_RECORD
  5
217
100
AcDbSymbolTableRecord
100
AcDbBlockTableRecord
  2
*Paper_Space
  0
ENDTAB
  0
TABLE
  2
DIMSTYLE
  5
A
100
AcDbSymbolTable
 70
1
100
AcDbDimStyleTable
 71
0
  0
DIMSTYLE
105
218
100
AcDbSymbolTableRecord
100
AcDbDimStyleTableRecord
  2
STANDARD
 70
0
  3

  4

 40
1.0
 41
0.1875
 42
0.0625
 43
0.38
 44
0.125
 45
0.0
 46
0.0
 47
0.0001
 48
0.0001
140
0.15625
141
0.09
142
0.0
143
25.4
144
1.0
145
0.0
146
1.0
147
0.09
 71
0.0
 72
0.0
 73
1
 74
1
 75
0
 76
0
 77
0
 78
4
170
0
171
2
172
0
173
0
174
0
175
0
176
0
177
0
178
0
270
2
271
4
272
4
273
2
274
2
275
0
280
0
281
0
282
0
283
1
284
4
285
0
286
0
287
3
288
0
340
11
278
46
  0
ENDTAB
  0
ENDSEC
  0
SECTION
  2
BLOCKS
  0
BLOCK
  5
20
100
AcDbEntity
  8
0
100
AcDbBlockBegin
  2
*Model_Space
 70
0
 10
0.0
 20
0.0
 30
0.0
  3
*Model_Space
  1

  0
ENDBLK
  5
21
100
AcDbEntity
  8
0
100
AcDbBlockEnd
  0
BLOCK
  5
1C
100
AcDbEntity
  8
0
100
AcDbBlockBegin
  2
*Paper_Space
 70
0
 10
0.0
 20
0.0
 30
0.0
  3
*Paper_Space
  1

  0
ENDBLK
  5
1D
100
AcDbEntity
  8
0
100
AcDbBlockEnd
  0
ENDSEC
  0
SECTION
  2
ENTITIES
  0
MTEXT
  5
219
100
AcDbEntity
  8
0
100
AcDbMText
 62
7
  6
CONTINUOUS
  7
STANDARD
 71
1
 72
1
 10
15.9560215477
 20
0.9479130325
 30
0.0
 11
1.0
 21
0.0
 31
0.0
 44
0.9
  1
SCALE: 1:1.000
 40
0.3
 41
3.36
  0
LINE
  5
21A
100
AcDbEntity
  8
0
100
AcDbLine
 62
7
  6
CONTINUOUS
 10
0.0
 20
0.0
 11
0.0
 21
17.0
  0
LINE
  5
21B
100
AcDbEntity
  8
0
100
AcDbLine
 62
7
  6
CONTINUOUS
 10
0.0
 20
0.0
 11
22.0
 21
0.0
  0
LINE
  5
21C
100
AcDbEntity
  8
0
100
AcDbLine
 62
7
  6
CONTINUOUS
 10
0.0
 20
17.0
 11
22.0
 21
17.0
  0
LINE
  5
21D
100
AcDbEntity
  8
0
100
AcDbLine
 62
7
  6
CONTINUOUS
 10
22.0
 20
0.0
 11
22.0
 21
17.0
  0
LINE
  5
21E
100
AcDbEntity
  8
0
100
AcDbLine
 62
7
  6
CONTINUOUS
 10
2.4303672762
 20
5.7701198968
 11
2.4303672762
 21
5.6034532301
  0
LINE
  5
21F
100
AcDbEntity
  8
0
100
AcDbLine
 62
7
  6
CONTINUOUS
 10
2.4303672762
 20
5.6034532301
 11
2.5153452581
 21
5.2972262682
  0
LINE
  5
220
100
AcDbEntity
  8
0
100
AcDbLine
 62
7
  6
CONTINUOUS
 10
2.7153892943
 20
5.2972262682
 11
2.8003672762
 21
5.6034532301
  0
LINE
  5
221
100
AcDbEntity
  8
0
100
AcDbLine
 62
7
  6
CONTINUOUS
 10
2.8003672762
 20
5.6034532301
 11
2.8853452581
 21
5.2972262682
  0
LINE
  5
222
100
AcDbEntity
  8
0
100
AcDbLine
 62
7
  6
CONTINUOUS
 10
3.0853892943
 20
5.2972262682
 11
3.1703672762
 21
5.6034532301
  0
LINE
  5
223
100
AcDbEntity
  8
0
100
AcDbLine
 62
7
  6
CONTINUOUS
 10
3.1703672762
 20
5.6034532301
 11
3.2553452581
 21
5.2972262682
  0
LINE
  5
224
100
AcDbEntity
  8
0
100
AcDbLine
 62
7
  6
CONTINUOUS
 10
3.4553892943
 20
5.2972262682
 11
3.5403672762
 21
5.6034532301
  0
LINE
  5
225
100
AcDbEntity
  8
0
100
AcDbLine
 62
7
  6
CONTINUOUS
 10
3.5403672762
 20
5.6034532301
 11
3.6253452581
 21
5.2972262682
  0
LINE
  5
226
100
AcDbEntity
  8
0
100
AcDbLine
 62
7
  6
CONTINUOUS
 10
3.8253892943
 20
5.2972262682
 11
3.9103672762
 21
5.6034532301
  0
LINE
  5
227
100
AcDbEntity
  8
0
100
AcDbLine
 62
7
  6
CONTINUOUS
 10
3.9103672762
 20
5.6034532301
 11
3.9953452581
 21
5.2972262682
  0
LINE
  5
228
100
AcDbEntity
  8
0
100
AcDbLine
 62
7
  6
CONTINUOUS
 10
4.1953892943
 20
5.2972262682
 11
4.2803672762
 21
5.6034532301
  0
LINE
  5
229
100
AcDbEntity
  8
0
100
AcDbLine
 62
7
  6
CONTINUOUS
 10
4.2803672762
 20
5.6034532301
 11
4.3653452581
 21
5.2972262682
  0
LINE
  5
22A
100
AcDbEntity
  8
0
100
AcDbLine
 62
7
  6
CONTINUOUS
 10
4.5653892943
 20
5.2972262682
 11
4.6503672762
 21
5.6034532301
  0
LINE
  5
22B
100
AcDbEntity
  8
0
100
AcDbLine
 62
7
  6
CONTINUOUS
 10
4.6503672762
 20
5.6034532301
 11
4.7353452581
 21
5.2972262682
  0
LINE
  5
22C
100
AcDbEntity
  8
0
100
AcDbLine
 62
7
  6
CONTINUOUS
 10
4.9353892943
 20
5.2972262682
 11
5.0203672762
 21
5.6034532301
  0
LINE
  5
22D
100
AcDbEntity
  8
0
100
AcDbLine
 62
7
  6
CONTINUOUS
 10
5.0203672762
 20
5.6034532301
 11
5.1053452581
 21
5.2972262682
  0
LINE
  5
22E
100
AcDbEntity
  8
0
100
AcDbLine
 62
7
  6
CONTINUOUS
 10
5.3053892943
 20
5.2972262682
 11
5.3903672762
 21
5.6034532301
  0
LINE
  5
22F
100
AcDbEntity
  8
0
100
AcDbLine
 62
7
  6
CONTINUOUS
 10
5.3903672762
 20
5.6034532301
 11
5.4753452581
 21
5.2972262682
  0
LINE
  5
230
100
AcDbEntity
  8
0
100
AcDbLine
 62
7
  6
CONTINUOUS
 10
5.6753892943
 20
5.2972262682
 11
5.7603672762
 21
5.6034532301
  0
LINE
  5
231
100
AcDbEntity
  8
0
100
AcDbLine
 62
7
  6
CONTINUOUS
 10
2.5509979735
 20
5.2701198968
 11
2.6797365789
 21
5.2701198968
  0
LINE
  5
232
100
AcDbEntity
  8
0
100
AcDbLine
 62
7
  6
CONTINUOUS
 10
2.9209979735
 20
5.2701198968
 11
3.0497365789
 21
5.2701198968
  0
LINE
  5
233
100
AcDbEntity
  8
0
100
AcDbLine
 62
7
  6
CONTINUOUS
 10
3.2909979735
 20
5.2701198968
 11
3.4197365789
 21
5.2701198968
  0
LINE
  5
234
100
AcDbEntity
  8
0
100
AcDbLine
 62
7
  6
CONTINUOUS
 10
3.6609979735
 20
5.2701198968
 11
3.7897365789
 21
5.2701198968
  0
LINE
  5
235
100
AcDbEntity
  8
0
100
AcDbLine
 62
7
  6
CONTINUOUS
 10
4.0309979735
 20
5.2701198968
 11
4.1597365789
 21
5.2701198968
  0
LINE
  5
236
100
AcDbEntity
  8
0
100
AcDbLine
 62
7
  6
CONTINUOUS
 10
4.4009979735
 20
5.2701198968
 11
4.5297365789
 21
5.2701198968
  0
LINE
  5
237
100
AcDbEntity
  8
0
100
AcDbLine
 62
7
  6
CONTINUOUS
 10
4.7709979735
 20
5.2701198968
 11
4.8997365789
 21
5.2701198968
  0
LINE
  5
238
100
AcDbEntity
  8
0
100
AcDbLine
 62
7
  6
CONTINUOUS
 10
5.1409979735
 20
5.2701198968
 11
5.2697365789
 21
5.2701198968
  0
LINE
  5
239
100
AcDbEntity
  8
0
100
AcDbLine
 62
7
  6
CONTINUOUS
 10
5.5109979735
 20
5.2701198968
 11
5.6397365789
 21
5.2701198968
  0
LINE
  5
23A
100
AcDbEntity
  8
0
100
AcDbLine
 62
7
  6
CONTINUOUS
 10
5.8809979735
 20
5.2701198968
 11
6.0097365789
 21
5.2701198968
  0
LINE
  5
23B
100
AcDbEntity
  8
0
100
AcDbLine
 62
7
  6
CONTINUOUS
 10
6.2509979735
 20
5.2701198968
 11
6.3797365789
 21
5.2701198968
  0
LINE
  5
23C
100
AcDbEntity
  8
0
100
AcDbLine
 62
7
  6
CONTINUOUS
 10
6.6209979735
 20
5.2701198968
 11
6.7497365789
 21
5.2701198968
  0
LINE
  5
23D
100
AcDbEntity
  8
0
100
AcDbLine
 62
7
  6
CONTINUOUS
 10
6.9909979735
 20
5.2701198968
 11
7.1197365789
 21
5.2701198968
  0
LINE
  5
23E
100
AcDbEntity
  8
0
100
AcDbLine
 62
7
  6
CONTINUOUS
 10
7.3609979735
 20
5.2701198968
 11
7.4897365789
 21
5.2701198968
  0
LINE
  5
23F
100
AcDbEntity
  8
0
100
AcDbLine
 62
7
  6
CONTINUOUS
 10
7.7309979735
 20
5.2701198968
 11
7.8597365789
 21
5.2701198968
  0
LINE
  5
240
100
AcDbEntity
  8
0
100
AcDbLine
 62
7
  6
CONTINUOUS
 10
8.1009979735
 20
5.2701198968
 11
8.2297365789
 21
5.2701198968
  0
LINE
  5
241
100
AcDbEntity
  8
0
100
AcDbLine
 62
7
  6
CONTINUOUS
 10
8.4709979735
 20
5.2701198968
 11
8.5997365789
 21
5.2701198968
  0
LINE
  5
242
100
AcDbEntity
  8
0
100
AcDbLine
 62
7
  6
CONTINUOUS
 10
8.8409979735
 20
5.2701198968
 11
8.9697365789
 21
5.2701198968
  0
LINE
  5
243
100
AcDbEntity
  8
0
100
AcDbLine
 62
7
  6
CONTINUOUS
 10
9.2109979735
 20
5.2701198968
 11
9.3397365789
 21
5.2701198968
  0
LINE
  5
244
100
AcDbEntity
  8
0
100
AcDbLine
 62
7
  6
CONTINUOUS
 10
9.5809979735
 20
5.2701198968
 11
9.7097365789
 21
5.2701198968
  0
LINE
  5
245
100
AcDbEntity
  8
0
100
AcDbLine
 62
7
  6
CONTINUOUS
 10
5.7603672762
 20
5.6034532301
 11
5.8453452581
 21
5.2972262682
  0
LINE
  5
246
100
AcDbEntity
  8
0
100
AcDbLine
 62
7
  6
CONTINUOUS
 10
6.0453892943
 20
5.2972262682
 11
6.1303672762
 21
5.6034532301
  0
LINE
  5
247
100
AcDbEntity
  8
0
100
AcDbLine
 62
7
  6
CONTINUOUS
 10
6.1303672762
 20
5.6034532301
 11
6.2153452581
 21
5.2972262682
  0
LINE
  5
248
100
AcDbEntity
  8
0
100
AcDbLine
 62
7
  6
CONTINUOUS
 10
9.8303672762
 20
5.7701198968
 11
2.4303672762
 21
5.7701198968
  0
LINE
  5
249
100
AcDbEntity
  8
0
100
AcDbLine
 62
7
  6
CONTINUOUS
 10
6.4153892943
 20
5.2972262682
 11
6.5003672762
 21
5.6034532301
  0
LINE
  5
24A
100
AcDbEntity
  8
0
100
AcDbLine
 62
7
  6
CONTINUOUS
 10
6.5003672762
 20
5.6034532301
 11
6.5853452581
 21
5.2972262682
  0
LINE
  5
24B
100
AcDbEntity
  8
0
100
AcDbLine
 62
7
  6
CONTINUOUS
 10
6.7853892943
 20
5.2972262682
 11
6.8703672762
 21
5.6034532301
  0
LINE
  5
24C
100
AcDbEntity
  8
0
100
AcDbLine
 62
7
  6
CONTINUOUS
 10
6.8703672762
 20
5.6034532301
 11
6.9553452581
 21
5.2972262682
  0
LINE
  5
24D
100
AcDbEntity
  8
0
100
AcDbLine
 62
7
  6
CONTINUOUS
 10
7.1553892943
 20
5.2972262682
 11
7.2403672762
 21
5.6034532301
  0
LINE
  5
24E
100
AcDbEntity
  8
0
100
AcDbLine
 62
7
  6
CONTINUOUS
 10
7.2403672762
 20
5.6034532301
 11
7.3253452581
 21
5.2972262682
  0
LINE
  5
24F
100
AcDbEntity
  8
0
100
AcDbLine
 62
7
  6
CONTINUOUS
 10
7.5253892943
 20
5.2972262682
 11
7.6103672762
 21
5.6034532301
  0
LINE
  5
250
100
AcDbEntity
  8
0
100
AcDbLine
 62
7
  6
CONTINUOUS
 10
7.6103672762
 20
5.6034532301
 11
7.6953452581
 21
5.2972262682
  0
LINE
  5
251
100
AcDbEntity
  8
0
100
AcDbLine
 62
7
  6
CONTINUOUS
 10
7.8953892943
 20
5.2972262682
 11
7.9803672762
 21
5.6034532301
  0
LINE
  5
252
100
AcDbEntity
  8
0
100
AcDbLine
 62
7
  6
CONTINUOUS
 10
7.9803672762
 20
5.6034532301
 11
8.0653452581
 21
5.2972262682
  0
LINE
  5
253
100
AcDbEntity
  8
0
100
AcDbLine
 62
7
  6
CONTINUOUS
 10
8.2653892943
 20
5.2972262682
 11
8.3503672762
 21
5.6034532301
  0
LINE
  5
254
100
AcDbEntity
  8
0
100
AcDbLine
 62
7
  6
CONTINUOUS
 10
8.3503672762
 20
5.6034532301
 11
8.4353452581
 21
5.2972262682
  0
LINE
  5
255
100
AcDbEntity
  8
0
100
AcDbLine
 62
7
  6
CONTINUOUS
 10
8.6353892943
 20
5.2972262682
 11
8.7203672762
 21
5.6034532301
  0
LINE
  5
256
100
AcDbEntity
  8
0
100
AcDbLine
 62
7
  6
CONTINUOUS
 10
8.7203672762
 20
5.6034532301
 11
8.8053452581
 21
5.2972262682
  0
LINE
  5
257
100
AcDbEntity
  8
0
100
AcDbLine
 62
7
  6
CONTINUOUS
 10
9.0053892943
 20
5.2972262682
 11
9.0903672762
 21
5.6034532301
  0
LINE
  5
258
100
AcDbEntity
  8
0
100
AcDbLine
 62
7
  6
CONTINUOUS
 10
9.0903672762
 20
5.6034532301
 11
9.1753452581
 21
5.2972262682
  0
LINE
  5
259
100
AcDbEntity
  8
0
100
AcDbLine
 62
7
  6
CONTINUOUS
 10
9.3753892943
 20
5.2972262682
 11
9.4603672762
 21
5.6034532301
  0
LINE
  5
25A
100
AcDbEntity
  8
0
100
AcDbLine
 62
7
  6
CONTINUOUS
 10
9.4603672762
 20
5.6034532301
 11
9.5453452581
 21
5.2972262682
  0
LINE
  5
25B
100
AcDbEntity
  8
0
100
AcDbLine
 62
7
  6
CONTINUOUS
 10
9.8303672762
 20
5.6034532301
 11
9.8303672762
 21
5.7701198968
  0
LINE
  5
25C
100
AcDbEntity
  8
0
100
AcDbLine
 62
7
  6
CONTINUOUS
 10
9.7453892943
 20
5.2972262682
 11
9.8303672762
 21
5.6034532301
  0
LINE
  5
25D
100
AcDbEntity
  8
0
100
AcDbLine
 62
7
  6
CONTINUOUS
 10
2.3708720839
 20
14.6000477814
 11
2.3708720839
 21
10.6000477814
  0
LINE
  5
25E
100
AcDbEntity
  8
0
100
AcDbLine
 62
7
  6
CONTINUOUS
 10
9.7708720839
 20
10.6000477814
 11
2.3708720839
 21
10.6000477814
  0
LINE
  5
25F
100
AcDbEntity
  8
0
100
AcDbLine
 62
7
  6
CONTINUOUS
 10
2.3708720839
 20
14.6000477814
 11
9.7708720839
 21
14.6000477814
  0
LINE
  5
260
100
AcDbEntity
  8
0
100
AcDbLine
 62
7
  6
CONTINUOUS
 10
9.7708720839
 20
14.6000477814
 11
9.7708720839
 21
10.6000477814
  0
LINE
  5
261
100
AcDbEntity
  8
0
100
AcDbLine
 62
7
  6
CONTINUOUS
 10
13.5603552569
 20
5.2106247044
 11
13.5603552569
 21
5.7106247044
  0
LINE
  5
262
100
AcDbEntity
  8
0
100
AcDbLine
 62
7
  6
CONTINUOUS
 10
13.5603552569
 20
5.2106247044
 11
17.5603552569
 21
5.2106247044
  0
LINE
  5
263
100
AcDbEntity
  8
0
100
AcDbLine
 62
7
  6
CONTINUOUS
 10
17.5603552569
 20
5.5439580378
 11
13.5603552569
 21
5.5439580378
  0
LINE
  5
264
100
AcDbEntity
  8
0
100
AcDbLine
 62
7
  6
CONTINUOUS
 10
17.5603552569
 20
5.7106247044
 11
13.5603552569
 21
5.7106247044
  0
LINE
  5
265
100
AcDbEntity
  8
0
100
AcDbLine
 62
7
  6
CONTINUOUS
 10
17.5603552569
 20
5.2106247044
 11
17.5603552569
 21
5.7106247044
  0
LINE
  5
266
100
AcDbEntity
  8
0
100
AcDbLine
 62
7
  6
CONTINUOUS
 10
11.5460629185
 20
11.0995536657
 11
11.5969032296
 21
10.9959520043
  0
LINE
  5
267
100
AcDbEntity
  8
0
100
AcDbLine
 62
7
  6
CONTINUOUS
 10
11.5969032296
 20
10.9959520043
 11
11.7685851782
 21
10.8055982723
  0
LINE
  5
268
100
AcDbEntity
  8
0
100
AcDbLine
 62
7
  6
CONTINUOUS
 10
11.952837937
 20
10.8055982723
 11
11.9376957974
 21
10.9959520043
  0
LINE
  5
269
100
AcDbEntity
  8
0
100
AcDbLine
 62
7
  6
CONTINUOUS
 10
11.9376957974
 20
10.9959520043
 11
12.1093777459
 21
10.8055982723
  0
LINE
  5
26A
100
AcDbEntity
  8
0
100
AcDbLine
 62
7
  6
CONTINUOUS
 10
12.2936305047
 20
10.8055982723
 11
12.2784883652
 21
10.9959520043
  0
LINE
  5
26B
100
AcDbEntity
  8
0
100
AcDbLine
 62
7
  6
CONTINUOUS
 10
11.9523237357
 20
10.8008267009
 11
11.952837937
 21
10.8055982723
  0
LINE
  5
26C
100
AcDbEntity
  8
0
100
AcDbLine
 62
7
  6
CONTINUOUS
 10
12.5143282121
 20
14.2328613042
 11
11.5460629185
 21
11.0995536657
  0
LINE
  5
26D
100
AcDbEntity
  8
0
100
AcDbLine
 62
7
  6
CONTINUOUS
 10
12.2784883652
 20
10.9959520043
 11
12.4501703137
 21
10.8055982723
  0
LINE
  5
26E
100
AcDbEntity
  8
0
100
AcDbLine
 62
7
  6
CONTINUOUS
 10
12.619280933
 20
10.9959520043
 11
12.7909628815
 21
10.8055982723
  0
LINE
  5
26F
100
AcDbEntity
  8
0
100
AcDbLine
 62
7
  6
CONTINUOUS
 10
12.6344230725
 20
10.8055982723
 11
12.619280933
 21
10.9959520043
  0
LINE
  5
270
100
AcDbEntity
  8
0
100
AcDbLine
 62
7
  6
CONTINUOUS
 10
12.2931163034
 20
10.8008267009
 11
12.2936305047
 21
10.8055982723
  0
LINE
  5
271
100
AcDbEntity
  8
0
100
AcDbLine
 62
7
  6
CONTINUOUS
 10
11.9537230218
 20
10.8053247604
 11
11.9935081799
 21
10.9340695793
  0
LINE
  5
272
100
AcDbEntity
  8
0
100
AcDbLine
 62
7
  6
CONTINUOUS
 10
12.9600735007
 20
10.9959520043
 11
13.1317554493
 21
10.8055982723
  0
LINE
  5
273
100
AcDbEntity
  8
0
100
AcDbLine
 62
7
  6
CONTINUOUS
 10
12.9752156403
 20
10.8055982723
 11
12.9600735007
 21
10.9959520043
  0
LINE
  5
274
100
AcDbEntity
  8
0
100
AcDbLine
 62
7
  6
CONTINUOUS
 10
12.6339088712
 20
10.8008267009
 11
12.6344230725
 21
10.8055982723
  0
LINE
  5
275
100
AcDbEntity
  8
0
100
AcDbLine
 62
7
  6
CONTINUOUS
 10
13.3008660685
 20
10.9959520043
 11
13.4725480171
 21
10.8055982723
  0
LINE
  5
276
100
AcDbEntity
  8
0
100
AcDbLine
 62
7
  6
CONTINUOUS
 10
13.3160082081
 20
10.8055982723
 11
13.3008660685
 21
10.9959520043
  0
LINE
  5
277
100
AcDbEntity
  8
0
100
AcDbLine
 62
7
  6
CONTINUOUS
 10
12.974701439
 20
10.8008267009
 11
12.9752156403
 21
10.8055982723
  0
LINE
  5
278
100
AcDbEntity
  8
0
100
AcDbLine
 62
7
  6
CONTINUOUS
 10
12.2945155896
 20
10.8053247604
 11
12.3343007477
 21
10.9340695793
  0
LINE
  5
279
100
AcDbEntity
  8
0
100
AcDbLine
 62
7
  6
CONTINUOUS
 10
13.6416586363
 20
10.9959520043
 11
13.8133405849
 21
10.8055982723
  0
LINE
  5
27A
100
AcDbEntity
  8
0
100
AcDbLine
 62
7
  6
CONTINUOUS
 10
12.6353081574
 20
10.8053247604
 11
12.6750933155
 21
10.9340695793
  0
LINE
  5
27B
100
AcDbEntity
  8
0
100
AcDbLine
 62
7
  6
CONTINUOUS
 10
13.9824512041
 20
10.9959520043
 11
14.1541331526
 21
10.8055982723
  0
LINE
  5
27C
100
AcDbEntity
  8
0
100
AcDbLine
 62
7
  6
CONTINUOUS
 10
13.6568007759
 20
10.8055982723
 11
13.6416586363
 21
10.9959520043
  0
LINE
  5
27D
100
AcDbEntity
  8
0
100
AcDbLine
 62
7
  6
CONTINUOUS
 10
13.3154940068
 20
10.8008267009
 11
13.3160082081
 21
10.8055982723
  0
LINE
  5
27E
100
AcDbEntity
  8
0
100
AcDbLine
 62
7
  6
CONTINUOUS
 10
12.9761007251
 20
10.8053247604
 11
13.0158858833
 21
10.9340695793
  0
LINE
  5
27F
100
AcDbEntity
  8
0
100
AcDbLine
 62
7
  6
CONTINUOUS
 10
11.8096920818
 20
10.7887486816
 11
11.9282681896
 21
10.7887486816
  0
LINE
  5
280
100
AcDbEntity
  8
0
100
AcDbLine
 62
7
  6
CONTINUOUS
 10
12.1504846496
 20
10.7887486816
 11
12.2690607574
 21
10.7887486816
  0
LINE
  5
281
100
AcDbEntity
  8
0
100
AcDbLine
 62
7
  6
CONTINUOUS
 10
12.4912772174
 20
10.7887486816
 11
12.6098533252
 21
10.7887486816
  0
LINE
  5
282
100
AcDbEntity
  8
0
100
AcDbLine
 62
7
  6
CONTINUOUS
 10
12.8320697851
 20
10.7887486816
 11
12.950645893
 21
10.7887486816
  0
LINE
  5
283
100
AcDbEntity
  8
0
100
AcDbLine
 62
7
  6
CONTINUOUS
 10
13.1728623529
 20
10.7887486816
 11
13.2914384608
 21
10.7887486816
  0
LINE
  5
284
100
AcDbEntity
  8
0
100
AcDbLine
 62
7
  6
CONTINUOUS
 10
13.5136549207
 20
10.7887486816
 11
13.6322310286
 21
10.7887486816
  0
LINE
  5
285
100
AcDbEntity
  8
0
100
AcDbLine
 62
7
  6
CONTINUOUS
 10
13.8544474885
 20
10.7887486816
 11
13.9730235963
 21
10.7887486816
  0
LINE
  5
286
100
AcDbEntity
  8
0
100
AcDbLine
 62
7
  6
CONTINUOUS
 10
14.1952400563
 20
10.7887486816
 11
14.3138161641
 21
10.7887486816
  0
LINE
  5
287
100
AcDbEntity
  8
0
100
AcDbLine
 62
7
  6
CONTINUOUS
 10
14.536032624
 20
10.7887486816
 11
14.6546087319
 21
10.7887486816
  0
LINE
  5
288
100
AcDbEntity
  8
0
100
AcDbLine
 62
7
  6
CONTINUOUS
 10
14.8768251918
 20
10.7887486816
 11
14.9954012997
 21
10.7887486816
  0
LINE
  5
289
100
AcDbEntity
  8
0
100
AcDbLine
 62
7
  6
CONTINUOUS
 10
15.2176177596
 20
10.7887486816
 11
15.3361938675
 21
10.7887486816
  0
LINE
  5
28A
100
AcDbEntity
  8
0
100
AcDbLine
 62
7
  6
CONTINUOUS
 10
15.5584103274
 20
10.7887486816
 11
15.6769864352
 21
10.7887486816
  0
LINE
  5
28B
100
AcDbEntity
  8
0
100
AcDbLine
 62
7
  6
CONTINUOUS
 10
15.8992028952
 20
10.7887486816
 11
16.017779003
 21
10.7887486816
  0
LINE
  5
28C
100
AcDbEntity
  8
0
100
AcDbLine
 62
7
  6
CONTINUOUS
 10
16.239995463
 20
10.7887486816
 11
16.3585715708
 21
10.7887486816
  0
LINE
  5
28D
100
AcDbEntity
  8
0
100
AcDbLine
 62
7
  6
CONTINUOUS
 10
16.5807880307
 20
10.7887486816
 11
16.6993641386
 21
10.7887486816
  0
LINE
  5
28E
100
AcDbEntity
  8
0
100
AcDbLine
 62
7
  6
CONTINUOUS
 10
16.9215805985
 20
10.7887486816
 11
17.0401567064
 21
10.7887486816
  0
LINE
  5
28F
100
AcDbEntity
  8
0
100
AcDbLine
 62
7
  6
CONTINUOUS
 10
17.2623731663
 20
10.7887486816
 11
17.3809492741
 21
10.7887486816
  0
LINE
  5
290
100
AcDbEntity
  8
0
100
AcDbLine
 62
7
  6
CONTINUOUS
 10
17.6031657341
 20
10.7887486816
 11
17.7217418419
 21
10.7887486816
  0
LINE
  5
291
100
AcDbEntity
  8
0
100
AcDbLine
 62
7
  6
CONTINUOUS
 10
17.9439583019
 20
10.7887486816
 11
18.0625344097
 21
10.7887486816
  0
LINE
  5
292
100
AcDbEntity
  8
0
100
AcDbLine
 62
7
  6
CONTINUOUS
 10
18.2847508696
 20
10.7887486816
 11
18.4033269775
 21
10.7887486816
  0
LINE
  5
293
100
AcDbEntity
  8
0
100
AcDbLine
 62
7
  6
CONTINUOUS
 10
14.3232437719
 20
10.9959520043
 11
14.4949257204
 21
10.8055982723
  0
LINE
  5
294
100
AcDbEntity
  8
0
100
AcDbLine
 62
7
  6
CONTINUOUS
 10
13.9975933437
 20
10.8055982723
 11
13.9824512041
 21
10.9959520043
  0
LINE
  5
295
100
AcDbEntity
  8
0
100
AcDbLine
 62
7
  6
CONTINUOUS
 10
13.6562865746
 20
10.8008267009
 11
13.6568007759
 21
10.8055982723
  0
LINE
  5
296
100
AcDbEntity
  8
0
100
AcDbLine
 62
7
  6
CONTINUOUS
 10
13.3168932929
 20
10.8053247604
 11
13.3566784511
 21
10.9340695793
  0
LINE
  5
297
100
AcDbEntity
  8
0
100
AcDbLine
 62
7
  6
CONTINUOUS
 10
18.3619142741
 20
11.0995536657
 11
11.5460629185
 21
11.0995536657
  0
LINE
  5
298
100
AcDbEntity
  8
0
100
AcDbLine
 62
7
  6
CONTINUOUS
 10
14.6640363396
 20
10.9959520043
 11
14.8357182882
 21
10.8055982723
  0
LINE
  5
299
100
AcDbEntity
  8
0
100
AcDbLine
 62
7
  6
CONTINUOUS
 10
14.3383859114
 20
10.8055982723
 11
14.3232437719
 21
10.9959520043
  0
LINE
  5
29A
100
AcDbEntity
  8
0
100
AcDbLine
 62
7
  6
CONTINUOUS
 10
13.9970791423
 20
10.8008267009
 11
13.9975933437
 21
10.8055982723
  0
LINE
  5
29B
100
AcDbEntity
  8
0
100
AcDbLine
 62
7
  6
CONTINUOUS
 10
13.6576858607
 20
10.8053247604
 11
13.6974710188
 21
10.9340695793
  0
LINE
  5
29C
100
AcDbEntity
  8
0
100
AcDbLine
 62
7
  6
CONTINUOUS
 10
15.0048289074
 20
10.9959520043
 11
15.176510856
 21
10.8055982723
  0
LINE
  5
29D
100
AcDbEntity
  8
0
100
AcDbLine
 62
7
  6
CONTINUOUS
 10
15.3456214752
 20
10.9959520043
 11
15.5173034238
 21
10.8055982723
  0
LINE
  5
29E
100
AcDbEntity
  8
0
100
AcDbLine
 62
7
  6
CONTINUOUS
 10
14.6791784792
 20
10.8055982723
 11
14.6640363396
 21
10.9959520043
  0
LINE
  5
29F
100
AcDbEntity
  8
0
100
AcDbLine
 62
7
  6
CONTINUOUS
 10
14.3378717101
 20
10.8008267009
 11
14.3383859114
 21
10.8055982723
  0
LINE
  5
2A0
100
AcDbEntity
  8
0
100
AcDbLine
 62
7
  6
CONTINUOUS
 10
13.9984784285
 20
10.8053247604
 11
14.0382635866
 21
10.9340695793
  0
LINE
  5
2A1
100
AcDbEntity
  8
0
100
AcDbLine
 62
7
  6
CONTINUOUS
 10
15.686414043
 20
10.9959520043
 11
15.8580959915
 21
10.8055982723
  0
LINE
  5
2A2
100
AcDbEntity
  8
0
100
AcDbLine
 62
7
  6
CONTINUOUS
 10
15.019971047
 20
10.8055982723
 11
15.0048289074
 21
10.9959520043
  0
LINE
  5
2A3
100
AcDbEntity
  8
0
100
AcDbLine
 62
7
  6
CONTINUOUS
 10
14.6786642779
 20
10.8008267009
 11
14.6791784792
 21
10.8055982723
  0
LINE
  5
2A4
100
AcDbEntity
  8
0
100
AcDbLine
 62
7
  6
CONTINUOUS
 10
14.3392709963
 20
10.8053247604
 11
14.3790561544
 21
10.9340695793
  0
LINE
  5
2A5
100
AcDbEntity
  8
0
100
AcDbLine
 62
7
  6
CONTINUOUS
 10
16.0272066108
 20
10.9959520043
 11
16.1988885593
 21
10.8055982723
  0
LINE
  5
2A6
100
AcDbEntity
  8
0
100
AcDbLine
 62
7
  6
CONTINUOUS
 10
15.0194568457
 20
10.8008267009
 11
15.019971047
 21
10.8055982723
  0
LINE
  5
2A7
100
AcDbEntity
  8
0
100
AcDbLine
 62
7
  6
CONTINUOUS
 10
14.680063564
 20
10.8053247604
 11
14.7198487222
 21
10.9340695793
  0
LINE
  5
2A8
100
AcDbEntity
  8
0
100
AcDbLine
 62
7
  6
CONTINUOUS
 10
16.3679991786
 20
10.9959520043
 11
16.5396811271
 21
10.8055982723
  0
LINE
  5
2A9
100
AcDbEntity
  8
0
100
AcDbLine
 62
7
  6
CONTINUOUS
 10
15.3607636148
 20
10.8055982723
 11
15.3456214752
 21
10.9959520043
  0
LINE
  5
2AA
100
AcDbEntity
  8
0
100
AcDbLine
 62
7
  6
CONTINUOUS
 10
16.7087917463
 20
10.9959520043
 11
16.8804736949
 21
10.8055982723
  0
LINE
  5
2AB
100
AcDbEntity
  8
0
100
AcDbLine
 62
7
  6
CONTINUOUS
 10
15.7015561826
 20
10.8055982723
 11
15.686414043
 21
10.9959520043
  0
LINE
  5
2AC
100
AcDbEntity
  8
0
100
AcDbLine
 62
7
  6
CONTINUOUS
 10
15.3602494135
 20
10.8008267009
 11
15.3607636148
 21
10.8055982723
  0
LINE
  5
2AD
100
AcDbEntity
  8
0
100
AcDbLine
 62
7
  6
CONTINUOUS
 10
15.0208561318
 20
10.8053247604
 11
15.06064129
 21
10.9340695793
  0
LINE
  5
2AE
100
AcDbEntity
  8
0
100
AcDbLine
 62
7
  6
CONTINUOUS
 10
17.0495843141
 20
10.9959520043
 11
17.2212662627
 21
10.8055982723
  0
LINE
  5
2AF
100
AcDbEntity
  8
0
100
AcDbLine
 62
7
  6
CONTINUOUS
 10
16.0423487503
 20
10.8055982723
 11
16.0272066108
 21
10.9959520043
  0
LINE
  5
2B0
100
AcDbEntity
  8
0
100
AcDbLine
 62
7
  6
CONTINUOUS
 10
15.7010419813
 20
10.8008267009
 11
15.7015561826
 21
10.8055982723
  0
LINE
  5
2B1
100
AcDbEntity
  8
0
100
AcDbLine
 62
7
  6
CONTINUOUS
 10
15.3616486996
 20
10.8053247604
 11
15.4014338577
 21
10.9340695793
  0
LINE
  5
2B2
100
AcDbEntity
  8
0
100
AcDbLine
 62
7
  6
CONTINUOUS
 10
17.3903768819
 20
10.9959520043
 11
17.5620588304
 21
10.8055982723
  0
LINE
  5
2B3
100
AcDbEntity
  8
0
100
AcDbLine
 62
7
  6
CONTINUOUS
 10
16.3831413181
 20
10.8055982723
 11
16.3679991786
 21
10.9959520043
  0
LINE
  5
2B4
100
AcDbEntity
  8
0
100
AcDbLine
 62
7
  6
CONTINUOUS
 10
16.041834549
 20
10.8008267009
 11
16.0423487503
 21
10.8055982723
  0
LINE
  5
2B5
100
AcDbEntity
  8
0
100
AcDbLine
 62
7
  6
CONTINUOUS
 10
15.7024412674
 20
10.8053247604
 11
15.7422264255
 21
10.9340695793
  0
LINE
  5
2B6
100
AcDbEntity
  8
0
100
AcDbLine
 62
7
  6
CONTINUOUS
 10
17.7311694497
 20
10.9959520043
 11
17.9028513982
 21
10.8055982723
  0
LINE
  5
2B7
100
AcDbEntity
  8
0
100
AcDbLine
 62
7
  6
CONTINUOUS
 10
16.7239338859
 20
10.8055982723
 11
16.7087917463
 21
10.9959520043
  0
LINE
  5
2B8
100
AcDbEntity
  8
0
100
AcDbLine
 62
7
  6
CONTINUOUS
 10
16.3826271168
 20
10.8008267009
 11
16.3831413181
 21
10.8055982723
  0
LINE
  5
2B9
100
AcDbEntity
  8
0
100
AcDbLine
 62
7
  6
CONTINUOUS
 10
16.0432338352
 20
10.8053247604
 11
16.0830189933
 21
10.9340695793
  0
LINE
  5
2BA
100
AcDbEntity
  8
0
100
AcDbLine
 62
7
  6
CONTINUOUS
 10
18.0719620175
 20
10.9959520043
 11
18.243643966
 21
10.8055982723
  0
LINE
  5
2BB
100
AcDbEntity
  8
0
100
AcDbLine
 62
7
  6
CONTINUOUS
 10
17.0647264537
 20
10.8055982723
 11
17.0495843141
 21
10.9959520043
  0
LINE
  5
2BC
100
AcDbEntity
  8
0
100
AcDbLine
 62
7
  6
CONTINUOUS
 10
16.7234196846
 20
10.8008267009
 11
16.7239338859
 21
10.8055982723
  0
LINE
  5
2BD
100
AcDbEntity
  8
0
100
AcDbLine
 62
7
  6
CONTINUOUS
 10
16.3840264029
 20
10.8053247604
 11
16.4238115611
 21
10.9340695793
  0
LINE
  5
2BE
100
AcDbEntity
  8
0
100
AcDbLine
 62
7
  6
CONTINUOUS
 10
16.7248189707
 20
10.8053247604
 11
16.7646041289
 21
10.9340695793
  0
LINE
  5
2BF
100
AcDbEntity
  8
0
100
AcDbLine
 62
7
  6
CONTINUOUS
 10
12.5143282121
 20
14.2328613042
 11
19.3301795678
 21
14.2328613042
  0
LINE
  5
2C0
100
AcDbEntity
  8
0
100
AcDbLine
 62
7
  6
CONTINUOUS
 10
17.4055190215
 20
10.8055982723
 11
17.3903768819
 21
10.9959520043
  0
LINE
  5
2C1
100
AcDbEntity
  8
0
100
AcDbLine
 62
7
  6
CONTINUOUS
 10
17.0642122524
 20
10.8008267009
 11
17.0647264537
 21
10.8055982723
  0
LINE
  5
2C2
100
AcDbEntity
  8
0
100
AcDbLine
 62
7
  6
CONTINUOUS
 10
17.0656115385
 20
10.8053247604
 11
17.1053966966
 21
10.9340695793
  0
LINE
  5
2C3
100
AcDbEntity
  8
0
100
AcDbLine
 62
7
  6
CONTINUOUS
 10
18.4127545852
 20
10.9959520043
 11
18.3619142741
 21
11.0995536657
  0
LINE
  5
2C4
100
AcDbEntity
  8
0
100
AcDbLine
 62
7
  6
CONTINUOUS
 10
17.7463115892
 20
10.8055982723
 11
17.7311694497
 21
10.9959520043
  0
LINE
  5
2C5
100
AcDbEntity
  8
0
100
AcDbLine
 62
7
  6
CONTINUOUS
 10
17.4050048202
 20
10.8008267009
 11
17.4055190215
 21
10.8055982723
  0
LINE
  5
2C6
100
AcDbEntity
  8
0
100
AcDbLine
 62
7
  6
CONTINUOUS
 10
18.087104157
 20
10.8055982723
 11
18.0719620175
 21
10.9959520043
  0
LINE
  5
2C7
100
AcDbEntity
  8
0
100
AcDbLine
 62
7
  6
CONTINUOUS
 10
17.7457973879
 20
10.8008267009
 11
17.7463115892
 21
10.8055982723
  0
LINE
  5
2C8
100
AcDbEntity
  8
0
100
AcDbLine
 62
7
  6
CONTINUOUS
 10
17.4064041063
 20
10.8053247604
 11
17.4461892644
 21
10.9340695793
  0
LINE
  5
2C9
100
AcDbEntity
  8
0
100
AcDbLine
 62
7
  6
CONTINUOUS
 10
18.4278967248
 20
10.8055982723
 11
18.4127545852
 21
10.9959520043
  0
LINE
  5
2CA
100
AcDbEntity
  8
0
100
AcDbLine
 62
7
  6
CONTINUOUS
 10
18.0865899557
 20
10.8008267009
 11
18.087104157
 21
10.8055982723
  0
LINE
  5
2CB
100
AcDbEntity
  8
0
100
AcDbLine
 62
7
  6
CONTINUOUS
 10
17.7471966741
 20
10.8053247604
 11
17.7869818322
 21
10.9340695793
  0
LINE
  5
2CC
100
AcDbEntity
  8
0
100
AcDbLine
 62
7
  6
CONTINUOUS
 10
18.4273825235
 20
10.8008267009
 11
18.4278967248
 21
10.8055982723
  0
LINE
  5
2CD
100
AcDbEntity
  8
0
100
AcDbLine
 62
7
  6
CONTINUOUS
 10
18.0879892419
 20
10.8053247604
 11
18.1277744
 21
10.9340695793
  0
LINE
  5
2CE
100
AcDbEntity
  8
0
100
AcDbLine
 62
7
  6
CONTINUOUS
 10
19.3301795678
 20
14.2328613042
 11
18.3619142741
 21
11.0995536657
  0
LINE
  5
2CF
100
AcDbEntity
  8
0
100
AcDbLine
 62
7
  6
CONTINUOUS
 10
19.3810198789
 20
14.1292596429
 11
18.4127545852
 21
10.9959520043
  0
LINE
  5
2D0
100
AcDbEntity
  8
0
100
AcDbLine
 62
7
  6
CONTINUOUS
 10
18.4287818096
 20
10.8053247604
 11
19.3956562933
 21
13.9341317362
  0
LINE
  5
2D1
100
AcDbEntity
  8
0
100
AcDbLine
 62
7
  6
CONTINUOUS
 10
19.3961620184
 20
13.9389059108
 11
19.3956478171
 21
13.9341343394
  0
LINE
  5
2D2
100
AcDbEntity
  8
0
100
AcDbLine
 62
7
  6
CONTINUOUS
 10
19.3961620184
 20
13.9389059108
 11
19.3810198789
 21
14.1292596429
  0
LINE
  5
2D3
100
AcDbEntity
  8
0
100
AcDbLine
 62
7
  6
CONTINUOUS
 10
19.3810198789
 20
14.1292596429
 11
19.3301795678
 21
14.2328613042
  0
ARC
  5
2D4
100
AcDbEntity
  8
0
100
AcDbCircle
 62
7
  6
CONTINUOUS
 10
2.5509979735
 20
5.3071198968
 40
0.037
100
AcDbArc
 50
195.5093345227
 51
270.0
  0
ARC
  5
2D5
100
AcDbEntity
  8
0
100
AcDbCircle
 62
7
  6
CONTINUOUS
 10
2.6797365789
 20
5.3071198968
 40
0.037
100
AcDbArc
 50
270.0
 51
344.4906654773
  0
ARC
  5
2D6
100
AcDbEntity
  8
0
100
AcDbCircle
 62
7
  6
CONTINUOUS
 10
2.9209979735
 20
5.3071198968
 40
0.037
100
AcDbArc
 50
195.5093345227
 51
270.0
  0
ARC
  5
2D7
100
AcDbEntity
  8
0
100
AcDbCircle
 62
7
  6
CONTINUOUS
 10
3.0497365789
 20
5.3071198968
 40
0.037
100
AcDbArc
 50
270.0
 51
344.4906654773
  0
ARC
  5
2D8
100
AcDbEntity
  8
0
100
AcDbCircle
 62
7
  6
CONTINUOUS
 10
3.2909979735
 20
5.3071198968
 40
0.037
100
AcDbArc
 50
195.5093345227
 51
270.0
  0
ARC
  5
2D9
100
AcDbEntity
  8
0
100
AcDbCircle
 62
7
  6
CONTINUOUS
 10
3.4197365789
 20
5.3071198968
 40
0.037
100
AcDbArc
 50
270.0
 51
344.4906654773
  0
ARC
  5
2DA
100
AcDbEntity
  8
0
100
AcDbCircle
 62
7
  6
CONTINUOUS
 10
3.6609979735
 20
5.3071198968
 40
0.037
100
AcDbArc
 50
195.5093345227
 51
270.0
  0
ARC
  5
2DB
100
AcDbEntity
  8
0
100
AcDbCircle
 62
7
  6
CONTINUOUS
 10
3.7897365789
 20
5.3071198968
 40
0.037
100
AcDbArc
 50
270.0
 51
344.4906654773
  0
ARC
  5
2DC
100
AcDbEntity
  8
0
100
AcDbCircle
 62
7
  6
CONTINUOUS
 10
4.0309979735
 20
5.3071198968
 40
0.037
100
AcDbArc
 50
195.5093345227
 51
270.0
  0
ARC
  5
2DD
100
AcDbEntity
  8
0
100
AcDbCircle
 62
7
  6
CONTINUOUS
 10
4.1597365789
 20
5.3071198968
 40
0.037
100
AcDbArc
 50
270.0
 51
344.4906654773
  0
ARC
  5
2DE
100
AcDbEntity
  8
0
100
AcDbCircle
 62
7
  6
CONTINUOUS
 10
4.4009979735
 20
5.3071198968
 40
0.037
100
AcDbArc
 50
195.5093345227
 51
270.0
  0
ARC
  5
2DF
100
AcDbEntity
  8
0
100
AcDbCircle
 62
7
  6
CONTINUOUS
 10
4.5297365789
 20
5.3071198968
 40
0.037
100
AcDbArc
 50
270.0
 51
344.4906654773
  0
ARC
  5
2E0
100
AcDbEntity
  8
0
100
AcDbCircle
 62
7
  6
CONTINUOUS
 10
4.7709979735
 20
5.3071198968
 40
0.037
100
AcDbArc
 50
195.5093345227
 51
270.0
  0
ARC
  5
2E1
100
AcDbEntity
  8
0
100
AcDbCircle
 62
7
  6
CONTINUOUS
 10
4.8997365789
 20
5.3071198968
 40
0.037
100
AcDbArc
 50
270.0
 51
344.4906654773
  0
ARC
  5
2E2
100
AcDbEntity
  8
0
100
AcDbCircle
 62
7
  6
CONTINUOUS
 10
5.1409979735
 20
5.3071198968
 40
0.037
100
AcDbArc
 50
195.5093345227
 51
270.0
  0
ARC
  5
2E3
100
AcDbEntity
  8
0
100
AcDbCircle
 62
7
  6
CONTINUOUS
 10
5.2697365789
 20
5.3071198968
 40
0.037
100
AcDbArc
 50
270.0
 51
344.4906654773
  0
ARC
  5
2E4
100
AcDbEntity
  8
0
100
AcDbCircle
 62
7
  6
CONTINUOUS
 10
5.5109979735
 20
5.3071198968
 40
0.037
100
AcDbArc
 50
195.5093345227
 51
270.0
  0
ARC
  5
2E5
100
AcDbEntity
  8
0
100
AcDbCircle
 62
7
  6
CONTINUOUS
 10
5.6397365789
 20
5.3071198968
 40
0.037
100
AcDbArc
 50
270.0
 51
344.4906654773
  0
ARC
  5
2E6
100
AcDbEntity
  8
0
100
AcDbCircle
 62
7
  6
CONTINUOUS
 10
5.8809979735
 20
5.3071198968
 40
0.037
100
AcDbArc
 50
195.5093345227
 51
270.0
  0
ARC
  5
2E7
100
AcDbEntity
  8
0
100
AcDbCircle
 62
7
  6
CONTINUOUS
 10
6.0097365789
 20
5.3071198968
 40
0.037
100
AcDbArc
 50
270.0
 51
344.4906654773
  0
ARC
  5
2E8
100
AcDbEntity
  8
0
100
AcDbCircle
 62
7
  6
CONTINUOUS
 10
6.2509979735
 20
5.3071198968
 40
0.037
100
AcDbArc
 50
195.5093345227
 51
270.0
  0
ARC
  5
2E9
100
AcDbEntity
  8
0
100
AcDbCircle
 62
7
  6
CONTINUOUS
 10
6.3797365789
 20
5.3071198968
 40
0.037
100
AcDbArc
 50
270.0
 51
344.4906654773
  0
ARC
  5
2EA
100
AcDbEntity
  8
0
100
AcDbCircle
 62
7
  6
CONTINUOUS
 10
6.6209979735
 20
5.3071198968
 40
0.037
100
AcDbArc
 50
195.5093345227
 51
270.0
  0
ARC
  5
2EB
100
AcDbEntity
  8
0
100
AcDbCircle
 62
7
  6
CONTINUOUS
 10
6.7497365789
 20
5.3071198968
 40
0.037
100
AcDbArc
 50
270.0
 51
344.4906654773
  0
ARC
  5
2EC
100
AcDbEntity
  8
0
100
AcDbCircle
 62
7
  6
CONTINUOUS
 10
6.9909979735
 20
5.3071198968
 40
0.037
100
AcDbArc
 50
195.5093345227
 51
270.0
  0
ARC
  5
2ED
100
AcDbEntity
  8
0
100
AcDbCircle
 62
7
  6
CONTINUOUS
 10
7.1197365789
 20
5.3071198968
 40
0.037
100
AcDbArc
 50
270.0
 51
344.4906654773
  0
ARC
  5
2EE
100
AcDbEntity
  8
0
100
AcDbCircle
 62
7
  6
CONTINUOUS
 10
7.3609979735
 20
5.3071198968
 40
0.037
100
AcDbArc
 50
195.5093345227
 51
270.0
  0
ARC
  5
2EF
100
AcDbEntity
  8
0
100
AcDbCircle
 62
7
  6
CONTINUOUS
 10
7.4897365789
 20
5.3071198968
 40
0.037
100
AcDbArc
 50
270.0
 51
344.4906654773
  0
ARC
  5
2F0
100
AcDbEntity
  8
0
100
AcDbCircle
 62
7
  6
CONTINUOUS
 10
7.7309979735
 20
5.3071198968
 40
0.037
100
AcDbArc
 50
195.5093345227
 51
270.0
  0
ARC
  5
2F1
100
AcDbEntity
  8
0
100
AcDbCircle
 62
7
  6
CONTINUOUS
 10
7.8597365789
 20
5.3071198968
 40
0.037
100
AcDbArc
 50
270.0
 51
344.4906654773
  0
ARC
  5
2F2
100
AcDbEntity
  8
0
100
AcDbCircle
 62
7
  6
CONTINUOUS
 10
8.1009979735
 20
5.3071198968
 40
0.037
100
AcDbArc
 50
195.5093345227
 51
270.0
  0
ARC
  5
2F3
100
AcDbEntity
  8
0
100
AcDbCircle
 62
7
  6
CONTINUOUS
 10
8.2297365789
 20
5.3071198968
 40
0.037
100
AcDbArc
 50
270.0
 51
344.4906654773
  0
ARC
  5
2F4
100
AcDbEntity
  8
0
100
AcDbCircle
 62
7
  6
CONTINUOUS
 10
8.4709979735
 20
5.3071198968
 40
0.037
100
AcDbArc
 50
195.5093345227
 51
270.0
  0
ARC
  5
2F5
100
AcDbEntity
  8
0
100
AcDbCircle
 62
7
  6
CONTINUOUS
 10
8.5997365789
 20
5.3071198968
 40
0.037
100
AcDbArc
 50
270.0
 51
344.4906654773
  0
ARC
  5
2F6
100
AcDbEntity
  8
0
100
AcDbCircle
 62
7
  6
CONTINUOUS
 10
8.8409979735
 20
5.3071198968
 40
0.037
100
AcDbArc
 50
195.5093345227
 51
270.0
  0
ARC
  5
2F7
100
AcDbEntity
  8
0
100
AcDbCircle
 62
7
  6
CONTINUOUS
 10
8.9697365789
 20
5.3071198968
 40
0.037
100
AcDbArc
 50
270.0
 51
344.4906654773
  0
ARC
  5
2F8
100
AcDbEntity
  8
0
100
AcDbCircle
 62
7
  6
CONTINUOUS
 10
9.2109979735
 20
5.3071198968
 40
0.037
100
AcDbArc
 50
195.5093345227
 51
270.0
  0
ARC
  5
2F9
100
AcDbEntity
  8
0
100
AcDbCircle
 62
7
  6
CONTINUOUS
 10
9.3397365789
 20
5.3071198968
 40
0.037
100
AcDbArc
 50
270.0
 51
344.4906654773
  0
ARC
  5
2FA
100
AcDbEntity
  8
0
100
AcDbCircle
 62
7
  6
CONTINUOUS
 10
9.5809979735
 20
5.3071198968
 40
0.037
100
AcDbArc
 50
195.5093345227
 51
270.0
  0
ARC
  5
2FB
100
AcDbEntity
  8
0
100
AcDbCircle
 62
7
  6
CONTINUOUS
 10
9.7097365789
 20
5.3071198968
 40
0.037
100
AcDbArc
 50
270.0
 51
344.4906654773
  0
SPLINE
  5
2FC
100
AcDbEntity
  8
0
100
AcDbSpline
 62
7
  6
CONTINUOUS
 70
0
 71
3
 72
14
 73
10
 74
0
 42
0.0000001
 43
0.0000001
 44
0.0000000001
 40
0.0
 40
0.0
 40
0.0
 40
0.0
 40
0.1556376253
 40
0.3032764766
 40
0.5688256051
 40
0.6871269181
 40
0.7968612206
 40
0.9001581456
 40
1.0
 40
1.0
 40
1.0
 40
1.0
 10
18.4033269775
 20
10.7887486816
 30
0.0
 10
18.4048146798
 20
10.7887486816
 30
0.0
 10
18.4077170548
 20
10.7888786526
 30
0.0
 10
18.4131010808
 20
10.7896552319
 30
0.0
 10
18.4180154828
 20
10.7912003852
 30
0.0
 10
18.4220856057
 20
10.7936255972
 30
0.0
 10
18.4244889351
 20
10.795718671
 30
0.0
 10
18.4263115551
 20
10.7981184106
 30
0.0
 10
18.427108004
 20
10.799912642
 30
0.0
 10
18.4273891051
 20
10.8008246688
 30
0.0
  0
SPLINE
  5
2FD
100
AcDbEntity
  8
0
100
AcDbSpline
 62
7
  6
CONTINUOUS
 70
0
 71
3
 72
15
 73
11
 74
0
 42
0.0000001
 43
0.0000001
 44
0.0000000001
 40
0.0
 40
0.0
 40
0.0
 40
0.0
 40
0.1105348092
 40
0.2292530401
 40
0.3542415927
 40
0.4835313219
 40
0.6150297412
 40
0.7465287685
 40
0.8757262799
 40
1.0
 40
1.0
 40
1.0
 40
1.0
 10
18.243643966
 20
10.8055982723
 30
0.0
 10
18.2447685562
 20
10.804351374
 30
0.0
 10
18.2472955071
 20
10.8019375169
 30
0.0
 10
18.2516118374
 20
10.7987062718
 30
0.0
 10
18.2564981822
 20
10.7958172607
 30
0.0
 10
18.2618190321
 20
10.7933402453
 30
0.0
 10
18.2674420561
 20
10.7913414686
 30
0.0
 10
18.2732237945
 20
10.7898676765
 30
0.0
 10
18.2790104655
 20
10.788966238
 30
0.0
 10
18.2828630388
 20
10.7887486816
 30
0.0
 10
18.2847508696
 20
10.7887486816
 30
0.0
  0
SPLINE
  5
2FE
100
AcDbEntity
  8
0
100
AcDbSpline
 62
7
  6
CONTINUOUS
 70
0
 71
3
 72
14
 73
10
 74
0
 42
0.0000001
 43
0.0000001
 44
0.0000000001
 40
0.0
 40
0.0
 40
0.0
 40
0.0
 40
0.1556376253
 40
0.3032764766
 40
0.5688256051
 40
0.6871269181
 40
0.7968612206
 40
0.9001581456
 40
1.0
 40
1.0
 40
1.0
 40
1.0
 10
18.0625344097
 20
10.7887486816
 30
0.0
 10
18.064022112
 20
10.7887486816
 30
0.0
 10
18.0669244871
 20
10.7888786526
 30
0.0
 10
18.072308513
 20
10.7896552319
 30
0.0
 10
18.077222915
 20
10.7912003852
 30
0.0
 10
18.081293038
 20
10.7936255972
 30
0.0
 10
18.0836963673
 20
10.795718671
 30
0.0
 10
18.0855189873
 20
10.7981184106
 30
0.0
 10
18.0863154362
 20
10.799912642
 30
0.0
 10
18.0865965374
 20
10.8008246688
 30
0.0
  0
SPLINE
  5
2FF
100
AcDbEntity
  8
0
100
AcDbSpline
 62
7
  6
CONTINUOUS
 70
0
 71
3
 72
15
 73
11
 74
0
 42
0.0000001
 43
0.0000001
 44
0.0000000001
 40
0.0
 40
0.0
 40
0.0
 40
0.0
 40
0.1105348092
 40
0.2292530401
 40
0.3542415927
 40
0.4835313219
 40
0.6150297412
 40
0.7465287685
 40
0.8757262799
 40
1.0
 40
1.0
 40
1.0
 40
1.0
 10
17.9028513982
 20
10.8055982723
 30
0.0
 10
17.9039759884
 20
10.804351374
 30
0.0
 10
17.9065029393
 20
10.8019375169
 30
0.0
 10
17.9108192697
 20
10.7987062718
 30
0.0
 10
17.9157056144
 20
10.7958172607
 30
0.0
 10
17.9210264643
 20
10.7933402453
 30
0.0
 10
17.9266494883
 20
10.7913414686
 30
0.0
 10
17.9324312268
 20
10.7898676765
 30
0.0
 10
17.9382178977
 20
10.788966238
 30
0.0
 10
17.942070471
 20
10.7887486816
 30
0.0
 10
17.9439583019
 20
10.7887486816
 30
0.0
  0
SPLINE
  5
300
100
AcDbEntity
  8
0
100
AcDbSpline
 62
7
  6
CONTINUOUS
 70
0
 71
3
 72
14
 73
10
 74
0
 42
0.0000001
 43
0.0000001
 44
0.0000000001
 40
0.0
 40
0.0
 40
0.0
 40
0.0
 40
0.1556376253
 40
0.3032764766
 40
0.5688256051
 40
0.6871269181
 40
0.7968612206
 40
0.9001581456
 40
1.0
 40
1.0
 40
1.0
 40
1.0
 10
17.7217418419
 20
10.7887486816
 30
0.0
 10
17.7232295442
 20
10.7887486816
 30
0.0
 10
17.7261319193
 20
10.7888786526
 30
0.0
 10
17.7315159452
 20
10.7896552319
 30
0.0
 10
17.7364303473
 20
10.7912003852
 30
0.0
 10
17.7405004702
 20
10.7936255972
 30
0.0
 10
17.7429037995
 20
10.795718671
 30
0.0
 10
17.7447264196
 20
10.7981184106
 30
0.0
 10
17.7455228684
 20
10.799912642
 30
0.0
 10
17.7458039696
 20
10.8008246688
 30
0.0
  0
SPLINE
  5
301
100
AcDbEntity
  8
0
100
AcDbSpline
 62
7
  6
CONTINUOUS
 70
0
 71
3
 72
15
 73
11
 74
0
 42
0.0000001
 43
0.0000001
 44
0.0000000001
 40
0.0
 40
0.0
 40
0.0
 40
0.0
 40
0.1105348092
 40
0.2292530401
 40
0.3542415927
 40
0.4835313219
 40
0.6150297412
 40
0.7465287685
 40
0.8757262799
 40
1.0
 40
1.0
 40
1.0
 40
1.0
 10
17.5620588304
 20
10.8055982723
 30
0.0
 10
17.5631834206
 20
10.804351374
 30
0.0
 10
17.5657103715
 20
10.8019375169
 30
0.0
 10
17.5700267019
 20
10.7987062718
 30
0.0
 10
17.5749130466
 20
10.7958172607
 30
0.0
 10
17.5802338966
 20
10.7933402453
 30
0.0
 10
17.5858569205
 20
10.7913414686
 30
0.0
 10
17.591638659
 20
10.7898676765
 30
0.0
 10
17.5974253299
 20
10.788966238
 30
0.0
 10
17.6012779032
 20
10.7887486816
 30
0.0
 10
17.6031657341
 20
10.7887486816
 30
0.0
  0
SPLINE
  5
302
100
AcDbEntity
  8
0
100
AcDbSpline
 62
7
  6
CONTINUOUS
 70
0
 71
3
 72
14
 73
10
 74
0
 42
0.0000001
 43
0.0000001
 44
0.0000000001
 40
0.0
 40
0.0
 40
0.0
 40
0.0
 40
0.1556376253
 40
0.3032764766
 40
0.5688256051
 40
0.6871269181
 40
0.7968612206
 40
0.9001581456
 40
1.0
 40
1.0
 40
1.0
 40
1.0
 10
17.3809492741
 20
10.7887486816
 30
0.0
 10
17.3824369764
 20
10.7887486816
 30
0.0
 10
17.3853393515
 20
10.7888786526
 30
0.0
 10
17.3907233774
 20
10.7896552319
 30
0.0
 10
17.3956377795
 20
10.7912003852
 30
0.0
 10
17.3997079024
 20
10.7936255972
 30
0.0
 10
17.4021112317
 20
10.795718671
 30
0.0
 10
17.4039338518
 20
10.7981184106
 30
0.0
 10
17.4047303006
 20
10.799912642
 30
0.0
 10
17.4050114018
 20
10.8008246688
 30
0.0
  0
SPLINE
  5
303
100
AcDbEntity
  8
0
100
AcDbSpline
 62
7
  6
CONTINUOUS
 70
0
 71
3
 72
15
 73
11
 74
0
 42
0.0000001
 43
0.0000001
 44
0.0000000001
 40
0.0
 40
0.0
 40
0.0
 40
0.0
 40
0.1105348092
 40
0.2292530401
 40
0.3542415927
 40
0.4835313219
 40
0.6150297412
 40
0.7465287685
 40
0.8757262799
 40
1.0
 40
1.0
 40
1.0
 40
1.0
 10
17.2212662627
 20
10.8055982723
 30
0.0
 10
17.2223908528
 20
10.804351374
 30
0.0
 10
17.2249178038
 20
10.8019375169
 30
0.0
 10
17.2292341341
 20
10.7987062718
 30
0.0
 10
17.2341204788
 20
10.7958172607
 30
0.0
 10
17.2394413288
 20
10.7933402453
 30
0.0
 10
17.2450643527
 20
10.7913414686
 30
0.0
 10
17.2508460912
 20
10.7898676765
 30
0.0
 10
17.2566327621
 20
10.788966238
 30
0.0
 10
17.2604853354
 20
10.7887486816
 30
0.0
 10
17.2623731663
 20
10.7887486816
 30
0.0
  0
SPLINE
  5
304
100
AcDbEntity
  8
0
100
AcDbSpline
 62
7
  6
CONTINUOUS
 70
0
 71
3
 72
14
 73
10
 74
0
 42
0.0000001
 43
0.0000001
 44
0.0000000001
 40
0.0
 40
0.0
 40
0.0
 40
0.0
 40
0.1556376253
 40
0.3032764766
 40
0.5688256051
 40
0.6871269181
 40
0.7968612206
 40
0.9001581456
 40
1.0
 40
1.0
 40
1.0
 40
1.0
 10
17.0401567064
 20
10.7887486816
 30
0.0
 10
17.0416444086
 20
10.7887486816
 30
0.0
 10
17.0445467837
 20
10.7888786526
 30
0.0
 10
17.0499308096
 20
10.7896552319
 30
0.0
 10
17.0548452117
 20
10.7912003852
 30
0.0
 10
17.0589153346
 20
10.7936255972
 30
0.0
 10
17.0613186639
 20
10.795718671
 30
0.0
 10
17.063141284
 20
10.7981184106
 30
0.0
 10
17.0639377329
 20
10.799912642
 30
0.0
 10
17.064218834
 20
10.8008246688
 30
0.0
  0
SPLINE
  5
305
100
AcDbEntity
  8
0
100
AcDbSpline
 62
7
  6
CONTINUOUS
 70
0
 71
3
 72
15
 73
11
 74
0
 42
0.0000001
 43
0.0000001
 44
0.0000000001
 40
0.0
 40
0.0
 40
0.0
 40
0.0
 40
0.1105348092
 40
0.2292530401
 40
0.3542415927
 40
0.4835313219
 40
0.6150297412
 40
0.7465287685
 40
0.8757262799
 40
1.0
 40
1.0
 40
1.0
 40
1.0
 10
16.8804736949
 20
10.8055982723
 30
0.0
 10
16.881598285
 20
10.804351374
 30
0.0
 10
16.884125236
 20
10.8019375169
 30
0.0
 10
16.8884415663
 20
10.7987062718
 30
0.0
 10
16.893327911
 20
10.7958172607
 30
0.0
 10
16.898648761
 20
10.7933402453
 30
0.0
 10
16.904271785
 20
10.7913414686
 30
0.0
 10
16.9100535234
 20
10.7898676765
 30
0.0
 10
16.9158401943
 20
10.788966238
 30
0.0
 10
16.9196927677
 20
10.7887486816
 30
0.0
 10
16.9215805985
 20
10.7887486816
 30
0.0
  0
SPLINE
  5
306
100
AcDbEntity
  8
0
100
AcDbSpline
 62
7
  6
CONTINUOUS
 70
0
 71
3
 72
14
 73
10
 74
0
 42
0.0000001
 43
0.0000001
 44
0.0000000001
 40
0.0
 40
0.0
 40
0.0
 40
0.0
 40
0.1556376253
 40
0.3032764766
 40
0.5688256051
 40
0.6871269181
 40
0.7968612206
 40
0.9001581456
 40
1.0
 40
1.0
 40
1.0
 40
1.0
 10
16.6993641386
 20
10.7887486816
 30
0.0
 10
16.7008518409
 20
10.7887486816
 30
0.0
 10
16.7037542159
 20
10.7888786526
 30
0.0
 10
16.7091382419
 20
10.7896552319
 30
0.0
 10
16.7140526439
 20
10.7912003852
 30
0.0
 10
16.7181227668
 20
10.7936255972
 30
0.0
 10
16.7205260961
 20
10.795718671
 30
0.0
 10
16.7223487162
 20
10.7981184106
 30
0.0
 10
16.7231451651
 20
10.799912642
 30
0.0
 10
16.7234262662
 20
10.8008246688
 30
0.0
  0
SPLINE
  5
307
100
AcDbEntity
  8
0
100
AcDbSpline
 62
7
  6
CONTINUOUS
 70
0
 71
3
 72
15
 73
11
 74
0
 42
0.0000001
 43
0.0000001
 44
0.0000000001
 40
0.0
 40
0.0
 40
0.0
 40
0.0
 40
0.1105348092
 40
0.2292530401
 40
0.3542415927
 40
0.4835313219
 40
0.6150297412
 40
0.7465287685
 40
0.8757262799
 40
1.0
 40
1.0
 40
1.0
 40
1.0
 10
16.5396811271
 20
10.8055982723
 30
0.0
 10
16.5408057173
 20
10.804351374
 30
0.0
 10
16.5433326682
 20
10.8019375169
 30
0.0
 10
16.5476489985
 20
10.7987062718
 30
0.0
 10
16.5525353433
 20
10.7958172607
 30
0.0
 10
16.5578561932
 20
10.7933402453
 30
0.0
 10
16.5634792172
 20
10.7913414686
 30
0.0
 10
16.5692609556
 20
10.7898676765
 30
0.0
 10
16.5750476266
 20
10.788966238
 30
0.0
 10
16.5789001999
 20
10.7887486816
 30
0.0
 10
16.5807880307
 20
10.7887486816
 30
0.0
  0
SPLINE
  5
308
100
AcDbEntity
  8
0
100
AcDbSpline
 62
7
  6
CONTINUOUS
 70
0
 71
3
 72
14
 73
10
 74
0
 42
0.0000001
 43
0.0000001
 44
0.0000000001
 40
0.0
 40
0.0
 40
0.0
 40
0.0
 40
0.1556376253
 40
0.3032764766
 40
0.5688256051
 40
0.6871269181
 40
0.7968612206
 40
0.9001581456
 40
1.0
 40
1.0
 40
1.0
 40
1.0
 10
16.3585715708
 20
10.7887486816
 30
0.0
 10
16.3600592731
 20
10.7887486816
 30
0.0
 10
16.3629616482
 20
10.7888786526
 30
0.0
 10
16.3683456741
 20
10.7896552319
 30
0.0
 10
16.3732600761
 20
10.7912003852
 30
0.0
 10
16.3773301991
 20
10.7936255972
 30
0.0
 10
16.3797335284
 20
10.795718671
 30
0.0
 10
16.3815561484
 20
10.7981184106
 30
0.0
 10
16.3823525973
 20
10.799912642
 30
0.0
 10
16.3826336984
 20
10.8008246688
 30
0.0
  0
SPLINE
  5
309
100
AcDbEntity
  8
0
100
AcDbSpline
 62
7
  6
CONTINUOUS
 70
0
 71
3
 72
15
 73
11
 74
0
 42
0.0000001
 43
0.0000001
 44
0.0000000001
 40
0.0
 40
0.0
 40
0.0
 40
0.0
 40
0.1105348092
 40
0.2292530401
 40
0.3542415927
 40
0.4835313219
 40
0.6150297412
 40
0.7465287685
 40
0.8757262799
 40
1.0
 40
1.0
 40
1.0
 40
1.0
 10
16.1988885593
 20
10.8055982723
 30
0.0
 10
16.2000131495
 20
10.804351374
 30
0.0
 10
16.2025401004
 20
10.8019375169
 30
0.0
 10
16.2068564308
 20
10.7987062718
 30
0.0
 10
16.2117427755
 20
10.7958172607
 30
0.0
 10
16.2170636254
 20
10.7933402453
 30
0.0
 10
16.2226866494
 20
10.7913414686
 30
0.0
 10
16.2284683879
 20
10.7898676765
 30
0.0
 10
16.2342550588
 20
10.788966238
 30
0.0
 10
16.2381076321
 20
10.7887486816
 30
0.0
 10
16.239995463
 20
10.7887486816
 30
0.0
  0
SPLINE
  5
30A
100
AcDbEntity
  8
0
100
AcDbSpline
 62
7
  6
CONTINUOUS
 70
0
 71
3
 72
14
 73
10
 74
0
 42
0.0000001
 43
0.0000001
 44
0.0000000001
 40
0.0
 40
0.0
 40
0.0
 40
0.0
 40
0.1556376253
 40
0.3032764766
 40
0.5688256051
 40
0.6871269181
 40
0.7968612206
 40
0.9001581456
 40
1.0
 40
1.0
 40
1.0
 40
1.0
 10
16.017779003
 20
10.7887486816
 30
0.0
 10
16.0192667053
 20
10.7887486816
 30
0.0
 10
16.0221690804
 20
10.7888786526
 30
0.0
 10
16.0275531063
 20
10.7896552319
 30
0.0
 10
16.0324675084
 20
10.7912003852
 30
0.0
 10
16.0365376313
 20
10.7936255972
 30
0.0
 10
16.0389409606
 20
10.795718671
 30
0.0
 10
16.0407635807
 20
10.7981184106
 30
0.0
 10
16.0415600295
 20
10.799912642
 30
0.0
 10
16.0418411307
 20
10.8008246688
 30
0.0
  0
SPLINE
  5
30B
100
AcDbEntity
  8
0
100
AcDbSpline
 62
7
  6
CONTINUOUS
 70
0
 71
3
 72
15
 73
11
 74
0
 42
0.0000001
 43
0.0000001
 44
0.0000000001
 40
0.0
 40
0.0
 40
0.0
 40
0.0
 40
0.1105348092
 40
0.2292530401
 40
0.3542415927
 40
0.4835313219
 40
0.6150297412
 40
0.7465287685
 40
0.8757262799
 40
1.0
 40
1.0
 40
1.0
 40
1.0
 10
15.8580959915
 20
10.8055982723
 30
0.0
 10
15.8592205817
 20
10.804351374
 30
0.0
 10
15.8617475326
 20
10.8019375169
 30
0.0
 10
15.866063863
 20
10.7987062718
 30
0.0
 10
15.8709502077
 20
10.7958172607
 30
0.0
 10
15.8762710577
 20
10.7933402453
 30
0.0
 10
15.8818940816
 20
10.7913414686
 30
0.0
 10
15.8876758201
 20
10.7898676765
 30
0.0
 10
15.893462491
 20
10.788966238
 30
0.0
 10
15.8973150643
 20
10.7887486816
 30
0.0
 10
15.8992028952
 20
10.7887486816
 30
0.0
  0
SPLINE
  5
30C
100
AcDbEntity
  8
0
100
AcDbSpline
 62
7
  6
CONTINUOUS
 70
0
 71
3
 72
14
 73
10
 74
0
 42
0.0000001
 43
0.0000001
 44
0.0000000001
 40
0.0
 40
0.0
 40
0.0
 40
0.0
 40
0.1556376253
 40
0.3032764766
 40
0.5688256051
 40
0.6871269181
 40
0.7968612206
 40
0.9001581456
 40
1.0
 40
1.0
 40
1.0
 40
1.0
 10
15.6769864352
 20
10.7887486816
 30
0.0
 10
15.6784741375
 20
10.7887486816
 30
0.0
 10
15.6813765126
 20
10.7888786526
 30
0.0
 10
15.6867605385
 20
10.7896552319
 30
0.0
 10
15.6916749406
 20
10.7912003852
 30
0.0
 10
15.6957450635
 20
10.7936255972
 30
0.0
 10
15.6981483928
 20
10.795718671
 30
0.0
 10
15.6999710129
 20
10.7981184106
 30
0.0
 10
15.7007674617
 20
10.799912642
 30
0.0
 10
15.7010485629
 20
10.8008246688
 30
0.0
  0
SPLINE
  5
30D
100
AcDbEntity
  8
0
100
AcDbSpline
 62
7
  6
CONTINUOUS
 70
0
 71
3
 72
15
 73
11
 74
0
 42
0.0000001
 43
0.0000001
 44
0.0000000001
 40
0.0
 40
0.0
 40
0.0
 40
0.0
 40
0.1105348092
 40
0.2292530401
 40
0.3542415927
 40
0.4835313219
 40
0.6150297412
 40
0.7465287685
 40
0.8757262799
 40
1.0
 40
1.0
 40
1.0
 40
1.0
 10
15.5173034238
 20
10.8055982723
 30
0.0
 10
15.5184280139
 20
10.804351374
 30
0.0
 10
15.5209549649
 20
10.8019375169
 30
0.0
 10
15.5252712952
 20
10.7987062718
 30
0.0
 10
15.5301576399
 20
10.7958172607
 30
0.0
 10
15.5354784899
 20
10.7933402453
 30
0.0
 10
15.5411015138
 20
10.7913414686
 30
0.0
 10
15.5468832523
 20
10.7898676765
 30
0.0
 10
15.5526699232
 20
10.788966238
 30
0.0
 10
15.5565224965
 20
10.7887486816
 30
0.0
 10
15.5584103274
 20
10.7887486816
 30
0.0
  0
SPLINE
  5
30E
100
AcDbEntity
  8
0
100
AcDbSpline
 62
7
  6
CONTINUOUS
 70
0
 71
3
 72
14
 73
10
 74
0
 42
0.0000001
 43
0.0000001
 44
0.0000000001
 40
0.0
 40
0.0
 40
0.0
 40
0.0
 40
0.1556376253
 40
0.3032764766
 40
0.5688256051
 40
0.6871269181
 40
0.7968612206
 40
0.9001581456
 40
1.0
 40
1.0
 40
1.0
 40
1.0
 10
15.3361938675
 20
10.7887486816
 30
0.0
 10
15.3376815697
 20
10.7887486816
 30
0.0
 10
15.3405839448
 20
10.7888786526
 30
0.0
 10
15.3459679707
 20
10.7896552319
 30
0.0
 10
15.3508823728
 20
10.7912003852
 30
0.0
 10
15.3549524957
 20
10.7936255972
 30
0.0
 10
15.357355825
 20
10.795718671
 30
0.0
 10
15.3591784451
 20
10.7981184106
 30
0.0
 10
15.3599748939
 20
10.799912642
 30
0.0
 10
15.3602559951
 20
10.8008246688
 30
0.0
  0
SPLINE
  5
30F
100
AcDbEntity
  8
0
100
AcDbSpline
 62
7
  6
CONTINUOUS
 70
0
 71
3
 72
15
 73
11
 74
0
 42
0.0000001
 43
0.0000001
 44
0.0000000001
 40
0.0
 40
0.0
 40
0.0
 40
0.0
 40
0.1105348092
 40
0.2292530401
 40
0.3542415927
 40
0.4835313219
 40
0.6150297412
 40
0.7465287685
 40
0.8757262799
 40
1.0
 40
1.0
 40
1.0
 40
1.0
 10
15.176510856
 20
10.8055982723
 30
0.0
 10
15.1776354461
 20
10.804351374
 30
0.0
 10
15.1801623971
 20
10.8019375169
 30
0.0
 10
15.1844787274
 20
10.7987062718
 30
0.0
 10
15.1893650721
 20
10.7958172607
 30
0.0
 10
15.1946859221
 20
10.7933402453
 30
0.0
 10
15.2003089461
 20
10.7913414686
 30
0.0
 10
15.2060906845
 20
10.7898676765
 30
0.0
 10
15.2118773554
 20
10.788966238
 30
0.0
 10
15.2157299288
 20
10.7887486816
 30
0.0
 10
15.2176177596
 20
10.7887486816
 30
0.0
  0
SPLINE
  5
310
100
AcDbEntity
  8
0
100
AcDbSpline
 62
7
  6
CONTINUOUS
 70
0
 71
3
 72
14
 73
10
 74
0
 42
0.0000001
 43
0.0000001
 44
0.0000000001
 40
0.0
 40
0.0
 40
0.0
 40
0.0
 40
0.1556376253
 40
0.3032764766
 40
0.5688256051
 40
0.6871269181
 40
0.7968612206
 40
0.9001581456
 40
1.0
 40
1.0
 40
1.0
 40
1.0
 10
14.9954012997
 20
10.7887486816
 30
0.0
 10
14.996889002
 20
10.7887486816
 30
0.0
 10
14.999791377
 20
10.7888786526
 30
0.0
 10
15.005175403
 20
10.7896552319
 30
0.0
 10
15.010089805
 20
10.7912003852
 30
0.0
 10
15.0141599279
 20
10.7936255972
 30
0.0
 10
15.0165632572
 20
10.795718671
 30
0.0
 10
15.0183858773
 20
10.7981184106
 30
0.0
 10
15.0191823262
 20
10.799912642
 30
0.0
 10
15.0194634273
 20
10.8008246688
 30
0.0
  0
SPLINE
  5
311
100
AcDbEntity
  8
0
100
AcDbSpline
 62
7
  6
CONTINUOUS
 70
0
 71
3
 72
15
 73
11
 74
0
 42
0.0000001
 43
0.0000001
 44
0.0000000001
 40
0.0
 40
0.0
 40
0.0
 40
0.0
 40
0.1105348092
 40
0.2292530401
 40
0.3542415927
 40
0.4835313219
 40
0.6150297412
 40
0.7465287685
 40
0.8757262799
 40
1.0
 40
1.0
 40
1.0
 40
1.0
 10
14.8357182882
 20
10.8055982723
 30
0.0
 10
14.8368428784
 20
10.804351374
 30
0.0
 10
14.8393698293
 20
10.8019375169
 30
0.0
 10
14.8436861596
 20
10.7987062718
 30
0.0
 10
14.8485725043
 20
10.7958172607
 30
0.0
 10
14.8538933543
 20
10.7933402453
 30
0.0
 10
14.8595163783
 20
10.7913414686
 30
0.0
 10
14.8652981167
 20
10.7898676765
 30
0.0
 10
14.8710847877
 20
10.788966238
 30
0.0
 10
14.874937361
 20
10.7887486816
 30
0.0
 10
14.8768251918
 20
10.7887486816
 30
0.0
  0
SPLINE
  5
312
100
AcDbEntity
  8
0
100
AcDbSpline
 62
7
  6
CONTINUOUS
 70
0
 71
3
 72
14
 73
10
 74
0
 42
0.0000001
 43
0.0000001
 44
0.0000000001
 40
0.0
 40
0.0
 40
0.0
 40
0.0
 40
0.1556376253
 40
0.3032764766
 40
0.5688256051
 40
0.6871269181
 40
0.7968612206
 40
0.9001581456
 40
1.0
 40
1.0
 40
1.0
 40
1.0
 10
14.6546087319
 20
10.7887486816
 30
0.0
 10
14.6560964342
 20
10.7887486816
 30
0.0
 10
14.6589988092
 20
10.7888786526
 30
0.0
 10
14.6643828352
 20
10.7896552319
 30
0.0
 10
14.6692972372
 20
10.7912003852
 30
0.0
 10
14.6733673602
 20
10.7936255972
 30
0.0
 10
14.6757706895
 20
10.795718671
 30
0.0
 10
14.6775933095
 20
10.7981184106
 30
0.0
 10
14.6783897584
 20
10.799912642
 30
0.0
 10
14.6786708595
 20
10.8008246688
 30
0.0
  0
SPLINE
  5
313
100
AcDbEntity
  8
0
100
AcDbSpline
 62
7
  6
CONTINUOUS
 70
0
 71
3
 72
15
 73
11
 74
0
 42
0.0000001
 43
0.0000001
 44
0.0000000001
 40
0.0
 40
0.0
 40
0.0
 40
0.0
 40
0.1105348092
 40
0.2292530401
 40
0.3542415927
 40
0.4835313219
 40
0.6150297412
 40
0.7465287685
 40
0.8757262799
 40
1.0
 40
1.0
 40
1.0
 40
1.0
 10
14.4949257204
 20
10.8055982723
 30
0.0
 10
14.4960503106
 20
10.804351374
 30
0.0
 10
14.4985772615
 20
10.8019375169
 30
0.0
 10
14.5028935918
 20
10.7987062718
 30
0.0
 10
14.5077799366
 20
10.7958172607
 30
0.0
 10
14.5131007865
 20
10.7933402453
 30
0.0
 10
14.5187238105
 20
10.7913414686
 30
0.0
 10
14.5245055489
 20
10.7898676765
 30
0.0
 10
14.5302922199
 20
10.788966238
 30
0.0
 10
14.5341447932
 20
10.7887486816
 30
0.0
 10
14.536032624
 20
10.7887486816
 30
0.0
  0
SPLINE
  5
314
100
AcDbEntity
  8
0
100
AcDbSpline
 62
7
  6
CONTINUOUS
 70
0
 71
3
 72
14
 73
10
 74
0
 42
0.0000001
 43
0.0000001
 44
0.0000000001
 40
0.0
 40
0.0
 40
0.0
 40
0.0
 40
0.1556376253
 40
0.3032764766
 40
0.5688256051
 40
0.6871269181
 40
0.7968612206
 40
0.9001581456
 40
1.0
 40
1.0
 40
1.0
 40
1.0
 10
14.3138161641
 20
10.7887486816
 30
0.0
 10
14.3153038664
 20
10.7887486816
 30
0.0
 10
14.3182062415
 20
10.7888786526
 30
0.0
 10
14.3235902674
 20
10.7896552319
 30
0.0
 10
14.3285046694
 20
10.7912003852
 30
0.0
 10
14.3325747924
 20
10.7936255972
 30
0.0
 10
14.3349781217
 20
10.795718671
 30
0.0
 10
14.3368007417
 20
10.7981184106
 30
0.0
 10
14.3375971906
 20
10.799912642
 30
0.0
 10
14.3378782918
 20
10.8008246688
 30
0.0
  0
SPLINE
  5
315
100
AcDbEntity
  8
0
100
AcDbSpline
 62
7
  6
CONTINUOUS
 70
0
 71
3
 72
15
 73
11
 74
0
 42
0.0000001
 43
0.0000001
 44
0.0000000001
 40
0.0
 40
0.0
 40
0.0
 40
0.0
 40
0.1105348092
 40
0.2292530401
 40
0.3542415927
 40
0.4835313219
 40
0.6150297412
 40
0.7465287685
 40
0.8757262799
 40
1.0
 40
1.0
 40
1.0
 40
1.0
 10
14.1541331526
 20
10.8055982723
 30
0.0
 10
14.1552577428
 20
10.804351374
 30
0.0
 10
14.1577846937
 20
10.8019375169
 30
0.0
 10
14.1621010241
 20
10.7987062718
 30
0.0
 10
14.1669873688
 20
10.7958172607
 30
0.0
 10
14.1723082187
 20
10.7933402453
 30
0.0
 10
14.1779312427
 20
10.7913414686
 30
0.0
 10
14.1837129812
 20
10.7898676765
 30
0.0
 10
14.1894996521
 20
10.788966238
 30
0.0
 10
14.1933522254
 20
10.7887486816
 30
0.0
 10
14.1952400563
 20
10.7887486816
 30
0.0
  0
SPLINE
  5
316
100
AcDbEntity
  8
0
100
AcDbSpline
 62
7
  6
CONTINUOUS
 70
0
 71
3
 72
14
 73
10
 74
0
 42
0.0000001
 43
0.0000001
 44
0.0000000001
 40
0.0
 40
0.0
 40
0.0
 40
0.0
 40
0.1556376253
 40
0.3032764766
 40
0.5688256051
 40
0.6871269181
 40
0.7968612206
 40
0.9001581456
 40
1.0
 40
1.0
 40
1.0
 40
1.0
 10
13.9730235963
 20
10.7887486816
 30
0.0
 10
13.9745112986
 20
10.7887486816
 30
0.0
 10
13.9774136737
 20
10.7888786526
 30
0.0
 10
13.9827976996
 20
10.7896552319
 30
0.0
 10
13.9877121017
 20
10.7912003852
 30
0.0
 10
13.9917822246
 20
10.7936255972
 30
0.0
 10
13.9941855539
 20
10.795718671
 30
0.0
 10
13.996008174
 20
10.7981184106
 30
0.0
 10
13.9968046228
 20
10.799912642
 30
0.0
 10
13.997085724
 20
10.8008246688
 30
0.0
  0
SPLINE
  5
317
100
AcDbEntity
  8
0
100
AcDbSpline
 62
7
  6
CONTINUOUS
 70
0
 71
3
 72
15
 73
11
 74
0
 42
0.0000001
 43
0.0000001
 44
0.0000000001
 40
0.0
 40
0.0
 40
0.0
 40
0.0
 40
0.1105348092
 40
0.2292530401
 40
0.3542415927
 40
0.4835313219
 40
0.6150297412
 40
0.7465287685
 40
0.8757262799
 40
1.0
 40
1.0
 40
1.0
 40
1.0
 10
13.8133405849
 20
10.8055982723
 30
0.0
 10
13.814465175
 20
10.804351374
 30
0.0
 10
13.816992126
 20
10.8019375169
 30
0.0
 10
13.8213084563
 20
10.7987062718
 30
0.0
 10
13.826194801
 20
10.7958172607
 30
0.0
 10
13.831515651
 20
10.7933402453
 30
0.0
 10
13.8371386749
 20
10.7913414686
 30
0.0
 10
13.8429204134
 20
10.7898676765
 30
0.0
 10
13.8487070843
 20
10.788966238
 30
0.0
 10
13.8525596576
 20
10.7887486816
 30
0.0
 10
13.8544474885
 20
10.7887486816
 30
0.0
  0
SPLINE
  5
318
100
AcDbEntity
  8
0
100
AcDbSpline
 62
7
  6
CONTINUOUS
 70
0
 71
3
 72
14
 73
10
 74
0
 42
0.0000001
 43
0.0000001
 44
0.0000000001
 40
0.0
 40
0.0
 40
0.0
 40
0.0
 40
0.1556376253
 40
0.3032764766
 40
0.5688256051
 40
0.6871269181
 40
0.7968612206
 40
0.9001581456
 40
1.0
 40
1.0
 40
1.0
 40
1.0
 10
13.6322310286
 20
10.7887486816
 30
0.0
 10
13.6337187308
 20
10.7887486816
 30
0.0
 10
13.6366211059
 20
10.7888786526
 30
0.0
 10
13.6420051318
 20
10.7896552319
 30
0.0
 10
13.6469195339
 20
10.7912003852
 30
0.0
 10
13.6509896568
 20
10.7936255972
 30
0.0
 10
13.6533929861
 20
10.795718671
 30
0.0
 10
13.6552156062
 20
10.7981184106
 30
0.0
 10
13.656012055
 20
10.799912642
 30
0.0
 10
13.6562931562
 20
10.8008246688
 30
0.0
  0
SPLINE
  5
319
100
AcDbEntity
  8
0
100
AcDbSpline
 62
7
  6
CONTINUOUS
 70
0
 71
3
 72
15
 73
11
 74
0
 42
0.0000001
 43
0.0000001
 44
0.0000000001
 40
0.0
 40
0.0
 40
0.0
 40
0.0
 40
0.1105348092
 40
0.2292530401
 40
0.3542415927
 40
0.4835313219
 40
0.6150297412
 40
0.7465287685
 40
0.8757262799
 40
1.0
 40
1.0
 40
1.0
 40
1.0
 10
13.4725480171
 20
10.8055982723
 30
0.0
 10
13.4736726072
 20
10.804351374
 30
0.0
 10
13.4761995582
 20
10.8019375169
 30
0.0
 10
13.4805158885
 20
10.7987062718
 30
0.0
 10
13.4854022332
 20
10.7958172607
 30
0.0
 10
13.4907230832
 20
10.7933402453
 30
0.0
 10
13.4963461072
 20
10.7913414686
 30
0.0
 10
13.5021278456
 20
10.7898676765
 30
0.0
 10
13.5079145165
 20
10.788966238
 30
0.0
 10
13.5117670898
 20
10.7887486816
 30
0.0
 10
13.5136549207
 20
10.7887486816
 30
0.0
  0
SPLINE
  5
31A
100
AcDbEntity
  8
0
100
AcDbSpline
 62
7
  6
CONTINUOUS
 70
0
 71
3
 72
14
 73
10
 74
0
 42
0.0000001
 43
0.0000001
 44
0.0000000001
 40
0.0
 40
0.0
 40
0.0
 40
0.0
 40
0.1556376253
 40
0.3032764766
 40
0.5688256051
 40
0.6871269181
 40
0.7968612206
 40
0.9001581456
 40
1.0
 40
1.0
 40
1.0
 40
1.0
 10
13.2914384608
 20
10.7887486816
 30
0.0
 10
13.2929261631
 20
10.7887486816
 30
0.0
 10
13.2958285381
 20
10.7888786526
 30
0.0
 10
13.3012125641
 20
10.7896552319
 30
0.0
 10
13.3061269661
 20
10.7912003852
 30
0.0
 10
13.310197089
 20
10.7936255972
 30
0.0
 10
13.3126004183
 20
10.795718671
 30
0.0
 10
13.3144230384
 20
10.7981184106
 30
0.0
 10
13.3152194873
 20
10.799912642
 30
0.0
 10
13.3155005884
 20
10.8008246688
 30
0.0
  0
SPLINE
  5
31B
100
AcDbEntity
  8
0
100
AcDbSpline
 62
7
  6
CONTINUOUS
 70
0
 71
3
 72
15
 73
11
 74
0
 42
0.0000001
 43
0.0000001
 44
0.0000000001
 40
0.0
 40
0.0
 40
0.0
 40
0.0
 40
0.1105348092
 40
0.2292530401
 40
0.3542415927
 40
0.4835313219
 40
0.6150297412
 40
0.7465287685
 40
0.8757262799
 40
1.0
 40
1.0
 40
1.0
 40
1.0
 10
13.1317554493
 20
10.8055982723
 30
0.0
 10
13.1328800394
 20
10.804351374
 30
0.0
 10
13.1354069904
 20
10.8019375169
 30
0.0
 10
13.1397233207
 20
10.7987062718
 30
0.0
 10
13.1446096654
 20
10.7958172607
 30
0.0
 10
13.1499305154
 20
10.7933402453
 30
0.0
 10
13.1555535394
 20
10.7913414686
 30
0.0
 10
13.1613352778
 20
10.7898676765
 30
0.0
 10
13.1671219487
 20
10.788966238
 30
0.0
 10
13.1709745221
 20
10.7887486816
 30
0.0
 10
13.1728623529
 20
10.7887486816
 30
0.0
  0
SPLINE
  5
31C
100
AcDbEntity
  8
0
100
AcDbSpline
 62
7
  6
CONTINUOUS
 70
0
 71
3
 72
14
 73
10
 74
0
 42
0.0000001
 43
0.0000001
 44
0.0000000001
 40
0.0
 40
0.0
 40
0.0
 40
0.0
 40
0.1556376253
 40
0.3032764766
 40
0.5688256051
 40
0.6871269181
 40
0.7968612206
 40
0.9001581456
 40
1.0
 40
1.0
 40
1.0
 40
1.0
 10
12.950645893
 20
10.7887486816
 30
0.0
 10
12.9521335953
 20
10.7887486816
 30
0.0
 10
12.9550359703
 20
10.7888786526
 30
0.0
 10
12.9604199963
 20
10.7896552319
 30
0.0
 10
12.9653343983
 20
10.7912003852
 30
0.0
 10
12.9694045212
 20
10.7936255972
 30
0.0
 10
12.9718078506
 20
10.795718671
 30
0.0
 10
12.9736304706
 20
10.7981184106
 30
0.0
 10
12.9744269195
 20
10.799912642
 30
0.0
 10
12.9747080206
 20
10.8008246688
 30
0.0
  0
SPLINE
  5
31D
100
AcDbEntity
  8
0
100
AcDbSpline
 62
7
  6
CONTINUOUS
 70
0
 71
3
 72
15
 73
11
 74
0
 42
0.0000001
 43
0.0000001
 44
0.0000000001
 40
0.0
 40
0.0
 40
0.0
 40
0.0
 40
0.1105348092
 40
0.2292530401
 40
0.3542415927
 40
0.4835313219
 40
0.6150297412
 40
0.7465287685
 40
0.8757262799
 40
1.0
 40
1.0
 40
1.0
 40
1.0
 10
12.7909628815
 20
10.8055982723
 30
0.0
 10
12.7920874717
 20
10.804351374
 30
0.0
 10
12.7946144226
 20
10.8019375169
 30
0.0
 10
12.7989307529
 20
10.7987062718
 30
0.0
 10
12.8038170977
 20
10.7958172607
 30
0.0
 10
12.8091379476
 20
10.7933402453
 30
0.0
 10
12.8147609716
 20
10.7913414686
 30
0.0
 10
12.82054271
 20
10.7898676765
 30
0.0
 10
12.826329381
 20
10.788966238
 30
0.0
 10
12.8301819543
 20
10.7887486816
 30
0.0
 10
12.8320697851
 20
10.7887486816
 30
0.0
  0
SPLINE
  5
31E
100
AcDbEntity
  8
0
100
AcDbSpline
 62
7
  6
CONTINUOUS
 70
0
 71
3
 72
14
 73
10
 74
0
 42
0.0000001
 43
0.0000001
 44
0.0000000001
 40
0.0
 40
0.0
 40
0.0
 40
0.0
 40
0.1556376253
 40
0.3032764766
 40
0.5688256051
 40
0.6871269181
 40
0.7968612206
 40
0.9001581456
 40
1.0
 40
1.0
 40
1.0
 40
1.0
 10
12.6098533252
 20
10.7887486816
 30
0.0
 10
12.6113410275
 20
10.7887486816
 30
0.0
 10
12.6142434026
 20
10.7888786526
 30
0.0
 10
12.6196274285
 20
10.7896552319
 30
0.0
 10
12.6245418305
 20
10.7912003852
 30
0.0
 10
12.6286119535
 20
10.7936255972
 30
0.0
 10
12.6310152828
 20
10.795718671
 30
0.0
 10
12.6328379028
 20
10.7981184106
 30
0.0
 10
12.6336343517
 20
10.799912642
 30
0.0
 10
12.6339154529
 20
10.8008246688
 30
0.0
  0
SPLINE
  5
31F
100
AcDbEntity
  8
0
100
AcDbSpline
 62
7
  6
CONTINUOUS
 70
0
 71
3
 72
15
 73
11
 74
0
 42
0.0000001
 43
0.0000001
 44
0.0000000001
 40
0.0
 40
0.0
 40
0.0
 40
0.0
 40
0.1105348092
 40
0.2292530401
 40
0.3542415927
 40
0.4835313219
 40
0.6150297412
 40
0.7465287685
 40
0.8757262799
 40
1.0
 40
1.0
 40
1.0
 40
1.0
 10
12.4501703137
 20
10.8055982723
 30
0.0
 10
12.4512949039
 20
10.804351374
 30
0.0
 10
12.4538218548
 20
10.8019375169
 30
0.0
 10
12.4581381852
 20
10.7987062718
 30
0.0
 10
12.4630245299
 20
10.7958172607
 30
0.0
 10
12.4683453798
 20
10.7933402453
 30
0.0
 10
12.4739684038
 20
10.7913414686
 30
0.0
 10
12.4797501423
 20
10.7898676765
 30
0.0
 10
12.4855368132
 20
10.788966238
 30
0.0
 10
12.4893893865
 20
10.7887486816
 30
0.0
 10
12.4912772174
 20
10.7887486816
 30
0.0
  0
SPLINE
  5
320
100
AcDbEntity
  8
0
100
AcDbSpline
 62
7
  6
CONTINUOUS
 70
0
 71
3
 72
14
 73
10
 74
0
 42
0.0000001
 43
0.0000001
 44
0.0000000001
 40
0.0
 40
0.0
 40
0.0
 40
0.0
 40
0.1556376253
 40
0.3032764766
 40
0.5688256051
 40
0.6871269181
 40
0.7968612206
 40
0.9001581456
 40
1.0
 40
1.0
 40
1.0
 40
1.0
 10
12.2690607574
 20
10.7887486816
 30
0.0
 10
12.2705484597
 20
10.7887486816
 30
0.0
 10
12.2734508348
 20
10.7888786526
 30
0.0
 10
12.2788348607
 20
10.7896552319
 30
0.0
 10
12.2837492628
 20
10.7912003852
 30
0.0
 10
12.2878193857
 20
10.7936255972
 30
0.0
 10
12.290222715
 20
10.795718671
 30
0.0
 10
12.2920453351
 20
10.7981184106
 30
0.0
 10
12.2928417839
 20
10.799912642
 30
0.0
 10
12.2931228851
 20
10.8008246688
 30
0.0
  0
SPLINE
  5
321
100
AcDbEntity
  8
0
100
AcDbSpline
 62
7
  6
CONTINUOUS
 70
0
 71
3
 72
15
 73
11
 74
0
 42
0.0000001
 43
0.0000001
 44
0.0000000001
 40
0.0
 40
0.0
 40
0.0
 40
0.0
 40
0.1105348092
 40
0.2292530401
 40
0.3542415927
 40
0.4835313219
 40
0.6150297412
 40
0.7465287685
 40
0.8757262799
 40
1.0
 40
1.0
 40
1.0
 40
1.0
 10
12.1093777459
 20
10.8055982723
 30
0.0
 10
12.1105023361
 20
10.804351374
 30
0.0
 10
12.1130292871
 20
10.8019375169
 30
0.0
 10
12.1173456174
 20
10.7987062718
 30
0.0
 10
12.1222319621
 20
10.7958172607
 30
0.0
 10
12.1275528121
 20
10.7933402453
 30
0.0
 10
12.133175836
 20
10.7913414686
 30
0.0
 10
12.1389575745
 20
10.7898676765
 30
0.0
 10
12.1447442454
 20
10.788966238
 30
0.0
 10
12.1485968187
 20
10.7887486816
 30
0.0
 10
12.1504846496
 20
10.7887486816
 30
0.0
  0
SPLINE
  5
322
100
AcDbEntity
  8
0
100
AcDbSpline
 62
7
  6
CONTINUOUS
 70
0
 71
3
 72
14
 73
10
 74
0
 42
0.0000001
 43
0.0000001
 44
0.0000000001
 40
0.0
 40
0.0
 40
0.0
 40
0.0
 40
0.1556376253
 40
0.3032764766
 40
0.5688256051
 40
0.6871269181
 40
0.7968612206
 40
0.9001581456
 40
1.0
 40
1.0
 40
1.0
 40
1.0
 10
11.9282681896
 20
10.7887486816
 30
0.0
 10
11.9297558919
 20
10.7887486816
 30
0.0
 10
11.932658267
 20
10.7888786526
 30
0.0
 10
11.9380422929
 20
10.7896552319
 30
0.0
 10
11.942956695
 20
10.7912003852
 30
0.0
 10
11.9470268179
 20
10.7936255972
 30
0.0
 10
11.9494301472
 20
10.795718671
 30
0.0
 10
11.9512527673
 20
10.7981184106
 30
0.0
 10
11.9520492161
 20
10.799912642
 30
0.0
 10
11.9523303173
 20
10.8008246688
 30
0.0
  0
SPLINE
  5
323
100
AcDbEntity
  8
0
100
AcDbSpline
 62
7
  6
CONTINUOUS
 70
0
 71
3
 72
15
 73
11
 74
0
 42
0.0000001
 43
0.0000001
 44
0.0000000001
 40
0.0
 40
0.0
 40
0.0
 40
0.0
 40
0.1105348092
 40
0.2292530401
 40
0.3542415927
 40
0.4835313219
 40
0.6150297412
 40
0.7465287685
 40
0.8757262799
 40
1.0
 40
1.0
 40
1.0
 40
1.0
 10
11.7685851782
 20
10.8055982723
 30
0.0
 10
11.7697097683
 20
10.804351374
 30
0.0
 10
11.7722367193
 20
10.8019375169
 30
0.0
 10
11.7765530496
 20
10.7987062718
 30
0.0
 10
11.7814393943
 20
10.7958172607
 30
0.0
 10
11.7867602443
 20
10.7933402453
 30
0.0
 10
11.7923832682
 20
10.7913414686
 30
0.0
 10
11.7981650067
 20
10.7898676765
 30
0.0
 10
11.8039516776
 20
10.788966238
 30
0.0
 10
11.8078042509
 20
10.7887486816
 30
0.0
 10
11.8096920818
 20
10.7887486816
 30
0.0
  0
ENDSEC
  0
SECTION
  2
OBJECTS
  0
DICTIONARY
  5
C
100
AcDbDictionary
280
0
281
1
  3
ACAD_GROUP
350
D
  3
ACAD_MLINESTYLE
350
17
  3
ACAD_LAYOUT
350
1A
  3
ACAD_PLOTSETTINGS
350
19
  3
ACAD_PLOTSTYLENAME
350
E
  0
DICTIONARY
  5
D
102
{ACAD_REACTORS
330
C
102
}
100
AcDbDictionary
280
0
281
1
  0
ACDBDICTIONARYWDFLT
  5
E
102
{ACAD_REACTORS
330
C
102
}
100
AcDbDictionary
281
1
  3
Normal
350
F
100
AcDbDictionaryWithDefault
340
F
  0
DICTIONARY
  5
17
102
{ACAD_REACTORS
330
C
102
}
100
AcDbDictionary
280
0
281
1
  3
Standard
350
18
  0
DICTIONARY
  5
19
102
{ACAD_REACTORS
330
C
102
}
100
AcDbDictionary
281
1
  0
DICTIONARY
  5
1A
102
{ACAD_REACTORS
330
C
102
}
100
AcDbDictionary
281
1
  3
Model
350
324
  3
Layout1
350
325
  0
ACDBPLACEHOLDER
  5
F
102
{ACAD_REACTORS
330
E
102
}
  0
MLINESTYLE
  5
18
102
{ACAD_REACTORS
330
17
102
}
100
AcDbMlineStyle
  2
STANDARD
 70
0
  3

 62
256
 51
90.0
 52
90.0
 71
2
 49
0.5
 62
256
  6
BYLAYER
 49
-0.5
 62
256
  6
BYLAYER
  0
LAYOUT
  5
324
102
{ACAD_REACTORS
330
1A
102
}
100
AcDbPlotSettings
  1

  2
none_device
  4
ANSI_C_(22.00_x_17.00_Inches)
  6

 40
0.0
 41
0.0
 42
0.0
 43
0.0
 44
558.8
 45
431.8
 46
0.0
 47
0.0
 48
0.0
 49
0.0
140
0.0
141
0.0
142
1.0
143
1.0
 70
1024
 72
0
 73
0
 74
0
  7

 75
0
147
1.0
148
0.0
149
0.0
100
AcDbLayout
  1
Model
 70
0
 71
0
 10
0.0
 20
0.0
 11
22.0
 21
17.0
 12
0.0
 22
0.0
 32
0.0
 14
0.0
 24
0.0
 34
0.0
 15
0.0
 25
0.0
 35
0.0
146
0.0
 13
0.0
 23
0.0
 33
0.0
 16
1.0
 26
0.0
 36
0.0
 17
0.0
 27
1.0
 37
0.0
 76
0
330
216
345
0
346
0
  0
LAYOUT
  5
325
102
{ACAD_REACTORS
330
1A
102
}
100
AcDbPlotSettings
  1

  2
none_device
  4
ANSI_C_(22.00_x_17.00_Inches)
  6

 40
0.0
 41
0.0
 42
0.0
 43
0.0
 44
558.8
 45
431.8
 46
0.0
 47
0.0
 48
0.0
 49
0.0
140
0.0
141
0.0
142
1.0
143
1.0
 70
0
 72
0
 73
0
 74
0
  7

 75
0
147
1.0
148
0.0
149
0.0
100
AcDbLayout
  1
Layout1
 70
0
 71
1
 10
0.0
 20
0.0
 11
22.0
 21
17.0
 12
0.0
 22
0.0
 32
0.0
 14
0.0
 24
0.0
 34
0.0
 15
0.0
 25
0.0
 35
0.0
146
0.0
 13
0.0
 23
0.0
 33
0.0
 16
1.0
 26
0.0
 36
0.0
 17
0.0
 27
1.0
 37
0.0
 76
0
330
217
345
0
346
0
  0
ENDSEC
  0
EOF