999
DXF file: _cgs_temp_output.dxf
999
Pro/ENGINEER 2016360 by Parametric Technology Corporation
  0
SECTION
  2
HEADER
  9
$ACADVER
  1
AC1021
  9
$DWGCODEPAGE
  3
ANSI_1252
  9
$EXTMAX
 10
22.0
 20
17.0
 30
0.0
  9
$EXTMIN
 10
0.0
 20
0.0
 30
0.0
  9
$LIMMIN
 10
0.0
 20
0.0
  9
$LIMMAX
 10
22.0
 20
17.0
  9
$VIEWCTR
 10
11.0
 20
8.5
  9
$VIEWSIZE
 40
17.0
  9
$CLAYER
  8
0
  9
$LTSCALE
 40
1.21
  9
$CELTYPE
  6
BYLAYER
  9
$DIMSCALE
 40
1.0
  9
$DIMASZ
 40
0.1875
  9
$DIMEXO
 40
0.0625
  9
$DIMDLI
 40
0.836
  9
$DIMEXE
 40
0.125
  9
$DIMCEN
 40
0.198
  9
$DIMLFAC
 40
1.0
  9
$DIMBLK
  1
_CLOSED
  9
$DIMALT
 70
0
  9
$DIMALTF
 40
25.4
  9
$DIMTXT
 40
0.15625
  9
$DIMTOL
 70
0
  9
$DIMLIM
 70
0
  9
$DIMTFAC
 40
1.0
  9
$DIMGAP
 40
0.09
  9
$DIMDSEP
 70
46
  9
$AUNITS
 70
0
  9
$PDMODE
 70
3
  9
$PDSIZE
 40
0.3125
  9
$HANDSEED
  5
36D
  9
$TILEMODE
 70
1
  9
$MEASUREMENT
 70
0
  9
$INSUNITS
 70
1
  0
ENDSEC
  0
SECTION
  2
CLASSES
  0
CLASS
  1
ACDBDICTIONARYWDFLT
  2
AcDbDictionaryWithDefault
  3
AutoCAD 2000
 90
0
 91
1
280
0
281
0
  0
CLASS
  1
ACDBPLACEHOLDER
  2
AcDbPlaceHolder
  3
AutoCAD 2000
 90
0
 91
1
280
0
281
0
  0
CLASS
  1
LAYOUT
  2
AcDbLayout
  3
AutoCAD 2000
 90
0
 91
0
280
0
281
0
  0
ENDSEC
  0
SECTION
  2
TABLES
  0
TABLE
  2
VPORT
  5
8
100
AcDbSymbolTable
 70
2
  0
VPORT
  5
1F4
100
AcDbSymbolTableRecord
100
AcDbViewportTableRecord
  2
*ACTIVE
 70
0
 10
0.0
 20
0.0
 11
1.0
 21
1.0
 12
11.0
 22
8.5
 13
0.0
 23
0.0
 14
1.0
 24
1.0
 15
0.0
 25
0.0
 16
0.0
 26
0.0
 36
1.0
 17
0.0
 27
0.0
 37
0.0
 40
17.0
 41
1.2941176471
 42
50.0
 43
0.0
 44
0.0
 50
0.0
 51
0.0
 71
0
 72
100
 73
1
 74
1
 75
0
 76
0
 77
0
 78
0
  0
ENDTAB
  0
TABLE
  2
LTYPE
  5
5
100
AcDbSymbolTable
 70
6
  0
LTYPE
  5
14
100
AcDbSymbolTableRecord
100
AcDbLinetypeTableRecord
  2
BYBLOCK
 70
0
  3

 72
65
 73
0
 40
0.0
  0
LTYPE
  5
15
100
AcDbSymbolTableRecord
100
AcDbLinetypeTableRecord
  2
BYLAYER
 70
0
  3

 72
65
 73
0
 40
0.0
  0
LTYPE
  5
16
100
AcDbSymbolTableRecord
100
AcDbLinetypeTableRecord
  2
CONTINUOUS
 70
64
  3
Solid line
 72
65
 73
0
 40
0.0
  0
LTYPE
  5
1F5
100
AcDbSymbolTableRecord
100
AcDbLinetypeTableRecord
  2
CENTER
 70
64
  3
____ _ ____ _ ____ _ ____ _ ____ _ ____ _ ____
 72
65
 73
4
 40
0.6
 49
0.375
 74
0
 49
-0.075
 74
0
 49
0.075
 74
0
 49
-0.075
 74
0
  0
LTYPE
  5
1F6
100
AcDbSymbolTableRecord
100
AcDbLinetypeTableRecord
  2
HIDDEN
 70
64
  3
- - - - - - - - - - - - - - - - - - - -
 72
65
 73
2
 40
0.2
 49
0.1
 74
0
 49
-0.1
 74
0
  0
LTYPE
  5
1F7
100
AcDbSymbolTableRecord
100
AcDbLinetypeTableRecord
  2
PHANTOM
 70
64
  3
_____ _ _ _____ _ _ _____ _ _ _____
 72
65
 73
6
 40
0.8
 49
0.45
 74
0
 49
-0.05
 74
0
 49
0.1
 74
0
 49
-0.05
 74
0
 49
0.1
 74
0
 49
-0.05
 74
0
  0
LTYPE
  5
1F8
100
AcDbSymbolTableRecord
100
AcDbLinetypeTableRecord
  2
DOT
 70
64
  3
. . . . . . . . . . . . . . . . . . . .
 72
65
 73
2
 40
0.2
 49
0.1
 74
0
 49
-0.1
 74
0
  0
LTYPE
  5
1F9
100
AcDbSymbolTableRecord
100
AcDbLinetypeTableRecord
  2
DASHED
 70
64
  3
- - - - - - - - - - - - - - - - - - - -
 72
65
 73
2
 40
0.2
 49
0.1
 74
0
 49
-0.1
 74
0
  0
ENDTAB
  0
TABLE
  2
LAYER
  5
2
100
AcDbSymbolTable
 70
36
  0
LAYER
  5
10
100
AcDbSymbolTableRecord
100
AcDbLayerTableRecord
  2
0
 70
0
 62
7
  6
CONTINUOUS
370
-3
390
F
  0
LAYER
  5
1FA
100
AcDbSymbolTableRecord
100
AcDbLayerTableRecord
  2
DEFAULT_1
 70
0
 62
7
  6
CENTER
370
-3
390
F
  0
LAYER
  5
1FB
100
AcDbSymbolTableRecord
100
AcDbLayerTableRecord
  2
DEFAULT_2
 70
0
 62
8
  6
HIDDEN
370
-3
390
F
  0
LAYER
  5
1FC
100
AcDbSymbolTableRecord
100
AcDbLayerTableRecord
  2
DEFAULT_3
 70
0
 62
7
  6
PHANTOM
370
-3
390
F
  0
LAYER
  5
1FD
100
AcDbSymbolTableRecord
100
AcDbLayerTableRecord
  2
01_ALL_DTM_PLN
 70
0
 62
7
  6
CONTINUOUS
370
-3
390
F
  0
LAYER
  5
1FE
100
AcDbSymbolTableRecord
100
AcDbLayerTableRecord
  2
01__ASM_ALL_DTM_PLN
 70
0
 62
7
  6
CONTINUOUS
370
-3
390
F
  0
LAYER
  5
1FF
100
AcDbSymbolTableRecord
100
AcDbLayerTableRecord
  2
01__ASM_DEF_DTM_PLN
 70
0
 62
7
  6
CONTINUOUS
370
-3
390
F
  0
LAYER
  5
200
100
AcDbSymbolTableRecord
100
AcDbLayerTableRecord
  2
01___PRT_ALL_DTM_PLN
 70
0
 62
7
  6
CONTINUOUS
370
-3
390
F
  0
LAYER
  5
201
100
AcDbSymbolTableRecord
100
AcDbLayerTableRecord
  2
01___PRT_DEF_DTM_PLN
 70
0
 62
7
  6
CONTINUOUS
370
-3
390
F
  0
LAYER
  5
202
100
AcDbSymbolTableRecord
100
AcDbLayerTableRecord
  2
02_ALL_AXES
 70
0
 62
7
  6
CONTINUOUS
370
-3
390
F
  0
LAYER
  5
203
100
AcDbSymbolTableRecord
100
AcDbLayerTableRecord
  2
02__ASM_ALL_AXES
 70
0
 62
7
  6
CONTINUOUS
370
-3
390
F
  0
LAYER
  5
204
100
AcDbSymbolTableRecord
100
AcDbLayerTableRecord
  2
02___PRT_ALL_AXES
 70
0
 62
7
  6
CONTINUOUS
370
-3
390
F
  0
LAYER
  5
205
100
AcDbSymbolTableRecord
100
AcDbLayerTableRecord
  2
03_ALL_CURVES
 70
0
 62
7
  6
CONTINUOUS
370
-3
390
F
  0
LAYER
  5
206
100
AcDbSymbolTableRecord
100
AcDbLayerTableRecord
  2
03__ASM_ALL_CURVES
 70
0
 62
7
  6
CONTINUOUS
370
-3
390
F
  0
LAYER
  5
207
100
AcDbSymbolTableRecord
100
AcDbLayerTableRecord
  2
03___PRT_ALL_CURVES
 70
0
 62
7
  6
CONTINUOUS
370
-3
390
F
  0
LAYER
  5
208
100
AcDbSymbolTableRecord
100
AcDbLayerTableRecord
  2
04_ALL_DTM_PNT
 70
0
 62
7
  6
CONTINUOUS
370
-3
390
F
  0
LAYER
  5
209
100
AcDbSymbolTableRecord
100
AcDbLayerTableRecord
  2
04__ASM_ALL_DTM_PNT
 70
0
 62
7
  6
CONTINUOUS
370
-3
390
F
  0
LAYER
  5
20A
100
AcDbSymbolTableRecord
100
AcDbLayerTableRecord
  2
04___PRT_ALL_DTM_PNT
 70
0
 62
7
  6
CONTINUOUS
370
-3
390
F
  0
LAYER
  5
20B
100
AcDbSymbolTableRecord
100
AcDbLayerTableRecord
  2
05_ALL_DTM_CSYS
 70
0
 62
7
  6
CONTINUOUS
370
-3
390
F
  0
LAYER
  5
20C
100
AcDbSymbolTableRecord
100
AcDbLayerTableRecord
  2
05__ASM_ALL_DTM_CSYS
 70
0
 62
7
  6
CONTINUOUS
370
-3
390
F
  0
LAYER
  5
20D
100
AcDbSymbolTableRecord
100
AcDbLayerTableRecord
  2
05__ASM_DEF_DTM_CSYS
 70
0
 62
7
  6
CONTINUOUS
370
-3
390
F
  0
LAYER
  5
20E
100
AcDbSymbolTableRecord
100
AcDbLayerTableRecord
  2
05___PRT_ALL_DTM_CSYS
 70
0
 62
7
  6
CONTINUOUS
370
-3
390
F
  0
LAYER
  5
20F
100
AcDbSymbolTableRecord
100
AcDbLayerTableRecord
  2
05___PRT_DEF_DTM_CSYS
 70
0
 62
7
  6
CONTINUOUS
370
-3
390
F
  0
LAYER
  5
210
100
AcDbSymbolTableRecord
100
AcDbLayerTableRecord
  2
06_ALL_SURFS
 70
0
 62
7
  6
CONTINUOUS
370
-3
390
F
  0
LAYER
  5
211
100
AcDbSymbolTableRecord
100
AcDbLayerTableRecord
  2
06__ASM_ALL_SURFS
 70
0
 62
7
  6
CONTINUOUS
370
-3
390
F
  0
LAYER
  5
212
100
AcDbSymbolTableRecord
100
AcDbLayerTableRecord
  2
06___PRT_ALL_SURFS
 70
0
 62
7
  6
CONTINUOUS
370
-3
390
F
  0
LAYER
  5
213
100
AcDbSymbolTableRecord
100
AcDbLayerTableRecord
  2
07__ASM_ALL_SKELETONS
 70
0
 62
7
  6
CONTINUOUS
370
-3
390
F
  0
LAYER
  5
214
100
AcDbSymbolTableRecord
100
AcDbLayerTableRecord
  2
LAYER_DIM
 70
0
 62
7
  6
CONTINUOUS
370
-3
390
F
  0
LAYER
  5
215
100
AcDbSymbolTableRecord
100
AcDbLayerTableRecord
  2
LAYER_FEATURE
 70
0
 62
7
  6
CONTINUOUS
370
-3
390
F
  0
LAYER
  5
216
100
AcDbSymbolTableRecord
100
AcDbLayerTableRecord
  2
LAYER_GEOM_FEAT
 70
0
 62
7
  6
CONTINUOUS
370
-3
390
F
  0
LAYER
  5
217
100
AcDbSymbolTableRecord
100
AcDbLayerTableRecord
  2
LAYER_PARAMETER_DIM
 70
0
 62
7
  6
CONTINUOUS
370
-3
390
F
  0
LAYER
  5
218
100
AcDbSymbolTableRecord
100
AcDbLayerTableRecord
  2
LAYER_PROTRUSION_FEAT
 70
0
 62
7
  6
CONTINUOUS
370
-3
390
F
  0
LAYER
  5
219
100
AcDbSymbolTableRecord
100
AcDbLayerTableRecord
  2
LAYER_ROUND_FEAT
 70
0
 62
7
  6
CONTINUOUS
370
-3
390
F
  0
ENDTAB
  0
TABLE
  2
STYLE
  5
3
100
AcDbSymbolTable
 70
1
  0
STYLE
  5
11
100
AcDbSymbolTableRecord
100
AcDbTextStyleTableRecord
  2
STANDARD
 70
0
 40
0.0
 41
0.8
 50
0.0
 71
0
 42
0.2
  3
txt
  4

  0
STYLE
  5
21A
100
AcDbSymbolTableRecord
100
AcDbTextStyleTableRecord
  2
TEXTSTYLE_1
 70
0
 40
0.0
 41
0.8
 50
0.0
 71
0
 42
0.2
  3
gdt
  4

  0
ENDTAB
  0
TABLE
  2
VIEW
  5
6
100
AcDbSymbolTable
 70
0
  0
ENDTAB
  0
TABLE
  2
UCS
  5
7
100
AcDbSymbolTable
 70
0
  0
ENDTAB
  0
TABLE
  2
APPID
  5
9
100
AcDbSymbolTable
 70
1
  0
APPID
  5
21B
100
AcDbSymbolTableRecord
100
AcDbRegAppTableRecord
  2
ACAD
 70
0
  0
ENDTAB
  0
TABLE
  2
BLOCK_RECORD
  5
1
100
AcDbSymbolTable
 70
0
  0
BLOCK_RECORD
  5
21C
100
AcDbSymbolTableRecord
100
AcDbBlockTableRecord
  2
*Model_Space
  0
BLOCK_RECORD
  5
21D
100
AcDbSymbolTableRecord
100
AcDbBlockTableRecord
  2
*Paper_Space
  0
ENDTAB
  0
TABLE
  2
DIMSTYLE
  5
A
100
AcDbSymbolTable
 70
1
100
AcDbDimStyleTable
 71
0
  0
DIMSTYLE
105
21E
100
AcDbSymbolTableRecord
100
AcDbDimStyleTableRecord
  2
STANDARD
 70
0
  3

  4

 40
1.0
 41
0.1875
 42
0.0625
 43
0.38
 44
0.125
 45
0.0
 46
0.0
 47
0.0001
 48
0.0001
140
0.15625
141
0.09
142
0.0
143
25.4
144
1.0
145
0.0
146
1.0
147
0.09
 71
0.0
 72
0.0
 73
1
 74
1
 75
0
 76
0
 77
0
 78
4
 79
1
170
0
171
3
172
0
173
0
174
0
175
0
176
0
177
0
178
0
270
2
179
4
271
4
272
4
273
2
274
2
275
0
280
0
281
0
282
0
283
1
284
4
285
0
286
0
287
3
288
0
340
11
278
46
  0
ENDTAB
  0
ENDSEC
  0
SECTION
  2
BLOCKS
  0
BLOCK
  5
20
100
AcDbEntity
  8
0
100
AcDbBlockBegin
  2
*Model_Space
 70
0
 10
0.0
 20
0.0
 30
0.0
  3
*Model_Space
  1

  0
ENDBLK
  5
21
100
AcDbEntity
  8
0
100
AcDbBlockEnd
  0
BLOCK
  5
1C
100
AcDbEntity
  8
0
100
AcDbBlockBegin
  2
*Paper_Space
 70
0
 10
0.0
 20
0.0
 30
0.0
  3
*Paper_Space
  1

  0
ENDBLK
  5
1D
100
AcDbEntity
  8
0
100
AcDbBlockEnd
  0
ENDSEC
  0
SECTION
  2
ENTITIES
  0
MTEXT
  5
21F
100
AcDbEntity
  8
0
100
AcDbMText
 62
7
  6
CONTINUOUS
  7
STANDARD
 71
1
 72
1
 10
15.9560215477
 20
0.9479130325
 30
0.0
 11
1.0
 21
0.0
 31
0.0
 44
0.9
  1
SCALE: 1:0.500
 40
0.3
 41
3.36
  0
LINE
  5
220
100
AcDbEntity
  8
0
100
AcDbLine
 62
7
  6
CONTINUOUS
 10
0.0
 20
0.0
 11
0.0
 21
17.0
  0
LINE
  5
221
100
AcDbEntity
  8
0
100
AcDbLine
 62
7
  6
CONTINUOUS
 10
0.0
 20
0.0
 11
22.0
 21
0.0
  0
LINE
  5
222
100
AcDbEntity
  8
0
100
AcDbLine
 62
7
  6
CONTINUOUS
 10
0.0
 20
17.0
 11
22.0
 21
17.0
  0
LINE
  5
223
100
AcDbEntity
  8
0
100
AcDbLine
 62
7
  6
CONTINUOUS
 10
22.0
 20
0.0
 11
22.0
 21
17.0
  0
LINE
  5
224
100
AcDbEntity
  8
0
100
AcDbLine
 62
7
  6
CONTINUOUS
 10
3.1528672762
 20
5.6376198968
 11
3.1528672762
 21
5.6001198968
  0
LINE
  5
225
100
AcDbEntity
  8
0
100
AcDbLine
 62
7
  6
CONTINUOUS
 10
3.1528672762
 20
5.6001198968
 11
3.2117913274
 21
5.4048967776
  0
LINE
  5
226
100
AcDbEntity
  8
0
100
AcDbLine
 62
7
  6
CONTINUOUS
 10
3.4828672762
 20
5.6001198968
 11
3.4828672762
 21
5.6226198968
  0
LINE
  5
227
100
AcDbEntity
  8
LAYER_FEATURE
100
AcDbLine
 62
7
  6
CONTINUOUS
 10
3.5278672762
 20
5.6226198968
 11
3.5278672762
 21
5.6001198968
  0
LINE
  5
228
100
AcDbEntity
  8
0
100
AcDbLine
 62
7
  6
CONTINUOUS
 10
3.423943225
 20
5.4048967776
 11
3.4828672762
 21
5.6001198968
  0
LINE
  5
229
100
AcDbEntity
  8
LAYER_FEATURE
100
AcDbLine
 62
7
  6
CONTINUOUS
 10
3.5278672762
 20
5.6001198968
 11
3.5867913274
 21
5.4048967776
  0
LINE
  5
22A
100
AcDbEntity
  8
LAYER_FEATURE
100
AcDbLine
 62
7
  6
CONTINUOUS
 10
3.8578672762
 20
5.6001198968
 11
3.8578672762
 21
5.6226198968
  0
LINE
  5
22B
100
AcDbEntity
  8
LAYER_FEATURE
100
AcDbLine
 62
7
  6
CONTINUOUS
 10
3.9028672762
 20
5.6226198968
 11
3.9028672762
 21
5.6001198968
  0
LINE
  5
22C
100
AcDbEntity
  8
LAYER_FEATURE
100
AcDbLine
 62
7
  6
CONTINUOUS
 10
3.798943225
 20
5.4048967776
 11
3.8578672762
 21
5.6001198968
  0
LINE
  5
22D
100
AcDbEntity
  8
LAYER_FEATURE
100
AcDbLine
 62
7
  6
CONTINUOUS
 10
3.9028672762
 20
5.6001198968
 11
3.9617913274
 21
5.4048967776
  0
LINE
  5
22E
100
AcDbEntity
  8
LAYER_FEATURE
100
AcDbLine
 62
7
  6
CONTINUOUS
 10
4.2328672762
 20
5.6001198968
 11
4.2328672762
 21
5.6226198968
  0
LINE
  5
22F
100
AcDbEntity
  8
LAYER_FEATURE
100
AcDbLine
 62
7
  6
CONTINUOUS
 10
4.2778672762
 20
5.6226198968
 11
4.2778672762
 21
5.6001198968
  0
LINE
  5
230
100
AcDbEntity
  8
LAYER_FEATURE
100
AcDbLine
 62
7
  6
CONTINUOUS
 10
4.173943225
 20
5.4048967776
 11
4.2328672762
 21
5.6001198968
  0
LINE
  5
231
100
AcDbEntity
  8
LAYER_FEATURE
100
AcDbLine
 62
7
  6
CONTINUOUS
 10
4.2778672762
 20
5.6001198968
 11
4.3367913274
 21
5.4048967776
  0
LINE
  5
232
100
AcDbEntity
  8
LAYER_FEATURE
100
AcDbLine
 62
7
  6
CONTINUOUS
 10
4.6078672762
 20
5.6001198968
 11
4.6078672762
 21
5.6226198968
  0
LINE
  5
233
100
AcDbEntity
  8
LAYER_FEATURE
100
AcDbLine
 62
7
  6
CONTINUOUS
 10
4.6528672762
 20
5.6226198968
 11
4.6528672762
 21
5.6001198968
  0
LINE
  5
234
100
AcDbEntity
  8
LAYER_FEATURE
100
AcDbLine
 62
7
  6
CONTINUOUS
 10
4.548943225
 20
5.4048967776
 11
4.6078672762
 21
5.6001198968
  0
LINE
  5
235
100
AcDbEntity
  8
LAYER_FEATURE
100
AcDbLine
 62
7
  6
CONTINUOUS
 10
4.6528672762
 20
5.6001198968
 11
4.7117913274
 21
5.4048967776
  0
LINE
  5
236
100
AcDbEntity
  8
LAYER_FEATURE
100
AcDbLine
 62
7
  6
CONTINUOUS
 10
4.9828672762
 20
5.6001198968
 11
4.9828672762
 21
5.6226198968
  0
LINE
  5
237
100
AcDbEntity
  8
LAYER_FEATURE
100
AcDbLine
 62
7
  6
CONTINUOUS
 10
5.0278672762
 20
5.6226198968
 11
5.0278672762
 21
5.6001198968
  0
LINE
  5
238
100
AcDbEntity
  8
LAYER_FEATURE
100
AcDbLine
 62
7
  6
CONTINUOUS
 10
4.923943225
 20
5.4048967776
 11
4.9828672762
 21
5.6001198968
  0
LINE
  5
239
100
AcDbEntity
  8
LAYER_FEATURE
100
AcDbLine
 62
7
  6
CONTINUOUS
 10
5.0278672762
 20
5.6001198968
 11
5.0867913274
 21
5.4048967776
  0
LINE
  5
23A
100
AcDbEntity
  8
LAYER_FEATURE
100
AcDbLine
 62
7
  6
CONTINUOUS
 10
5.3578672762
 20
5.6001198968
 11
5.3578672762
 21
5.6226198968
  0
LINE
  5
23B
100
AcDbEntity
  8
LAYER_FEATURE
100
AcDbLine
 62
7
  6
CONTINUOUS
 10
5.4028672762
 20
5.6226198968
 11
5.4028672762
 21
5.6001198968
  0
LINE
  5
23C
100
AcDbEntity
  8
LAYER_FEATURE
100
AcDbLine
 62
7
  6
CONTINUOUS
 10
5.298943225
 20
5.4048967776
 11
5.3578672762
 21
5.6001198968
  0
LINE
  5
23D
100
AcDbEntity
  8
LAYER_FEATURE
100
AcDbLine
 62
7
  6
CONTINUOUS
 10
5.4028672762
 20
5.6001198968
 11
5.4617913274
 21
5.4048967776
  0
LINE
  5
23E
100
AcDbEntity
  8
LAYER_FEATURE
100
AcDbLine
 62
7
  6
CONTINUOUS
 10
5.7328672762
 20
5.6001198968
 11
5.7328672762
 21
5.6226198968
  0
LINE
  5
23F
100
AcDbEntity
  8
LAYER_FEATURE
100
AcDbLine
 62
7
  6
CONTINUOUS
 10
5.673943225
 20
5.4048967776
 11
5.7328672762
 21
5.6001198968
  0
LINE
  5
240
100
AcDbEntity
  8
LAYER_FEATURE
100
AcDbLine
 62
7
  6
CONTINUOUS
 10
5.7778672762
 20
5.6226198968
 11
5.7778672762
 21
5.6001198968
  0
LINE
  5
241
100
AcDbEntity
  8
LAYER_FEATURE
100
AcDbLine
 62
7
  6
CONTINUOUS
 10
5.7778672762
 20
5.6001198968
 11
5.8367913274
 21
5.4048967776
  0
LINE
  5
242
100
AcDbEntity
  8
LAYER_FEATURE
100
AcDbLine
 62
7
  6
CONTINUOUS
 10
6.1078672762
 20
5.6001198968
 11
6.1078672762
 21
5.6226198968
  0
LINE
  5
243
100
AcDbEntity
  8
LAYER_FEATURE
100
AcDbLine
 62
7
  6
CONTINUOUS
 10
6.1528672762
 20
5.6226198968
 11
6.1528672762
 21
5.6001198968
  0
LINE
  5
244
100
AcDbEntity
  8
LAYER_FEATURE
100
AcDbLine
 62
7
  6
CONTINUOUS
 10
6.048943225
 20
5.4048967776
 11
6.1078672762
 21
5.6001198968
  0
LINE
  5
245
100
AcDbEntity
  8
0
100
AcDbLine
 62
7
  6
CONTINUOUS
 10
3.2249547929
 20
5.3951198968
 11
3.4107797595
 21
5.3951198968
  0
LINE
  5
246
100
AcDbEntity
  8
LAYER_FEATURE
100
AcDbLine
 62
7
  6
CONTINUOUS
 10
3.5999547929
 20
5.3951198968
 11
3.7857797595
 21
5.3951198968
  0
LINE
  5
247
100
AcDbEntity
  8
LAYER_FEATURE
100
AcDbLine
 62
7
  6
CONTINUOUS
 10
3.9749547929
 20
5.3951198968
 11
4.1607797595
 21
5.3951198968
  0
LINE
  5
248
100
AcDbEntity
  8
LAYER_FEATURE
100
AcDbLine
 62
7
  6
CONTINUOUS
 10
4.3499547929
 20
5.3951198968
 11
4.5357797595
 21
5.3951198968
  0
LINE
  5
249
100
AcDbEntity
  8
LAYER_FEATURE
100
AcDbLine
 62
7
  6
CONTINUOUS
 10
4.7249547929
 20
5.3951198968
 11
4.9107797595
 21
5.3951198968
  0
LINE
  5
24A
100
AcDbEntity
  8
LAYER_FEATURE
100
AcDbLine
 62
7
  6
CONTINUOUS
 10
5.0999547929
 20
5.3951198968
 11
5.2857797595
 21
5.3951198968
  0
LINE
  5
24B
100
AcDbEntity
  8
LAYER_FEATURE
100
AcDbLine
 62
7
  6
CONTINUOUS
 10
5.4749547929
 20
5.3951198968
 11
5.6607797595
 21
5.3951198968
  0
LINE
  5
24C
100
AcDbEntity
  8
LAYER_FEATURE
100
AcDbLine
 62
7
  6
CONTINUOUS
 10
5.8499547929
 20
5.3951198968
 11
6.0357797595
 21
5.3951198968
  0
LINE
  5
24D
100
AcDbEntity
  8
LAYER_FEATURE
100
AcDbLine
 62
7
  6
CONTINUOUS
 10
6.2249547929
 20
5.3951198968
 11
6.4107797595
 21
5.3951198968
  0
LINE
  5
24E
100
AcDbEntity
  8
LAYER_FEATURE
100
AcDbLine
 62
7
  6
CONTINUOUS
 10
6.5999547929
 20
5.3951198968
 11
6.7857797595
 21
5.3951198968
  0
LINE
  5
24F
100
AcDbEntity
  8
LAYER_FEATURE
100
AcDbLine
 62
7
  6
CONTINUOUS
 10
6.9749547929
 20
5.3951198968
 11
7.1607797595
 21
5.3951198968
  0
LINE
  5
250
100
AcDbEntity
  8
LAYER_FEATURE
100
AcDbLine
 62
7
  6
CONTINUOUS
 10
7.3499547929
 20
5.3951198968
 11
7.5357797595
 21
5.3951198968
  0
LINE
  5
251
100
AcDbEntity
  8
LAYER_FEATURE
100
AcDbLine
 62
7
  6
CONTINUOUS
 10
7.7249547929
 20
5.3951198968
 11
7.9107797595
 21
5.3951198968
  0
LINE
  5
252
100
AcDbEntity
  8
LAYER_FEATURE
100
AcDbLine
 62
7
  6
CONTINUOUS
 10
8.0999547929
 20
5.3951198968
 11
8.2857797595
 21
5.3951198968
  0
LINE
  5
253
100
AcDbEntity
  8
LAYER_FEATURE
100
AcDbLine
 62
7
  6
CONTINUOUS
 10
8.4749547929
 20
5.3951198968
 11
8.6607797595
 21
5.3951198968
  0
LINE
  5
254
100
AcDbEntity
  8
LAYER_FEATURE
100
AcDbLine
 62
7
  6
CONTINUOUS
 10
8.8499547929
 20
5.3951198968
 11
9.0357797595
 21
5.3951198968
  0
LINE
  5
255
100
AcDbEntity
  8
LAYER_FEATURE
100
AcDbLine
 62
7
  6
CONTINUOUS
 10
3.4828672762
 20
5.6226198968
 11
3.5278672762
 21
5.6226198968
  0
LINE
  5
256
100
AcDbEntity
  8
LAYER_FEATURE
100
AcDbLine
 62
7
  6
CONTINUOUS
 10
3.8578672762
 20
5.6226198968
 11
3.9028672762
 21
5.6226198968
  0
LINE
  5
257
100
AcDbEntity
  8
LAYER_FEATURE
100
AcDbLine
 62
7
  6
CONTINUOUS
 10
4.2328672762
 20
5.6226198968
 11
4.2778672762
 21
5.6226198968
  0
LINE
  5
258
100
AcDbEntity
  8
LAYER_FEATURE
100
AcDbLine
 62
7
  6
CONTINUOUS
 10
4.6078672762
 20
5.6226198968
 11
4.6528672762
 21
5.6226198968
  0
LINE
  5
259
100
AcDbEntity
  8
LAYER_FEATURE
100
AcDbLine
 62
7
  6
CONTINUOUS
 10
4.9828672762
 20
5.6226198968
 11
5.0278672762
 21
5.6226198968
  0
LINE
  5
25A
100
AcDbEntity
  8
LAYER_FEATURE
100
AcDbLine
 62
7
  6
CONTINUOUS
 10
5.3578672762
 20
5.6226198968
 11
5.4028672762
 21
5.6226198968
  0
LINE
  5
25B
100
AcDbEntity
  8
LAYER_FEATURE
100
AcDbLine
 62
7
  6
CONTINUOUS
 10
5.7328672762
 20
5.6226198968
 11
5.7778672762
 21
5.6226198968
  0
LINE
  5
25C
100
AcDbEntity
  8
LAYER_FEATURE
100
AcDbLine
 62
7
  6
CONTINUOUS
 10
6.1078672762
 20
5.6226198968
 11
6.1528672762
 21
5.6226198968
  0
LINE
  5
25D
100
AcDbEntity
  8
LAYER_FEATURE
100
AcDbLine
 62
7
  6
CONTINUOUS
 10
6.4828672762
 20
5.6226198968
 11
6.5278672762
 21
5.6226198968
  0
LINE
  5
25E
100
AcDbEntity
  8
LAYER_FEATURE
100
AcDbLine
 62
7
  6
CONTINUOUS
 10
6.8578672762
 20
5.6226198968
 11
6.9028672762
 21
5.6226198968
  0
LINE
  5
25F
100
AcDbEntity
  8
LAYER_FEATURE
100
AcDbLine
 62
7
  6
CONTINUOUS
 10
7.2328672762
 20
5.6226198968
 11
7.2778672762
 21
5.6226198968
  0
LINE
  5
260
100
AcDbEntity
  8
LAYER_FEATURE
100
AcDbLine
 62
7
  6
CONTINUOUS
 10
7.6078672762
 20
5.6226198968
 11
7.6528672762
 21
5.6226198968
  0
LINE
  5
261
100
AcDbEntity
  8
LAYER_FEATURE
100
AcDbLine
 62
7
  6
CONTINUOUS
 10
7.9828672762
 20
5.6226198968
 11
8.0278672762
 21
5.6226198968
  0
LINE
  5
262
100
AcDbEntity
  8
LAYER_FEATURE
100
AcDbLine
 62
7
  6
CONTINUOUS
 10
8.3578672762
 20
5.6226198968
 11
8.4028672762
 21
5.6226198968
  0
LINE
  5
263
100
AcDbEntity
  8
LAYER_FEATURE
100
AcDbLine
 62
7
  6
CONTINUOUS
 10
8.7328672762
 20
5.6226198968
 11
8.7778672762
 21
5.6226198968
  0
LINE
  5
264
100
AcDbEntity
  8
0
100
AcDbLine
 62
7
  6
CONTINUOUS
 10
9.1003672762
 20
5.6451198968
 11
3.1603672762
 21
5.6451198968
  0
LINE
  5
265
100
AcDbEntity
  8
LAYER_FEATURE
100
AcDbLine
 62
7
  6
CONTINUOUS
 10
6.1528672762
 20
5.6001198968
 11
6.2117913274
 21
5.4048967776
  0
LINE
  5
266
100
AcDbEntity
  8
LAYER_FEATURE
100
AcDbLine
 62
7
  6
CONTINUOUS
 10
6.4828672762
 20
5.6001198968
 11
6.4828672762
 21
5.6226198968
  0
LINE
  5
267
100
AcDbEntity
  8
LAYER_FEATURE
100
AcDbLine
 62
7
  6
CONTINUOUS
 10
6.5278672762
 20
5.6226198968
 11
6.5278672762
 21
5.6001198968
  0
LINE
  5
268
100
AcDbEntity
  8
LAYER_FEATURE
100
AcDbLine
 62
7
  6
CONTINUOUS
 10
6.423943225
 20
5.4048967776
 11
6.4828672762
 21
5.6001198968
  0
LINE
  5
269
100
AcDbEntity
  8
LAYER_FEATURE
100
AcDbLine
 62
7
  6
CONTINUOUS
 10
6.5278672762
 20
5.6001198968
 11
6.5867913274
 21
5.4048967776
  0
LINE
  5
26A
100
AcDbEntity
  8
LAYER_FEATURE
100
AcDbLine
 62
7
  6
CONTINUOUS
 10
6.8578672762
 20
5.6001198968
 11
6.8578672762
 21
5.6226198968
  0
LINE
  5
26B
100
AcDbEntity
  8
LAYER_FEATURE
100
AcDbLine
 62
7
  6
CONTINUOUS
 10
6.9028672762
 20
5.6226198968
 11
6.9028672762
 21
5.6001198968
  0
LINE
  5
26C
100
AcDbEntity
  8
LAYER_FEATURE
100
AcDbLine
 62
7
  6
CONTINUOUS
 10
6.798943225
 20
5.4048967776
 11
6.8578672762
 21
5.6001198968
  0
LINE
  5
26D
100
AcDbEntity
  8
LAYER_FEATURE
100
AcDbLine
 62
7
  6
CONTINUOUS
 10
6.9028672762
 20
5.6001198968
 11
6.9617913274
 21
5.4048967776
  0
LINE
  5
26E
100
AcDbEntity
  8
LAYER_FEATURE
100
AcDbLine
 62
7
  6
CONTINUOUS
 10
7.2328672762
 20
5.6001198968
 11
7.2328672762
 21
5.6226198968
  0
LINE
  5
26F
100
AcDbEntity
  8
LAYER_FEATURE
100
AcDbLine
 62
7
  6
CONTINUOUS
 10
7.2778672762
 20
5.6226198968
 11
7.2778672762
 21
5.6001198968
  0
LINE
  5
270
100
AcDbEntity
  8
LAYER_FEATURE
100
AcDbLine
 62
7
  6
CONTINUOUS
 10
7.173943225
 20
5.4048967776
 11
7.2328672762
 21
5.6001198968
  0
LINE
  5
271
100
AcDbEntity
  8
LAYER_FEATURE
100
AcDbLine
 62
7
  6
CONTINUOUS
 10
7.2778672762
 20
5.6001198968
 11
7.3367913274
 21
5.4048967776
  0
LINE
  5
272
100
AcDbEntity
  8
LAYER_FEATURE
100
AcDbLine
 62
7
  6
CONTINUOUS
 10
7.548943225
 20
5.4048967776
 11
7.6078672762
 21
5.6001198968
  0
LINE
  5
273
100
AcDbEntity
  8
LAYER_FEATURE
100
AcDbLine
 62
7
  6
CONTINUOUS
 10
7.6078672762
 20
5.6001198968
 11
7.6078672762
 21
5.6226198968
  0
LINE
  5
274
100
AcDbEntity
  8
LAYER_FEATURE
100
AcDbLine
 62
7
  6
CONTINUOUS
 10
7.6528672762
 20
5.6226198968
 11
7.6528672762
 21
5.6001198968
  0
LINE
  5
275
100
AcDbEntity
  8
LAYER_FEATURE
100
AcDbLine
 62
7
  6
CONTINUOUS
 10
7.6528672762
 20
5.6001198968
 11
7.7117913274
 21
5.4048967776
  0
LINE
  5
276
100
AcDbEntity
  8
LAYER_FEATURE
100
AcDbLine
 62
7
  6
CONTINUOUS
 10
7.923943225
 20
5.4048967776
 11
7.9828672762
 21
5.6001198968
  0
LINE
  5
277
100
AcDbEntity
  8
LAYER_FEATURE
100
AcDbLine
 62
7
  6
CONTINUOUS
 10
7.9828672762
 20
5.6001198968
 11
7.9828672762
 21
5.6226198968
  0
LINE
  5
278
100
AcDbEntity
  8
LAYER_FEATURE
100
AcDbLine
 62
7
  6
CONTINUOUS
 10
8.0278672762
 20
5.6226198968
 11
8.0278672762
 21
5.6001198968
  0
LINE
  5
279
100
AcDbEntity
  8
LAYER_FEATURE
100
AcDbLine
 62
7
  6
CONTINUOUS
 10
8.0278672762
 20
5.6001198968
 11
8.0867913274
 21
5.4048967776
  0
LINE
  5
27A
100
AcDbEntity
  8
LAYER_FEATURE
100
AcDbLine
 62
7
  6
CONTINUOUS
 10
8.298943225
 20
5.4048967776
 11
8.3578672762
 21
5.6001198968
  0
LINE
  5
27B
100
AcDbEntity
  8
LAYER_FEATURE
100
AcDbLine
 62
7
  6
CONTINUOUS
 10
8.4028672762
 20
5.6001198968
 11
8.4617913274
 21
5.4048967776
  0
LINE
  5
27C
100
AcDbEntity
  8
LAYER_FEATURE
100
AcDbLine
 62
7
  6
CONTINUOUS
 10
8.3578672762
 20
5.6001198968
 11
8.3578672762
 21
5.6226198968
  0
LINE
  5
27D
100
AcDbEntity
  8
LAYER_FEATURE
100
AcDbLine
 62
7
  6
CONTINUOUS
 10
8.4028672762
 20
5.6226198968
 11
8.4028672762
 21
5.6001198968
  0
LINE
  5
27E
100
AcDbEntity
  8
LAYER_FEATURE
100
AcDbLine
 62
7
  6
CONTINUOUS
 10
8.7328672762
 20
5.6001198968
 11
8.7328672762
 21
5.6226198968
  0
LINE
  5
27F
100
AcDbEntity
  8
LAYER_FEATURE
100
AcDbLine
 62
7
  6
CONTINUOUS
 10
8.673943225
 20
5.4048967776
 11
8.7328672762
 21
5.6001198968
  0
LINE
  5
280
100
AcDbEntity
  8
LAYER_FEATURE
100
AcDbLine
 62
7
  6
CONTINUOUS
 10
8.7778672762
 20
5.6001198968
 11
8.8367913274
 21
5.4048967776
  0
LINE
  5
281
100
AcDbEntity
  8
LAYER_FEATURE
100
AcDbLine
 62
7
  6
CONTINUOUS
 10
8.7778672762
 20
5.6226198968
 11
8.7778672762
 21
5.6001198968
  0
LINE
  5
282
100
AcDbEntity
  8
0
100
AcDbLine
 62
7
  6
CONTINUOUS
 10
9.1078672762
 20
5.6001198968
 11
9.1078672762
 21
5.6376198968
  0
LINE
  5
283
100
AcDbEntity
  8
LAYER_FEATURE
100
AcDbLine
 62
7
  6
CONTINUOUS
 10
9.048943225
 20
5.4048967776
 11
9.1078672762
 21
5.6001198968
  0
LINE
  5
284
100
AcDbEntity
  8
0
100
AcDbLine
 62
7
  6
CONTINUOUS
 10
3.0933720839
 20
13.6000477814
 11
3.0933720839
 21
11.6000477814
  0
LINE
  5
285
100
AcDbEntity
  8
0
100
AcDbLine
 62
7
  6
CONTINUOUS
 10
9.0483720839
 20
11.6000477814
 11
3.0933720839
 21
11.6000477814
  0
LINE
  5
286
100
AcDbEntity
  8
0
100
AcDbLine
 62
7
  6
CONTINUOUS
 10
3.0933720839
 20
13.6000477814
 11
9.0483720839
 21
13.6000477814
  0
LINE
  5
287
100
AcDbEntity
  8
0
100
AcDbLine
 62
7
  6
CONTINUOUS
 10
9.0483720839
 20
11.6000477814
 11
9.0483720839
 21
13.6000477814
  0
LINE
  5
288
100
AcDbEntity
  8
LAYER_FEATURE
100
AcDbLine
 62
7
  6
CONTINUOUS
 10
14.5603552569
 20
5.3356247044
 11
14.5603552569
 21
5.5406247044
  0
LINE
  5
289
100
AcDbEntity
  8
0
100
AcDbLine
 62
7
  6
CONTINUOUS
 10
14.5603552569
 20
5.5406247044
 11
14.5603552569
 21
5.5856247044
  0
LINE
  5
28A
100
AcDbEntity
  8
LAYER_FEATURE
100
AcDbLine
 62
7
  6
CONTINUOUS
 10
14.5603552569
 20
5.3356247044
 11
16.5603552569
 21
5.3356247044
  0
LINE
  5
28B
100
AcDbEntity
  8
LAYER_FEATURE
100
AcDbLine
 62
7
  6
CONTINUOUS
 10
16.5603552569
 20
5.5406247044
 11
14.5603552569
 21
5.5406247044
  0
LINE
  5
28C
100
AcDbEntity
  8
0
100
AcDbLine
 62
7
  6
CONTINUOUS
 10
14.5603552569
 20
5.5856247044
 11
16.5603552569
 21
5.5856247044
  0
LINE
  5
28D
100
AcDbEntity
  8
0
100
AcDbLine
 62
7
  6
CONTINUOUS
 10
16.5603552569
 20
5.5856247044
 11
16.5603552569
 21
5.5406247044
  0
LINE
  5
28E
100
AcDbEntity
  8
LAYER_FEATURE
100
AcDbLine
 62
7
  6
CONTINUOUS
 10
16.5603552569
 20
5.3356247044
 11
16.5603552569
 21
5.5406247044
  0
LINE
  5
28F
100
AcDbEntity
  8
0
100
AcDbLine
 62
7
  6
CONTINUOUS
 10
12.4783352288
 20
11.8005172546
 11
12.4897742988
 21
11.7772068807
  0
LINE
  5
290
100
AcDbEntity
  8
0
100
AcDbLine
 62
7
  6
CONTINUOUS
 10
12.4780783384
 20
11.8027313624
 11
12.4783352288
 21
11.8005172546
  0
LINE
  5
291
100
AcDbEntity
  8
0
100
AcDbLine
 62
7
  6
CONTINUOUS
 10
12.7990030063
 20
11.6558542438
 11
12.7937244268
 21
11.7772068807
  0
LINE
  5
292
100
AcDbEntity
  8
0
100
AcDbLine
 62
7
  6
CONTINUOUS
 10
12.4897742988
 20
11.7772068807
 11
12.6035981687
 21
11.6558542438
  0
LINE
  5
293
100
AcDbEntity
  8
0
100
AcDbLine
 62
7
  6
CONTINUOUS
 10
12.7937244268
 20
11.7772068807
 11
12.7868609848
 21
11.791193105
  0
LINE
  5
294
100
AcDbEntity
  8
LAYER_FEATURE
100
AcDbLine
 62
7
  6
CONTINUOUS
 10
12.8283087296
 20
11.791193105
 11
12.8351721716
 21
11.7772068807
  0
LINE
  5
295
100
AcDbEntity
  8
0
100
AcDbLine
 62
7
  6
CONTINUOUS
 10
12.7987951332
 20
11.6542669543
 11
12.7990030063
 21
11.6558542438
  0
LINE
  5
296
100
AcDbEntity
  8
0
100
AcDbLine
 62
7
  6
CONTINUOUS
 10
12.9622101767
 20
13.3693854291
 11
12.4780775299
 21
11.8027316098
  0
LINE
  5
297
100
AcDbEntity
  8
LAYER_FEATURE
100
AcDbLine
 62
7
  6
CONTINUOUS
 10
13.1444008791
 20
11.6558542438
 11
13.1391222996
 21
11.7772068807
  0
LINE
  5
298
100
AcDbEntity
  8
0
100
AcDbLine
 62
7
  6
CONTINUOUS
 10
12.798046497
 20
11.791193105
 11
12.7937244268
 21
11.7772068807
  0
LINE
  5
299
100
AcDbEntity
  8
0
100
AcDbLine
 62
7
  6
CONTINUOUS
 10
12.7988037206
 20
11.654264323
 11
12.836393471
 21
11.7759047997
  0
LINE
  5
29A
100
AcDbEntity
  8
LAYER_FEATURE
100
AcDbLine
 62
7
  6
CONTINUOUS
 10
12.8351721716
 20
11.7772068807
 11
12.9489960414
 21
11.6558542438
  0
LINE
  5
29B
100
AcDbEntity
  8
LAYER_FEATURE
100
AcDbLine
 62
7
  6
CONTINUOUS
 10
13.1391222996
 20
11.7772068807
 11
13.1322588576
 21
11.791193105
  0
LINE
  5
29C
100
AcDbEntity
  8
LAYER_FEATURE
100
AcDbLine
 62
7
  6
CONTINUOUS
 10
13.1737066023
 20
11.791193105
 11
13.1805700443
 21
11.7772068807
  0
LINE
  5
29D
100
AcDbEntity
  8
LAYER_FEATURE
100
AcDbLine
 62
7
  6
CONTINUOUS
 10
13.144193006
 20
11.6542669543
 11
13.1444008791
 21
11.6558542438
  0
LINE
  5
29E
100
AcDbEntity
  8
LAYER_FEATURE
100
AcDbLine
 62
7
  6
CONTINUOUS
 10
13.1805700443
 20
11.7772068807
 11
13.2943939142
 21
11.6558542438
  0
LINE
  5
29F
100
AcDbEntity
  8
LAYER_FEATURE
100
AcDbLine
 62
7
  6
CONTINUOUS
 10
13.4845201723
 20
11.7772068807
 11
13.4776567303
 21
11.791193105
  0
LINE
  5
2A0
100
AcDbEntity
  8
LAYER_FEATURE
100
AcDbLine
 62
7
  6
CONTINUOUS
 10
13.5191044751
 20
11.791193105
 11
13.5259679171
 21
11.7772068807
  0
LINE
  5
2A1
100
AcDbEntity
  8
LAYER_FEATURE
100
AcDbLine
 62
7
  6
CONTINUOUS
 10
13.4897987518
 20
11.6558542438
 11
13.4845201723
 21
11.7772068807
  0
LINE
  5
2A2
100
AcDbEntity
  8
LAYER_FEATURE
100
AcDbLine
 62
7
  6
CONTINUOUS
 10
13.4895908787
 20
11.6542669543
 11
13.4897987518
 21
11.6558542438
  0
LINE
  5
2A3
100
AcDbEntity
  8
LAYER_FEATURE
100
AcDbLine
 62
7
  6
CONTINUOUS
 10
13.1434443698
 20
11.791193105
 11
13.1391222996
 21
11.7772068807
  0
LINE
  5
2A4
100
AcDbEntity
  8
LAYER_FEATURE
100
AcDbLine
 62
7
  6
CONTINUOUS
 10
13.1442015934
 20
11.654264323
 11
13.1817913437
 21
11.7759047997
  0
LINE
  5
2A5
100
AcDbEntity
  8
LAYER_FEATURE
100
AcDbLine
 62
7
  6
CONTINUOUS
 10
13.5259679171
 20
11.7772068807
 11
13.6397917869
 21
11.6558542438
  0
LINE
  5
2A6
100
AcDbEntity
  8
LAYER_FEATURE
100
AcDbLine
 62
7
  6
CONTINUOUS
 10
13.8351966246
 20
11.6558542438
 11
13.8299180451
 21
11.7772068807
  0
LINE
  5
2A7
100
AcDbEntity
  8
LAYER_FEATURE
100
AcDbLine
 62
7
  6
CONTINUOUS
 10
13.4888422425
 20
11.791193105
 11
13.4845201723
 21
11.7772068807
  0
LINE
  5
2A8
100
AcDbEntity
  8
LAYER_FEATURE
100
AcDbLine
 62
7
  6
CONTINUOUS
 10
13.4895994661
 20
11.654264323
 11
13.5271892165
 21
11.7759047997
  0
LINE
  5
2A9
100
AcDbEntity
  8
LAYER_FEATURE
100
AcDbLine
 62
7
  6
CONTINUOUS
 10
13.8713657898
 20
11.7772068807
 11
13.9851896597
 21
11.6558542438
  0
LINE
  5
2AA
100
AcDbEntity
  8
LAYER_FEATURE
100
AcDbLine
 62
7
  6
CONTINUOUS
 10
13.8299180451
 20
11.7772068807
 11
13.8230546031
 21
11.791193105
  0
LINE
  5
2AB
100
AcDbEntity
  8
LAYER_FEATURE
100
AcDbLine
 62
7
  6
CONTINUOUS
 10
13.8645023478
 20
11.791193105
 11
13.8713657898
 21
11.7772068807
  0
LINE
  5
2AC
100
AcDbEntity
  8
LAYER_FEATURE
100
AcDbLine
 62
7
  6
CONTINUOUS
 10
13.8349887515
 20
11.6542669543
 11
13.8351966246
 21
11.6558542438
  0
LINE
  5
2AD
100
AcDbEntity
  8
LAYER_FEATURE
100
AcDbLine
 62
7
  6
CONTINUOUS
 10
14.1753159178
 20
11.7772068807
 11
14.1684524758
 21
11.791193105
  0
LINE
  5
2AE
100
AcDbEntity
  8
LAYER_FEATURE
100
AcDbLine
 62
7
  6
CONTINUOUS
 10
14.2099002206
 20
11.791193105
 11
14.2167636626
 21
11.7772068807
  0
LINE
  5
2AF
100
AcDbEntity
  8
LAYER_FEATURE
100
AcDbLine
 62
7
  6
CONTINUOUS
 10
14.1805944973
 20
11.6558542438
 11
14.1753159178
 21
11.7772068807
  0
LINE
  5
2B0
100
AcDbEntity
  8
LAYER_FEATURE
100
AcDbLine
 62
7
  6
CONTINUOUS
 10
13.8342401153
 20
11.791193105
 11
13.8299180451
 21
11.7772068807
  0
LINE
  5
2B1
100
AcDbEntity
  8
LAYER_FEATURE
100
AcDbLine
 62
7
  6
CONTINUOUS
 10
13.8349973389
 20
11.654264323
 11
13.8725870892
 21
11.7759047997
  0
LINE
  5
2B2
100
AcDbEntity
  8
LAYER_FEATURE
100
AcDbLine
 62
7
  6
CONTINUOUS
 10
14.2167636626
 20
11.7772068807
 11
14.3305875324
 21
11.6558542438
  0
LINE
  5
2B3
100
AcDbEntity
  8
LAYER_FEATURE
100
AcDbLine
 62
7
  6
CONTINUOUS
 10
14.1803866242
 20
11.6542669543
 11
14.1805944973
 21
11.6558542438
  0
LINE
  5
2B4
100
AcDbEntity
  8
LAYER_FEATURE
100
AcDbLine
 62
7
  6
CONTINUOUS
 10
14.179637988
 20
11.791193105
 11
14.1753159178
 21
11.7772068807
  0
LINE
  5
2B5
100
AcDbEntity
  8
LAYER_FEATURE
100
AcDbLine
 62
7
  6
CONTINUOUS
 10
14.5621615353
 20
11.7772068807
 11
14.6759854052
 21
11.6558542438
  0
LINE
  5
2B6
100
AcDbEntity
  8
LAYER_FEATURE
100
AcDbLine
 62
7
  6
CONTINUOUS
 10
14.5207137906
 20
11.7772068807
 11
14.5138503486
 21
11.791193105
  0
LINE
  5
2B7
100
AcDbEntity
  8
LAYER_FEATURE
100
AcDbLine
 62
7
  6
CONTINUOUS
 10
14.5552980933
 20
11.791193105
 11
14.5621615353
 21
11.7772068807
  0
LINE
  5
2B8
100
AcDbEntity
  8
LAYER_FEATURE
100
AcDbLine
 62
7
  6
CONTINUOUS
 10
14.5259923701
 20
11.6558542438
 11
14.5207137906
 21
11.7772068807
  0
LINE
  5
2B9
100
AcDbEntity
  8
LAYER_FEATURE
100
AcDbLine
 62
7
  6
CONTINUOUS
 10
14.525784497
 20
11.6542669543
 11
14.5259923701
 21
11.6558542438
  0
LINE
  5
2BA
100
AcDbEntity
  8
LAYER_FEATURE
100
AcDbLine
 62
7
  6
CONTINUOUS
 10
14.1803952116
 20
11.654264323
 11
14.217984962
 21
11.7759047997
  0
LINE
  5
2BB
100
AcDbEntity
  8
0
100
AcDbLine
 62
7
  6
CONTINUOUS
 10
12.6187048813
 20
11.6497768372
 11
12.7898610097
 21
11.6497768372
  0
LINE
  5
2BC
100
AcDbEntity
  8
LAYER_FEATURE
100
AcDbLine
 62
7
  6
CONTINUOUS
 10
12.964102754
 20
11.6497768372
 11
13.1352588824
 21
11.6497768372
  0
LINE
  5
2BD
100
AcDbEntity
  8
LAYER_FEATURE
100
AcDbLine
 62
7
  6
CONTINUOUS
 10
13.3095006268
 20
11.6497768372
 11
13.4806567552
 21
11.6497768372
  0
LINE
  5
2BE
100
AcDbEntity
  8
LAYER_FEATURE
100
AcDbLine
 62
7
  6
CONTINUOUS
 10
13.6548984995
 20
11.6497768372
 11
13.8260546279
 21
11.6497768372
  0
LINE
  5
2BF
100
AcDbEntity
  8
LAYER_FEATURE
100
AcDbLine
 62
7
  6
CONTINUOUS
 10
14.0002963723
 20
11.6497768372
 11
14.1714525007
 21
11.6497768372
  0
LINE
  5
2C0
100
AcDbEntity
  8
LAYER_FEATURE
100
AcDbLine
 62
7
  6
CONTINUOUS
 10
14.345694245
 20
11.6497768372
 11
14.5168503734
 21
11.6497768372
  0
LINE
  5
2C1
100
AcDbEntity
  8
LAYER_FEATURE
100
AcDbLine
 62
7
  6
CONTINUOUS
 10
14.6910921178
 20
11.6497768372
 11
14.8622482462
 21
11.6497768372
  0
LINE
  5
2C2
100
AcDbEntity
  8
LAYER_FEATURE
100
AcDbLine
 62
7
  6
CONTINUOUS
 10
15.0364899905
 20
11.6497768372
 11
15.2076461189
 21
11.6497768372
  0
LINE
  5
2C3
100
AcDbEntity
  8
LAYER_FEATURE
100
AcDbLine
 62
7
  6
CONTINUOUS
 10
15.3818878633
 20
11.6497768372
 11
15.5530439917
 21
11.6497768372
  0
LINE
  5
2C4
100
AcDbEntity
  8
LAYER_FEATURE
100
AcDbLine
 62
7
  6
CONTINUOUS
 10
15.727285736
 20
11.6497768372
 11
15.8984418644
 21
11.6497768372
  0
LINE
  5
2C5
100
AcDbEntity
  8
LAYER_FEATURE
100
AcDbLine
 62
7
  6
CONTINUOUS
 10
16.0726836088
 20
11.6497768372
 11
16.2438397372
 21
11.6497768372
  0
LINE
  5
2C6
100
AcDbEntity
  8
LAYER_FEATURE
100
AcDbLine
 62
7
  6
CONTINUOUS
 10
16.4180814815
 20
11.6497768372
 11
16.5892376099
 21
11.6497768372
  0
LINE
  5
2C7
100
AcDbEntity
  8
LAYER_FEATURE
100
AcDbLine
 62
7
  6
CONTINUOUS
 10
16.7634793543
 20
11.6497768372
 11
16.9346354827
 21
11.6497768372
  0
LINE
  5
2C8
100
AcDbEntity
  8
LAYER_FEATURE
100
AcDbLine
 62
7
  6
CONTINUOUS
 10
17.108877227
 20
11.6497768372
 11
17.2800333554
 21
11.6497768372
  0
LINE
  5
2C9
100
AcDbEntity
  8
LAYER_FEATURE
100
AcDbLine
 62
7
  6
CONTINUOUS
 10
17.4542750998
 20
11.6497768372
 11
17.6254312282
 21
11.6497768372
  0
LINE
  5
2CA
100
AcDbEntity
  8
LAYER_FEATURE
100
AcDbLine
 62
7
  6
CONTINUOUS
 10
17.7996729725
 20
11.6497768372
 11
17.970829101
 21
11.6497768372
  0
LINE
  5
2CB
100
AcDbEntity
  8
LAYER_FEATURE
100
AcDbLine
 62
7
  6
CONTINUOUS
 10
14.9075594081
 20
11.7772068807
 11
15.0213832779
 21
11.6558542438
  0
LINE
  5
2CC
100
AcDbEntity
  8
LAYER_FEATURE
100
AcDbLine
 62
7
  6
CONTINUOUS
 10
14.8661116633
 20
11.7772068807
 11
14.8592482213
 21
11.791193105
  0
LINE
  5
2CD
100
AcDbEntity
  8
LAYER_FEATURE
100
AcDbLine
 62
7
  6
CONTINUOUS
 10
14.9006959661
 20
11.791193105
 11
14.9075594081
 21
11.7772068807
  0
LINE
  5
2CE
100
AcDbEntity
  8
LAYER_FEATURE
100
AcDbLine
 62
7
  6
CONTINUOUS
 10
14.8713902428
 20
11.6558542438
 11
14.8661116633
 21
11.7772068807
  0
LINE
  5
2CF
100
AcDbEntity
  8
LAYER_FEATURE
100
AcDbLine
 62
7
  6
CONTINUOUS
 10
14.5250358608
 20
11.791193105
 11
14.5207137906
 21
11.7772068807
  0
LINE
  5
2D0
100
AcDbEntity
  8
LAYER_FEATURE
100
AcDbLine
 62
7
  6
CONTINUOUS
 10
14.5257930844
 20
11.654264323
 11
14.5633828347
 21
11.7759047997
  0
LINE
  5
2D1
100
AcDbEntity
  8
LAYER_FEATURE
100
AcDbLine
 62
7
  6
CONTINUOUS
 10
12.7868609848
 20
11.791193105
 11
12.8283087296
 21
11.791193105
  0
LINE
  5
2D2
100
AcDbEntity
  8
LAYER_FEATURE
100
AcDbLine
 62
7
  6
CONTINUOUS
 10
13.1322588576
 20
11.791193105
 11
13.1737066023
 21
11.791193105
  0
LINE
  5
2D3
100
AcDbEntity
  8
LAYER_FEATURE
100
AcDbLine
 62
7
  6
CONTINUOUS
 10
13.4776567303
 20
11.791193105
 11
13.5191044751
 21
11.791193105
  0
LINE
  5
2D4
100
AcDbEntity
  8
LAYER_FEATURE
100
AcDbLine
 62
7
  6
CONTINUOUS
 10
13.8230546031
 20
11.791193105
 11
13.8645023478
 21
11.791193105
  0
LINE
  5
2D5
100
AcDbEntity
  8
LAYER_FEATURE
100
AcDbLine
 62
7
  6
CONTINUOUS
 10
14.1684524758
 20
11.791193105
 11
14.2099002206
 21
11.791193105
  0
LINE
  5
2D6
100
AcDbEntity
  8
LAYER_FEATURE
100
AcDbLine
 62
7
  6
CONTINUOUS
 10
14.5138503486
 20
11.791193105
 11
14.5552980933
 21
11.791193105
  0
LINE
  5
2D7
100
AcDbEntity
  8
LAYER_FEATURE
100
AcDbLine
 62
7
  6
CONTINUOUS
 10
14.8592482213
 20
11.791193105
 11
14.9006959661
 21
11.791193105
  0
LINE
  5
2D8
100
AcDbEntity
  8
LAYER_FEATURE
100
AcDbLine
 62
7
  6
CONTINUOUS
 10
15.2046460941
 20
11.791193105
 11
15.2460938388
 21
11.791193105
  0
LINE
  5
2D9
100
AcDbEntity
  8
LAYER_FEATURE
100
AcDbLine
 62
7
  6
CONTINUOUS
 10
15.5500439668
 20
11.791193105
 11
15.5914917116
 21
11.791193105
  0
LINE
  5
2DA
100
AcDbEntity
  8
LAYER_FEATURE
100
AcDbLine
 62
7
  6
CONTINUOUS
 10
15.8954418396
 20
11.791193105
 11
15.9368895843
 21
11.791193105
  0
LINE
  5
2DB
100
AcDbEntity
  8
LAYER_FEATURE
100
AcDbLine
 62
7
  6
CONTINUOUS
 10
16.2408397123
 20
11.791193105
 11
16.2822874571
 21
11.791193105
  0
LINE
  5
2DC
100
AcDbEntity
  8
LAYER_FEATURE
100
AcDbLine
 62
7
  6
CONTINUOUS
 10
16.5862375851
 20
11.791193105
 11
16.6276853298
 21
11.791193105
  0
LINE
  5
2DD
100
AcDbEntity
  8
LAYER_FEATURE
100
AcDbLine
 62
7
  6
CONTINUOUS
 10
16.9316354578
 20
11.791193105
 11
16.9730832026
 21
11.791193105
  0
LINE
  5
2DE
100
AcDbEntity
  8
LAYER_FEATURE
100
AcDbLine
 62
7
  6
CONTINUOUS
 10
17.2770333306
 20
11.791193105
 11
17.3184810753
 21
11.791193105
  0
LINE
  5
2DF
100
AcDbEntity
  8
LAYER_FEATURE
100
AcDbLine
 62
7
  6
CONTINUOUS
 10
17.6224312033
 20
11.791193105
 11
17.6638789481
 21
11.791193105
  0
LINE
  5
2E0
100
AcDbEntity
  8
0
100
AcDbLine
 62
7
  6
CONTINUOUS
 10
17.9540576766
 20
11.8051793293
 11
12.4829553723
 21
11.8051793293
  0
LINE
  5
2E1
100
AcDbEntity
  8
LAYER_FEATURE
100
AcDbLine
 62
7
  6
CONTINUOUS
 10
15.2529572808
 20
11.7772068807
 11
15.3667811507
 21
11.6558542438
  0
LINE
  5
2E2
100
AcDbEntity
  8
LAYER_FEATURE
100
AcDbLine
 62
7
  6
CONTINUOUS
 10
14.8711823697
 20
11.6542669543
 11
14.8713902428
 21
11.6558542438
  0
LINE
  5
2E3
100
AcDbEntity
  8
LAYER_FEATURE
100
AcDbLine
 62
7
  6
CONTINUOUS
 10
15.5983551536
 20
11.7772068807
 11
15.7121790234
 21
11.6558542438
  0
LINE
  5
2E4
100
AcDbEntity
  8
LAYER_FEATURE
100
AcDbLine
 62
7
  6
CONTINUOUS
 10
15.2115095361
 20
11.7772068807
 11
15.2046460941
 21
11.791193105
  0
LINE
  5
2E5
100
AcDbEntity
  8
LAYER_FEATURE
100
AcDbLine
 62
7
  6
CONTINUOUS
 10
15.2460938388
 20
11.791193105
 11
15.2529572808
 21
11.7772068807
  0
LINE
  5
2E6
100
AcDbEntity
  8
LAYER_FEATURE
100
AcDbLine
 62
7
  6
CONTINUOUS
 10
15.2167881156
 20
11.6558542438
 11
15.2115095361
 21
11.7772068807
  0
LINE
  5
2E7
100
AcDbEntity
  8
LAYER_FEATURE
100
AcDbLine
 62
7
  6
CONTINUOUS
 10
14.8704337335
 20
11.791193105
 11
14.8661116633
 21
11.7772068807
  0
LINE
  5
2E8
100
AcDbEntity
  8
LAYER_FEATURE
100
AcDbLine
 62
7
  6
CONTINUOUS
 10
14.8711909571
 20
11.654264323
 11
14.9087807075
 21
11.7759047997
  0
LINE
  5
2E9
100
AcDbEntity
  8
LAYER_FEATURE
100
AcDbLine
 62
7
  6
CONTINUOUS
 10
15.5569074088
 20
11.7772068807
 11
15.5500439668
 21
11.791193105
  0
LINE
  5
2EA
100
AcDbEntity
  8
LAYER_FEATURE
100
AcDbLine
 62
7
  6
CONTINUOUS
 10
15.5914917116
 20
11.791193105
 11
15.5983551536
 21
11.7772068807
  0
LINE
  5
2EB
100
AcDbEntity
  8
LAYER_FEATURE
100
AcDbLine
 62
7
  6
CONTINUOUS
 10
15.2165896037
 20
11.6542640843
 11
15.2167881156
 21
11.6558542438
  0
LINE
  5
2EC
100
AcDbEntity
  8
LAYER_FEATURE
100
AcDbLine
 62
7
  6
CONTINUOUS
 10
15.2158316063
 20
11.791193105
 11
15.2115095361
 21
11.7772068807
  0
LINE
  5
2ED
100
AcDbEntity
  8
LAYER_FEATURE
100
AcDbLine
 62
7
  6
CONTINUOUS
 10
15.2165888299
 20
11.654264323
 11
15.2541785802
 21
11.7759047997
  0
LINE
  5
2EE
100
AcDbEntity
  8
LAYER_FEATURE
100
AcDbLine
 62
7
  6
CONTINUOUS
 10
15.9437530263
 20
11.7772068807
 11
16.0575768962
 21
11.6558542438
  0
LINE
  5
2EF
100
AcDbEntity
  8
LAYER_FEATURE
100
AcDbLine
 62
7
  6
CONTINUOUS
 10
15.5621859883
 20
11.6558542438
 11
15.5569074088
 21
11.7772068807
  0
LINE
  5
2F0
100
AcDbEntity
  8
LAYER_FEATURE
100
AcDbLine
 62
7
  6
CONTINUOUS
 10
15.5619781152
 20
11.6542669543
 11
15.5621859883
 21
11.6558542438
  0
LINE
  5
2F1
100
AcDbEntity
  8
LAYER_FEATURE
100
AcDbLine
 62
7
  6
CONTINUOUS
 10
16.2891508991
 20
11.7772068807
 11
16.4029747689
 21
11.6558542438
  0
LINE
  5
2F2
100
AcDbEntity
  8
LAYER_FEATURE
100
AcDbLine
 62
7
  6
CONTINUOUS
 10
15.9023052816
 20
11.7772068807
 11
15.8954418396
 21
11.791193105
  0
LINE
  5
2F3
100
AcDbEntity
  8
LAYER_FEATURE
100
AcDbLine
 62
7
  6
CONTINUOUS
 10
15.9368895843
 20
11.791193105
 11
15.9437530263
 21
11.7772068807
  0
LINE
  5
2F4
100
AcDbEntity
  8
LAYER_FEATURE
100
AcDbLine
 62
7
  6
CONTINUOUS
 10
15.9075838611
 20
11.6558542438
 11
15.9023052816
 21
11.7772068807
  0
LINE
  5
2F5
100
AcDbEntity
  8
LAYER_FEATURE
100
AcDbLine
 62
7
  6
CONTINUOUS
 10
15.561229479
 20
11.791193105
 11
15.5569074088
 21
11.7772068807
  0
LINE
  5
2F6
100
AcDbEntity
  8
LAYER_FEATURE
100
AcDbLine
 62
7
  6
CONTINUOUS
 10
15.5619867026
 20
11.654264323
 11
15.599576453
 21
11.7759047997
  0
LINE
  5
2F7
100
AcDbEntity
  8
LAYER_FEATURE
100
AcDbLine
 62
7
  6
CONTINUOUS
 10
16.6345487718
 20
11.7772068807
 11
16.7483726417
 21
11.6558542438
  0
LINE
  5
2F8
100
AcDbEntity
  8
LAYER_FEATURE
100
AcDbLine
 62
7
  6
CONTINUOUS
 10
16.2477031543
 20
11.7772068807
 11
16.2408397123
 21
11.791193105
  0
LINE
  5
2F9
100
AcDbEntity
  8
LAYER_FEATURE
100
AcDbLine
 62
7
  6
CONTINUOUS
 10
16.2822874571
 20
11.791193105
 11
16.2891508991
 21
11.7772068807
  0
LINE
  5
2FA
100
AcDbEntity
  8
LAYER_FEATURE
100
AcDbLine
 62
7
  6
CONTINUOUS
 10
15.907375988
 20
11.6542669543
 11
15.9075838611
 21
11.6558542438
  0
LINE
  5
2FB
100
AcDbEntity
  8
LAYER_FEATURE
100
AcDbLine
 62
7
  6
CONTINUOUS
 10
15.9066273518
 20
11.791193105
 11
15.9023052816
 21
11.7772068807
  0
LINE
  5
2FC
100
AcDbEntity
  8
LAYER_FEATURE
100
AcDbLine
 62
7
  6
CONTINUOUS
 10
16.9799466446
 20
11.7772068807
 11
17.0937705144
 21
11.6558542438
  0
LINE
  5
2FD
100
AcDbEntity
  8
LAYER_FEATURE
100
AcDbLine
 62
7
  6
CONTINUOUS
 10
16.2529817338
 20
11.6558542438
 11
16.2477031543
 21
11.7772068807
  0
LINE
  5
2FE
100
AcDbEntity
  8
LAYER_FEATURE
100
AcDbLine
 62
7
  6
CONTINUOUS
 10
15.9073845754
 20
11.654264323
 11
15.9449743257
 21
11.7759047997
  0
LINE
  5
2FF
100
AcDbEntity
  8
LAYER_FEATURE
100
AcDbLine
 62
7
  6
CONTINUOUS
 10
17.3253445173
 20
11.7772068807
 11
17.4391683872
 21
11.6558542438
  0
LINE
  5
300
100
AcDbEntity
  8
LAYER_FEATURE
100
AcDbLine
 62
7
  6
CONTINUOUS
 10
16.5931010271
 20
11.7772068807
 11
16.5862375851
 21
11.791193105
  0
LINE
  5
301
100
AcDbEntity
  8
LAYER_FEATURE
100
AcDbLine
 62
7
  6
CONTINUOUS
 10
16.6276853298
 20
11.791193105
 11
16.6345487718
 21
11.7772068807
  0
LINE
  5
302
100
AcDbEntity
  8
LAYER_FEATURE
100
AcDbLine
 62
7
  6
CONTINUOUS
 10
16.2527738607
 20
11.6542669543
 11
16.2529817338
 21
11.6558542438
  0
LINE
  5
303
100
AcDbEntity
  8
LAYER_FEATURE
100
AcDbLine
 62
7
  6
CONTINUOUS
 10
16.2520252245
 20
11.791193105
 11
16.2477031543
 21
11.7772068807
  0
LINE
  5
304
100
AcDbEntity
  8
LAYER_FEATURE
100
AcDbLine
 62
7
  6
CONTINUOUS
 10
16.2527824481
 20
11.654264323
 11
16.2903721985
 21
11.7759047997
  0
LINE
  5
305
100
AcDbEntity
  8
0
100
AcDbLine
 62
7
  6
CONTINUOUS
 10
12.9670880191
 20
13.3718331486
 11
18.4381903235
 21
13.3718331486
  0
LINE
  5
306
100
AcDbEntity
  8
LAYER_FEATURE
100
AcDbLine
 62
7
  6
CONTINUOUS
 10
16.9384988998
 20
11.7772068807
 11
16.9316354578
 21
11.791193105
  0
LINE
  5
307
100
AcDbEntity
  8
LAYER_FEATURE
100
AcDbLine
 62
7
  6
CONTINUOUS
 10
16.9730832026
 20
11.791193105
 11
16.9799466446
 21
11.7772068807
  0
LINE
  5
308
100
AcDbEntity
  8
LAYER_FEATURE
100
AcDbLine
 62
7
  6
CONTINUOUS
 10
16.5983796066
 20
11.6558542438
 11
16.5931010271
 21
11.7772068807
  0
LINE
  5
309
100
AcDbEntity
  8
LAYER_FEATURE
100
AcDbLine
 62
7
  6
CONTINUOUS
 10
16.5981717335
 20
11.6542669543
 11
16.5983796066
 21
11.6558542438
  0
LINE
  5
30A
100
AcDbEntity
  8
LAYER_FEATURE
100
AcDbLine
 62
7
  6
CONTINUOUS
 10
17.6707423901
 20
11.7772068807
 11
17.7845662599
 21
11.6558542438
  0
LINE
  5
30B
100
AcDbEntity
  8
LAYER_FEATURE
100
AcDbLine
 62
7
  6
CONTINUOUS
 10
16.9437774793
 20
11.6558542438
 11
16.9384988998
 21
11.7772068807
  0
LINE
  5
30C
100
AcDbEntity
  8
LAYER_FEATURE
100
AcDbLine
 62
7
  6
CONTINUOUS
 10
16.5974230973
 20
11.791193105
 11
16.5931010271
 21
11.7772068807
  0
LINE
  5
30D
100
AcDbEntity
  8
LAYER_FEATURE
100
AcDbLine
 62
7
  6
CONTINUOUS
 10
16.5981803209
 20
11.654264323
 11
16.6357700712
 21
11.7759047997
  0
LINE
  5
30E
100
AcDbEntity
  8
LAYER_FEATURE
100
AcDbLine
 62
7
  6
CONTINUOUS
 10
17.2838967726
 20
11.7772068807
 11
17.2770333306
 21
11.791193105
  0
LINE
  5
30F
100
AcDbEntity
  8
LAYER_FEATURE
100
AcDbLine
 62
7
  6
CONTINUOUS
 10
17.3184810753
 20
11.791193105
 11
17.3253445173
 21
11.7772068807
  0
LINE
  5
310
100
AcDbEntity
  8
LAYER_FEATURE
100
AcDbLine
 62
7
  6
CONTINUOUS
 10
16.9435696062
 20
11.6542669543
 11
16.9437774793
 21
11.6558542438
  0
LINE
  5
311
100
AcDbEntity
  8
LAYER_FEATURE
100
AcDbLine
 62
7
  6
CONTINUOUS
 10
16.94282097
 20
11.791193105
 11
16.9384988998
 21
11.7772068807
  0
LINE
  5
312
100
AcDbEntity
  8
LAYER_FEATURE
100
AcDbLine
 62
7
  6
CONTINUOUS
 10
16.9435781936
 20
11.654264323
 11
16.981167944
 21
11.7759047997
  0
LINE
  5
313
100
AcDbEntity
  8
LAYER_FEATURE
100
AcDbLine
 62
7
  6
CONTINUOUS
 10
17.6292946453
 20
11.7772068807
 11
17.6224312033
 21
11.791193105
  0
LINE
  5
314
100
AcDbEntity
  8
LAYER_FEATURE
100
AcDbLine
 62
7
  6
CONTINUOUS
 10
17.6638789481
 20
11.791193105
 11
17.6707423901
 21
11.7772068807
  0
LINE
  5
315
100
AcDbEntity
  8
LAYER_FEATURE
100
AcDbLine
 62
7
  6
CONTINUOUS
 10
17.2891753521
 20
11.6558542438
 11
17.2838967726
 21
11.7772068807
  0
LINE
  5
316
100
AcDbEntity
  8
LAYER_FEATURE
100
AcDbLine
 62
7
  6
CONTINUOUS
 10
17.288967479
 20
11.6542669543
 11
17.2891753521
 21
11.6558542438
  0
LINE
  5
317
100
AcDbEntity
  8
LAYER_FEATURE
100
AcDbLine
 62
7
  6
CONTINUOUS
 10
17.2882188428
 20
11.791193105
 11
17.2838967726
 21
11.7772068807
  0
LINE
  5
318
100
AcDbEntity
  8
LAYER_FEATURE
100
AcDbLine
 62
7
  6
CONTINUOUS
 10
17.2889760664
 20
11.654264323
 11
17.3265658167
 21
11.7759047997
  0
LINE
  5
319
100
AcDbEntity
  8
0
100
AcDbLine
 62
7
  6
CONTINUOUS
 10
17.9746925181
 20
11.7772068807
 11
17.9632534481
 21
11.8005172546
  0
LINE
  5
31A
100
AcDbEntity
  8
LAYER_FEATURE
100
AcDbLine
 62
7
  6
CONTINUOUS
 10
17.6345732248
 20
11.6558542438
 11
17.6292946453
 21
11.7772068807
  0
LINE
  5
31B
100
AcDbEntity
  8
LAYER_FEATURE
100
AcDbLine
 62
7
  6
CONTINUOUS
 10
17.6343653517
 20
11.6542669543
 11
17.6345732248
 21
11.6558542438
  0
LINE
  5
31C
100
AcDbEntity
  8
LAYER_FEATURE
100
AcDbLine
 62
7
  6
CONTINUOUS
 10
17.6336167155
 20
11.791193105
 11
17.6292946453
 21
11.7772068807
  0
LINE
  5
31D
100
AcDbEntity
  8
LAYER_FEATURE
100
AcDbLine
 62
7
  6
CONTINUOUS
 10
17.9799710976
 20
11.6558542438
 11
17.9746925181
 21
11.7772068807
  0
LINE
  5
31E
100
AcDbEntity
  8
LAYER_FEATURE
100
AcDbLine
 62
7
  6
CONTINUOUS
 10
17.6343739391
 20
11.654264323
 11
17.6719636895
 21
11.7759047997
  0
LINE
  5
31F
100
AcDbEntity
  8
LAYER_FEATURE
100
AcDbLine
 62
7
  6
CONTINUOUS
 10
17.9797632245
 20
11.6542669543
 11
17.9799710976
 21
11.6558542438
  0
LINE
  5
320
100
AcDbEntity
  8
LAYER_FEATURE
100
AcDbLine
 62
7
  6
CONTINUOUS
 10
18.4588251649
 20
13.3438607
 11
17.9746925181
 21
11.7772068807
  0
LINE
  5
321
100
AcDbEntity
  8
LAYER_FEATURE
100
AcDbLine
 62
7
  6
CONTINUOUS
 10
17.9797718119
 20
11.654264323
 11
18.4639044587
 21
13.2209181422
  0
LINE
  5
322
100
AcDbEntity
  8
LAYER_FEATURE
100
AcDbLine
 62
7
  6
CONTINUOUS
 10
18.4641037444
 20
13.2225080631
 11
18.4588251649
 21
13.3438607
  0
LINE
  5
323
100
AcDbEntity
  8
LAYER_FEATURE
100
AcDbLine
 62
7
  6
CONTINUOUS
 10
18.4641037444
 20
13.2225080631
 11
18.4638958713
 21
13.2209207735
  0
LINE
  5
324
100
AcDbEntity
  8
0
100
AcDbLine
 62
7
  6
CONTINUOUS
 10
18.4473860949
 20
13.3671710738
 11
18.4588251649
 21
13.3438607
  0
ARC
  5
325
100
AcDbEntity
  8
0
100
AcDbCircle
 62
7
  6
CONTINUOUS
 10
3.2249547929
 20
5.4088698968
 40
0.01375
100
AcDbArc
 50
196.7953511265
 51
270.0
  0
ARC
  5
326
100
AcDbEntity
  8
0
100
AcDbCircle
 62
7
  6
CONTINUOUS
 10
3.4107797595
 20
5.4088698968
 40
0.01375
100
AcDbArc
 50
270.0
 51
343.2046488735
  0
ARC
  5
327
100
AcDbEntity
  8
LAYER_FEATURE
100
AcDbCircle
 62
7
  6
CONTINUOUS
 10
3.5999547929
 20
5.4088698968
 40
0.01375
100
AcDbArc
 50
196.7953511265
 51
270.0
  0
ARC
  5
328
100
AcDbEntity
  8
LAYER_FEATURE
100
AcDbCircle
 62
7
  6
CONTINUOUS
 10
3.7857797595
 20
5.4088698968
 40
0.01375
100
AcDbArc
 50
270.0
 51
343.2046488735
  0
ARC
  5
329
100
AcDbEntity
  8
LAYER_FEATURE
100
AcDbCircle
 62
7
  6
CONTINUOUS
 10
3.9749547929
 20
5.4088698968
 40
0.01375
100
AcDbArc
 50
196.7953511265
 51
270.0
  0
ARC
  5
32A
100
AcDbEntity
  8
LAYER_FEATURE
100
AcDbCircle
 62
7
  6
CONTINUOUS
 10
4.1607797595
 20
5.4088698968
 40
0.01375
100
AcDbArc
 50
270.0
 51
343.2046488735
  0
ARC
  5
32B
100
AcDbEntity
  8
LAYER_FEATURE
100
AcDbCircle
 62
7
  6
CONTINUOUS
 10
4.3499547929
 20
5.4088698968
 40
0.01375
100
AcDbArc
 50
196.7953511265
 51
270.0
  0
ARC
  5
32C
100
AcDbEntity
  8
LAYER_FEATURE
100
AcDbCircle
 62
7
  6
CONTINUOUS
 10
4.5357797595
 20
5.4088698968
 40
0.01375
100
AcDbArc
 50
270.0
 51
343.2046488735
  0
ARC
  5
32D
100
AcDbEntity
  8
LAYER_FEATURE
100
AcDbCircle
 62
7
  6
CONTINUOUS
 10
4.7249547929
 20
5.4088698968
 40
0.01375
100
AcDbArc
 50
196.7953511265
 51
270.0
  0
ARC
  5
32E
100
AcDbEntity
  8
LAYER_FEATURE
100
AcDbCircle
 62
7
  6
CONTINUOUS
 10
4.9107797595
 20
5.4088698968
 40
0.01375
100
AcDbArc
 50
270.0
 51
343.2046488735
  0
ARC
  5
32F
100
AcDbEntity
  8
LAYER_FEATURE
100
AcDbCircle
 62
7
  6
CONTINUOUS
 10
5.0999547929
 20
5.4088698968
 40
0.01375
100
AcDbArc
 50
196.7953511265
 51
270.0
  0
ARC
  5
330
100
AcDbEntity
  8
LAYER_FEATURE
100
AcDbCircle
 62
7
  6
CONTINUOUS
 10
5.2857797595
 20
5.4088698968
 40
0.01375
100
AcDbArc
 50
270.0
 51
343.2046488735
  0
ARC
  5
331
100
AcDbEntity
  8
LAYER_FEATURE
100
AcDbCircle
 62
7
  6
CONTINUOUS
 10
5.4749547929
 20
5.4088698968
 40
0.01375
100
AcDbArc
 50
196.7953511265
 51
270.0
  0
ARC
  5
332
100
AcDbEntity
  8
LAYER_FEATURE
100
AcDbCircle
 62
7
  6
CONTINUOUS
 10
5.6607797595
 20
5.4088698968
 40
0.01375
100
AcDbArc
 50
270.0
 51
343.2046488735
  0
ARC
  5
333
100
AcDbEntity
  8
LAYER_FEATURE
100
AcDbCircle
 62
7
  6
CONTINUOUS
 10
5.8499547929
 20
5.4088698968
 40
0.01375
100
AcDbArc
 50
196.7953511265
 51
270.0
  0
ARC
  5
334
100
AcDbEntity
  8
LAYER_FEATURE
100
AcDbCircle
 62
7
  6
CONTINUOUS
 10
6.0357797595
 20
5.4088698968
 40
0.01375
100
AcDbArc
 50
270.0
 51
343.2046488735
  0
ARC
  5
335
100
AcDbEntity
  8
LAYER_FEATURE
100
AcDbCircle
 62
7
  6
CONTINUOUS
 10
6.2249547929
 20
5.4088698968
 40
0.01375
100
AcDbArc
 50
196.7953511265
 51
270.0
  0
ARC
  5
336
100
AcDbEntity
  8
LAYER_FEATURE
100
AcDbCircle
 62
7
  6
CONTINUOUS
 10
6.4107797595
 20
5.4088698968
 40
0.01375
100
AcDbArc
 50
270.0
 51
343.2046488735
  0
ARC
  5
337
100
AcDbEntity
  8
LAYER_FEATURE
100
AcDbCircle
 62
7
  6
CONTINUOUS
 10
6.5999547929
 20
5.4088698968
 40
0.01375
100
AcDbArc
 50
196.7953511265
 51
270.0
  0
ARC
  5
338
100
AcDbEntity
  8
LAYER_FEATURE
100
AcDbCircle
 62
7
  6
CONTINUOUS
 10
6.7857797595
 20
5.4088698968
 40
0.01375
100
AcDbArc
 50
270.0
 51
343.2046488735
  0
ARC
  5
339
100
AcDbEntity
  8
LAYER_FEATURE
100
AcDbCircle
 62
7
  6
CONTINUOUS
 10
6.9749547929
 20
5.4088698968
 40
0.01375
100
AcDbArc
 50
196.7953511265
 51
270.0
  0
ARC
  5
33A
100
AcDbEntity
  8
LAYER_FEATURE
100
AcDbCircle
 62
7
  6
CONTINUOUS
 10
7.1607797595
 20
5.4088698968
 40
0.01375
100
AcDbArc
 50
270.0
 51
343.2046488735
  0
ARC
  5
33B
100
AcDbEntity
  8
LAYER_FEATURE
100
AcDbCircle
 62
7
  6
CONTINUOUS
 10
7.3499547929
 20
5.4088698968
 40
0.01375
100
AcDbArc
 50
196.7953511265
 51
270.0
  0
ARC
  5
33C
100
AcDbEntity
  8
LAYER_FEATURE
100
AcDbCircle
 62
7
  6
CONTINUOUS
 10
7.5357797595
 20
5.4088698968
 40
0.01375
100
AcDbArc
 50
270.0
 51
343.2046488735
  0
ARC
  5
33D
100
AcDbEntity
  8
LAYER_FEATURE
100
AcDbCircle
 62
7
  6
CONTINUOUS
 10
7.7249547929
 20
5.4088698968
 40
0.01375
100
AcDbArc
 50
196.7953511265
 51
270.0
  0
ARC
  5
33E
100
AcDbEntity
  8
LAYER_FEATURE
100
AcDbCircle
 62
7
  6
CONTINUOUS
 10
7.9107797595
 20
5.4088698968
 40
0.01375
100
AcDbArc
 50
270.0
 51
343.2046488735
  0
ARC
  5
33F
100
AcDbEntity
  8
LAYER_FEATURE
100
AcDbCircle
 62
7
  6
CONTINUOUS
 10
8.0999547929
 20
5.4088698968
 40
0.01375
100
AcDbArc
 50
196.7953511265
 51
270.0
  0
ARC
  5
340
100
AcDbEntity
  8
LAYER_FEATURE
100
AcDbCircle
 62
7
  6
CONTINUOUS
 10
9.0357797595
 20
5.4088698968
 40
0.01375
100
AcDbArc
 50
270.0
 51
343.2046488735
  0
ARC
  5
341
100
AcDbEntity
  8
LAYER_FEATURE
100
AcDbCircle
 62
7
  6
CONTINUOUS
 10
8.8499547929
 20
5.4088698968
 40
0.01375
100
AcDbArc
 50
196.7953511265
 51
270.0
  0
ARC
  5
342
100
AcDbEntity
  8
LAYER_FEATURE
100
AcDbCircle
 62
7
  6
CONTINUOUS
 10
8.6607797595
 20
5.4088698968
 40
0.01375
100
AcDbArc
 50
270.0
 51
343.2046488735
  0
ARC
  5
343
100
AcDbEntity
  8
LAYER_FEATURE
100
AcDbCircle
 62
7
  6
CONTINUOUS
 10
8.4749547929
 20
5.4088698968
 40
0.01375
100
AcDbArc
 50
196.7953511265
 51
270.0
  0
ARC
  5
344
100
AcDbEntity
  8
LAYER_FEATURE
100
AcDbCircle
 62
7
  6
CONTINUOUS
 10
8.2857797595
 20
5.4088698968
 40
0.01375
100
AcDbArc
 50
270.0
 51
343.2046488735
  0
ARC
  5
345
100
AcDbEntity
  8
0
100
AcDbCircle
 62
7
  6
CONTINUOUS
 10
3.1603672762
 20
5.6376198968
 40
0.0075
100
AcDbArc
 50
90.0
 51
180.0
  0
ARC
  5
346
100
AcDbEntity
  8
0
100
AcDbCircle
 62
7
  6
CONTINUOUS
 10
9.1003672762
 20
5.6376198968
 40
0.0075
100
AcDbArc
 50
0.0
 51
90.0
  0
SPLINE
  5
347
100
AcDbEntity
  8
0
100
AcDbSpline
 62
7
  6
CONTINUOUS
 70
0
 71
3
 72
11
 73
7
 74
0
 42
0.0000001
 43
0.0000001
 44
0.0000000001
 40
0.0
 40
0.0
 40
0.0
 40
0.0
 40
0.2644444522
 40
0.5366447956
 40
0.7886683147
 40
1.0
 40
1.0
 40
1.0
 40
1.0
 10
18.4381903235
 20
13.3718331486
 30
0.0
 10
18.4391359823
 20
13.3718331486
 30
0.0
 10
18.4410581214
 20
13.3715707666
 30
0.0
 10
18.443729073
 20
13.3705976071
 30
0.0
 10
18.4459483341
 20
13.3691465941
 30
0.0
 10
18.4470531651
 20
13.3678495134
 30
0.0
 10
18.4473860949
 20
13.3671710738
 30
0.0
  0
SPLINE
  5
348
100
AcDbEntity
  8
0
100
AcDbSpline
 62
7
  6
CONTINUOUS
 70
0
 71
3
 72
11
 73
7
 74
0
 42
0.0000001
 43
0.0000001
 44
0.0000000001
 40
0.0
 40
0.0
 40
0.0
 40
0.0
 40
0.2022595964
 40
0.4301234434
 40
0.6973865799
 40
1.0
 40
1.0
 40
1.0
 40
1.0
 10
12.9622107422
 20
13.3693852563
 30
0.0
 10
12.9623243504
 20
13.369759255
 30
0.0
 10
12.962776017
 20
13.3704981463
 30
0.0
 10
12.9639107999
 20
13.3712749725
 30
0.0
 10
12.9653983685
 20
13.3717357617
 30
0.0
 10
12.9665032088
 20
13.3718331486
 30
0.0
 10
12.9670880191
 20
13.3718331486
 30
0.0
  0
SPLINE
  5
349
100
AcDbEntity
  8
LAYER_FEATURE
100
AcDbSpline
 62
7
  6
CONTINUOUS
 70
0
 71
3
 72
12
 73
8
 74
0
 42
0.0000001
 43
0.0000001
 44
0.0000000001
 40
0.0
 40
0.0
 40
0.0
 40
0.0
 40
0.3028069782
 40
0.5690718461
 40
0.7964937409
 40
0.8999817997
 40
1.0
 40
1.0
 40
1.0
 40
1.0
 10
17.970829101
 20
11.6497768372
 30
0.0
 10
17.9719032988
 20
11.6497768372
 30
0.0
 10
17.9739296426
 20
11.6499521512
 30
0.0
 10
17.976653002
 20
11.6507976061
 30
0.0
 10
17.9784403917
 20
11.6520297747
 30
0.0
 10
17.9793683108
 20
11.6532592579
 30
0.0
 10
17.9796640275
 20
11.6539262405
 30
0.0
 10
17.9797690517
 20
11.6542651519
 30
0.0
  0
SPLINE
  5
34A
100
AcDbEntity
  8
LAYER_FEATURE
100
AcDbSpline
 62
7
  6
CONTINUOUS
 70
0
 71
3
 72
11
 73
7
 74
0
 42
0.0000001
 43
0.0000001
 44
0.0000000001
 40
0.0
 40
0.0
 40
0.0
 40
0.0
 40
0.2303219006
 40
0.4848884201
 40
0.7474698088
 40
1.0
 40
1.0
 40
1.0
 40
1.0
 10
17.7845662599
 20
11.6558542438
 30
0.0
 10
17.7854415006
 20
11.6549211112
 30
0.0
 10
17.7875695748
 20
11.6532213676
 30
0.0
 10
17.7912870735
 20
11.651323343
 30
0.0
 10
17.7954048958
 20
11.6500947794
 30
0.0
 10
17.7982702441
 20
11.6497768372
 30
0.0
 10
17.7996729725
 20
11.6497768372
 30
0.0
  0
SPLINE
  5
34B
100
AcDbEntity
  8
LAYER_FEATURE
100
AcDbSpline
 62
7
  6
CONTINUOUS
 70
0
 71
3
 72
12
 73
8
 74
0
 42
0.0000001
 43
0.0000001
 44
0.0000000001
 40
0.0
 40
0.0
 40
0.0
 40
0.0
 40
0.3028069782
 40
0.5690718461
 40
0.7964937409
 40
0.8999817997
 40
1.0
 40
1.0
 40
1.0
 40
1.0
 10
17.6254312282
 20
11.6497768372
 30
0.0
 10
17.626505426
 20
11.6497768372
 30
0.0
 10
17.6285317698
 20
11.6499521512
 30
0.0
 10
17.6312551293
 20
11.6507976061
 30
0.0
 10
17.633042519
 20
11.6520297747
 30
0.0
 10
17.633970438
 20
11.6532592579
 30
0.0
 10
17.6342661547
 20
11.6539262405
 30
0.0
 10
17.6343711789
 20
11.6542651519
 30
0.0
  0
SPLINE
  5
34C
100
AcDbEntity
  8
LAYER_FEATURE
100
AcDbSpline
 62
7
  6
CONTINUOUS
 70
0
 71
3
 72
11
 73
7
 74
0
 42
0.0000001
 43
0.0000001
 44
0.0000000001
 40
0.0
 40
0.0
 40
0.0
 40
0.0
 40
0.2303219006
 40
0.4848884201
 40
0.7474698088
 40
1.0
 40
1.0
 40
1.0
 40
1.0
 10
17.4391683872
 20
11.6558542438
 30
0.0
 10
17.4400436279
 20
11.6549211112
 30
0.0
 10
17.442171702
 20
11.6532213676
 30
0.0
 10
17.4458892008
 20
11.651323343
 30
0.0
 10
17.450007023
 20
11.6500947794
 30
0.0
 10
17.4528723713
 20
11.6497768372
 30
0.0
 10
17.4542750998
 20
11.6497768372
 30
0.0
  0
SPLINE
  5
34D
100
AcDbEntity
  8
LAYER_FEATURE
100
AcDbSpline
 62
7
  6
CONTINUOUS
 70
0
 71
3
 72
12
 73
8
 74
0
 42
0.0000001
 43
0.0000001
 44
0.0000000001
 40
0.0
 40
0.0
 40
0.0
 40
0.0
 40
0.3028069782
 40
0.5690718461
 40
0.7964937409
 40
0.8999817997
 40
1.0
 40
1.0
 40
1.0
 40
1.0
 10
17.2800333554
 20
11.6497768372
 30
0.0
 10
17.2811075533
 20
11.6497768372
 30
0.0
 10
17.2831338971
 20
11.6499521512
 30
0.0
 10
17.2858572565
 20
11.6507976061
 30
0.0
 10
17.2876446462
 20
11.6520297747
 30
0.0
 10
17.2885725653
 20
11.6532592579
 30
0.0
 10
17.288868282
 20
11.6539262405
 30
0.0
 10
17.2889733062
 20
11.6542651519
 30
0.0
  0
SPLINE
  5
34E
100
AcDbEntity
  8
LAYER_FEATURE
100
AcDbSpline
 62
7
  6
CONTINUOUS
 70
0
 71
3
 72
11
 73
7
 74
0
 42
0.0000001
 43
0.0000001
 44
0.0000000001
 40
0.0
 40
0.0
 40
0.0
 40
0.0
 40
0.2303219006
 40
0.4848884201
 40
0.7474698088
 40
1.0
 40
1.0
 40
1.0
 40
1.0
 10
17.0937705144
 20
11.6558542438
 30
0.0
 10
17.0946457551
 20
11.6549211112
 30
0.0
 10
17.0967738293
 20
11.6532213676
 30
0.0
 10
17.100491328
 20
11.651323343
 30
0.0
 10
17.1046091503
 20
11.6500947794
 30
0.0
 10
17.1074744986
 20
11.6497768372
 30
0.0
 10
17.108877227
 20
11.6497768372
 30
0.0
  0
SPLINE
  5
34F
100
AcDbEntity
  8
LAYER_FEATURE
100
AcDbSpline
 62
7
  6
CONTINUOUS
 70
0
 71
3
 72
12
 73
8
 74
0
 42
0.0000001
 43
0.0000001
 44
0.0000000001
 40
0.0
 40
0.0
 40
0.0
 40
0.0
 40
0.3028069782
 40
0.5690718461
 40
0.7964937409
 40
0.8999817997
 40
1.0
 40
1.0
 40
1.0
 40
1.0
 10
16.9346354827
 20
11.6497768372
 30
0.0
 10
16.9357096805
 20
11.6497768372
 30
0.0
 10
16.9377360243
 20
11.6499521512
 30
0.0
 10
16.9404593838
 20
11.6507976061
 30
0.0
 10
16.9422467735
 20
11.6520297747
 30
0.0
 10
16.9431746925
 20
11.6532592579
 30
0.0
 10
16.9434704092
 20
11.6539262405
 30
0.0
 10
16.9435754334
 20
11.6542651519
 30
0.0
  0
SPLINE
  5
350
100
AcDbEntity
  8
LAYER_FEATURE
100
AcDbSpline
 62
7
  6
CONTINUOUS
 70
0
 71
3
 72
11
 73
7
 74
0
 42
0.0000001
 43
0.0000001
 44
0.0000000001
 40
0.0
 40
0.0
 40
0.0
 40
0.0
 40
0.2303219006
 40
0.4848884201
 40
0.7474698088
 40
1.0
 40
1.0
 40
1.0
 40
1.0
 10
16.7483726417
 20
11.6558542438
 30
0.0
 10
16.7492478824
 20
11.6549211112
 30
0.0
 10
16.7513759565
 20
11.6532213676
 30
0.0
 10
16.7550934553
 20
11.651323343
 30
0.0
 10
16.7592112775
 20
11.6500947794
 30
0.0
 10
16.7620766258
 20
11.6497768372
 30
0.0
 10
16.7634793543
 20
11.6497768372
 30
0.0
  0
SPLINE
  5
351
100
AcDbEntity
  8
LAYER_FEATURE
100
AcDbSpline
 62
7
  6
CONTINUOUS
 70
0
 71
3
 72
12
 73
8
 74
0
 42
0.0000001
 43
0.0000001
 44
0.0000000001
 40
0.0
 40
0.0
 40
0.0
 40
0.0
 40
0.3028069782
 40
0.5690718461
 40
0.7964937409
 40
0.8999817997
 40
1.0
 40
1.0
 40
1.0
 40
1.0
 10
16.5892376099
 20
11.6497768372
 30
0.0
 10
16.5903118078
 20
11.6497768372
 30
0.0
 10
16.5923381516
 20
11.6499521512
 30
0.0
 10
16.595061511
 20
11.6507976061
 30
0.0
 10
16.5968489007
 20
11.6520297747
 30
0.0
 10
16.5977768198
 20
11.6532592579
 30
0.0
 10
16.5980725365
 20
11.6539262405
 30
0.0
 10
16.5981775607
 20
11.6542651519
 30
0.0
  0
SPLINE
  5
352
100
AcDbEntity
  8
LAYER_FEATURE
100
AcDbSpline
 62
7
  6
CONTINUOUS
 70
0
 71
3
 72
11
 73
7
 74
0
 42
0.0000001
 43
0.0000001
 44
0.0000000001
 40
0.0
 40
0.0
 40
0.0
 40
0.0
 40
0.2303219006
 40
0.4848884201
 40
0.7474698088
 40
1.0
 40
1.0
 40
1.0
 40
1.0
 10
16.4029747689
 20
11.6558542438
 30
0.0
 10
16.4038500096
 20
11.6549211112
 30
0.0
 10
16.4059780838
 20
11.6532213676
 30
0.0
 10
16.4096955825
 20
11.651323343
 30
0.0
 10
16.4138134048
 20
11.6500947794
 30
0.0
 10
16.4166787531
 20
11.6497768372
 30
0.0
 10
16.4180814815
 20
11.6497768372
 30
0.0
  0
SPLINE
  5
353
100
AcDbEntity
  8
LAYER_FEATURE
100
AcDbSpline
 62
7
  6
CONTINUOUS
 70
0
 71
3
 72
12
 73
8
 74
0
 42
0.0000001
 43
0.0000001
 44
0.0000000001
 40
0.0
 40
0.0
 40
0.0
 40
0.0
 40
0.3028069782
 40
0.5690718461
 40
0.7964937409
 40
0.8999817997
 40
1.0
 40
1.0
 40
1.0
 40
1.0
 10
16.2438397372
 20
11.6497768372
 30
0.0
 10
16.244913935
 20
11.6497768372
 30
0.0
 10
16.2469402788
 20
11.6499521512
 30
0.0
 10
16.2496636383
 20
11.6507976061
 30
0.0
 10
16.251451028
 20
11.6520297747
 30
0.0
 10
16.252378947
 20
11.6532592579
 30
0.0
 10
16.2526746637
 20
11.6539262405
 30
0.0
 10
16.2527796879
 20
11.6542651519
 30
0.0
  0
SPLINE
  5
354
100
AcDbEntity
  8
LAYER_FEATURE
100
AcDbSpline
 62
7
  6
CONTINUOUS
 70
0
 71
3
 72
11
 73
7
 74
0
 42
0.0000001
 43
0.0000001
 44
0.0000000001
 40
0.0
 40
0.0
 40
0.0
 40
0.0
 40
0.2303219006
 40
0.4848884201
 40
0.7474698088
 40
1.0
 40
1.0
 40
1.0
 40
1.0
 10
16.0575768962
 20
11.6558542438
 30
0.0
 10
16.0584521369
 20
11.6549211112
 30
0.0
 10
16.060580211
 20
11.6532213676
 30
0.0
 10
16.0642977098
 20
11.651323343
 30
0.0
 10
16.068415532
 20
11.6500947794
 30
0.0
 10
16.0712808803
 20
11.6497768372
 30
0.0
 10
16.0726836088
 20
11.6497768372
 30
0.0
  0
SPLINE
  5
355
100
AcDbEntity
  8
LAYER_FEATURE
100
AcDbSpline
 62
7
  6
CONTINUOUS
 70
0
 71
3
 72
12
 73
8
 74
0
 42
0.0000001
 43
0.0000001
 44
0.0000000001
 40
0.0
 40
0.0
 40
0.0
 40
0.0
 40
0.3028069782
 40
0.5690718461
 40
0.7964937409
 40
0.8999817997
 40
1.0
 40
1.0
 40
1.0
 40
1.0
 10
15.8984418644
 20
11.6497768372
 30
0.0
 10
15.8995160622
 20
11.6497768372
 30
0.0
 10
15.9015424061
 20
11.6499521512
 30
0.0
 10
15.9042657655
 20
11.6507976061
 30
0.0
 10
15.9060531552
 20
11.6520297747
 30
0.0
 10
15.9069810743
 20
11.6532592579
 30
0.0
 10
15.907276791
 20
11.6539262405
 30
0.0
 10
15.9073818152
 20
11.6542651519
 30
0.0
  0
SPLINE
  5
356
100
AcDbEntity
  8
LAYER_FEATURE
100
AcDbSpline
 62
7
  6
CONTINUOUS
 70
0
 71
3
 72
11
 73
7
 74
0
 42
0.0000001
 43
0.0000001
 44
0.0000000001
 40
0.0
 40
0.0
 40
0.0
 40
0.0
 40
0.2303219006
 40
0.4848884201
 40
0.7474698088
 40
1.0
 40
1.0
 40
1.0
 40
1.0
 10
15.7121790234
 20
11.6558542438
 30
0.0
 10
15.7130542641
 20
11.6549211112
 30
0.0
 10
15.7151823383
 20
11.6532213676
 30
0.0
 10
15.718899837
 20
11.651323343
 30
0.0
 10
15.7230176593
 20
11.6500947794
 30
0.0
 10
15.7258830076
 20
11.6497768372
 30
0.0
 10
15.727285736
 20
11.6497768372
 30
0.0
  0
SPLINE
  5
357
100
AcDbEntity
  8
LAYER_FEATURE
100
AcDbSpline
 62
7
  6
CONTINUOUS
 70
0
 71
3
 72
12
 73
8
 74
0
 42
0.0000001
 43
0.0000001
 44
0.0000000001
 40
0.0
 40
0.0
 40
0.0
 40
0.0
 40
0.3028069782
 40
0.5690718461
 40
0.7964937409
 40
0.8999817997
 40
1.0
 40
1.0
 40
1.0
 40
1.0
 10
15.5530439917
 20
11.6497768372
 30
0.0
 10
15.5541181895
 20
11.6497768372
 30
0.0
 10
15.5561445333
 20
11.6499521512
 30
0.0
 10
15.5588678928
 20
11.6507976061
 30
0.0
 10
15.5606552825
 20
11.6520297747
 30
0.0
 10
15.5615832015
 20
11.6532592579
 30
0.0
 10
15.5618789182
 20
11.6539262405
 30
0.0
 10
15.5619839424
 20
11.6542651519
 30
0.0
  0
SPLINE
  5
358
100
AcDbEntity
  8
LAYER_FEATURE
100
AcDbSpline
 62
7
  6
CONTINUOUS
 70
0
 71
3
 72
11
 73
7
 74
0
 42
0.0000001
 43
0.0000001
 44
0.0000000001
 40
0.0
 40
0.0
 40
0.0
 40
0.0
 40
0.2303219006
 40
0.4848884201
 40
0.7474698088
 40
1.0
 40
1.0
 40
1.0
 40
1.0
 10
15.3667811507
 20
11.6558542438
 30
0.0
 10
15.3676563914
 20
11.6549211112
 30
0.0
 10
15.3697844655
 20
11.6532213676
 30
0.0
 10
15.3735019642
 20
11.651323343
 30
0.0
 10
15.3776197865
 20
11.6500947794
 30
0.0
 10
15.3804851348
 20
11.6497768372
 30
0.0
 10
15.3818878633
 20
11.6497768372
 30
0.0
  0
SPLINE
  5
359
100
AcDbEntity
  8
LAYER_FEATURE
100
AcDbSpline
 62
7
  6
CONTINUOUS
 70
0
 71
3
 72
12
 73
8
 74
0
 42
0.0000001
 43
0.0000001
 44
0.0000000001
 40
0.0
 40
0.0
 40
0.0
 40
0.0
 40
0.3032791263
 40
0.5691606655
 40
0.7966045908
 40
0.9000406746
 40
1.0
 40
1.0
 40
1.0
 40
1.0
 10
15.2076461189
 20
11.6497768372
 30
0.0
 10
15.208722055
 20
11.6497768372
 30
0.0
 10
15.2107493245
 20
11.649948956
 30
0.0
 10
15.2134720808
 20
11.6508000625
 30
0.0
 10
15.2152565651
 20
11.6520322298
 30
0.0
 10
15.2161876459
 20
11.6532589321
 30
0.0
 10
15.2164836206
 20
11.6539256656
 30
0.0
 10
15.216588158
 20
11.6542645308
 30
0.0
  0
SPLINE
  5
35A
100
AcDbEntity
  8
LAYER_FEATURE
100
AcDbSpline
 62
7
  6
CONTINUOUS
 70
0
 71
3
 72
11
 73
7
 74
0
 42
0.0000001
 43
0.0000001
 44
0.0000000001
 40
0.0
 40
0.0
 40
0.0
 40
0.0
 40
0.2303219006
 40
0.4848884201
 40
0.7474698088
 40
1.0
 40
1.0
 40
1.0
 40
1.0
 10
15.0213832779
 20
11.6558542438
 30
0.0
 10
15.0222585186
 20
11.6549211112
 30
0.0
 10
15.0243865928
 20
11.6532213676
 30
0.0
 10
15.0281040915
 20
11.651323343
 30
0.0
 10
15.0322219138
 20
11.6500947794
 30
0.0
 10
15.0350872621
 20
11.6497768372
 30
0.0
 10
15.0364899905
 20
11.6497768372
 30
0.0
  0
SPLINE
  5
35B
100
AcDbEntity
  8
LAYER_FEATURE
100
AcDbSpline
 62
7
  6
CONTINUOUS
 70
0
 71
3
 72
12
 73
8
 74
0
 42
0.0000001
 43
0.0000001
 44
0.0000000001
 40
0.0
 40
0.0
 40
0.0
 40
0.0
 40
0.3028069782
 40
0.5690718461
 40
0.7964937409
 40
0.8999817997
 40
1.0
 40
1.0
 40
1.0
 40
1.0
 10
14.8622482462
 20
11.6497768372
 30
0.0
 10
14.863322444
 20
11.6497768372
 30
0.0
 10
14.8653487878
 20
11.6499521512
 30
0.0
 10
14.8680721473
 20
11.6507976061
 30
0.0
 10
14.869859537
 20
11.6520297747
 30
0.0
 10
14.870787456
 20
11.6532592579
 30
0.0
 10
14.8710831727
 20
11.6539262405
 30
0.0
 10
14.8711881969
 20
11.6542651519
 30
0.0
  0
SPLINE
  5
35C
100
AcDbEntity
  8
LAYER_FEATURE
100
AcDbSpline
 62
7
  6
CONTINUOUS
 70
0
 71
3
 72
11
 73
7
 74
0
 42
0.0000001
 43
0.0000001
 44
0.0000000001
 40
0.0
 40
0.0
 40
0.0
 40
0.0
 40
0.2303219006
 40
0.4848884201
 40
0.7474698088
 40
1.0
 40
1.0
 40
1.0
 40
1.0
 10
14.6759854052
 20
11.6558542438
 30
0.0
 10
14.6768606459
 20
11.6549211112
 30
0.0
 10
14.67898872
 20
11.6532213676
 30
0.0
 10
14.6827062187
 20
11.651323343
 30
0.0
 10
14.686824041
 20
11.6500947794
 30
0.0
 10
14.6896893893
 20
11.6497768372
 30
0.0
 10
14.6910921178
 20
11.6497768372
 30
0.0
  0
SPLINE
  5
35D
100
AcDbEntity
  8
LAYER_FEATURE
100
AcDbSpline
 62
7
  6
CONTINUOUS
 70
0
 71
3
 72
12
 73
8
 74
0
 42
0.0000001
 43
0.0000001
 44
0.0000000001
 40
0.0
 40
0.0
 40
0.0
 40
0.0
 40
0.3028069782
 40
0.5690718461
 40
0.7964937409
 40
0.8999817997
 40
1.0
 40
1.0
 40
1.0
 40
1.0
 10
14.5168503734
 20
11.6497768372
 30
0.0
 10
14.5179245712
 20
11.6497768372
 30
0.0
 10
14.5199509151
 20
11.6499521512
 30
0.0
 10
14.5226742745
 20
11.6507976061
 30
0.0
 10
14.5244616642
 20
11.6520297747
 30
0.0
 10
14.5253895833
 20
11.6532592579
 30
0.0
 10
14.5256852999
 20
11.6539262405
 30
0.0
 10
14.5257903242
 20
11.6542651519
 30
0.0
  0
SPLINE
  5
35E
100
AcDbEntity
  8
LAYER_FEATURE
100
AcDbSpline
 62
7
  6
CONTINUOUS
 70
0
 71
3
 72
11
 73
7
 74
0
 42
0.0000001
 43
0.0000001
 44
0.0000000001
 40
0.0
 40
0.0
 40
0.0
 40
0.0
 40
0.2303219006
 40
0.4848884201
 40
0.7474698088
 40
1.0
 40
1.0
 40
1.0
 40
1.0
 10
14.3305875324
 20
11.6558542438
 30
0.0
 10
14.3314627731
 20
11.6549211112
 30
0.0
 10
14.3335908473
 20
11.6532213676
 30
0.0
 10
14.337308346
 20
11.651323343
 30
0.0
 10
14.3414261683
 20
11.6500947794
 30
0.0
 10
14.3442915166
 20
11.6497768372
 30
0.0
 10
14.345694245
 20
11.6497768372
 30
0.0
  0
SPLINE
  5
35F
100
AcDbEntity
  8
LAYER_FEATURE
100
AcDbSpline
 62
7
  6
CONTINUOUS
 70
0
 71
3
 72
12
 73
8
 74
0
 42
0.0000001
 43
0.0000001
 44
0.0000000001
 40
0.0
 40
0.0
 40
0.0
 40
0.0
 40
0.3028069782
 40
0.5690718461
 40
0.7964937409
 40
0.8999817997
 40
1.0
 40
1.0
 40
1.0
 40
1.0
 10
14.1714525007
 20
11.6497768372
 30
0.0
 10
14.1725266985
 20
11.6497768372
 30
0.0
 10
14.1745530423
 20
11.6499521512
 30
0.0
 10
14.1772764018
 20
11.6507976061
 30
0.0
 10
14.1790637914
 20
11.6520297747
 30
0.0
 10
14.1799917105
 20
11.6532592579
 30
0.0
 10
14.1802874272
 20
11.6539262405
 30
0.0
 10
14.1803924514
 20
11.6542651519
 30
0.0
  0
SPLINE
  5
360
100
AcDbEntity
  8
LAYER_FEATURE
100
AcDbSpline
 62
7
  6
CONTINUOUS
 70
0
 71
3
 72
11
 73
7
 74
0
 42
0.0000001
 43
0.0000001
 44
0.0000000001
 40
0.0
 40
0.0
 40
0.0
 40
0.0
 40
0.2303219006
 40
0.4848884201
 40
0.7474698088
 40
1.0
 40
1.0
 40
1.0
 40
1.0
 10
13.9851896597
 20
11.6558542438
 30
0.0
 10
13.9860649004
 20
11.6549211112
 30
0.0
 10
13.9881929745
 20
11.6532213676
 30
0.0
 10
13.9919104732
 20
11.651323343
 30
0.0
 10
13.9960282955
 20
11.6500947794
 30
0.0
 10
13.9988936438
 20
11.6497768372
 30
0.0
 10
14.0002963723
 20
11.6497768372
 30
0.0
  0
SPLINE
  5
361
100
AcDbEntity
  8
LAYER_FEATURE
100
AcDbSpline
 62
7
  6
CONTINUOUS
 70
0
 71
3
 72
12
 73
8
 74
0
 42
0.0000001
 43
0.0000001
 44
0.0000000001
 40
0.0
 40
0.0
 40
0.0
 40
0.0
 40
0.3028069782
 40
0.5690718461
 40
0.7964937409
 40
0.8999817997
 40
1.0
 40
1.0
 40
1.0
 40
1.0
 10
13.8260546279
 20
11.6497768372
 30
0.0
 10
13.8271288257
 20
11.6497768372
 30
0.0
 10
13.8291551696
 20
11.6499521512
 30
0.0
 10
13.831878529
 20
11.6507976061
 30
0.0
 10
13.8336659187
 20
11.6520297747
 30
0.0
 10
13.8345938378
 20
11.6532592579
 30
0.0
 10
13.8348895544
 20
11.6539262405
 30
0.0
 10
13.8349945787
 20
11.6542651519
 30
0.0
  0
SPLINE
  5
362
100
AcDbEntity
  8
LAYER_FEATURE
100
AcDbSpline
 62
7
  6
CONTINUOUS
 70
0
 71
3
 72
11
 73
7
 74
0
 42
0.0000001
 43
0.0000001
 44
0.0000000001
 40
0.0
 40
0.0
 40
0.0
 40
0.0
 40
0.2303219006
 40
0.4848884201
 40
0.7474698088
 40
1.0
 40
1.0
 40
1.0
 40
1.0
 10
13.6397917869
 20
11.6558542438
 30
0.0
 10
13.6406670276
 20
11.6549211112
 30
0.0
 10
13.6427951018
 20
11.6532213676
 30
0.0
 10
13.6465126005
 20
11.651323343
 30
0.0
 10
13.6506304228
 20
11.6500947794
 30
0.0
 10
13.6534957711
 20
11.6497768372
 30
0.0
 10
13.6548984995
 20
11.6497768372
 30
0.0
  0
SPLINE
  5
363
100
AcDbEntity
  8
LAYER_FEATURE
100
AcDbSpline
 62
7
  6
CONTINUOUS
 70
0
 71
3
 72
12
 73
8
 74
0
 42
0.0000001
 43
0.0000001
 44
0.0000000001
 40
0.0
 40
0.0
 40
0.0
 40
0.0
 40
0.3028069782
 40
0.5690718461
 40
0.7964937409
 40
0.8999817997
 40
1.0
 40
1.0
 40
1.0
 40
1.0
 10
13.4806567552
 20
11.6497768372
 30
0.0
 10
13.481730953
 20
11.6497768372
 30
0.0
 10
13.4837572968
 20
11.6499521512
 30
0.0
 10
13.4864806563
 20
11.6507976061
 30
0.0
 10
13.4882680459
 20
11.6520297747
 30
0.0
 10
13.489195965
 20
11.6532592579
 30
0.0
 10
13.4894916817
 20
11.6539262405
 30
0.0
 10
13.4895967059
 20
11.6542651519
 30
0.0
  0
SPLINE
  5
364
100
AcDbEntity
  8
LAYER_FEATURE
100
AcDbSpline
 62
7
  6
CONTINUOUS
 70
0
 71
3
 72
11
 73
7
 74
0
 42
0.0000001
 43
0.0000001
 44
0.0000000001
 40
0.0
 40
0.0
 40
0.0
 40
0.0
 40
0.2303219006
 40
0.4848884201
 40
0.7474698088
 40
1.0
 40
1.0
 40
1.0
 40
1.0
 10
13.2943939142
 20
11.6558542438
 30
0.0
 10
13.2952691549
 20
11.6549211112
 30
0.0
 10
13.297397229
 20
11.6532213676
 30
0.0
 10
13.3011147277
 20
11.651323343
 30
0.0
 10
13.30523255
 20
11.6500947794
 30
0.0
 10
13.3080978983
 20
11.6497768372
 30
0.0
 10
13.3095006268
 20
11.6497768372
 30
0.0
  0
SPLINE
  5
365
100
AcDbEntity
  8
LAYER_FEATURE
100
AcDbSpline
 62
7
  6
CONTINUOUS
 70
0
 71
3
 72
12
 73
8
 74
0
 42
0.0000001
 43
0.0000001
 44
0.0000000001
 40
0.0
 40
0.0
 40
0.0
 40
0.0
 40
0.3028069782
 40
0.5690718461
 40
0.7964937409
 40
0.8999817997
 40
1.0
 40
1.0
 40
1.0
 40
1.0
 10
13.1352588824
 20
11.6497768372
 30
0.0
 10
13.1363330802
 20
11.6497768372
 30
0.0
 10
13.1383594241
 20
11.6499521512
 30
0.0
 10
13.1410827835
 20
11.6507976061
 30
0.0
 10
13.1428701732
 20
11.6520297747
 30
0.0
 10
13.1437980923
 20
11.6532592579
 30
0.0
 10
13.1440938089
 20
11.6539262405
 30
0.0
 10
13.1441988332
 20
11.6542651519
 30
0.0
  0
SPLINE
  5
366
100
AcDbEntity
  8
LAYER_FEATURE
100
AcDbSpline
 62
7
  6
CONTINUOUS
 70
0
 71
3
 72
11
 73
7
 74
0
 42
0.0000001
 43
0.0000001
 44
0.0000000001
 40
0.0
 40
0.0
 40
0.0
 40
0.0
 40
0.2303219006
 40
0.4848884201
 40
0.7474698088
 40
1.0
 40
1.0
 40
1.0
 40
1.0
 10
12.9489960414
 20
11.6558542438
 30
0.0
 10
12.9498712821
 20
11.6549211112
 30
0.0
 10
12.9519993563
 20
11.6532213676
 30
0.0
 10
12.955716855
 20
11.651323343
 30
0.0
 10
12.9598346773
 20
11.6500947794
 30
0.0
 10
12.9627000256
 20
11.6497768372
 30
0.0
 10
12.964102754
 20
11.6497768372
 30
0.0
  0
SPLINE
  5
367
100
AcDbEntity
  8
0
100
AcDbSpline
 62
7
  6
CONTINUOUS
 70
0
 71
3
 72
12
 73
8
 74
0
 42
0.0000001
 43
0.0000001
 44
0.0000000001
 40
0.0
 40
0.0
 40
0.0
 40
0.0
 40
0.3028069782
 40
0.5690718461
 40
0.7964937409
 40
0.8999817997
 40
1.0
 40
1.0
 40
1.0
 40
1.0
 10
12.7898610097
 20
11.6497768372
 30
0.0
 10
12.7909352075
 20
11.6497768372
 30
0.0
 10
12.7929615513
 20
11.6499521512
 30
0.0
 10
12.7956849108
 20
11.6507976061
 30
0.0
 10
12.7974723004
 20
11.6520297747
 30
0.0
 10
12.7984002195
 20
11.6532592579
 30
0.0
 10
12.7986959362
 20
11.6539262405
 30
0.0
 10
12.7988009604
 20
11.6542651519
 30
0.0
  0
SPLINE
  5
368
100
AcDbEntity
  8
0
100
AcDbSpline
 62
7
  6
CONTINUOUS
 70
0
 71
3
 72
11
 73
7
 74
0
 42
0.0000001
 43
0.0000001
 44
0.0000000001
 40
0.0
 40
0.0
 40
0.0
 40
0.0
 40
0.2303219006
 40
0.4848884201
 40
0.7474698088
 40
1.0
 40
1.0
 40
1.0
 40
1.0
 10
12.6035981687
 20
11.6558542438
 30
0.0
 10
12.6044734094
 20
11.6549211112
 30
0.0
 10
12.6066014835
 20
11.6532213676
 30
0.0
 10
12.6103189822
 20
11.651323343
 30
0.0
 10
12.6144368045
 20
11.6500947794
 30
0.0
 10
12.6173021528
 20
11.6497768372
 30
0.0
 10
12.6187048813
 20
11.6497768372
 30
0.0
  0
SPLINE
  5
369
100
AcDbEntity
  8
0
100
AcDbSpline
 62
7
  6
CONTINUOUS
 70
0
 71
3
 72
11
 73
7
 74
0
 42
0.0000001
 43
0.0000001
 44
0.0000000001
 40
0.0
 40
0.0
 40
0.0
 40
0.0
 40
0.2113316853
 40
0.4633552044
 40
0.7355555478
 40
1.0
 40
1.0
 40
1.0
 40
1.0
 10
17.9632534481
 20
11.8005172546
 30
0.0
 10
17.9629205183
 20
11.8011956941
 30
0.0
 10
17.9618156873
 20
11.8024927749
 30
0.0
 10
17.9595964262
 20
11.8039437878
 30
0.0
 10
17.9569254746
 20
11.8049169473
 30
0.0
 10
17.9550033354
 20
11.8051793293
 30
0.0
 10
17.9540576766
 20
11.8051793293
 30
0.0
  0
SPLINE
  5
36A
100
AcDbEntity
  8
0
100
AcDbSpline
 62
7
  6
CONTINUOUS
 70
0
 71
3
 72
11
 73
7
 74
0
 42
0.0000001
 43
0.0000001
 44
0.0000000001
 40
0.0
 40
0.0
 40
0.0
 40
0.0
 40
0.3026134201
 40
0.5698765566
 40
0.7977404036
 40
1.0
 40
1.0
 40
1.0
 40
1.0
 10
12.4829553723
 20
11.8051793293
 30
0.0
 10
12.482370562
 20
11.8051793293
 30
0.0
 10
12.4812657217
 20
11.8050819424
 30
0.0
 10
12.479778153
 20
11.8046211532
 30
0.0
 10
12.4786433702
 20
11.803844327
 30
0.0
 10
12.4781917036
 20
11.8031054358
 30
0.0
 10
12.4780780954
 20
11.802731437
 30
0.0
  0
ENDSEC
  0
SECTION
  2
OBJECTS
  0
DICTIONARY
  5
C
100
AcDbDictionary
280
0
281
1
  3
ACAD_GROUP
350
D
  3
ACAD_MLINESTYLE
350
17
  3
ACAD_LAYOUT
350
1A
  3
ACAD_PLOTSETTINGS
350
19
  3
ACAD_PLOTSTYLENAME
350
E
  0
DICTIONARY
  5
D
102
{ACAD_REACTORS
330
C
102
}
100
AcDbDictionary
280
0
281
1
  0
ACDBDICTIONARYWDFLT
  5
E
102
{ACAD_REACTORS
330
C
102
}
100
AcDbDictionary
281
1
  3
Normal
350
F
100
AcDbDictionaryWithDefault
340
F
  0
DICTIONARY
  5
17
102
{ACAD_REACTORS
330
C
102
}
100
AcDbDictionary
280
0
281
1
  3
Standard
350
18
  0
DICTIONARY
  5
19
102
{ACAD_REACTORS
330
C
102
}
100
AcDbDictionary
281
1
  0
DICTIONARY
  5
1A
102
{ACAD_REACTORS
330
C
102
}
100
AcDbDictionary
281
1
  3
Model
350
36B
  3
Layout1
350
36C
  0
ACDBPLACEHOLDER
  5
F
102
{ACAD_REACTORS
330
E
102
}
  0
MLINESTYLE
  5
18
102
{ACAD_REACTORS
330
17
102
}
100
AcDbMlineStyle
  2
STANDARD
 70
0
  3

 62
256
 51
90.0
 52
90.0
 71
2
 49
0.5
 62
256
  6
BYLAYER
 49
-0.5
 62
256
  6
BYLAYER
  0
LAYOUT
  5
36B
102
{ACAD_REACTORS
330
1A
102
}
100
AcDbPlotSettings
  1

  2
none_device
  4
ANSI_C_(22.00_x_17.00_Inches)
  6

 40
0.0
 41
0.0
 42
0.0
 43
0.0
 44
558.8
 45
431.8
 46
0.0
 47
0.0
 48
0.0
 49
0.0
140
0.0
141
0.0
142
1.0
143
1.0
 70
1024
 72
0
 73
0
 74
0
  7

 75
0
147
1.0
148
0.0
149
0.0
100
AcDbLayout
  1
Model
 70
0
 71
0
 10
0.0
 20
0.0
 11
22.0
 21
17.0
 12
0.0
 22
0.0
 32
0.0
 14
0.0
 24
0.0
 34
0.0
 15
0.0
 25
0.0
 35
0.0
146
0.0
 13
0.0
 23
0.0
 33
0.0
 16
1.0
 26
0.0
 36
0.0
 17
0.0
 27
1.0
 37
0.0
 76
0
330
21C
345
0
346
0
  0
LAYOUT
  5
36C
102
{ACAD_REACTORS
330
1A
102
}
100
AcDbPlotSettings
  1

  2
none_device
  4
ANSI_C_(22.00_x_17.00_Inches)
  6

 40
0.0
 41
0.0
 42
0.0
 43
0.0
 44
558.8
 45
431.8
 46
0.0
 47
0.0
 48
0.0
 49
0.0
140
0.0
141
0.0
142
1.0
143
1.0
 70
0
 72
0
 73
0
 74
0
  7

 75
0
147
1.0
148
0.0
149
0.0
100
AcDbLayout
  1
Layout1
 70
0
 71
1
 10
0.0
 20
0.0
 11
22.0
 21
17.0
 12
0.0
 22
0.0
 32
0.0
 14
0.0
 24
0.0
 34
0.0
 15
0.0
 25
0.0
 35
0.0
146
0.0
 13
0.0
 23
0.0
 33
0.0
 16
1.0
 26
0.0
 36
0.0
 17
0.0
 27
1.0
 37
0.0
 76
0
330
21D
345
0
346
0
  0
ENDSEC
  0
EOF