999
DXF file: _cgs_temp_output.dxf
999
Pro/ENGINEER 2016360 by Parametric Technology Corporation
  0
SECTION
  2
HEADER
  9
$ACADVER
  1
AC1021
  9
$DWGCODEPAGE
  3
ANSI_1252
  9
$EXTMAX
 10
22.0
 20
17.0
 30
0.0
  9
$EXTMIN
 10
0.0
 20
0.0
 30
0.0
  9
$LIMMIN
 10
0.0
 20
0.0
  9
$LIMMAX
 10
22.0
 20
17.0
  9
$VIEWCTR
 10
11.0
 20
8.5
  9
$VIEWSIZE
 40
17.0
  9
$CLAYER
  8
0
  9
$LTSCALE
 40
1.21
  9
$CELTYPE
  6
BYLAYER
  9
$DIMSCALE
 40
1.0
  9
$DIMASZ
 40
0.1875
  9
$DIMEXO
 40
0.0625
  9
$DIMDLI
 40
0.836
  9
$DIMEXE
 40
0.125
  9
$DIMCEN
 40
0.198
  9
$DIMLFAC
 40
1.0
  9
$DIMBLK
  1
_CLOSED
  9
$DIMALT
 70
0
  9
$DIMALTF
 40
25.4
  9
$DIMTXT
 40
0.15625
  9
$DIMTOL
 70
0
  9
$DIMLIM
 70
0
  9
$DIMTFAC
 40
1.0
  9
$DIMGAP
 40
0.09
  9
$DIMDSEP
 70
46
  9
$AUNITS
 70
0
  9
$PDMODE
 70
3
  9
$PDSIZE
 40
0.3125
  9
$HANDSEED
  5
2F6
  9
$TILEMODE
 70
1
  9
$MEASUREMENT
 70
0
  9
$INSUNITS
 70
1
  0
ENDSEC
  0
SECTION
  2
CLASSES
  0
CLASS
  1
ACDBDICTIONARYWDFLT
  2
AcDbDictionaryWithDefault
  3
AutoCAD 2000
 90
0
 91
1
280
0
281
0
  0
CLASS
  1
ACDBPLACEHOLDER
  2
AcDbPlaceHolder
  3
AutoCAD 2000
 90
0
 91
1
280
0
281
0
  0
CLASS
  1
LAYOUT
  2
AcDbLayout
  3
AutoCAD 2000
 90
0
 91
0
280
0
281
0
  0
ENDSEC
  0
SECTION
  2
TABLES
  0
TABLE
  2
VPORT
  5
8
100
AcDbSymbolTable
 70
2
  0
VPORT
  5
1F4
100
AcDbSymbolTableRecord
100
AcDbViewportTableRecord
  2
*ACTIVE
 70
0
 10
0.0
 20
0.0
 11
1.0
 21
1.0
 12
11.0
 22
8.5
 13
0.0
 23
0.0
 14
1.0
 24
1.0
 15
0.0
 25
0.0
 16
0.0
 26
0.0
 36
1.0
 17
0.0
 27
0.0
 37
0.0
 40
17.0
 41
1.2941176471
 42
50.0
 43
0.0
 44
0.0
 50
0.0
 51
0.0
 71
0
 72
100
 73
1
 74
1
 75
0
 76
0
 77
0
 78
0
  0
ENDTAB
  0
TABLE
  2
LTYPE
  5
5
100
AcDbSymbolTable
 70
6
  0
LTYPE
  5
14
100
AcDbSymbolTableRecord
100
AcDbLinetypeTableRecord
  2
BYBLOCK
 70
0
  3

 72
65
 73
0
 40
0.0
  0
LTYPE
  5
15
100
AcDbSymbolTableRecord
100
AcDbLinetypeTableRecord
  2
BYLAYER
 70
0
  3

 72
65
 73
0
 40
0.0
  0
LTYPE
  5
16
100
AcDbSymbolTableRecord
100
AcDbLinetypeTableRecord
  2
CONTINUOUS
 70
64
  3
Solid line
 72
65
 73
0
 40
0.0
  0
LTYPE
  5
1F5
100
AcDbSymbolTableRecord
100
AcDbLinetypeTableRecord
  2
CENTER
 70
64
  3
____ _ ____ _ ____ _ ____ _ ____ _ ____ _ ____
 72
65
 73
4
 40
0.6
 49
0.375
 74
0
 49
-0.075
 74
0
 49
0.075
 74
0
 49
-0.075
 74
0
  0
LTYPE
  5
1F6
100
AcDbSymbolTableRecord
100
AcDbLinetypeTableRecord
  2
HIDDEN
 70
64
  3
- - - - - - - - - - - - - - - - - - - -
 72
65
 73
2
 40
0.2
 49
0.1
 74
0
 49
-0.1
 74
0
  0
LTYPE
  5
1F7
100
AcDbSymbolTableRecord
100
AcDbLinetypeTableRecord
  2
PHANTOM
 70
64
  3
_____ _ _ _____ _ _ _____ _ _ _____
 72
65
 73
6
 40
0.8
 49
0.45
 74
0
 49
-0.05
 74
0
 49
0.1
 74
0
 49
-0.05
 74
0
 49
0.1
 74
0
 49
-0.05
 74
0
  0
LTYPE
  5
1F8
100
AcDbSymbolTableRecord
100
AcDbLinetypeTableRecord
  2
DOT
 70
64
  3
. . . . . . . . . . . . . . . . . . . .
 72
65
 73
2
 40
0.2
 49
0.1
 74
0
 49
-0.1
 74
0
  0
LTYPE
  5
1F9
100
AcDbSymbolTableRecord
100
AcDbLinetypeTableRecord
  2
DASHED
 70
64
  3
- - - - - - - - - - - - - - - - - - - -
 72
65
 73
2
 40
0.2
 49
0.1
 74
0
 49
-0.1
 74
0
  0
ENDTAB
  0
TABLE
  2
LAYER
  5
2
100
AcDbSymbolTable
 70
36
  0
LAYER
  5
10
100
AcDbSymbolTableRecord
100
AcDbLayerTableRecord
  2
0
 70
0
 62
7
  6
CONTINUOUS
370
-3
390
F
  0
LAYER
  5
1FA
100
AcDbSymbolTableRecord
100
AcDbLayerTableRecord
  2
DEFAULT_1
 70
0
 62
7
  6
CENTER
370
-3
390
F
  0
LAYER
  5
1FB
100
AcDbSymbolTableRecord
100
AcDbLayerTableRecord
  2
DEFAULT_2
 70
0
 62
8
  6
HIDDEN
370
-3
390
F
  0
LAYER
  5
1FC
100
AcDbSymbolTableRecord
100
AcDbLayerTableRecord
  2
DEFAULT_3
 70
0
 62
7
  6
PHANTOM
370
-3
390
F
  0
LAYER
  5
1FD
100
AcDbSymbolTableRecord
100
AcDbLayerTableRecord
  2
01_ALL_DTM_PLN
 70
0
 62
7
  6
CONTINUOUS
370
-3
390
F
  0
LAYER
  5
1FE
100
AcDbSymbolTableRecord
100
AcDbLayerTableRecord
  2
01__ASM_ALL_DTM_PLN
 70
0
 62
7
  6
CONTINUOUS
370
-3
390
F
  0
LAYER
  5
1FF
100
AcDbSymbolTableRecord
100
AcDbLayerTableRecord
  2
01__ASM_DEF_DTM_PLN
 70
0
 62
7
  6
CONTINUOUS
370
-3
390
F
  0
LAYER
  5
200
100
AcDbSymbolTableRecord
100
AcDbLayerTableRecord
  2
01___PRT_ALL_DTM_PLN
 70
0
 62
7
  6
CONTINUOUS
370
-3
390
F
  0
LAYER
  5
201
100
AcDbSymbolTableRecord
100
AcDbLayerTableRecord
  2
01___PRT_DEF_DTM_PLN
 70
0
 62
7
  6
CONTINUOUS
370
-3
390
F
  0
LAYER
  5
202
100
AcDbSymbolTableRecord
100
AcDbLayerTableRecord
  2
02_ALL_AXES
 70
0
 62
7
  6
CONTINUOUS
370
-3
390
F
  0
LAYER
  5
203
100
AcDbSymbolTableRecord
100
AcDbLayerTableRecord
  2
02__ASM_ALL_AXES
 70
0
 62
7
  6
CONTINUOUS
370
-3
390
F
  0
LAYER
  5
204
100
AcDbSymbolTableRecord
100
AcDbLayerTableRecord
  2
02___PRT_ALL_AXES
 70
0
 62
7
  6
CONTINUOUS
370
-3
390
F
  0
LAYER
  5
205
100
AcDbSymbolTableRecord
100
AcDbLayerTableRecord
  2
03_ALL_CURVES
 70
0
 62
7
  6
CONTINUOUS
370
-3
390
F
  0
LAYER
  5
206
100
AcDbSymbolTableRecord
100
AcDbLayerTableRecord
  2
03__ASM_ALL_CURVES
 70
0
 62
7
  6
CONTINUOUS
370
-3
390
F
  0
LAYER
  5
207
100
AcDbSymbolTableRecord
100
AcDbLayerTableRecord
  2
03___PRT_ALL_CURVES
 70
0
 62
7
  6
CONTINUOUS
370
-3
390
F
  0
LAYER
  5
208
100
AcDbSymbolTableRecord
100
AcDbLayerTableRecord
  2
04_ALL_DTM_PNT
 70
0
 62
7
  6
CONTINUOUS
370
-3
390
F
  0
LAYER
  5
209
100
AcDbSymbolTableRecord
100
AcDbLayerTableRecord
  2
04__ASM_ALL_DTM_PNT
 70
0
 62
7
  6
CONTINUOUS
370
-3
390
F
  0
LAYER
  5
20A
100
AcDbSymbolTableRecord
100
AcDbLayerTableRecord
  2
04___PRT_ALL_DTM_PNT
 70
0
 62
7
  6
CONTINUOUS
370
-3
390
F
  0
LAYER
  5
20B
100
AcDbSymbolTableRecord
100
AcDbLayerTableRecord
  2
05_ALL_DTM_CSYS
 70
0
 62
7
  6
CONTINUOUS
370
-3
390
F
  0
LAYER
  5
20C
100
AcDbSymbolTableRecord
100
AcDbLayerTableRecord
  2
05__ASM_ALL_DTM_CSYS
 70
0
 62
7
  6
CONTINUOUS
370
-3
390
F
  0
LAYER
  5
20D
100
AcDbSymbolTableRecord
100
AcDbLayerTableRecord
  2
05__ASM_DEF_DTM_CSYS
 70
0
 62
7
  6
CONTINUOUS
370
-3
390
F
  0
LAYER
  5
20E
100
AcDbSymbolTableRecord
100
AcDbLayerTableRecord
  2
05___PRT_ALL_DTM_CSYS
 70
0
 62
7
  6
CONTINUOUS
370
-3
390
F
  0
LAYER
  5
20F
100
AcDbSymbolTableRecord
100
AcDbLayerTableRecord
  2
05___PRT_DEF_DTM_CSYS
 70
0
 62
7
  6
CONTINUOUS
370
-3
390
F
  0
LAYER
  5
210
100
AcDbSymbolTableRecord
100
AcDbLayerTableRecord
  2
06_ALL_SURFS
 70
0
 62
7
  6
CONTINUOUS
370
-3
390
F
  0
LAYER
  5
211
100
AcDbSymbolTableRecord
100
AcDbLayerTableRecord
  2
06__ASM_ALL_SURFS
 70
0
 62
7
  6
CONTINUOUS
370
-3
390
F
  0
LAYER
  5
212
100
AcDbSymbolTableRecord
100
AcDbLayerTableRecord
  2
06___PRT_ALL_SURFS
 70
0
 62
7
  6
CONTINUOUS
370
-3
390
F
  0
LAYER
  5
213
100
AcDbSymbolTableRecord
100
AcDbLayerTableRecord
  2
07__ASM_ALL_SKELETONS
 70
0
 62
7
  6
CONTINUOUS
370
-3
390
F
  0
ENDTAB
  0
TABLE
  2
STYLE
  5
3
100
AcDbSymbolTable
 70
1
  0
STYLE
  5
11
100
AcDbSymbolTableRecord
100
AcDbTextStyleTableRecord
  2
STANDARD
 70
0
 40
0.0
 41
0.8
 50
0.0
 71
0
 42
0.2
  3
txt
  4

  0
STYLE
  5
214
100
AcDbSymbolTableRecord
100
AcDbTextStyleTableRecord
  2
TEXTSTYLE_1
 70
0
 40
0.0
 41
0.8
 50
0.0
 71
0
 42
0.2
  3
gdt
  4

  0
ENDTAB
  0
TABLE
  2
VIEW
  5
6
100
AcDbSymbolTable
 70
0
  0
ENDTAB
  0
TABLE
  2
UCS
  5
7
100
AcDbSymbolTable
 70
0
  0
ENDTAB
  0
TABLE
  2
APPID
  5
9
100
AcDbSymbolTable
 70
1
  0
APPID
  5
215
100
AcDbSymbolTableRecord
100
AcDbRegAppTableRecord
  2
ACAD
 70
0
  0
ENDTAB
  0
TABLE
  2
BLOCK_RECORD
  5
1
100
AcDbSymbolTable
 70
0
  0
BLOCK_RECORD
  5
216
100
AcDbSymbolTableRecord
100
AcDbBlockTableRecord
  2
*Model_Space
  0
BLOCK_RECORD
  5
217
100
AcDbSymbolTableRecord
100
AcDbBlockTableRecord
  2
*Paper_Space
  0
ENDTAB
  0
TABLE
  2
DIMSTYLE
  5
A
100
AcDbSymbolTable
 70
1
100
AcDbDimStyleTable
 71
0
  0
DIMSTYLE
105
218
100
AcDbSymbolTableRecord
100
AcDbDimStyleTableRecord
  2
STANDARD
 70
0
  3

  4

 40
1.0
 41
0.1875
 42
0.0625
 43
0.38
 44
0.125
 45
0.0
 46
0.0
 47
0.0001
 48
0.0001
140
0.15625
141
0.09
142
0.0
143
25.4
144
1.0
145
0.0
146
1.0
147
0.09
 71
0.0
 72
0.0
 73
1
 74
1
 75
0
 76
0
 77
0
 78
4
 79
1
170
0
171
3
172
0
173
0
174
0
175
0
176
0
177
0
178
0
270
2
179
4
271
4
272
4
273
2
274
2
275
0
280
0
281
0
282
0
283
1
284
4
285
0
286
0
287
3
288
0
340
11
278
46
  0
ENDTAB
  0
ENDSEC
  0
SECTION
  2
BLOCKS
  0
BLOCK
  5
20
100
AcDbEntity
  8
0
100
AcDbBlockBegin
  2
*Model_Space
 70
0
 10
0.0
 20
0.0
 30
0.0
  3
*Model_Space
  1

  0
ENDBLK
  5
21
100
AcDbEntity
  8
0
100
AcDbBlockEnd
  0
BLOCK
  5
1C
100
AcDbEntity
  8
0
100
AcDbBlockBegin
  2
*Paper_Space
 70
0
 10
0.0
 20
0.0
 30
0.0
  3
*Paper_Space
  1

  0
ENDBLK
  5
1D
100
AcDbEntity
  8
0
100
AcDbBlockEnd
  0
ENDSEC
  0
SECTION
  2
ENTITIES
  0
MTEXT
  5
219
100
AcDbEntity
  8
0
100
AcDbMText
 62
7
  6
CONTINUOUS
  7
STANDARD
 71
1
 72
1
 10
15.9560215477
 20
0.9479130325
 30
0.0
 11
1.0
 21
0.0
 31
0.0
 44
0.9
  1
SCALE: 1:1.000
 40
0.3
 41
3.36
  0
LINE
  5
21A
100
AcDbEntity
  8
0
100
AcDbLine
 62
7
  6
CONTINUOUS
 10
0.0
 20
0.0
 11
0.0
 21
17.0
  0
LINE
  5
21B
100
AcDbEntity
  8
0
100
AcDbLine
 62
7
  6
CONTINUOUS
 10
0.0
 20
0.0
 11
22.0
 21
0.0
  0
LINE
  5
21C
100
AcDbEntity
  8
0
100
AcDbLine
 62
7
  6
CONTINUOUS
 10
0.0
 20
17.0
 11
22.0
 21
17.0
  0
LINE
  5
21D
100
AcDbEntity
  8
0
100
AcDbLine
 62
7
  6
CONTINUOUS
 10
22.0
 20
0.0
 11
22.0
 21
17.0
  0
LINE
  5
21E
100
AcDbEntity
  8
0
100
AcDbLine
 62
7
  6
CONTINUOUS
 10
5.6616172762
 20
5.6741198968
 11
5.6616172762
 21
5.6201303203
  0
LINE
  5
21F
100
AcDbEntity
  8
0
100
AcDbLine
 62
7
  6
CONTINUOUS
 10
5.7144796238
 20
5.3609221045
 11
5.6638025161
 21
5.5993391512
  0
LINE
  5
220
100
AcDbEntity
  8
0
100
AcDbLine
 62
7
  6
CONTINUOUS
 10
5.7389333138
 20
5.3411198968
 11
6.5218012385
 21
5.3411198968
  0
LINE
  5
221
100
AcDbEntity
  8
0
100
AcDbLine
 62
7
  6
CONTINUOUS
 10
5.7135682308
 20
5.4604532301
 11
6.5471663216
 21
5.4604532301
  0
LINE
  5
222
100
AcDbEntity
  8
0
100
AcDbLine
 62
7
  6
CONTINUOUS
 10
6.5741172762
 20
5.6991198968
 11
5.6866172762
 21
5.6991198968
  0
LINE
  5
223
100
AcDbEntity
  8
0
100
AcDbLine
 62
7
  6
CONTINUOUS
 10
6.5991172762
 20
5.6201303203
 11
6.5991172762
 21
5.6741198968
  0
LINE
  5
224
100
AcDbEntity
  8
0
100
AcDbLine
 62
7
  6
CONTINUOUS
 10
6.5462549285
 20
5.3609221045
 11
6.5969320362
 21
5.5993391512
  0
LINE
  5
225
100
AcDbEntity
  8
0
100
AcDbLine
 62
7
  6
CONTINUOUS
 10
6.5396220839
 20
10.6000477814
 11
5.6021220839
 21
10.6000477814
  0
LINE
  5
226
100
AcDbEntity
  8
0
100
AcDbLine
 62
7
  6
CONTINUOUS
 10
5.6021220839
 20
10.6000477814
 11
5.6021220839
 21
14.6000477814
  0
LINE
  5
227
100
AcDbEntity
  8
0
100
AcDbLine
 62
7
  6
CONTINUOUS
 10
6.5396220839
 20
10.6000477814
 11
6.5396220839
 21
14.6000477814
  0
LINE
  5
228
100
AcDbEntity
  8
0
100
AcDbLine
 62
7
  6
CONTINUOUS
 10
5.6021220839
 20
14.6000477814
 11
6.5396220839
 21
14.6000477814
  0
LINE
  5
229
100
AcDbEntity
  8
0
100
AcDbLine
 62
7
  6
CONTINUOUS
 10
13.5603552569
 20
5.4009580378
 11
13.5603552569
 21
5.6396247044
  0
LINE
  5
22A
100
AcDbEntity
  8
0
100
AcDbLine
 62
7
  6
CONTINUOUS
 10
13.6769183236
 20
5.3778357442
 11
13.6937921903
 21
5.304746998
  0
LINE
  5
22B
100
AcDbEntity
  8
0
100
AcDbLine
 62
7
  6
CONTINUOUS
 10
13.9269183236
 20
5.304746998
 11
13.9437921903
 21
5.3778357442
  0
LINE
  5
22C
100
AcDbEntity
  8
0
100
AcDbLine
 62
7
  6
CONTINUOUS
 10
14.1769183236
 20
5.3778357442
 11
14.1937921903
 21
5.304746998
  0
LINE
  5
22D
100
AcDbEntity
  8
0
100
AcDbLine
 62
7
  6
CONTINUOUS
 10
14.4269183236
 20
5.304746998
 11
14.4437921903
 21
5.3778357442
  0
LINE
  5
22E
100
AcDbEntity
  8
0
100
AcDbLine
 62
7
  6
CONTINUOUS
 10
14.6769183236
 20
5.3778357442
 11
14.6937921903
 21
5.304746998
  0
LINE
  5
22F
100
AcDbEntity
  8
0
100
AcDbLine
 62
7
  6
CONTINUOUS
 10
14.9269183236
 20
5.304746998
 11
14.9437921903
 21
5.3778357442
  0
LINE
  5
230
100
AcDbEntity
  8
0
100
AcDbLine
 62
7
  6
CONTINUOUS
 10
15.1769183236
 20
5.3778357442
 11
15.1937921903
 21
5.304746998
  0
LINE
  5
231
100
AcDbEntity
  8
0
100
AcDbLine
 62
7
  6
CONTINUOUS
 10
13.7228608972
 20
5.2816247044
 11
13.8978496167
 21
5.2816247044
  0
LINE
  5
232
100
AcDbEntity
  8
0
100
AcDbLine
 62
7
  6
CONTINUOUS
 10
14.2228608972
 20
5.2816247044
 11
14.3978496167
 21
5.2816247044
  0
LINE
  5
233
100
AcDbEntity
  8
0
100
AcDbLine
 62
7
  6
CONTINUOUS
 10
14.7228608972
 20
5.2816247044
 11
14.8978496167
 21
5.2816247044
  0
LINE
  5
234
100
AcDbEntity
  8
0
100
AcDbLine
 62
7
  6
CONTINUOUS
 10
15.2228608972
 20
5.2816247044
 11
15.3978496167
 21
5.2816247044
  0
LINE
  5
235
100
AcDbEntity
  8
0
100
AcDbLine
 62
7
  6
CONTINUOUS
 10
15.7228608972
 20
5.2816247044
 11
15.8978496167
 21
5.2816247044
  0
LINE
  5
236
100
AcDbEntity
  8
0
100
AcDbLine
 62
7
  6
CONTINUOUS
 10
16.2228608972
 20
5.2816247044
 11
16.3978496167
 21
5.2816247044
  0
LINE
  5
237
100
AcDbEntity
  8
0
100
AcDbLine
 62
7
  6
CONTINUOUS
 10
16.7228608972
 20
5.2816247044
 11
16.8978496167
 21
5.2816247044
  0
LINE
  5
238
100
AcDbEntity
  8
0
100
AcDbLine
 62
7
  6
CONTINUOUS
 10
17.2228608972
 20
5.2816247044
 11
17.3978496167
 21
5.2816247044
  0
LINE
  5
239
100
AcDbEntity
  8
0
100
AcDbLine
 62
7
  6
CONTINUOUS
 10
15.4269183236
 20
5.304746998
 11
15.4437921903
 21
5.3778357442
  0
LINE
  5
23A
100
AcDbEntity
  8
0
100
AcDbLine
 62
7
  6
CONTINUOUS
 10
13.5603552569
 20
5.4009580378
 11
13.6478496167
 21
5.4009580378
  0
LINE
  5
23B
100
AcDbEntity
  8
0
100
AcDbLine
 62
7
  6
CONTINUOUS
 10
13.9728608972
 20
5.4009580378
 11
14.1478496167
 21
5.4009580378
  0
LINE
  5
23C
100
AcDbEntity
  8
0
100
AcDbLine
 62
7
  6
CONTINUOUS
 10
14.4728608972
 20
5.4009580378
 11
14.6478496167
 21
5.4009580378
  0
LINE
  5
23D
100
AcDbEntity
  8
0
100
AcDbLine
 62
7
  6
CONTINUOUS
 10
14.9728608972
 20
5.4009580378
 11
15.1478496167
 21
5.4009580378
  0
LINE
  5
23E
100
AcDbEntity
  8
0
100
AcDbLine
 62
7
  6
CONTINUOUS
 10
15.4728608972
 20
5.4009580378
 11
15.6478496167
 21
5.4009580378
  0
LINE
  5
23F
100
AcDbEntity
  8
0
100
AcDbLine
 62
7
  6
CONTINUOUS
 10
15.9728608972
 20
5.4009580378
 11
16.1478496167
 21
5.4009580378
  0
LINE
  5
240
100
AcDbEntity
  8
0
100
AcDbLine
 62
7
  6
CONTINUOUS
 10
16.4728608972
 20
5.4009580378
 11
16.6478496167
 21
5.4009580378
  0
LINE
  5
241
100
AcDbEntity
  8
0
100
AcDbLine
 62
7
  6
CONTINUOUS
 10
16.9728608972
 20
5.4009580378
 11
17.1478496167
 21
5.4009580378
  0
LINE
  5
242
100
AcDbEntity
  8
0
100
AcDbLine
 62
7
  6
CONTINUOUS
 10
17.4728608972
 20
5.4009580378
 11
17.5603552569
 21
5.4009580378
  0
LINE
  5
243
100
AcDbEntity
  8
0
100
AcDbLine
 62
7
  6
CONTINUOUS
 10
15.6769183236
 20
5.3778357442
 11
15.6937921903
 21
5.304746998
  0
LINE
  5
244
100
AcDbEntity
  8
0
100
AcDbLine
 62
7
  6
CONTINUOUS
 10
13.5603552569
 20
5.6396247044
 11
17.5603552569
 21
5.6396247044
  0
LINE
  5
245
100
AcDbEntity
  8
0
100
AcDbLine
 62
7
  6
CONTINUOUS
 10
15.9269183236
 20
5.304746998
 11
15.9437921903
 21
5.3778357442
  0
LINE
  5
246
100
AcDbEntity
  8
0
100
AcDbLine
 62
7
  6
CONTINUOUS
 10
16.1769183236
 20
5.3778357442
 11
16.1937921903
 21
5.304746998
  0
LINE
  5
247
100
AcDbEntity
  8
0
100
AcDbLine
 62
7
  6
CONTINUOUS
 10
16.4269183236
 20
5.304746998
 11
16.4437921903
 21
5.3778357442
  0
LINE
  5
248
100
AcDbEntity
  8
0
100
AcDbLine
 62
7
  6
CONTINUOUS
 10
16.6769183236
 20
5.3778357442
 11
16.6937921903
 21
5.304746998
  0
LINE
  5
249
100
AcDbEntity
  8
0
100
AcDbLine
 62
7
  6
CONTINUOUS
 10
16.9269183236
 20
5.304746998
 11
16.9437921903
 21
5.3778357442
  0
LINE
  5
24A
100
AcDbEntity
  8
0
100
AcDbLine
 62
7
  6
CONTINUOUS
 10
17.1769183236
 20
5.3778357442
 11
17.1937921903
 21
5.304746998
  0
LINE
  5
24B
100
AcDbEntity
  8
0
100
AcDbLine
 62
7
  6
CONTINUOUS
 10
17.5603552569
 20
5.4009580378
 11
17.5603552569
 21
5.6396247044
  0
LINE
  5
24C
100
AcDbEntity
  8
0
100
AcDbLine
 62
7
  6
CONTINUOUS
 10
17.4269183236
 20
5.304746998
 11
17.4437921903
 21
5.3778357442
  0
LINE
  5
24D
100
AcDbEntity
  8
0
100
AcDbLine
 62
7
  6
CONTINUOUS
 10
14.651969463
 20
10.8699723841
 11
15.4197641491
 21
10.8699723841
  0
LINE
  5
24E
100
AcDbEntity
  8
0
100
AcDbLine
 62
7
  6
CONTINUOUS
 10
14.5637661837
 20
10.9563052571
 11
14.6234056205
 21
10.8822816338
  0
LWPOLYLINE
  5
24F
100
AcDbEntity
  8
0
100
AcDbPolyline
 62
7
  6
CONTINUOUS
 90
6
 70
0
 10
15.4633877418
 20
10.9118002597
 10
15.4644044554
 20
10.911820391
 10
15.4728274306
 20
10.913624182
 10
15.4795845432
 20
10.9176437963
 10
15.4845339481
 20
10.9230835332
 10
15.4875767612
 20
10.9288887079
  0
LINE
  5
250
100
AcDbEntity
  8
0
100
AcDbLine
 62
7
  6
CONTINUOUS
 10
15.4464279926
 20
10.9117999996
 11
15.4633989403
 21
10.9117999996
  0
LINE
  5
251
100
AcDbEntity
  8
0
100
AcDbLine
 62
7
  6
CONTINUOUS
 10
14.5389421863
 20
11.002789714
 11
14.5554112674
 21
10.9692292551
  0
LINE
  5
252
100
AcDbEntity
  8
0
100
AcDbLine
 62
7
  6
CONTINUOUS
 10
15.3717842966
 20
11.0183299632
 11
14.5543426644
 21
11.0183299632
  0
LWPOLYLINE
  5
253
100
AcDbEntity
  8
0
100
AcDbPolyline
 62
7
  6
CONTINUOUS
 90
6
 70
0
 10
15.5844209035
 20
11.3034637145
 10
15.5854376171
 20
11.3034838459
 10
15.5938605923
 20
11.3052876368
 10
15.6006177049
 20
11.3093072511
 10
15.6055671098
 20
11.314746988
 10
15.6086099229
 20
11.3205521627
  0
LINE
  5
254
100
AcDbEntity
  8
0
100
AcDbLine
 62
7
  6
CONTINUOUS
 10
15.5674611543
 20
11.3034634544
 11
15.584432102
 21
11.3034634544
  0
LWPOLYLINE
  5
255
100
AcDbEntity
  8
0
100
AcDbPolyline
 62
7
  6
CONTINUOUS
 90
6
 70
0
 10
15.7054540652
 20
11.6951271694
 10
15.7064707788
 20
11.6951473007
 10
15.714893754
 20
11.6969510916
 10
15.7216508666
 20
11.7009707059
 10
15.7266002715
 20
11.7064104428
 10
15.7296430846
 20
11.7122156175
  0
LINE
  5
256
100
AcDbEntity
  8
0
100
AcDbLine
 62
7
  6
CONTINUOUS
 10
15.688494316
 20
11.6951269092
 11
15.7054652637
 21
11.6951269092
  0
LINE
  5
257
100
AcDbEntity
  8
0
100
AcDbLine
 62
7
  6
CONTINUOUS
 10
15.4189059493
 20
10.9692292551
 11
15.4024368681
 21
11.002789714
  0
LINE
  5
258
100
AcDbEntity
  8
0
100
AcDbLine
 62
7
  6
CONTINUOUS
 10
14.53808319
 20
11.0101708983
 11
15.5063484836
 21
14.1434785368
  0
LWPOLYLINE
  5
259
100
AcDbEntity
  8
0
100
AcDbPolyline
 62
7
  6
CONTINUOUS
 90
6
 70
0
 10
15.8264872269
 20
12.0867906242
 10
15.8275039405
 20
12.0868107555
 10
15.8359269157
 20
12.0886145465
 10
15.8426840283
 20
12.0926341607
 10
15.8476334332
 20
12.0980738976
 10
15.8506762463
 20
12.1038790723
  0
LINE
  5
25A
100
AcDbEntity
  8
0
100
AcDbLine
 62
7
  6
CONTINUOUS
 10
15.8095274777
 20
12.086790364
 11
15.8264984254
 21
12.086790364
  0
LINE
  5
25B
100
AcDbEntity
  8
0
100
AcDbLine
 62
7
  6
CONTINUOUS
 10
15.4362469867
 20
10.8822816338
 11
15.4232353871
 21
10.9563052571
  0
LINE
  5
25C
100
AcDbEntity
  8
0
100
AcDbLine
 62
7
  6
CONTINUOUS
 10
15.5325485566
 20
11.0833792147
 11
15.5286471601
 21
11.142029662
  0
LINE
  5
25D
100
AcDbEntity
  8
0
100
AcDbLine
 62
7
  6
CONTINUOUS
 10
15.5325872564
 20
11.0826982013
 11
15.5325480885
 21
11.0833861021
  0
LWPOLYLINE
  5
25E
100
AcDbEntity
  8
0
100
AcDbPolyline
 62
7
  6
CONTINUOUS
 90
7
 70
0
 10
15.5286459528
 20
11.1420488333
 10
15.5284831275
 20
11.1454016867
 10
15.5286176931
 20
11.1571849841
 10
15.52980639
 20
11.1711250759
 10
15.5319791927
 20
11.18520787
 10
15.5347474123
 20
11.197352299
 10
15.5358724849
 20
11.2012441763
  0
LWPOLYLINE
  5
25F
100
AcDbEntity
  8
0
100
AcDbPolyline
 62
7
  6
CONTINUOUS
 90
6
 70
0
 10
15.9475203886
 20
12.478454079
 10
15.9485371022
 20
12.4784742103
 10
15.9569600774
 20
12.4802780013
 10
15.96371719
 20
12.4842976156
 10
15.9686665949
 20
12.4897373524
 10
15.971709408
 20
12.4955425272
  0
LINE
  5
260
100
AcDbEntity
  8
0
100
AcDbLine
 62
7
  6
CONTINUOUS
 10
15.9305606394
 20
12.4784538188
 11
15.9475315871
 21
12.4784538188
  0
LINE
  5
261
100
AcDbEntity
  8
0
100
AcDbLine
 62
7
  6
CONTINUOUS
 10
15.6535817183
 20
11.4750426695
 11
15.6496803218
 21
11.5336931168
  0
LINE
  5
262
100
AcDbEntity
  8
0
100
AcDbLine
 62
7
  6
CONTINUOUS
 10
15.6536204181
 20
11.4743616562
 11
15.6535812502
 21
11.4750495569
  0
LWPOLYLINE
  5
263
100
AcDbEntity
  8
0
100
AcDbPolyline
 62
7
  6
CONTINUOUS
 90
7
 70
0
 10
15.6496791145
 20
11.5337122881
 10
15.6495162892
 20
11.5370651415
 10
15.6496508548
 20
11.5488484389
 10
15.6508395517
 20
11.5627885307
 10
15.6530123544
 20
11.5768713248
 10
15.655780574
 20
11.5890157539
 10
15.6569056466
 20
11.5929076311
  0
LINE
  5
264
100
AcDbEntity
  8
0
100
AcDbLine
 62
7
  6
CONTINUOUS
 10
15.5325122212
 20
11.0778288049
 11
15.5325872564
 21
11.0826982013
  0
LINE
  5
265
100
AcDbEntity
  8
0
100
AcDbLine
 62
7
  6
CONTINUOUS
 10
15.4360228019
 20
10.8781317022
 11
15.4362469867
 21
10.8822816338
  0
LINE
  5
266
100
AcDbEntity
  8
0
100
AcDbLine
 62
7
  6
CONTINUOUS
 10
16.3079531236
 20
13.6974187019
 11
16.3082970597
 21
13.6980203755
  0
LINE
  5
267
100
AcDbEntity
  8
0
100
AcDbLine
 62
7
  6
CONTINUOUS
 10
15.77461488
 20
11.8667061243
 11
15.7707134835
 21
11.9253565717
  0
LINE
  5
268
100
AcDbEntity
  8
0
100
AcDbLine
 62
7
  6
CONTINUOUS
 10
15.7746535799
 20
11.866025111
 11
15.7746144119
 21
11.8667130117
  0
LINE
  5
269
100
AcDbEntity
  8
0
100
AcDbLine
 62
7
  6
CONTINUOUS
 10
15.6535453829
 20
11.4694922597
 11
15.6536204181
 21
11.4743616562
  0
LINE
  5
26A
100
AcDbEntity
  8
0
100
AcDbLine
 62
7
  6
CONTINUOUS
 10
15.5318969474
 20
11.0730132782
 11
15.5325122212
 21
11.0778288049
  0
LINE
  5
26B
100
AcDbEntity
  8
0
100
AcDbLine
 62
7
  6
CONTINUOUS
 10
16.1869199619
 20
13.3057552471
 11
16.187263898
 21
13.3063569207
  0
LWPOLYLINE
  5
26C
100
AcDbEntity
  8
0
100
AcDbPolyline
 62
7
  6
CONTINUOUS
 90
7
 70
0
 10
15.7707122762
 20
11.9253757429
 10
15.7705494509
 20
11.9287285963
 10
15.7706840165
 20
11.9405118937
 10
15.7718727134
 20
11.9544519855
 10
15.7740455161
 20
11.9685347797
 10
15.7768137357
 20
11.9806792087
 10
15.7779388083
 20
11.9845710859
  0
LINE
  5
26D
100
AcDbEntity
  8
0
100
AcDbLine
 62
7
  6
CONTINUOUS
 10
15.7745785446
 20
11.8611557145
 11
15.7746535799
 21
11.866025111
  0
LINE
  5
26E
100
AcDbEntity
  8
0
100
AcDbLine
 62
7
  6
CONTINUOUS
 10
15.6529301091
 20
11.4646767331
 11
15.6535453829
 21
11.4694922597
  0
LINE
  5
26F
100
AcDbEntity
  8
0
100
AcDbLine
 62
7
  6
CONTINUOUS
 10
15.7739632708
 20
11.8563401879
 11
15.7745785446
 21
11.8611557145
  0
LINE
  5
270
100
AcDbEntity
  8
0
100
AcDbLine
 62
7
  6
CONTINUOUS
 10
16.3065374787
 20
13.6943107793
 11
16.3079531236
 21
13.6974187019
  0
LINE
  5
271
100
AcDbEntity
  8
0
100
AcDbLine
 62
7
  6
CONTINUOUS
 10
16.185504317
 20
13.3026473245
 11
16.1869199619
 21
13.3057552471
  0
LINE
  5
272
100
AcDbEntity
  8
0
100
AcDbLine
 62
7
  6
CONTINUOUS
 10
16.0644711553
 20
12.9109838697
 11
16.0658868001
 21
12.9140917923
  0
LINE
  5
273
100
AcDbEntity
  8
0
100
AcDbLine
 62
7
  6
CONTINUOUS
 10
16.0658868001
 20
12.9140917923
 11
16.0662307363
 21
12.9146934659
  0
LWPOLYLINE
  5
274
100
AcDbEntity
  8
0
100
AcDbPolyline
 62
7
  6
CONTINUOUS
 90
6
 70
0
 10
16.0685535503
 20
12.8701175338
 10
16.0695702639
 20
12.8701376651
 10
16.0779932391
 20
12.8719414561
 10
16.0847503517
 20
12.8759610704
 10
16.0896997566
 20
12.8814008072
 10
16.0927425697
 20
12.887205982
  0
LINE
  5
275
100
AcDbEntity
  8
0
100
AcDbLine
 62
7
  6
CONTINUOUS
 10
16.0515938011
 20
12.8701172737
 11
16.0685647488
 21
12.8701172737
  0
LINE
  5
276
100
AcDbEntity
  8
0
100
AcDbLine
 62
7
  6
CONTINUOUS
 10
15.8956480417
 20
12.2583695791
 11
15.8917466452
 21
12.3170200265
  0
LINE
  5
277
100
AcDbEntity
  8
0
100
AcDbLine
 62
7
  6
CONTINUOUS
 10
15.8956867416
 20
12.2576885658
 11
15.8956475736
 21
12.2583764665
  0
LWPOLYLINE
  5
278
100
AcDbEntity
  8
0
100
AcDbPolyline
 62
7
  6
CONTINUOUS
 90
7
 70
0
 10
15.8917454379
 20
12.3170391977
 10
15.8915826126
 20
12.3203920512
 10
15.8917171782
 20
12.3321753486
 10
15.8929058751
 20
12.3461154403
 10
15.8950786778
 20
12.3601982345
 10
15.8978468974
 20
12.3723426635
 10
15.89897197
 20
12.3762345407
  0
LINE
  5
279
100
AcDbEntity
  8
0
100
AcDbLine
 62
7
  6
CONTINUOUS
 10
15.8956117063
 20
12.2528191693
 11
15.8956867416
 21
12.2576885658
  0
LINE
  5
27A
100
AcDbEntity
  8
0
100
AcDbLine
 62
7
  6
CONTINUOUS
 10
15.8949964325
 20
12.2480036427
 11
15.8956117063
 21
12.2528191693
  0
LINE
  5
27B
100
AcDbEntity
  8
0
100
AcDbLine
 62
7
  6
CONTINUOUS
 10
15.5307579641
 20
11.0683198127
 11
15.5318969474
 21
11.0730132782
  0
LINE
  5
27C
100
AcDbEntity
  8
0
100
AcDbLine
 62
7
  6
CONTINUOUS
 10
15.6517911258
 20
11.4599832675
 11
15.6529301091
 21
11.4646767331
  0
LINE
  5
27D
100
AcDbEntity
  8
0
100
AcDbLine
 62
7
  6
CONTINUOUS
 10
15.7728242875
 20
11.8516467223
 11
15.7739632708
 21
11.8563401879
  0
LINE
  5
27E
100
AcDbEntity
  8
0
100
AcDbLine
 62
7
  6
CONTINUOUS
 10
15.8938574492
 20
12.2433101771
 11
15.8949964325
 21
12.2480036427
  0
LINE
  5
27F
100
AcDbEntity
  8
0
100
AcDbLine
 62
7
  6
CONTINUOUS
 10
16.0148906109
 20
12.6349736319
 11
16.0160295942
 21
12.6396670975
  0
LINE
  5
280
100
AcDbEntity
  8
0
100
AcDbLine
 62
7
  6
CONTINUOUS
 10
16.3831094791
 20
13.9429024011
 11
16.4042889171
 21
14.0114390875
  0
LINE
  5
281
100
AcDbEntity
  8
0
100
AcDbLine
 62
7
  6
CONTINUOUS
 10
15.4883996405
 20
10.9312477005
 11
15.5307585214
 21
11.068321089
  0
LINE
  5
282
100
AcDbEntity
  8
0
100
AcDbLine
 62
7
  6
CONTINUOUS
 10
15.6094328023
 20
11.3229111553
 11
15.6517916831
 21
11.4599845438
  0
LINE
  5
283
100
AcDbEntity
  8
0
100
AcDbLine
 62
7
  6
CONTINUOUS
 10
15.730465964
 20
11.7145746101
 11
15.7728248448
 21
11.8516479986
  0
LINE
  5
284
100
AcDbEntity
  8
0
100
AcDbLine
 62
7
  6
CONTINUOUS
 10
15.8514991257
 20
12.1062380649
 11
15.8938580065
 21
12.2433114535
  0
LINE
  5
285
100
AcDbEntity
  8
0
100
AcDbLine
 62
7
  6
CONTINUOUS
 10
15.9725322874
 20
12.4979015197
 11
16.0148911682
 21
12.6349749083
  0
LINE
  5
286
100
AcDbEntity
  8
0
100
AcDbLine
 62
7
  6
CONTINUOUS
 10
16.0935654491
 20
12.8895649745
 11
16.1359243299
 21
13.0266383631
  0
LINE
  5
287
100
AcDbEntity
  8
0
100
AcDbLine
 62
7
  6
CONTINUOUS
 10
16.2145986108
 20
13.2812284293
 11
16.2569574916
 21
13.4183018179
  0
LINE
  5
288
100
AcDbEntity
  8
0
100
AcDbLine
 62
7
  6
CONTINUOUS
 10
16.3356317725
 20
13.6728918841
 11
16.3779906533
 21
13.8099652727
  0
LWPOLYLINE
  5
289
100
AcDbEntity
  8
0
100
AcDbPolyline
 62
7
  6
CONTINUOUS
 90
3
 70
0
 10
16.2620763174
 20
13.5512389463
 10
16.3046464132
 20
13.6889876646
 10
16.3065374787
 20
13.6943107793
  0
LWPOLYLINE
  5
28A
100
AcDbEntity
  8
0
100
AcDbPolyline
 62
7
  6
CONTINUOUS
 90
3
 70
0
 10
16.1410431557
 20
13.1595754914
 10
16.1836132515
 20
13.2973242098
 10
16.185504317
 20
13.3026473245
  0
LWPOLYLINE
  5
28B
100
AcDbEntity
  8
0
100
AcDbPolyline
 62
7
  6
CONTINUOUS
 90
3
 70
0
 10
16.020009994
 20
12.7679120366
 10
16.0625800898
 20
12.905660755
 10
16.0644711553
 20
12.9109838697
  0
LWPOLYLINE
  5
28C
100
AcDbEntity
  8
0
100
AcDbPolyline
 62
7
  6
CONTINUOUS
 90
3
 70
0
 10
15.8989768323
 20
12.3762485818
 10
15.9415469281
 20
12.5139973002
 10
15.9434379936
 20
12.5193204149
  0
LWPOLYLINE
  5
28D
100
AcDbEntity
  8
0
100
AcDbPolyline
 62
7
  6
CONTINUOUS
 90
3
 70
0
 10
15.7779436706
 20
11.984585127
 10
15.8205137664
 20
12.1223338454
 10
15.8224048319
 20
12.1276569601
  0
LWPOLYLINE
  5
28E
100
AcDbEntity
  8
0
100
AcDbPolyline
 62
7
  6
CONTINUOUS
 90
3
 70
0
 10
15.6569105089
 20
11.5929216722
 10
15.6994806047
 20
11.7306703906
 10
15.7013716702
 20
11.7359935052
  0
LWPOLYLINE
  5
28F
100
AcDbEntity
  8
0
100
AcDbPolyline
 62
7
  6
CONTINUOUS
 90
3
 70
0
 10
15.5358773472
 20
11.2012582174
 10
15.578447443
 20
11.3390069358
 10
15.5803385085
 20
11.3443300504
  0
LWPOLYLINE
  5
290
100
AcDbEntity
  8
0
100
AcDbPolyline
 62
7
  6
CONTINUOUS
 90
3
 70
0
 10
15.4372138012
 20
10.8819828655
 10
15.4574142813
 20
10.947343481
 10
15.4593053468
 20
10.9526665956
  0
LINE
  5
291
100
AcDbEntity
  8
0
100
AcDbLine
 62
7
  6
CONTINUOUS
 10
16.3348088931
 20
13.6705328916
 11
16.3356396441
 21
13.6729175306
  0
LINE
  5
292
100
AcDbEntity
  8
0
100
AcDbLine
 62
7
  6
CONTINUOUS
 10
16.2137757314
 20
13.2788694368
 11
16.2146064824
 21
13.2812540758
  0
LINE
  5
293
100
AcDbEntity
  8
0
100
AcDbLine
 62
7
  6
CONTINUOUS
 10
16.0927425697
 20
12.887205982
 11
16.0935733207
 21
12.889590621
  0
LINE
  5
294
100
AcDbEntity
  8
0
100
AcDbLine
 62
7
  6
CONTINUOUS
 10
15.971709408
 20
12.4955425272
 11
15.972540159
 21
12.4979271661
  0
LINE
  5
295
100
AcDbEntity
  8
0
100
AcDbLine
 62
7
  6
CONTINUOUS
 10
15.8506762463
 20
12.1038790723
 11
15.8515069972
 21
12.1062637113
  0
LINE
  5
296
100
AcDbEntity
  8
0
100
AcDbLine
 62
7
  6
CONTINUOUS
 10
15.7296430846
 20
11.7122156175
 11
15.7304738355
 21
11.7146002565
  0
LINE
  5
297
100
AcDbEntity
  8
0
100
AcDbLine
 62
7
  6
CONTINUOUS
 10
15.9434379936
 20
12.5193204149
 11
15.9448536384
 21
12.5224283375
  0
LINE
  5
298
100
AcDbEntity
  8
0
100
AcDbLine
 62
7
  6
CONTINUOUS
 10
15.8224048319
 20
12.1276569601
 11
15.8238204767
 21
12.1307648827
  0
LINE
  5
299
100
AcDbEntity
  8
0
100
AcDbLine
 62
7
  6
CONTINUOUS
 10
15.9448536384
 20
12.5224283375
 11
15.9451975746
 21
12.523030011
  0
LINE
  5
29A
100
AcDbEntity
  8
0
100
AcDbLine
 62
7
  6
CONTINUOUS
 10
15.8238204767
 20
12.1307648827
 11
15.8241644129
 21
12.1313665562
  0
LINE
  5
29B
100
AcDbEntity
  8
0
100
AcDbLine
 62
7
  6
CONTINUOUS
 10
16.0166812034
 20
12.6500330339
 11
16.0127798069
 21
12.7086834813
  0
LINE
  5
29C
100
AcDbEntity
  8
0
100
AcDbLine
 62
7
  6
CONTINUOUS
 10
16.0167199033
 20
12.6493520206
 11
16.0166807353
 21
12.6500399213
  0
LWPOLYLINE
  5
29D
100
AcDbEntity
  8
0
100
AcDbPolyline
 62
7
  6
CONTINUOUS
 90
7
 70
0
 10
16.0127785996
 20
12.7087026525
 10
16.0126157743
 20
12.712055506
 10
16.0127503399
 20
12.7238388034
 10
16.0139390368
 20
12.7377788952
 10
16.0161118395
 20
12.7518616893
 10
16.0188800591
 20
12.7640061183
 10
16.0200051317
 20
12.7678979955
  0
LINE
  5
29E
100
AcDbEntity
  8
0
100
AcDbLine
 62
7
  6
CONTINUOUS
 10
16.016644868
 20
12.6444826241
 11
16.0167199033
 21
12.6493520206
  0
LINE
  5
29F
100
AcDbEntity
  8
0
100
AcDbLine
 62
7
  6
CONTINUOUS
 10
16.0160295942
 20
12.6396670975
 11
16.016644868
 21
12.6444826241
  0
LINE
  5
2A0
100
AcDbEntity
  8
0
100
AcDbLine
 62
7
  6
CONTINUOUS
 10
16.1370627559
 20
13.0313305523
 11
16.1376780297
 21
13.036146079
  0
LINE
  5
2A1
100
AcDbEntity
  8
0
100
AcDbLine
 62
7
  6
CONTINUOUS
 10
16.1359237727
 20
13.0266370868
 11
16.1370627559
 21
13.0313305523
  0
LINE
  5
2A2
100
AcDbEntity
  8
0
100
AcDbLine
 62
7
  6
CONTINUOUS
 10
16.2569569344
 20
13.4183005416
 11
16.2580959176
 21
13.4229940071
  0
LINE
  5
2A3
100
AcDbEntity
  8
0
100
AcDbLine
 62
7
  6
CONTINUOUS
 10
16.3779900961
 20
13.8099639964
 11
16.3791290793
 21
13.8146574619
  0
LINE
  5
2A4
100
AcDbEntity
  8
0
100
AcDbLine
 62
7
  6
CONTINUOUS
 10
15.6086099229
 20
11.3205521627
 11
15.6094406738
 21
11.3229368017
  0
LINE
  5
2A5
100
AcDbEntity
  8
0
100
AcDbLine
 62
7
  6
CONTINUOUS
 10
15.4875767612
 20
10.9288887079
 11
15.4884075121
 21
10.9312733469
  0
LINE
  5
2A6
100
AcDbEntity
  8
0
100
AcDbLine
 62
7
  6
CONTINUOUS
 10
15.7013716702
 20
11.7359935052
 11
15.702787315
 21
11.7391014279
  0
LINE
  5
2A7
100
AcDbEntity
  8
0
100
AcDbLine
 62
7
  6
CONTINUOUS
 10
15.5803385085
 20
11.3443300504
 11
15.5817541533
 21
11.3474379731
  0
LINE
  5
2A8
100
AcDbEntity
  8
0
100
AcDbLine
 62
7
  6
CONTINUOUS
 10
15.4593053468
 20
10.9526665956
 11
15.4607209916
 21
10.9557745182
  0
LINE
  5
2A9
100
AcDbEntity
  8
0
100
AcDbLine
 62
7
  6
CONTINUOUS
 10
15.702787315
 20
11.7391014279
 11
15.7031312512
 21
11.7397031014
  0
LINE
  5
2AA
100
AcDbEntity
  8
0
100
AcDbLine
 62
7
  6
CONTINUOUS
 10
16.1377143651
 20
13.0416964888
 11
16.1338129686
 21
13.1003469361
  0
LINE
  5
2AB
100
AcDbEntity
  8
0
100
AcDbLine
 62
7
  6
CONTINUOUS
 10
16.137753065
 20
13.0410154754
 11
16.137713897
 21
13.0417033761
  0
LWPOLYLINE
  5
2AC
100
AcDbEntity
  8
0
100
AcDbPolyline
 62
7
  6
CONTINUOUS
 90
7
 70
0
 10
16.1338117613
 20
13.1003661073
 10
16.1336489361
 20
13.1037189608
 10
16.1337835016
 20
13.1155022582
 10
16.1349721985
 20
13.12944235
 10
16.1371450012
 20
13.1435251441
 10
16.1399132208
 20
13.1556695731
 10
16.1410382934
 20
13.1595614504
  0
LINE
  5
2AD
100
AcDbEntity
  8
0
100
AcDbLine
 62
7
  6
CONTINUOUS
 10
16.1376780297
 20
13.036146079
 11
16.137753065
 21
13.0410154754
  0
LINE
  5
2AE
100
AcDbEntity
  8
0
100
AcDbLine
 62
7
  6
CONTINUOUS
 10
16.2580959176
 20
13.4229940071
 11
16.2587111914
 21
13.4278095338
  0
LINE
  5
2AF
100
AcDbEntity
  8
0
100
AcDbLine
 62
7
  6
CONTINUOUS
 10
16.3791290793
 20
13.8146574619
 11
16.3797443531
 21
13.8194729886
  0
LINE
  5
2B0
100
AcDbEntity
  8
0
100
AcDbLine
 62
7
  6
CONTINUOUS
 10
15.5817541533
 20
11.3474379731
 11
15.5820980895
 21
11.3480396466
  0
LINE
  5
2B1
100
AcDbEntity
  8
0
100
AcDbLine
 62
7
  6
CONTINUOUS
 10
15.4607209916
 20
10.9557745182
 11
15.4610649278
 21
10.9563761918
  0
LWPOLYLINE
  5
2B2
100
AcDbEntity
  8
0
100
AcDbPolyline
 62
7
  6
CONTINUOUS
 90
6
 70
0
 10
16.189586712
 20
13.2617809886
 10
16.1906034256
 20
13.2618011199
 10
16.1990264008
 20
13.2636049109
 10
16.2057835134
 20
13.2676245252
 10
16.2107329183
 20
13.2730642621
 10
16.2137757314
 20
13.2788694368
  0
LINE
  5
2B3
100
AcDbEntity
  8
0
100
AcDbLine
 62
7
  6
CONTINUOUS
 10
16.1726269628
 20
13.2617807285
 11
16.1895979105
 21
13.2617807285
  0
LINE
  5
2B4
100
AcDbEntity
  8
0
100
AcDbLine
 62
7
  6
CONTINUOUS
 10
16.2587475268
 20
13.4333599436
 11
16.2548461303
 21
13.4920103909
  0
LINE
  5
2B5
100
AcDbEntity
  8
0
100
AcDbLine
 62
7
  6
CONTINUOUS
 10
16.2587862267
 20
13.4326789302
 11
16.2587470587
 21
13.4333668309
  0
LWPOLYLINE
  5
2B6
100
AcDbEntity
  8
0
100
AcDbPolyline
 62
7
  6
CONTINUOUS
 90
7
 70
0
 10
16.254844923
 20
13.4920295621
 10
16.2546820978
 20
13.4953824156
 10
16.2548166633
 20
13.507165713
 10
16.2560053602
 20
13.5211058048
 10
16.2581781629
 20
13.5351885989
 10
16.2609463825
 20
13.5473330279
 10
16.2620714551
 20
13.5512249052
  0
LINE
  5
2B7
100
AcDbEntity
  8
0
100
AcDbLine
 62
7
  6
CONTINUOUS
 10
16.2587111914
 20
13.4278095338
 11
16.2587862267
 21
13.4326789302
  0
LINE
  5
2B8
100
AcDbEntity
  8
0
100
AcDbLine
 62
7
  6
CONTINUOUS
 10
16.3797443531
 20
13.8194729886
 11
16.3798193884
 21
13.824342385
  0
LINE
  5
2B9
100
AcDbEntity
  8
0
100
AcDbLine
 62
7
  6
CONTINUOUS
 10
16.4045122803
 20
14.0155892723
 11
16.4042880956
 21
14.0114393407
  0
LINE
  5
2BA
100
AcDbEntity
  8
0
100
AcDbLine
 62
7
  6
CONTINUOUS
 10
16.3797806885
 20
13.8250233984
 11
16.375879292
 21
13.8836738457
  0
LINE
  5
2BB
100
AcDbEntity
  8
0
100
AcDbLine
 62
7
  6
CONTINUOUS
 10
16.3798193884
 20
13.824342385
 11
16.3797802204
 21
13.8250302858
  0
LWPOLYLINE
  5
2BC
100
AcDbEntity
  8
0
100
AcDbPolyline
 62
7
  6
CONTINUOUS
 90
7
 70
0
 10
16.3758780847
 20
13.883693017
 10
16.3757152595
 20
13.8870458704
 10
16.375849825
 20
13.8988291678
 10
16.3770385219
 20
13.9127692596
 10
16.3792113246
 20
13.9268520537
 10
16.3819795442
 20
13.9389964827
 10
16.3831046168
 20
13.94288836
  0
LWPOLYLINE
  5
2BD
100
AcDbEntity
  8
0
100
AcDbPolyline
 62
7
  6
CONTINUOUS
 90
6
 70
0
 10
16.3106198737
 20
13.6534444434
 10
16.3116365873
 20
13.6534645747
 10
16.3200595626
 20
13.6552683657
 10
16.3268166751
 20
13.65928798
 10
16.33176608
 20
13.6647277169
 10
16.3348088931
 20
13.6705328916
  0
LINE
  5
2BE
100
AcDbEntity
  8
0
100
AcDbLine
 62
7
  6
CONTINUOUS
 10
16.2936601245
 20
13.6534441833
 11
16.3106310722
 21
13.6534441833
  0
LINE
  5
2BF
100
AcDbEntity
  8
0
100
AcDbLine
 62
7
  6
CONTINUOUS
 10
16.4045122803
 20
14.0155892723
 11
16.3915006807
 21
14.0896128956
  0
LINE
  5
2C0
100
AcDbEntity
  8
0
100
AcDbLine
 62
7
  6
CONTINUOUS
 10
16.3871712429
 20
14.1025368936
 11
16.3707021618
 21
14.1360973525
  0
LINE
  5
2C1
100
AcDbEntity
  8
0
100
AcDbLine
 62
7
  6
CONTINUOUS
 10
16.3400495902
 20
14.1516376017
 11
15.5226079581
 21
14.1516376017
  0
ARC
  5
2C2
100
AcDbEntity
  8
0
100
AcDbCircle
 62
7
  6
CONTINUOUS
 10
5.7135682308
 20
5.4854532301
 40
0.025
100
AcDbArc
 50
192.0
 51
270.0
  0
ARC
  5
2C3
100
AcDbEntity
  8
0
100
AcDbCircle
 62
7
  6
CONTINUOUS
 10
5.7389333112
 20
5.3661199089
 40
0.025
100
AcDbArc
 50
192.0000284451
 51
270.0000059139
  0
ARC
  5
2C4
100
AcDbEntity
  8
0
100
AcDbCircle
 62
7
  6
CONTINUOUS
 10
5.7616172762
 20
5.6201303203
 40
0.1
100
AcDbArc
 50
180.0
 51
192.0
  0
ARC
  5
2C5
100
AcDbEntity
  8
0
100
AcDbCircle
 62
7
  6
CONTINUOUS
 10
5.6866172762
 20
5.6741198968
 40
0.025
100
AcDbArc
 50
90.0
 51
180.0
  0
ARC
  5
2C6
100
AcDbEntity
  8
0
100
AcDbCircle
 62
7
  6
CONTINUOUS
 10
6.5471663216
 20
5.4854532301
 40
0.025
100
AcDbArc
 50
270.0
 51
348.0
  0
ARC
  5
2C7
100
AcDbEntity
  8
0
100
AcDbCircle
 62
7
  6
CONTINUOUS
 10
6.5218012385
 20
5.3661198968
 40
0.025
100
AcDbArc
 50
270.0
 51
348.0
  0
ARC
  5
2C8
100
AcDbEntity
  8
0
100
AcDbCircle
 62
7
  6
CONTINUOUS
 10
6.4991172762
 20
5.6201303203
 40
0.1
100
AcDbArc
 50
348.0
 51
360.0
  0
ARC
  5
2C9
100
AcDbEntity
  8
0
100
AcDbCircle
 62
7
  6
CONTINUOUS
 10
6.5741172762
 20
5.6741198968
 40
0.025
100
AcDbArc
 50
0.0
 51
90.0
  0
ARC
  5
2CA
100
AcDbEntity
  8
0
100
AcDbCircle
 62
7
  6
CONTINUOUS
 10
13.7228608972
 20
5.3114580378
 40
0.0298333333
100
AcDbArc
 50
193.0
 51
270.0
  0
ARC
  5
2CB
100
AcDbEntity
  8
0
100
AcDbCircle
 62
7
  6
CONTINUOUS
 10
13.8978496167
 20
5.3114580378
 40
0.0298333333
100
AcDbArc
 50
270.0
 51
347.0
  0
ARC
  5
2CC
100
AcDbEntity
  8
0
100
AcDbCircle
 62
7
  6
CONTINUOUS
 10
14.2228608972
 20
5.3114580378
 40
0.0298333333
100
AcDbArc
 50
193.0
 51
270.0
  0
ARC
  5
2CD
100
AcDbEntity
  8
0
100
AcDbCircle
 62
7
  6
CONTINUOUS
 10
14.3978496167
 20
5.3114580378
 40
0.0298333333
100
AcDbArc
 50
270.0
 51
347.0
  0
ARC
  5
2CE
100
AcDbEntity
  8
0
100
AcDbCircle
 62
7
  6
CONTINUOUS
 10
14.7228608972
 20
5.3114580378
 40
0.0298333333
100
AcDbArc
 50
193.0
 51
270.0
  0
ARC
  5
2CF
100
AcDbEntity
  8
0
100
AcDbCircle
 62
7
  6
CONTINUOUS
 10
14.8978496167
 20
5.3114580378
 40
0.0298333333
100
AcDbArc
 50
270.0
 51
347.0
  0
ARC
  5
2D0
100
AcDbEntity
  8
0
100
AcDbCircle
 62
7
  6
CONTINUOUS
 10
15.2228608972
 20
5.3114580378
 40
0.0298333333
100
AcDbArc
 50
193.0
 51
270.0
  0
ARC
  5
2D1
100
AcDbEntity
  8
0
100
AcDbCircle
 62
7
  6
CONTINUOUS
 10
15.3978496167
 20
5.3114580378
 40
0.0298333333
100
AcDbArc
 50
270.0
 51
347.0
  0
ARC
  5
2D2
100
AcDbEntity
  8
0
100
AcDbCircle
 62
7
  6
CONTINUOUS
 10
13.6478496167
 20
5.3711247044
 40
0.0298333333
100
AcDbArc
 50
13.0
 51
90.0
  0
ARC
  5
2D3
100
AcDbEntity
  8
0
100
AcDbCircle
 62
7
  6
CONTINUOUS
 10
13.9728608972
 20
5.3711247044
 40
0.0298333333
100
AcDbArc
 50
90.0
 51
167.0
  0
ARC
  5
2D4
100
AcDbEntity
  8
0
100
AcDbCircle
 62
7
  6
CONTINUOUS
 10
14.1478496167
 20
5.3711247044
 40
0.0298333333
100
AcDbArc
 50
13.0
 51
90.0
  0
ARC
  5
2D5
100
AcDbEntity
  8
0
100
AcDbCircle
 62
7
  6
CONTINUOUS
 10
14.4728608972
 20
5.3711247044
 40
0.0298333333
100
AcDbArc
 50
90.0
 51
167.0
  0
ARC
  5
2D6
100
AcDbEntity
  8
0
100
AcDbCircle
 62
7
  6
CONTINUOUS
 10
14.6478496167
 20
5.3711247044
 40
0.0298333333
100
AcDbArc
 50
13.0
 51
90.0
  0
ARC
  5
2D7
100
AcDbEntity
  8
0
100
AcDbCircle
 62
7
  6
CONTINUOUS
 10
14.9728608972
 20
5.3711247044
 40
0.0298333333
100
AcDbArc
 50
90.0
 51
167.0
  0
ARC
  5
2D8
100
AcDbEntity
  8
0
100
AcDbCircle
 62
7
  6
CONTINUOUS
 10
15.1478496167
 20
5.3711247044
 40
0.0298333333
100
AcDbArc
 50
13.0
 51
90.0
  0
ARC
  5
2D9
100
AcDbEntity
  8
0
100
AcDbCircle
 62
7
  6
CONTINUOUS
 10
15.4728608972
 20
5.3711247044
 40
0.0298333333
100
AcDbArc
 50
90.0
 51
167.0
  0
ARC
  5
2DA
100
AcDbEntity
  8
0
100
AcDbCircle
 62
7
  6
CONTINUOUS
 10
17.3978496167
 20
5.3114580378
 40
0.0298333333
100
AcDbArc
 50
270.0
 51
347.0
  0
ARC
  5
2DB
100
AcDbEntity
  8
0
100
AcDbCircle
 62
7
  6
CONTINUOUS
 10
17.2228608972
 20
5.3114580378
 40
0.0298333333
100
AcDbArc
 50
193.0
 51
270.0
  0
ARC
  5
2DC
100
AcDbEntity
  8
0
100
AcDbCircle
 62
7
  6
CONTINUOUS
 10
16.8978496167
 20
5.3114580378
 40
0.0298333333
100
AcDbArc
 50
270.0
 51
347.0
  0
ARC
  5
2DD
100
AcDbEntity
  8
0
100
AcDbCircle
 62
7
  6
CONTINUOUS
 10
16.7228608972
 20
5.3114580378
 40
0.0298333333
100
AcDbArc
 50
193.0
 51
270.0
  0
ARC
  5
2DE
100
AcDbEntity
  8
0
100
AcDbCircle
 62
7
  6
CONTINUOUS
 10
16.3978496167
 20
5.3114580378
 40
0.0298333333
100
AcDbArc
 50
270.0
 51
347.0
  0
ARC
  5
2DF
100
AcDbEntity
  8
0
100
AcDbCircle
 62
7
  6
CONTINUOUS
 10
16.2228608972
 20
5.3114580378
 40
0.0298333333
100
AcDbArc
 50
193.0
 51
270.0
  0
ARC
  5
2E0
100
AcDbEntity
  8
0
100
AcDbCircle
 62
7
  6
CONTINUOUS
 10
15.8978496167
 20
5.3114580378
 40
0.0298333333
100
AcDbArc
 50
270.0
 51
347.0
  0
ARC
  5
2E1
100
AcDbEntity
  8
0
100
AcDbCircle
 62
7
  6
CONTINUOUS
 10
15.7228608972
 20
5.3114580378
 40
0.0298333333
100
AcDbArc
 50
193.0
 51
270.0
  0
ARC
  5
2E2
100
AcDbEntity
  8
0
100
AcDbCircle
 62
7
  6
CONTINUOUS
 10
17.4728608972
 20
5.3711247044
 40
0.0298333333
100
AcDbArc
 50
90.0
 51
167.0
  0
ARC
  5
2E3
100
AcDbEntity
  8
0
100
AcDbCircle
 62
7
  6
CONTINUOUS
 10
17.1478496167
 20
5.3711247044
 40
0.0298333333
100
AcDbArc
 50
13.0
 51
90.0
  0
ARC
  5
2E4
100
AcDbEntity
  8
0
100
AcDbCircle
 62
7
  6
CONTINUOUS
 10
16.9728608972
 20
5.3711247044
 40
0.0298333333
100
AcDbArc
 50
90.0
 51
167.0
  0
ARC
  5
2E5
100
AcDbEntity
  8
0
100
AcDbCircle
 62
7
  6
CONTINUOUS
 10
16.6478496167
 20
5.3711247044
 40
0.0298333333
100
AcDbArc
 50
13.0
 51
90.0
  0
ARC
  5
2E6
100
AcDbEntity
  8
0
100
AcDbCircle
 62
7
  6
CONTINUOUS
 10
16.4728608972
 20
5.3711247044
 40
0.0298333333
100
AcDbArc
 50
90.0
 51
167.0
  0
ARC
  5
2E7
100
AcDbEntity
  8
0
100
AcDbCircle
 62
7
  6
CONTINUOUS
 10
16.1478496167
 20
5.3711247044
 40
0.0298333333
100
AcDbArc
 50
13.0
 51
90.0
  0
ARC
  5
2E8
100
AcDbEntity
  8
0
100
AcDbCircle
 62
7
  6
CONTINUOUS
 10
15.9728608972
 20
5.3711247044
 40
0.0298333333
100
AcDbArc
 50
90.0
 51
167.0
  0
ARC
  5
2E9
100
AcDbEntity
  8
0
100
AcDbCircle
 62
7
  6
CONTINUOUS
 10
15.6478496167
 20
5.3711247044
 40
0.0298333333
100
AcDbArc
 50
13.0
 51
90.0
  0
SPLINE
  5
2EA
100
AcDbEntity
  8
0
100
AcDbSpline
 62
7
  6
CONTINUOUS
 70
0
 71
3
 72
15
 73
11
 74
0
 42
0.0000001
 43
0.0000001
 44
0.0000000001
 40
0.0
 40
0.0
 40
0.0
 40
0.0
 40
0.129568142
 40
0.2645750768
 40
0.4012659339
 40
0.5362717497
 40
0.6662158637
 40
0.7881016308
 40
0.8998147254
 40
1.0
 40
1.0
 40
1.0
 40
1.0
 10
16.3400495902
 20
14.1516376017
 30
0.0
 10
16.3415978443
 20
14.1516376017
 30
0.0
 10
16.3447617895
 20
14.1514223801
 30
0.0
 10
16.3494843032
 20
14.1505384813
 30
0.0
 10
16.3541406163
 20
14.1491110314
 30
0.0
 10
16.3585524937
 20
14.1471957134
 30
0.0
 10
16.3625586868
 20
14.1448670199
 30
0.0
 10
16.3660107679
 20
14.1422056803
 30
0.0
 10
16.368776627
 20
14.1393096418
 30
0.0
 10
16.3701747669
 20
14.1371720702
 30
0.0
 10
16.3707021618
 20
14.1360973525
 30
0.0
  0
SPLINE
  5
2EB
100
AcDbEntity
  8
0
100
AcDbSpline
 62
7
  6
CONTINUOUS
 70
0
 71
3
 72
15
 73
11
 74
0
 42
0.0000001
 43
0.0000001
 44
0.0000000001
 40
0.0
 40
0.0
 40
0.0
 40
0.0
 40
0.099646354
 40
0.2028722952
 40
0.3125945931
 40
0.4308579635
 40
0.5588165918
 40
0.6968323785
 40
0.8443987658
 40
1.0
 40
1.0
 40
1.0
 40
1.0
 10
15.5063484725
 20
14.143478544
 30
0.0
 10
15.5065385876
 20
14.1440937873
 30
0.0
 10
15.5070772241
 20
14.1453047335
 30
0.0
 10
15.5083082121
 20
14.1469256819
 30
0.0
 10
15.5099316047
 20
14.1483408478
 30
0.0
 10
15.5119157788
 20
14.1495249034
 30
0.0
 10
15.5142233264
 20
14.1504635331
 30
0.0
 10
15.5168149366
 20
14.1511422647
 30
0.0
 10
15.5196418051
 20
14.1515499221
 30
0.0
 10
15.5216024122
 20
14.1516376017
 30
0.0
 10
15.5226079581
 20
14.1516376017
 30
0.0
  0
SPLINE
  5
2EC
100
AcDbEntity
  8
0
100
AcDbSpline
 62
7
  6
CONTINUOUS
 70
0
 71
3
 72
11
 73
7
 74
0
 42
0.0000001
 43
0.0000001
 44
0.0000000001
 40
0.0
 40
0.0
 40
0.0
 40
0.0
 40
0.233695472
 40
0.4747287466
 40
0.7289545191
 40
1.0
 40
1.0
 40
1.0
 40
1.0
 10
14.5380831788
 20
11.0101709055
 30
0.0
 10
14.537908324
 20
11.009605047
 30
0.0
 10
14.5376780111
 20
11.0084128982
 30
0.0
 10
14.5377202935
 20
11.0065536192
 30
0.0
 10
14.5381381049
 20
11.0046464467
 30
0.0
 10
14.5386395708
 20
11.0034063795
 30
0.0
 10
14.5389421863
 20
11.002789714
 30
0.0
  0
SPLINE
  5
2ED
100
AcDbEntity
  8
0
100
AcDbSpline
 62
7
  6
CONTINUOUS
 70
0
 71
3
 72
9
 73
5
 74
0
 42
0.0000001
 43
0.0000001
 44
0.0000000001
 40
0.0
 40
0.0
 40
0.0
 40
0.0
 40
0.5145054785
 40
1.0
 40
1.0
 40
1.0
 40
1.0
 10
16.3871712429
 20
14.1025368936
 30
0.0
 10
16.3882035983
 20
14.1004331745
 30
0.0
 10
16.3899654424
 20
14.0962174536
 30
0.0
 10
16.3911178664
 20
14.091790745
 30
0.0
 10
16.3915006807
 20
14.0896128956
 30
0.0
  0
SPLINE
  5
2EE
100
AcDbEntity
  8
0
100
AcDbSpline
 62
7
  6
CONTINUOUS
 70
0
 71
3
 72
14
 73
10
 74
0
 42
0.0000001
 43
0.0000001
 44
0.0000000001
 40
0.0
 40
0.0
 40
0.0
 40
0.0
 40
0.1555974856
 40
0.3032413379
 40
0.5688535199
 40
0.6871713571
 40
0.7968992236
 40
0.9001788843
 40
1.0
 40
1.0
 40
1.0
 40
1.0
 10
15.4197641491
 20
10.8699723841
 30
0.0
 10
15.4207690916
 20
10.8699723841
 30
0.0
 10
15.4227299187
 20
10.8700603202
 30
0.0
 10
15.4263679357
 20
10.8705850557
 30
0.0
 10
15.4296890274
 20
10.8716291677
 30
0.0
 10
15.4324395467
 20
10.8732679793
 30
0.0
 10
15.4340632866
 20
10.8746824192
 30
0.0
 10
15.4352939639
 20
10.876303905
 30
0.0
 10
15.4358332584
 20
10.8775154896
 30
0.0
 10
15.4360228804
 20
10.878131678
 30
0.0
  0
SPLINE
  5
2EF
100
AcDbEntity
  8
0
100
AcDbSpline
 62
7
  6
CONTINUOUS
 70
0
 71
3
 72
15
 73
11
 74
0
 42
0.0000001
 43
0.0000001
 44
0.0000000001
 40
0.0
 40
0.0
 40
0.0
 40
0.0
 40
0.1082494103
 40
0.2255434301
 40
0.3499663871
 40
0.4794407329
 40
0.6117003639
 40
0.7443056692
 40
0.8747039504
 40
1.0
 40
1.0
 40
1.0
 40
1.0
 10
14.6234056205
 20
10.8822816338
 30
0.0
 10
14.6241301588
 20
10.8813823472
 30
0.0
 10
14.6257977536
 20
10.8796336061
 30
0.0
 10
14.6287127087
 20
10.8772869338
 30
0.0
 10
14.6320738239
 20
10.8751772744
 30
0.0
 10
14.6357788175
 20
10.8733600835
 30
0.0
 10
14.6397271479
 20
10.8718886911
 30
0.0
 10
14.643808191
 20
10.8708004899
 30
0.0
 10
14.6479033077
 20
10.8701339392
 30
0.0
 10
14.6506327555
 20
10.8699723841
 30
0.0
 10
14.651969463
 20
10.8699723841
 30
0.0
  0
SPLINE
  5
2F0
100
AcDbEntity
  8
0
100
AcDbSpline
 62
7
  6
CONTINUOUS
 70
0
 71
3
 72
9
 73
5
 74
0
 42
0.0000001
 43
0.0000001
 44
0.0000000001
 40
0.0
 40
0.0
 40
0.0
 40
0.0
 40
0.238880939
 40
1.0
 40
1.0
 40
1.0
 40
1.0
 10
14.5554112674
 20
10.9692292551
 30
0.0
 10
14.555951754
 20
10.9681278592
 30
0.0
 10
14.5583606611
 20
10.9635893382
 30
0.0
 10
14.5613137076
 20
10.9593492358
 30
0.0
 10
14.5637661837
 20
10.9563052571
 30
0.0
  0
SPLINE
  5
2F1
100
AcDbEntity
  8
0
100
AcDbSpline
 62
7
  6
CONTINUOUS
 70
0
 71
3
 72
9
 73
5
 74
0
 42
0.0000001
 43
0.0000001
 44
0.0000000001
 40
0.0
 40
0.0
 40
0.0
 40
0.0
 40
0.4854945215
 40
1.0
 40
1.0
 40
1.0
 40
1.0
 10
15.4232353871
 20
10.9563052571
 30
0.0
 10
15.4228525728
 20
10.9584831064
 30
0.0
 10
15.4217001488
 20
10.9629098151
 30
0.0
 10
15.4199383047
 20
10.967125536
 30
0.0
 10
15.4189059493
 20
10.9692292551
 30
0.0
  0
SPLINE
  5
2F2
100
AcDbEntity
  8
0
100
AcDbSpline
 62
7
  6
CONTINUOUS
 70
0
 71
3
 72
15
 73
11
 74
0
 42
0.0000001
 43
0.0000001
 44
0.0000000001
 40
0.0
 40
0.0
 40
0.0
 40
0.0
 40
0.1001852746
 40
0.2118983692
 40
0.3337841363
 40
0.4637282503
 40
0.5987340661
 40
0.7354249232
 40
0.870431858
 40
1.0
 40
1.0
 40
1.0
 40
1.0
 10
15.4024368681
 20
11.002789714
 30
0.0
 10
15.4019094733
 20
11.0038644317
 30
0.0
 10
15.4005113334
 20
11.0060020033
 30
0.0
 10
15.3977454743
 20
11.0088980418
 30
0.0
 10
15.3942933932
 20
11.0115593814
 30
0.0
 10
15.3902872
 20
11.0138880749
 30
0.0
 10
15.3858753226
 20
11.0158033928
 30
0.0
 10
15.3812190095
 20
11.0172308428
 30
0.0
 10
15.3764964959
 20
11.0181147416
 30
0.0
 10
15.3733325507
 20
11.0183299632
 30
0.0
 10
15.3717842966
 20
11.0183299632
 30
0.0
  0
SPLINE
  5
2F3
100
AcDbEntity
  8
0
100
AcDbSpline
 62
7
  6
CONTINUOUS
 70
0
 71
3
 72
15
 73
11
 74
0
 42
0.0000001
 43
0.0000001
 44
0.0000000001
 40
0.0
 40
0.0
 40
0.0
 40
0.0
 40
0.1556012342
 40
0.3031676215
 40
0.4411834082
 40
0.5691420365
 40
0.6874054069
 40
0.7971277048
 40
0.900353646
 40
1.0
 40
1.0
 40
1.0
 40
1.0
 10
14.5543426644
 20
11.0183299632
 30
0.0
 10
14.5533371185
 20
11.0183299632
 30
0.0
 10
14.5513765115
 20
11.0182422836
 30
0.0
 10
14.548549643
 20
11.0178346262
 30
0.0
 10
14.5459580327
 20
11.0171558946
 30
0.0
 10
14.5436504852
 20
11.0162172649
 30
0.0
 10
14.5416663111
 20
11.0150332093
 30
0.0
 10
14.5400429185
 20
11.0136180434
 30
0.0
 10
14.5388119305
 20
11.011997095
 30
0.0
 10
14.538273294
 20
11.0107861488
 30
0.0
 10
14.5380831788
 20
11.0101709055
 30
0.0
  0
ENDSEC
  0
SECTION
  2
OBJECTS
  0
DICTIONARY
  5
C
100
AcDbDictionary
280
0
281
1
  3
ACAD_GROUP
350
D
  3
ACAD_MLINESTYLE
350
17
  3
ACAD_LAYOUT
350
1A
  3
ACAD_PLOTSETTINGS
350
19
  3
ACAD_PLOTSTYLENAME
350
E
  0
DICTIONARY
  5
D
102
{ACAD_REACTORS
330
C
102
}
100
AcDbDictionary
280
0
281
1
  0
ACDBDICTIONARYWDFLT
  5
E
102
{ACAD_REACTORS
330
C
102
}
100
AcDbDictionary
281
1
  3
Normal
350
F
100
AcDbDictionaryWithDefault
340
F
  0
DICTIONARY
  5
17
102
{ACAD_REACTORS
330
C
102
}
100
AcDbDictionary
280
0
281
1
  3
Standard
350
18
  0
DICTIONARY
  5
19
102
{ACAD_REACTORS
330
C
102
}
100
AcDbDictionary
281
1
  0
DICTIONARY
  5
1A
102
{ACAD_REACTORS
330
C
102
}
100
AcDbDictionary
281
1
  3
Model
350
2F4
  3
Layout1
350
2F5
  0
ACDBPLACEHOLDER
  5
F
102
{ACAD_REACTORS
330
E
102
}
  0
MLINESTYLE
  5
18
102
{ACAD_REACTORS
330
17
102
}
100
AcDbMlineStyle
  2
STANDARD
 70
0
  3

 62
256
 51
90.0
 52
90.0
 71
2
 49
0.5
 62
256
  6
BYLAYER
 49
-0.5
 62
256
  6
BYLAYER
  0
LAYOUT
  5
2F4
102
{ACAD_REACTORS
330
1A
102
}
100
AcDbPlotSettings
  1

  2
none_device
  4
ANSI_C_(22.00_x_17.00_Inches)
  6

 40
0.0
 41
0.0
 42
0.0
 43
0.0
 44
558.8
 45
431.8
 46
0.0
 47
0.0
 48
0.0
 49
0.0
140
0.0
141
0.0
142
1.0
143
1.0
 70
1024
 72
0
 73
0
 74
0
  7

 75
0
147
1.0
148
0.0
149
0.0
100
AcDbLayout
  1
Model
 70
0
 71
0
 10
0.0
 20
0.0
 11
22.0
 21
17.0
 12
0.0
 22
0.0
 32
0.0
 14
0.0
 24
0.0
 34
0.0
 15
0.0
 25
0.0
 35
0.0
146
0.0
 13
0.0
 23
0.0
 33
0.0
 16
1.0
 26
0.0
 36
0.0
 17
0.0
 27
1.0
 37
0.0
 76
0
330
216
345
0
346
0
  0
LAYOUT
  5
2F5
102
{ACAD_REACTORS
330
1A
102
}
100
AcDbPlotSettings
  1

  2
none_device
  4
ANSI_C_(22.00_x_17.00_Inches)
  6

 40
0.0
 41
0.0
 42
0.0
 43
0.0
 44
558.8
 45
431.8
 46
0.0
 47
0.0
 48
0.0
 49
0.0
140
0.0
141
0.0
142
1.0
143
1.0
 70
0
 72
0
 73
0
 74
0
  7

 75
0
147
1.0
148
0.0
149
0.0
100
AcDbLayout
  1
Layout1
 70
0
 71
1
 10
0.0
 20
0.0
 11
22.0
 21
17.0
 12
0.0
 22
0.0
 32
0.0
 14
0.0
 24
0.0
 34
0.0
 15
0.0
 25
0.0
 35
0.0
146
0.0
 13
0.0
 23
0.0
 33
0.0
 16
1.0
 26
0.0
 36
0.0
 17
0.0
 27
1.0
 37
0.0
 76
0
330
217
345
0
346
0
  0
ENDSEC
  0
EOF