999
DXF file: _cgs_temp_output.dxf
999
Pro/ENGINEER 2016360 by Parametric Technology Corporation
  0
SECTION
  2
HEADER
  9
$ACADVER
  1
AC1021
  9
$DWGCODEPAGE
  3
ANSI_1252
  9
$EXTMAX
 10
22.0
 20
17.0
 30
0.0
  9
$EXTMIN
 10
0.0
 20
0.0
 30
0.0
  9
$LIMMIN
 10
0.0
 20
0.0
  9
$LIMMAX
 10
22.0
 20
17.0
  9
$VIEWCTR
 10
11.0
 20
8.5
  9
$VIEWSIZE
 40
17.0
  9
$CLAYER
  8
0
  9
$LTSCALE
 40
1.21
  9
$CELTYPE
  6
BYLAYER
  9
$DIMSCALE
 40
1.0
  9
$DIMASZ
 40
0.1875
  9
$DIMEXO
 40
0.0625
  9
$DIMDLI
 40
0.836
  9
$DIMEXE
 40
0.125
  9
$DIMCEN
 40
0.198
  9
$DIMLFAC
 40
1.0
  9
$DIMBLK
  1
_CLOSED
  9
$DIMALT
 70
0
  9
$DIMALTF
 40
25.4
  9
$DIMTXT
 40
0.15625
  9
$DIMTOL
 70
0
  9
$DIMLIM
 70
0
  9
$DIMTFAC
 40
1.0
  9
$DIMGAP
 40
0.09
  9
$DIMDSEP
 70
46
  9
$AUNITS
 70
0
  9
$PDMODE
 70
3
  9
$PDSIZE
 40
0.3125
  9
$HANDSEED
  5
2FA
  9
$TILEMODE
 70
1
  9
$MEASUREMENT
 70
0
  9
$INSUNITS
 70
1
  0
ENDSEC
  0
SECTION
  2
CLASSES
  0
CLASS
  1
ACDBDICTIONARYWDFLT
  2
AcDbDictionaryWithDefault
  3
AutoCAD 2000
 90
0
 91
1
280
0
281
0
  0
CLASS
  1
ACDBPLACEHOLDER
  2
AcDbPlaceHolder
  3
AutoCAD 2000
 90
0
 91
1
280
0
281
0
  0
CLASS
  1
LAYOUT
  2
AcDbLayout
  3
AutoCAD 2000
 90
0
 91
0
280
0
281
0
  0
ENDSEC
  0
SECTION
  2
TABLES
  0
TABLE
  2
VPORT
  5
8
100
AcDbSymbolTable
 70
2
  0
VPORT
  5
1F4
100
AcDbSymbolTableRecord
100
AcDbViewportTableRecord
  2
*ACTIVE
 70
0
 10
0.0
 20
0.0
 11
1.0
 21
1.0
 12
11.0
 22
8.5
 13
0.0
 23
0.0
 14
1.0
 24
1.0
 15
0.0
 25
0.0
 16
0.0
 26
0.0
 36
1.0
 17
0.0
 27
0.0
 37
0.0
 40
17.0
 41
1.2941176471
 42
50.0
 43
0.0
 44
0.0
 50
0.0
 51
0.0
 71
0
 72
100
 73
1
 74
1
 75
0
 76
0
 77
0
 78
0
  0
ENDTAB
  0
TABLE
  2
LTYPE
  5
5
100
AcDbSymbolTable
 70
6
  0
LTYPE
  5
14
100
AcDbSymbolTableRecord
100
AcDbLinetypeTableRecord
  2
BYBLOCK
 70
0
  3

 72
65
 73
0
 40
0.0
  0
LTYPE
  5
15
100
AcDbSymbolTableRecord
100
AcDbLinetypeTableRecord
  2
BYLAYER
 70
0
  3

 72
65
 73
0
 40
0.0
  0
LTYPE
  5
16
100
AcDbSymbolTableRecord
100
AcDbLinetypeTableRecord
  2
CONTINUOUS
 70
64
  3
Solid line
 72
65
 73
0
 40
0.0
  0
LTYPE
  5
1F5
100
AcDbSymbolTableRecord
100
AcDbLinetypeTableRecord
  2
CENTER
 70
64
  3
____ _ ____ _ ____ _ ____ _ ____ _ ____ _ ____
 72
65
 73
4
 40
0.6
 49
0.375
 74
0
 49
-0.075
 74
0
 49
0.075
 74
0
 49
-0.075
 74
0
  0
LTYPE
  5
1F6
100
AcDbSymbolTableRecord
100
AcDbLinetypeTableRecord
  2
HIDDEN
 70
64
  3
- - - - - - - - - - - - - - - - - - - -
 72
65
 73
2
 40
0.2
 49
0.1
 74
0
 49
-0.1
 74
0
  0
LTYPE
  5
1F7
100
AcDbSymbolTableRecord
100
AcDbLinetypeTableRecord
  2
PHANTOM
 70
64
  3
_____ _ _ _____ _ _ _____ _ _ _____
 72
65
 73
6
 40
0.8
 49
0.45
 74
0
 49
-0.05
 74
0
 49
0.1
 74
0
 49
-0.05
 74
0
 49
0.1
 74
0
 49
-0.05
 74
0
  0
LTYPE
  5
1F8
100
AcDbSymbolTableRecord
100
AcDbLinetypeTableRecord
  2
DOT
 70
64
  3
. . . . . . . . . . . . . . . . . . . .
 72
65
 73
2
 40
0.2
 49
0.1
 74
0
 49
-0.1
 74
0
  0
LTYPE
  5
1F9
100
AcDbSymbolTableRecord
100
AcDbLinetypeTableRecord
  2
DASHED
 70
64
  3
- - - - - - - - - - - - - - - - - - - -
 72
65
 73
2
 40
0.2
 49
0.1
 74
0
 49
-0.1
 74
0
  0
ENDTAB
  0
TABLE
  2
LAYER
  5
2
100
AcDbSymbolTable
 70
36
  0
LAYER
  5
10
100
AcDbSymbolTableRecord
100
AcDbLayerTableRecord
  2
0
 70
0
 62
7
  6
CONTINUOUS
370
-3
390
F
  0
LAYER
  5
1FA
100
AcDbSymbolTableRecord
100
AcDbLayerTableRecord
  2
DEFAULT_1
 70
0
 62
7
  6
CENTER
370
-3
390
F
  0
LAYER
  5
1FB
100
AcDbSymbolTableRecord
100
AcDbLayerTableRecord
  2
DEFAULT_2
 70
0
 62
8
  6
HIDDEN
370
-3
390
F
  0
LAYER
  5
1FC
100
AcDbSymbolTableRecord
100
AcDbLayerTableRecord
  2
DEFAULT_3
 70
0
 62
7
  6
PHANTOM
370
-3
390
F
  0
LAYER
  5
1FD
100
AcDbSymbolTableRecord
100
AcDbLayerTableRecord
  2
01_ALL_DTM_PLN
 70
0
 62
7
  6
CONTINUOUS
370
-3
390
F
  0
LAYER
  5
1FE
100
AcDbSymbolTableRecord
100
AcDbLayerTableRecord
  2
01__ASM_ALL_DTM_PLN
 70
0
 62
7
  6
CONTINUOUS
370
-3
390
F
  0
LAYER
  5
1FF
100
AcDbSymbolTableRecord
100
AcDbLayerTableRecord
  2
01__ASM_DEF_DTM_PLN
 70
0
 62
7
  6
CONTINUOUS
370
-3
390
F
  0
LAYER
  5
200
100
AcDbSymbolTableRecord
100
AcDbLayerTableRecord
  2
01___PRT_ALL_DTM_PLN
 70
0
 62
7
  6
CONTINUOUS
370
-3
390
F
  0
LAYER
  5
201
100
AcDbSymbolTableRecord
100
AcDbLayerTableRecord
  2
01___PRT_DEF_DTM_PLN
 70
0
 62
7
  6
CONTINUOUS
370
-3
390
F
  0
LAYER
  5
202
100
AcDbSymbolTableRecord
100
AcDbLayerTableRecord
  2
02_ALL_AXES
 70
0
 62
7
  6
CONTINUOUS
370
-3
390
F
  0
LAYER
  5
203
100
AcDbSymbolTableRecord
100
AcDbLayerTableRecord
  2
02__ASM_ALL_AXES
 70
0
 62
7
  6
CONTINUOUS
370
-3
390
F
  0
LAYER
  5
204
100
AcDbSymbolTableRecord
100
AcDbLayerTableRecord
  2
02___PRT_ALL_AXES
 70
0
 62
7
  6
CONTINUOUS
370
-3
390
F
  0
LAYER
  5
205
100
AcDbSymbolTableRecord
100
AcDbLayerTableRecord
  2
03_ALL_CURVES
 70
0
 62
7
  6
CONTINUOUS
370
-3
390
F
  0
LAYER
  5
206
100
AcDbSymbolTableRecord
100
AcDbLayerTableRecord
  2
03__ASM_ALL_CURVES
 70
0
 62
7
  6
CONTINUOUS
370
-3
390
F
  0
LAYER
  5
207
100
AcDbSymbolTableRecord
100
AcDbLayerTableRecord
  2
03___PRT_ALL_CURVES
 70
0
 62
7
  6
CONTINUOUS
370
-3
390
F
  0
LAYER
  5
208
100
AcDbSymbolTableRecord
100
AcDbLayerTableRecord
  2
04_ALL_DTM_PNT
 70
0
 62
7
  6
CONTINUOUS
370
-3
390
F
  0
LAYER
  5
209
100
AcDbSymbolTableRecord
100
AcDbLayerTableRecord
  2
04__ASM_ALL_DTM_PNT
 70
0
 62
7
  6
CONTINUOUS
370
-3
390
F
  0
LAYER
  5
20A
100
AcDbSymbolTableRecord
100
AcDbLayerTableRecord
  2
04___PRT_ALL_DTM_PNT
 70
0
 62
7
  6
CONTINUOUS
370
-3
390
F
  0
LAYER
  5
20B
100
AcDbSymbolTableRecord
100
AcDbLayerTableRecord
  2
05_ALL_DTM_CSYS
 70
0
 62
7
  6
CONTINUOUS
370
-3
390
F
  0
LAYER
  5
20C
100
AcDbSymbolTableRecord
100
AcDbLayerTableRecord
  2
05__ASM_ALL_DTM_CSYS
 70
0
 62
7
  6
CONTINUOUS
370
-3
390
F
  0
LAYER
  5
20D
100
AcDbSymbolTableRecord
100
AcDbLayerTableRecord
  2
05__ASM_DEF_DTM_CSYS
 70
0
 62
7
  6
CONTINUOUS
370
-3
390
F
  0
LAYER
  5
20E
100
AcDbSymbolTableRecord
100
AcDbLayerTableRecord
  2
05___PRT_ALL_DTM_CSYS
 70
0
 62
7
  6
CONTINUOUS
370
-3
390
F
  0
LAYER
  5
20F
100
AcDbSymbolTableRecord
100
AcDbLayerTableRecord
  2
05___PRT_DEF_DTM_CSYS
 70
0
 62
7
  6
CONTINUOUS
370
-3
390
F
  0
LAYER
  5
210
100
AcDbSymbolTableRecord
100
AcDbLayerTableRecord
  2
06_ALL_SURFS
 70
0
 62
7
  6
CONTINUOUS
370
-3
390
F
  0
LAYER
  5
211
100
AcDbSymbolTableRecord
100
AcDbLayerTableRecord
  2
06__ASM_ALL_SURFS
 70
0
 62
7
  6
CONTINUOUS
370
-3
390
F
  0
LAYER
  5
212
100
AcDbSymbolTableRecord
100
AcDbLayerTableRecord
  2
06___PRT_ALL_SURFS
 70
0
 62
7
  6
CONTINUOUS
370
-3
390
F
  0
LAYER
  5
213
100
AcDbSymbolTableRecord
100
AcDbLayerTableRecord
  2
07__ASM_ALL_SKELETONS
 70
0
 62
7
  6
CONTINUOUS
370
-3
390
F
  0
LAYER
  5
214
100
AcDbSymbolTableRecord
100
AcDbLayerTableRecord
  2
LAYER_AXIS
 70
0
 62
7
  6
CONTINUOUS
370
-3
390
F
  0
LAYER
  5
215
100
AcDbSymbolTableRecord
100
AcDbLayerTableRecord
  2
LAYER_CHAMFER_FEAT
 70
0
 62
7
  6
CONTINUOUS
370
-3
390
F
  0
LAYER
  5
216
100
AcDbSymbolTableRecord
100
AcDbLayerTableRecord
  2
LAYER_CUT_FEAT
 70
0
 62
7
  6
CONTINUOUS
370
-3
390
F
  0
LAYER
  5
217
100
AcDbSymbolTableRecord
100
AcDbLayerTableRecord
  2
LAYER_DATUM
 70
0
 62
7
  6
CONTINUOUS
370
-3
390
F
  0
LAYER
  5
218
100
AcDbSymbolTableRecord
100
AcDbLayerTableRecord
  2
LAYER_DIM
 70
0
 62
7
  6
CONTINUOUS
370
-3
390
F
  0
LAYER
  5
219
100
AcDbSymbolTableRecord
100
AcDbLayerTableRecord
  2
LAYER_FEATURE
 70
0
 62
7
  6
CONTINUOUS
370
-3
390
F
  0
LAYER
  5
21A
100
AcDbSymbolTableRecord
100
AcDbLayerTableRecord
  2
LAYER_GEOM_FEAT
 70
0
 62
7
  6
CONTINUOUS
370
-3
390
F
  0
LAYER
  5
21B
100
AcDbSymbolTableRecord
100
AcDbLayerTableRecord
  2
LAYER_NOGEOM_FEAT
 70
0
 62
7
  6
CONTINUOUS
370
-3
390
F
  0
LAYER
  5
21C
100
AcDbSymbolTableRecord
100
AcDbLayerTableRecord
  2
LAYER_PARAMETER_DIM
 70
0
 62
7
  6
CONTINUOUS
370
-3
390
F
  0
LAYER
  5
21D
100
AcDbSymbolTableRecord
100
AcDbLayerTableRecord
  2
LAYER_PROTRUSION_FEAT
 70
0
 62
7
  6
CONTINUOUS
370
-3
390
F
  0
LAYER
  5
21E
100
AcDbSymbolTableRecord
100
AcDbLayerTableRecord
  2
LAYER_QUILT
 70
0
 62
7
  6
CONTINUOUS
370
-3
390
F
  0
LAYER
  5
21F
100
AcDbSymbolTableRecord
100
AcDbLayerTableRecord
  2
LAYER_ROUND_FEAT
 70
0
 62
7
  6
CONTINUOUS
370
-3
390
F
  0
ENDTAB
  0
TABLE
  2
STYLE
  5
3
100
AcDbSymbolTable
 70
1
  0
STYLE
  5
11
100
AcDbSymbolTableRecord
100
AcDbTextStyleTableRecord
  2
STANDARD
 70
0
 40
0.0
 41
0.8
 50
0.0
 71
0
 42
0.2
  3
txt
  4

  0
STYLE
  5
220
100
AcDbSymbolTableRecord
100
AcDbTextStyleTableRecord
  2
TEXTSTYLE_1
 70
0
 40
0.0
 41
0.8
 50
0.0
 71
0
 42
0.2
  3
gdt
  4

  0
ENDTAB
  0
TABLE
  2
VIEW
  5
6
100
AcDbSymbolTable
 70
0
  0
ENDTAB
  0
TABLE
  2
UCS
  5
7
100
AcDbSymbolTable
 70
0
  0
ENDTAB
  0
TABLE
  2
APPID
  5
9
100
AcDbSymbolTable
 70
1
  0
APPID
  5
221
100
AcDbSymbolTableRecord
100
AcDbRegAppTableRecord
  2
ACAD
 70
0
  0
ENDTAB
  0
TABLE
  2
BLOCK_RECORD
  5
1
100
AcDbSymbolTable
 70
0
  0
BLOCK_RECORD
  5
222
100
AcDbSymbolTableRecord
100
AcDbBlockTableRecord
  2
*Model_Space
  0
BLOCK_RECORD
  5
223
100
AcDbSymbolTableRecord
100
AcDbBlockTableRecord
  2
*Paper_Space
  0
ENDTAB
  0
TABLE
  2
DIMSTYLE
  5
A
100
AcDbSymbolTable
 70
1
100
AcDbDimStyleTable
 71
0
  0
DIMSTYLE
105
224
100
AcDbSymbolTableRecord
100
AcDbDimStyleTableRecord
  2
STANDARD
 70
0
  3

  4

 40
1.0
 41
0.1875
 42
0.0625
 43
0.38
 44
0.125
 45
0.0
 46
0.0
 47
0.0001
 48
0.0001
140
0.15625
141
0.09
142
0.0
143
25.4
144
1.0
145
0.0
146
1.0
147
0.09
 71
0.0
 72
0.0
 73
1
 74
1
 75
0
 76
0
 77
0
 78
4
 79
1
170
0
171
3
172
0
173
0
174
0
175
0
176
0
177
0
178
0
270
2
179
4
271
4
272
4
273
2
274
2
275
0
280
0
281
0
282
0
283
1
284
4
285
0
286
0
287
3
288
0
340
11
278
46
  0
ENDTAB
  0
ENDSEC
  0
SECTION
  2
BLOCKS
  0
BLOCK
  5
20
100
AcDbEntity
  8
0
100
AcDbBlockBegin
  2
*Model_Space
 70
0
 10
0.0
 20
0.0
 30
0.0
  3
*Model_Space
  1

  0
ENDBLK
  5
21
100
AcDbEntity
  8
0
100
AcDbBlockEnd
  0
BLOCK
  5
1C
100
AcDbEntity
  8
0
100
AcDbBlockBegin
  2
*Paper_Space
 70
0
 10
0.0
 20
0.0
 30
0.0
  3
*Paper_Space
  1

  0
ENDBLK
  5
1D
100
AcDbEntity
  8
0
100
AcDbBlockEnd
  0
ENDSEC
  0
SECTION
  2
ENTITIES
  0
MTEXT
  5
225
100
AcDbEntity
  8
0
100
AcDbMText
 62
7
  6
CONTINUOUS
  7
STANDARD
 71
1
 72
1
 10
15.9560215477
 20
0.9479130325
 30
0.0
 11
1.0
 21
0.0
 31
0.0
 44
0.9
  1
SCALE: 1:0.250
 40
0.3
 41
3.36
  0
LINE
  5
226
100
AcDbEntity
  8
0
100
AcDbLine
 62
7
  6
CONTINUOUS
 10
0.0
 20
0.0
 11
0.0
 21
17.0
  0
LINE
  5
227
100
AcDbEntity
  8
0
100
AcDbLine
 62
7
  6
CONTINUOUS
 10
0.0
 20
0.0
 11
22.0
 21
0.0
  0
LINE
  5
228
100
AcDbEntity
  8
0
100
AcDbLine
 62
7
  6
CONTINUOUS
 10
0.0
 20
17.0
 11
22.0
 21
17.0
  0
LINE
  5
229
100
AcDbEntity
  8
0
100
AcDbLine
 62
7
  6
CONTINUOUS
 10
22.0
 20
0.0
 11
22.0
 21
17.0
  0
LINE
  5
22A
100
AcDbEntity
  8
LAYER_FEATURE
100
AcDbLine
 62
7
  6
CONTINUOUS
 10
6.3384922762
 20
3.8863698968
 11
6.3078220583
 21
3.8863698968
  0
LINE
  5
22B
100
AcDbEntity
  8
LAYER_FEATURE
100
AcDbLine
 62
7
  6
CONTINUOUS
 10
5.8159922762
 20
3.8863698968
 11
5.846662494
 21
3.8863698968
  0
LINE
  5
22C
100
AcDbEntity
  8
02___PRT_ALL_AXES
100
AcDbLine
 62
7
  6
CONTINUOUS
 10
5.8597422762
 20
3.9767448968
 11
6.2947422762
 21
3.9767448968
  0
LINE
  5
22D
100
AcDbEntity
  8
02___PRT_ALL_AXES
100
AcDbLine
 62
7
  6
CONTINUOUS
 10
6.4289922762
 20
4.4263698968
 11
6.3384922762
 21
4.4263698968
  0
LINE
  5
22E
100
AcDbEntity
  8
LAYER_FEATURE
100
AcDbLine
 62
7
  6
CONTINUOUS
 10
5.8159922762
 20
7.1538698968
 11
5.8159922762
 21
3.8863698968
  0
LINE
  5
22F
100
AcDbEntity
  8
LAYER_FEATURE
100
AcDbLine
 62
7
  6
CONTINUOUS
 10
5.846662494
 20
7.1538698968
 11
5.846662494
 21
3.8863698968
  0
LINE
  5
230
100
AcDbEntity
  8
LAYER_FEATURE
100
AcDbLine
 62
7
  6
CONTINUOUS
 10
5.8597422762
 20
7.0923343598
 11
5.8597422762
 21
3.9479054337
  0
LINE
  5
231
100
AcDbEntity
  8
LAYER_FEATURE
100
AcDbLine
 62
7
  6
CONTINUOUS
 10
6.3078220583
 20
7.1538698968
 11
6.2947422762
 21
7.0923343598
  0
LINE
  5
232
100
AcDbEntity
  8
LAYER_FEATURE
100
AcDbLine
 62
7
  6
CONTINUOUS
 10
6.3078220583
 20
3.8863698968
 11
6.2947422762
 21
3.9479054337
  0
LINE
  5
233
100
AcDbEntity
  8
LAYER_FEATURE
100
AcDbLine
 62
7
  6
CONTINUOUS
 10
5.846662494
 20
3.8863698968
 11
5.8597422762
 21
3.9479054337
  0
LINE
  5
234
100
AcDbEntity
  8
LAYER_FEATURE
100
AcDbLine
 62
7
  6
CONTINUOUS
 10
5.846662494
 20
7.1538698968
 11
5.8597422762
 21
7.0923343598
  0
LINE
  5
235
100
AcDbEntity
  8
LAYER_FEATURE
100
AcDbLine
 62
7
  6
CONTINUOUS
 10
6.2947422762
 20
7.0923343598
 11
6.2947422762
 21
3.9479054337
  0
LINE
  5
236
100
AcDbEntity
  8
LAYER_FEATURE
100
AcDbLine
 62
7
  6
CONTINUOUS
 10
6.3078220583
 20
7.1538698968
 11
6.3078220583
 21
3.8863698968
  0
LINE
  5
237
100
AcDbEntity
  8
LAYER_FEATURE
100
AcDbLine
 62
7
  6
CONTINUOUS
 10
6.3384922762
 20
7.1538698968
 11
6.3384922762
 21
3.8863698968
  0
LINE
  5
238
100
AcDbEntity
  8
02___PRT_ALL_AXES
100
AcDbLine
 62
7
  6
CONTINUOUS
 10
6.4289922762
 20
6.6138698968
 11
6.4289922762
 21
4.4263698968
  0
LINE
  5
239
100
AcDbEntity
  8
02___PRT_ALL_AXES
100
AcDbLine
 62
7
  6
CONTINUOUS
 10
6.4447422762
 20
6.5981198968
 11
6.4447422762
 21
4.4421198968
  0
LINE
  5
23A
100
AcDbEntity
  8
02___PRT_ALL_AXES
100
AcDbLine
 62
7
  6
CONTINUOUS
 10
6.4447422762
 20
4.4421198968
 11
6.4289922762
 21
4.4263698968
  0
LINE
  5
23B
100
AcDbEntity
  8
02___PRT_ALL_AXES
100
AcDbLine
 62
7
  6
CONTINUOUS
 10
6.4447422762
 20
6.5981198968
 11
6.4289922762
 21
6.6138698968
  0
LINE
  5
23C
100
AcDbEntity
  8
02___PRT_ALL_AXES
100
AcDbLine
 62
7
  6
CONTINUOUS
 10
6.4289922762
 20
6.6138698968
 11
6.3384922762
 21
6.6138698968
  0
LINE
  5
23D
100
AcDbEntity
  8
LAYER_FEATURE
100
AcDbLine
 62
7
  6
CONTINUOUS
 10
5.8597422762
 20
6.9934882385
 11
6.2947422762
 21
6.9934882385
  0
LINE
  5
23E
100
AcDbEntity
  8
0
100
AcDbLine
 62
7
  6
CONTINUOUS
 10
5.8597422762
 20
6.9938053928
 11
6.2947422762
 21
6.9938053928
  0
LINE
  5
23F
100
AcDbEntity
  8
LAYER_FEATURE
100
AcDbLine
 62
7
  6
CONTINUOUS
 10
5.8597422762
 20
7.0233338441
 11
6.2947422762
 21
7.0233338441
  0
LINE
  5
240
100
AcDbEntity
  8
LAYER_FEATURE
100
AcDbLine
 62
7
  6
CONTINUOUS
 10
5.8597422762
 20
7.0283383321
 11
6.2947422762
 21
7.0283383321
  0
LINE
  5
241
100
AcDbEntity
  8
0
100
AcDbLine
 62
7
  6
CONTINUOUS
 10
5.8597422762
 20
7.0284797507
 11
6.2947422762
 21
7.0284797507
  0
LINE
  5
242
100
AcDbEntity
  8
LAYER_FEATURE
100
AcDbLine
 62
7
  6
CONTINUOUS
 10
5.8597422762
 20
7.0483661257
 11
6.2947422762
 21
7.0483661257
  0
LINE
  5
243
100
AcDbEntity
  8
LAYER_FEATURE
100
AcDbLine
 62
7
  6
CONTINUOUS
 10
5.8597422762
 20
7.0513845716
 11
6.2947422762
 21
7.0513845716
  0
LINE
  5
244
100
AcDbEntity
  8
0
100
AcDbLine
 62
7
  6
CONTINUOUS
 10
5.8597422762
 20
7.0514199955
 11
6.2947422762
 21
7.0514199955
  0
LINE
  5
245
100
AcDbEntity
  8
LAYER_FEATURE
100
AcDbLine
 62
7
  6
CONTINUOUS
 10
5.8597422762
 20
7.0614378085
 11
6.2947422762
 21
7.0614378085
  0
LINE
  5
246
100
AcDbEntity
  8
LAYER_FEATURE
100
AcDbLine
 62
7
  6
CONTINUOUS
 10
5.8597422762
 20
7.0624465888
 11
6.2947422762
 21
7.0624465888
  0
LINE
  5
247
100
AcDbEntity
  8
LAYER_FEATURE
100
AcDbLine
 62
7
  6
CONTINUOUS
 10
6.3384922762
 20
7.1538698968
 11
6.3078220583
 21
7.1538698968
  0
LINE
  5
248
100
AcDbEntity
  8
LAYER_FEATURE
100
AcDbLine
 62
7
  6
CONTINUOUS
 10
5.8159922762
 20
7.1538698968
 11
5.846662494
 21
7.1538698968
  0
LINE
  5
249
100
AcDbEntity
  8
LAYER_FEATURE
100
AcDbLine
 62
7
  6
CONTINUOUS
 10
5.7564970839
 20
10.9662977814
 11
5.7871673017
 21
10.9662977814
  0
LINE
  5
24A
100
AcDbEntity
  8
LAYER_FEATURE
100
AcDbLine
 62
7
  6
CONTINUOUS
 10
6.248326866
 20
10.9662977814
 11
6.2789970839
 21
10.9662977814
  0
LINE
  5
24B
100
AcDbEntity
  8
02___PRT_ALL_AXES
100
AcDbLine
 62
7
  6
CONTINUOUS
 10
5.8002470839
 20
11.0566727814
 11
6.2352470839
 21
11.0566727814
  0
LINE
  5
24C
100
AcDbEntity
  8
02___PRT_ALL_AXES
100
AcDbLine
 62
7
  6
CONTINUOUS
 10
6.2789970839
 20
11.5062977814
 11
6.3694970839
 21
11.5062977814
  0
LINE
  5
24D
100
AcDbEntity
  8
LAYER_FEATURE
100
AcDbLine
 62
7
  6
CONTINUOUS
 10
5.8002470839
 20
12.1404913428
 11
6.2352470839
 21
12.1404913428
  0
LINE
  5
24E
100
AcDbEntity
  8
LAYER_FEATURE
100
AcDbLine
 62
7
  6
CONTINUOUS
 10
6.2352470839
 20
12.1959143281
 11
5.8002470839
 21
12.1959143281
  0
LINE
  5
24F
100
AcDbEntity
  8
LAYER_FEATURE
100
AcDbLine
 62
7
  6
CONTINUOUS
 10
6.2352470839
 20
12.2248632755
 11
5.8002470839
 21
12.2248632755
  0
LINE
  5
250
100
AcDbEntity
  8
LAYER_FEATURE
100
AcDbLine
 62
7
  6
CONTINUOUS
 10
5.8002470839
 20
12.2502561019
 11
6.2352470839
 21
12.2502561019
  0
LINE
  5
251
100
AcDbEntity
  8
LAYER_FEATURE
100
AcDbLine
 62
7
  6
CONTINUOUS
 10
5.8002470839
 20
12.2725061171
 11
6.2352470839
 21
12.2725061171
  0
LINE
  5
252
100
AcDbEntity
  8
LAYER_FEATURE
100
AcDbLine
 62
7
  6
CONTINUOUS
 10
5.7564970839
 20
10.9662977814
 11
5.7564970839
 21
14.2337977814
  0
LINE
  5
253
100
AcDbEntity
  8
LAYER_FEATURE
100
AcDbLine
 62
7
  6
CONTINUOUS
 10
5.7871673017
 20
10.9662977814
 11
5.7871673017
 21
14.2337977814
  0
LINE
  5
254
100
AcDbEntity
  8
LAYER_FEATURE
100
AcDbLine
 62
7
  6
CONTINUOUS
 10
5.8002470839
 20
11.0278334204
 11
5.8002470839
 21
14.1722621423
  0
LINE
  5
255
100
AcDbEntity
  8
LAYER_FEATURE
100
AcDbLine
 62
7
  6
CONTINUOUS
 10
6.2352470839
 20
12.323802761
 11
5.8002470839
 21
12.323802761
  0
LINE
  5
256
100
AcDbEntity
  8
LAYER_FEATURE
100
AcDbLine
 62
7
  6
CONTINUOUS
 10
6.2352470839
 20
12.3533340984
 11
5.8002470839
 21
12.3533340984
  0
LINE
  5
257
100
AcDbEntity
  8
LAYER_FEATURE
100
AcDbLine
 62
7
  6
CONTINUOUS
 10
5.8002470839
 20
12.3844791049
 11
6.2352470839
 21
12.3844791049
  0
LINE
  5
258
100
AcDbEntity
  8
LAYER_FEATURE
100
AcDbLine
 62
7
  6
CONTINUOUS
 10
6.2352470839
 20
14.1722622444
 11
6.248326866
 21
14.2337977814
  0
LINE
  5
259
100
AcDbEntity
  8
LAYER_FEATURE
100
AcDbLine
 62
7
  6
CONTINUOUS
 10
5.8002470839
 20
12.407084349
 11
6.2352470839
 21
12.407084349
  0
LINE
  5
25A
100
AcDbEntity
  8
LAYER_FEATURE
100
AcDbLine
 62
7
  6
CONTINUOUS
 10
6.2352470839
 20
12.4538531857
 11
5.8002470839
 21
12.4538531857
  0
LINE
  5
25B
100
AcDbEntity
  8
LAYER_FEATURE
100
AcDbLine
 62
7
  6
CONTINUOUS
 10
6.2352470839
 20
12.4837357904
 11
5.8002470839
 21
12.4837357904
  0
LINE
  5
25C
100
AcDbEntity
  8
LAYER_FEATURE
100
AcDbLine
 62
7
  6
CONTINUOUS
 10
6.2352470839
 20
11.0278333183
 11
6.248326866
 21
10.9662977814
  0
LINE
  5
25D
100
AcDbEntity
  8
LAYER_FEATURE
100
AcDbLine
 62
7
  6
CONTINUOUS
 10
5.8002470839
 20
12.520389225
 11
6.2352470839
 21
12.520389225
  0
LINE
  5
25E
100
AcDbEntity
  8
LAYER_FEATURE
100
AcDbLine
 62
7
  6
CONTINUOUS
 10
5.8002470839
 20
12.5431727814
 11
6.2352470839
 21
12.5431727814
  0
LINE
  5
25F
100
AcDbEntity
  8
LAYER_FEATURE
100
AcDbLine
 62
7
  6
CONTINUOUS
 10
6.2352470839
 20
12.5850477814
 11
5.8002470839
 21
12.5850477814
  0
LINE
  5
260
100
AcDbEntity
  8
LAYER_FEATURE
100
AcDbLine
 62
7
  6
CONTINUOUS
 10
5.7871673017
 20
10.9662977814
 11
5.8002470839
 21
11.0278333183
  0
LINE
  5
261
100
AcDbEntity
  8
LAYER_FEATURE
100
AcDbLine
 62
7
  6
CONTINUOUS
 10
6.2352470839
 20
12.6150477814
 11
5.8002470839
 21
12.6150477814
  0
LINE
  5
262
100
AcDbEntity
  8
LAYER_FEATURE
100
AcDbLine
 62
7
  6
CONTINUOUS
 10
5.8002470839
 20
12.6569227814
 11
6.2352470839
 21
12.6569227814
  0
LINE
  5
263
100
AcDbEntity
  8
LAYER_FEATURE
100
AcDbLine
 62
7
  6
CONTINUOUS
 10
5.7871673017
 20
14.2337977814
 11
5.8002470839
 21
14.1722622444
  0
LINE
  5
264
100
AcDbEntity
  8
LAYER_FEATURE
100
AcDbLine
 62
7
  6
CONTINUOUS
 10
6.2352470839
 20
11.0278334105
 11
6.2352470839
 21
14.1722621523
  0
LINE
  5
265
100
AcDbEntity
  8
LAYER_FEATURE
100
AcDbLine
 62
7
  6
CONTINUOUS
 10
6.248326866
 20
10.9662977814
 11
6.248326866
 21
14.2337977814
  0
LINE
  5
266
100
AcDbEntity
  8
LAYER_FEATURE
100
AcDbLine
 62
7
  6
CONTINUOUS
 10
6.2789970839
 20
10.9662977814
 11
6.2789970839
 21
14.2337977814
  0
LINE
  5
267
100
AcDbEntity
  8
02___PRT_ALL_AXES
100
AcDbLine
 62
7
  6
CONTINUOUS
 10
6.3694970839
 20
11.5062977814
 11
6.3694970839
 21
13.6937977814
  0
LINE
  5
268
100
AcDbEntity
  8
02___PRT_ALL_AXES
100
AcDbLine
 62
7
  6
CONTINUOUS
 10
6.3852470839
 20
11.5220477814
 11
6.3852470839
 21
13.6780477814
  0
LINE
  5
269
100
AcDbEntity
  8
02___PRT_ALL_AXES
100
AcDbLine
 62
7
  6
CONTINUOUS
 10
6.3694970839
 20
11.5062977814
 11
6.3852470839
 21
11.5220477814
  0
LINE
  5
26A
100
AcDbEntity
  8
02___PRT_ALL_AXES
100
AcDbLine
 62
7
  6
CONTINUOUS
 10
6.3694970839
 20
13.6937977814
 11
6.3852470839
 21
13.6780477814
  0
LINE
  5
26B
100
AcDbEntity
  8
02___PRT_ALL_AXES
100
AcDbLine
 62
7
  6
CONTINUOUS
 10
6.2789970839
 20
13.6937977814
 11
6.3694970839
 21
13.6937977814
  0
LINE
  5
26C
100
AcDbEntity
  8
02___PRT_ALL_AXES
100
AcDbLine
 62
7
  6
CONTINUOUS
 10
5.8002470839
 20
14.1434227814
 11
6.2352470839
 21
14.1434227814
  0
LINE
  5
26D
100
AcDbEntity
  8
LAYER_FEATURE
100
AcDbLine
 62
7
  6
CONTINUOUS
 10
5.7564970839
 20
14.2337977814
 11
5.7871673017
 21
14.2337977814
  0
LINE
  5
26E
100
AcDbEntity
  8
LAYER_FEATURE
100
AcDbLine
 62
7
  6
CONTINUOUS
 10
6.248326866
 20
14.2337977814
 11
6.2789970839
 21
14.2337977814
  0
LINE
  5
26F
100
AcDbEntity
  8
LAYER_FEATURE
100
AcDbLine
 62
7
  6
CONTINUOUS
 10
15.230458882
 20
10.8770549929
 11
15.2587080233
 21
10.8770549929
  0
LINE
  5
270
100
AcDbEntity
  8
LAYER_FEATURE
100
AcDbLine
 62
7
  6
CONTINUOUS
 10
15.68346411
 20
10.8770549929
 11
15.7117132514
 21
10.8770549929
  0
LINE
  5
271
100
AcDbEntity
  8
02___PRT_ALL_AXES
100
AcDbLine
 62
7
  6
CONTINUOUS
 10
15.2707553005
 20
10.9674299929
 11
15.4748444911
 21
10.9674299929
  0
LINE
  5
272
100
AcDbEntity
  8
02___PRT_ALL_AXES
100
AcDbLine
 62
7
  6
CONTINUOUS
 10
15.6350720964
 20
13.9286532648
 11
15.6266271772
 21
13.9257787277
  0
LINE
  5
273
100
AcDbEntity
  8
02___PRT_ALL_AXES
100
AcDbLine
 62
7
  6
CONTINUOUS
 10
15.6350720964
 20
11.092956721
 11
15.6266271772
 21
11.0958312581
  0
LINE
  5
274
100
AcDbEntity
  8
02___PRT_ALL_AXES
100
AcDbLine
 62
7
  6
CONTINUOUS
 10
15.7082592726
 20
11.4170549929
 11
15.7950692713
 21
11.4170549929
  0
LINE
  5
275
100
AcDbEntity
  8
LAYER_FEATURE
100
AcDbLine
 62
7
  6
CONTINUOUS
 10
14.7846725781
 20
13.3155750238
 11
14.7909507526
 21
13.3400592518
  0
LINE
  5
276
100
AcDbEntity
  8
LAYER_FEATURE
100
AcDbLine
 62
7
  6
CONTINUOUS
 10
14.8160214108
 20
13.4284042877
 11
14.8213686192
 21
13.4457078604
  0
LINE
  5
277
100
AcDbEntity
  8
LAYER_FEATURE
100
AcDbLine
 62
7
  6
CONTINUOUS
 10
14.7369825866
 20
13.0826001442
 11
14.7415890549
 21
13.1101695548
  0
LINE
  5
278
100
AcDbEntity
  8
LAYER_FEATURE
100
AcDbLine
 62
7
  6
CONTINUOUS
 10
14.7587507129
 20
13.2015045347
 11
14.7642880071
 21
13.2279206043
  0
LINE
  5
279
100
AcDbEntity
  8
LAYER_FEATURE
100
AcDbLine
 62
7
  6
CONTINUOUS
 10
14.7363656119
 20
13.1404084683
 11
14.7282808209
 21
13.1612599456
  0
LINE
  5
27A
100
AcDbEntity
  8
LAYER_FEATURE
100
AcDbLine
 62
7
  6
CONTINUOUS
 10
14.760125732
 20
13.2592266695
 11
14.7527902201
 21
13.2818314281
  0
LINE
  5
27B
100
AcDbEntity
  8
LAYER_FEATURE
100
AcDbLine
 62
7
  6
CONTINUOUS
 10
14.7878822208
 20
13.3721874564
 11
14.7813533983
 21
13.3963685834
  0
LINE
  5
27C
100
AcDbEntity
  8
LAYER_FEATURE
100
AcDbLine
 62
7
  6
CONTINUOUS
 10
14.8194178462
 20
13.4784067576
 11
14.8137468099
 21
13.5039750028
  0
LINE
  5
27D
100
AcDbEntity
  8
LAYER_FEATURE
100
AcDbLine
 62
7
  6
CONTINUOUS
 10
14.7100731338
 20
13.0666825163
 11
15.0852739035
 21
13.0666825163
  0
LINE
  5
27E
100
AcDbEntity
  8
0
100
AcDbLine
 62
7
  6
CONTINUOUS
 10
14.7133127235
 20
13.072165571
 11
15.0860118944
 21
13.072165571
  0
LINE
  5
27F
100
AcDbEntity
  8
LAYER_FEATURE
100
AcDbLine
 62
7
  6
CONTINUOUS
 10
15.0875483242
 20
13.0826001442
 11
14.7369825866
 21
13.0826001442
  0
LINE
  5
280
100
AcDbEntity
  8
LAYER_FEATURE
100
AcDbLine
 62
7
  6
CONTINUOUS
 10
15.091743887
 20
13.1101695548
 11
14.7415890549
 21
13.1101695548
  0
LINE
  5
281
100
AcDbEntity
  8
LAYER_FEATURE
100
AcDbLine
 62
7
  6
CONTINUOUS
 10
14.7275393262
 20
13.1712165317
 11
15.1016802293
 21
13.1712165317
  0
LINE
  5
282
100
AcDbEntity
  8
LAYER_FEATURE
100
AcDbLine
 62
7
  6
CONTINUOUS
 10
14.7313987272
 20
13.191756407
 11
15.1051786697
 21
13.191756407
  0
LINE
  5
283
100
AcDbEntity
  8
0
100
AcDbLine
 62
7
  6
CONTINUOUS
 10
14.7345027917
 20
13.1965181912
 11
15.1060158945
 21
13.1965181912
  0
LINE
  5
284
100
AcDbEntity
  8
LAYER_FEATURE
100
AcDbLine
 62
7
  6
CONTINUOUS
 10
15.1069588593
 20
13.2015045347
 11
14.7587507129
 21
13.2015045347
  0
LINE
  5
285
100
AcDbEntity
  8
LAYER_FEATURE
100
AcDbLine
 62
7
  6
CONTINUOUS
 10
15.1119543882
 20
13.2279206043
 11
14.7642880071
 21
13.2279206043
  0
LINE
  5
286
100
AcDbEntity
  8
LAYER_FEATURE
100
AcDbLine
 62
7
  6
CONTINUOUS
 10
14.7523943012
 20
13.2919173376
 11
15.1248056509
 21
13.2919173376
  0
LINE
  5
287
100
AcDbEntity
  8
LAYER_FEATURE
100
AcDbLine
 62
7
  6
CONTINUOUS
 10
14.7569455171
 20
13.3115009297
 11
15.1289051876
 21
13.3115009297
  0
LINE
  5
288
100
AcDbEntity
  8
0
100
AcDbLine
 62
7
  6
CONTINUOUS
 10
14.7598897628
 20
13.3155750238
 11
15.1298381992
 21
13.3155750238
  0
LINE
  5
289
100
AcDbEntity
  8
LAYER_FEATURE
100
AcDbLine
 62
7
  6
CONTINUOUS
 10
15.1354453516
 20
13.3400592518
 11
14.7909507526
 21
13.3400592518
  0
LINE
  5
28A
100
AcDbEntity
  8
LAYER_FEATURE
100
AcDbLine
 62
7
  6
CONTINUOUS
 10
14.7813061537
 20
13.4065048803
 11
15.1515093324
 21
13.4065048803
  0
LINE
  5
28B
100
AcDbEntity
  8
LAYER_FEATURE
100
AcDbLine
 62
7
  6
CONTINUOUS
 10
14.7865135652
 20
13.424978921
 11
15.1562133461
 21
13.424978921
  0
LINE
  5
28C
100
AcDbEntity
  8
0
100
AcDbLine
 62
7
  6
CONTINUOUS
 10
14.7892749494
 20
13.4284042877
 11
15.1571479113
 21
13.4284042877
  0
LINE
  5
28D
100
AcDbEntity
  8
LAYER_FEATURE
100
AcDbLine
 62
7
  6
CONTINUOUS
 10
15.1618689581
 20
13.4457078604
 11
14.8213686192
 21
13.4457078604
  0
LINE
  5
28E
100
AcDbEntity
  8
LAYER_FEATURE
100
AcDbLine
 62
7
  6
CONTINUOUS
 10
14.8140486095
 20
13.514082357
 11
15.1814603432
 21
13.514082357
  0
LINE
  5
28F
100
AcDbEntity
  8
02___PRT_ALL_AXES
100
AcDbLine
 62
7
  6
CONTINUOUS
 10
15.9751480277
 20
11.5196201056
 11
15.9870616042
 21
11.533893168
  0
LINE
  5
290
100
AcDbEntity
  8
02___PRT_ALL_AXES
100
AcDbLine
 62
7
  6
CONTINUOUS
 10
15.7082592726
 20
13.6045549929
 11
15.7950692713
 21
13.6045549929
  0
LINE
  5
291
100
AcDbEntity
  8
02___PRT_ALL_AXES
100
AcDbLine
 62
7
  6
CONTINUOUS
 10
15.9751480277
 20
13.5019898802
 11
15.9870616042
 21
13.4877168178
  0
LINE
  5
292
100
AcDbEntity
  8
02___PRT_ALL_AXES
100
AcDbLine
 62
7
  6
CONTINUOUS
 10
15.2707553005
 20
14.0541799929
 11
15.4750743727
 21
14.0541799929
  0
LINE
  5
293
100
AcDbEntity
  8
LAYER_FEATURE
100
AcDbLine
 62
7
  6
CONTINUOUS
 10
15.230458882
 20
14.1445549929
 11
15.2587080233
 21
14.1445549929
  0
LINE
  5
294
100
AcDbEntity
  8
LAYER_FEATURE
100
AcDbLine
 62
7
  6
CONTINUOUS
 10
15.68346411
 20
14.1445549929
 11
15.7117132514
 21
14.1445549929
  0
CIRCLE
  5
295
100
AcDbEntity
  8
LAYER_FEATURE
100
AcDbCircle
 62
7
  6
CONTINUOUS
 10
15.5603552569
 20
5.4606247044
 40
1.63375
  0
CIRCLE
  5
296
100
AcDbEntity
  8
LAYER_FEATURE
100
AcDbCircle
 62
7
  6
CONTINUOUS
 10
15.5603552569
 20
5.4606247044
 40
1.5722144631
  0
CIRCLE
  5
297
100
AcDbEntity
  8
02___PRT_ALL_AXES
100
AcDbCircle
 62
7
  6
CONTINUOUS
 10
15.5603552569
 20
5.4606247044
 40
1.43025
  0
CIRCLE
  5
298
100
AcDbEntity
  8
02___PRT_ALL_AXES
100
AcDbCircle
 62
7
  6
CONTINUOUS
 10
15.5603552569
 20
5.4606247044
 40
1.09375
  0
CIRCLE
  5
299
100
AcDbEntity
  8
02___PRT_ALL_AXES
100
AcDbCircle
 62
7
  6
CONTINUOUS
 10
15.5603552569
 20
5.4606247044
 40
1.078
  0
ARC
  5
29A
100
AcDbEntity
  8
02___PRT_ALL_AXES
100
AcDbCircle
 62
7
  6
CONTINUOUS
 10
15.5603552569
 20
5.4606247044
 40
0.625
100
AcDbArc
 50
61.4843384185
 51
139.5156615815
  0
ARC
  5
29B
100
AcDbEntity
  8
02___PRT_ALL_AXES
100
AcDbCircle
 62
7
  6
CONTINUOUS
 10
15.5603552569
 20
5.4606247044
 40
0.625
100
AcDbArc
 50
22.4843384185
 51
50.5156615815
  0
ARC
  5
29C
100
AcDbEntity
  8
02___PRT_ALL_AXES
100
AcDbCircle
 62
7
  6
CONTINUOUS
 10
15.5603552569
 20
5.4606247044
 40
0.625
100
AcDbArc
 50
231.4843384185
 51
259.5156615815
  0
ARC
  5
29D
100
AcDbEntity
  8
02___PRT_ALL_AXES
100
AcDbCircle
 62
7
  6
CONTINUOUS
 10
15.5603552569
 20
5.4606247044
 40
0.625
100
AcDbArc
 50
150.4843384185
 51
220.5156615815
  0
ARC
  5
29E
100
AcDbEntity
  8
02___PRT_ALL_AXES
100
AcDbCircle
 62
7
  6
CONTINUOUS
 10
15.5603552569
 20
5.4606247044
 40
0.625
100
AcDbArc
 50
270.4843384185
 51
11.5156615815
  0
ARC
  5
29F
100
AcDbEntity
  8
02___PRT_ALL_AXES
100
AcDbCircle
 62
7
  6
CONTINUOUS
 10
15.5603552569
 20
5.4606247044
 40
0.6031478713
100
AcDbArc
 50
50.0634202313
 51
61.9365797687
  0
ARC
  5
2A0
100
AcDbEntity
  8
02___PRT_ALL_AXES
100
AcDbCircle
 62
7
  6
CONTINUOUS
 10
15.5603552569
 20
5.4606247044
 40
0.6031478713
100
AcDbArc
 50
220.0634202313
 51
231.9365797687
  0
ARC
  5
2A1
100
AcDbEntity
  8
02___PRT_ALL_AXES
100
AcDbCircle
 62
7
  6
CONTINUOUS
 10
15.5603552569
 20
5.4606247044
 40
0.5812957425
100
AcDbArc
 50
22.6434126524
 51
139.3565873476
  0
ARC
  5
2A2
100
AcDbEntity
  8
02___PRT_ALL_AXES
100
AcDbCircle
 62
7
  6
CONTINUOUS
 10
15.5603552569
 20
5.4606247044
 40
0.5812957425
100
AcDbArc
 50
150.6434126524
 51
259.3565873476
  0
ARC
  5
2A3
100
AcDbEntity
  8
02___PRT_ALL_AXES
100
AcDbCircle
 62
7
  6
CONTINUOUS
 10
15.5603552569
 20
5.4606247044
 40
0.5812957425
100
AcDbArc
 50
270.6434126524
 51
11.3565873476
  0
ARC
  5
2A4
100
AcDbEntity
  8
02___PRT_ALL_AXES
100
AcDbCircle
 62
7
  6
CONTINUOUS
 10
15.8979679724
 20
5.9611561389
 40
0.0625
100
AcDbArc
 50
322.4804512298
 51
149.5195487702
  0
ARC
  5
2A5
100
AcDbEntity
  8
02___PRT_ALL_AXES
100
AcDbCircle
 62
7
  6
CONTINUOUS
 10
15.1409552658
 20
5.0263233
 40
0.0625
100
AcDbArc
 50
132.4804512297
 51
319.5195487703
  0
ARC
  5
2A6
100
AcDbEntity
  8
02___PRT_ALL_AXES
100
AcDbCircle
 62
7
  6
CONTINUOUS
 10
16.1377242533
 20
5.6371441212
 40
0.0625
100
AcDbArc
 50
263.1497787953
 51
130.8502212047
  0
ARC
  5
2A7
100
AcDbEntity
  8
02___PRT_ALL_AXES
100
AcDbCircle
 62
7
  6
CONTINUOUS
 10
15.5077349773
 20
4.8591721555
 40
0.0625
100
AcDbArc
 50
151.1497787952
 51
18.8502212048
  0
ARC
  5
2A8
100
AcDbEntity
  8
02___PRT_ALL_AXES
100
AcDbCircle
 62
7
  6
CONTINUOUS
 10
15.0657922102
 20
5.8069214779
 40
0.0625
100
AcDbArc
 50
31.1497787952
 51
258.8502212048
  0
ARC
  5
2A9
100
AcDbEntity
  8
02___PRT_ALL_AXES
100
AcDbCircle
 62
7
  6
CONTINUOUS
 10
12.7936584736
 20
-25.787924972
 40
37.8147696692
100
AcDbArc
 50
85.341972367
 51
85.5307524953
  0
ARC
  5
2AA
100
AcDbEntity
  8
02___PRT_ALL_AXES
100
AcDbCircle
 62
7
  6
CONTINUOUS
 10
17.9549281319
 20
-19.7794600224
 40
32.9568116279
100
AcDbArc
 50
93.6158463327
 51
93.8972557488
  0
ARC
  5
2AB
100
AcDbEntity
  8
02___PRT_ALL_AXES
100
AcDbCircle
 62
7
  6
CONTINUOUS
 10
14.2120034075
 20
34.0009407369
 40
21.0023980098
100
AcDbArc
 50
274.0273756073
 51
274.6640130029
  0
ARC
  5
2AC
100
AcDbEntity
  8
LAYER_FEATURE
100
AcDbCircle
 62
7
  6
CONTINUOUS
 10
18.4952698589
 20
12.5917505601
 40
3.4149939752
100
AcDbArc
 50
169.7965467296
 51
171.9132072079
  0
ARC
  5
2AD
100
AcDbEntity
  8
LAYER_FEATURE
100
AcDbCircle
 62
7
  6
CONTINUOUS
 10
17.7226503687
 20
12.6190737495
 40
3.0455790597
100
AcDbArc
 50
169.1617309017
 51
169.554905726
  0
ARC
  5
2AE
100
AcDbEntity
  8
LAYER_FEATURE
100
AcDbCircle
 62
7
  6
CONTINUOUS
 10
17.3949840368
 20
12.6881015896
 40
2.7106962147
100
AcDbArc
 50
166.7042485445
 51
167.1292176866
  0
ARC
  5
2AF
100
AcDbEntity
  8
LAYER_FEATURE
100
AcDbCircle
 62
7
  6
CONTINUOUS
 10
17.0531538438
 20
12.7760936831
 40
2.3576917111
100
AcDbArc
 50
164.0248413501
 51
164.4912868816
  0
ARC
  5
2B0
100
AcDbEntity
  8
02___PRT_ALL_AXES
100
AcDbCircle
 62
7
  6
CONTINUOUS
 10
15.6526780856
 20
13.2089202411
 40
0.4353617662
100
AcDbArc
 50
39.820093638
 51
42.2737842009
  0
ARC
  5
2B1
100
AcDbEntity
  8
02___PRT_ALL_AXES
100
AcDbCircle
 62
7
  6
CONTINUOUS
 10
15.652692889
 20
11.8126769401
 40
0.4353421959
100
AcDbArc
 50
317.7242190551
 51
320.1799531238
  0
ARC
  5
2B2
100
AcDbEntity
  8
02___PRT_ALL_AXES
100
AcDbCircle
 62
7
  6
CONTINUOUS
 10
15.809577125
 20
11.9807425014
 40
0.0949374743
100
AcDbArc
 50
265.6525066892
 51
275.3430452086
  0
SPLINE
  5
2B3
100
AcDbEntity
  8
02___PRT_ALL_AXES
100
AcDbSpline
 62
7
  6
CONTINUOUS
 70
0
 71
3
 72
33
 73
29
 74
0
 42
0.0000001
 43
0.0000001
 44
0.0000000001
 40
0.0
 40
0.0
 40
0.0
 40
0.0
 40
0.0264981321
 40
0.0548840927
 40
0.0850824875
 40
0.1169907547
 40
0.1504808812
 40
0.1854053758
 40
0.2588743543
 40
0.3359467881
 40
0.4150132998
 40
0.4943891047
 40
0.572377974
 40
0.6473355793
 40
0.6832005967
 40
0.7177492465
 40
0.7508214759
 40
0.7822747445
 40
0.8119875849
 40
0.8398639774
 40
0.865838926
 40
0.889885768
 40
0.9120258944
 40
0.9323414722
 40
0.950991441
 40
0.9682282779
 40
0.9844112478
 40
1.0
 40
1.0
 40
1.0
 40
1.0
 10
15.5707278098
 20
12.3906729112
 30
0.0
 10
15.5701709787
 20
12.3897201055
 30
0.0
 10
15.5690937624
 20
12.387701536
 30
0.0
 10
15.5676297173
 20
12.384472477
 30
0.0
 10
15.5662696774
 20
12.3809556553
 30
0.0
 10
15.5650222373
 20
12.377173173
 30
0.0
 10
15.5638951376
 20
12.3731484509
 30
0.0
 10
15.5625396717
 20
12.3673954544
 30
0.0
 10
15.5612091564
 20
12.359779067
 30
0.0
 10
15.5602050914
 20
12.3502628119
 30
0.0
 10
15.559793929
 20
12.3404564306
 30
0.0
 10
15.5599861482
 20
12.3306052266
 30
0.0
 10
15.5607769118
 20
12.3209556353
 30
0.0
 10
15.5619338304
 20
12.3131705417
 30
0.0
 10
15.5631553964
 20
12.3072393767
 30
0.0
 10
15.5641904456
 20
12.3030542965
 30
0.0
 10
15.5653510925
 20
12.2990932808
 30
0.0
 10
15.5666300804
 20
12.2953810419
 30
0.0
 10
15.5680193787
 20
12.2919406866
 30
0.0
 10
15.5695103723
 20
12.2887934906
 30
0.0
 10
15.5710939689
 20
12.2859587655
 30
0.0
 10
15.5727607874
 20
12.2834537445
 30
0.0
 10
15.5745013953
 20
12.2812935749
 30
0.0
 10
15.5763066337
 20
12.279491478
 30
0.0
 10
15.5781676565
 20
12.2780593452
 30
0.0
 10
15.5800760547
 20
12.277008569
 30
0.0
 10
15.5820204185
 20
12.2763510258
 30
0.0
 10
15.5833434523
 20
12.2761806494
 30
0.0
 10
15.5839924937
 20
12.2761648015
 30
0.0
  0
SPLINE
  5
2B4
100
AcDbEntity
  8
02___PRT_ALL_AXES
100
AcDbSpline
 62
7
  6
CONTINUOUS
 70
0
 71
3
 72
21
 73
17
 74
0
 42
0.0000001
 43
0.0000001
 44
0.0000000001
 40
0.0
 40
0.0
 40
0.0
 40
0.0
 40
0.1761192802
 40
0.3397623396
 40
0.4161971981
 40
0.4887143489
 40
0.557134748
 40
0.6213364455
 40
0.681266418
 40
0.7369559091
 40
0.7885402878
 40
0.836283604
 40
0.8806062151
 40
0.9221096596
 40
0.9615868876
 40
1.0
 40
1.0
 40
1.0
 40
1.0
 10
15.8184175725
 20
11.8862175284
 30
0.0
 10
15.8188859502
 20
11.8835997907
 30
0.0
 10
15.8199482997
 20
11.8785762883
 30
0.0
 10
15.8216951529
 20
11.8725319895
 30
0.0
 10
15.8233039225
 20
11.8680929707
 30
0.0
 10
15.8245700331
 20
11.8650632447
 30
0.0
 10
15.8259166814
 20
11.8622719496
 30
0.0
 10
15.8273373089
 20
11.8597329042
 30
0.0
 10
15.8288250461
 20
11.8574586028
 30
0.0
 10
15.8303729541
 20
11.8554601879
 30
0.0
 10
15.8319741293
 20
11.8537475129
 30
0.0
 10
15.8336218566
 20
11.8523293351
 30
0.0
 10
15.8353094396
 20
11.8512136917
 30
0.0
 10
15.8370301173
 20
11.8504083759
 30
0.0
 10
15.8387746718
 20
11.8499209752
 30
0.0
 10
15.8399534611
 20
11.8498116121
 30
0.0
 10
15.8405334792
 20
11.8498116117
 30
0.0
  0
SPLINE
  5
2B5
100
AcDbEntity
  8
02___PRT_ALL_AXES
100
AcDbSpline
 62
7
  6
CONTINUOUS
 70
0
 71
3
 72
14
 73
10
 74
0
 42
0.0000001
 43
0.0000001
 44
0.0000000001
 40
0.0
 40
0.0
 40
0.0
 40
0.0
 40
0.292336523
 40
0.4255096218
 40
0.5509147569
 40
0.6696033027
 40
0.7829058427
 40
0.8924289894
 40
1.0
 40
1.0
 40
1.0
 40
1.0
 10
15.9695141534
 20
12.0396978396
 30
0.0
 10
15.9702989756
 20
12.0387007829
 30
0.0
 10
15.9715399601
 20
12.0373185142
 30
0.0
 10
15.9733693765
 20
12.0357738269
 30
0.0
 10
15.9747240619
 20
12.0348480646
 30
0.0
 10
15.9760995877
 20
12.034122853
 30
0.0
 10
15.9774919921
 20
12.033601621
 30
0.0
 10
15.9788959582
 20
12.0332874432
 30
0.0
 10
15.9798396814
 20
12.0332172105
 30
0.0
 10
15.9803065926
 20
12.0332172168
 30
0.0
  0
SPLINE
  5
2B6
100
AcDbEntity
  8
02___PRT_ALL_AXES
100
AcDbSpline
 62
7
  6
CONTINUOUS
 70
0
 71
3
 72
38
 73
34
 74
0
 42
0.0000001
 43
0.0000001
 44
0.0000000001
 40
0.0
 40
0.0
 40
0.0
 40
0.0
 40
0.0913311416
 40
0.1355374693
 40
0.178733363
 40
0.2208940449
 40
0.2619977496
 40
0.3020254784
 40
0.3409613177
 40
0.3787927196
 40
0.4155107925
 40
0.4511106581
 40
0.4855918489
 40
0.5189587338
 40
0.5512210009
 40
0.5823941979
 40
0.6125003295
 40
0.6415685106
 40
0.6696356354
 40
0.6967470662
 40
0.7229573071
 40
0.7483306083
 40
0.7729414311
 40
0.7968746645
 40
0.8202255142
 40
0.8430989606
 40
0.8656087036
 40
0.8878755602
 40
0.9100253416
 40
0.9321863396
 40
0.9544866067
 40
0.9770512559
 40
1.0
 40
1.0
 40
1.0
 40
1.0
 10
16.1445454024
 20
11.6217473358
 30
0.0
 10
16.1372545569
 20
11.5981541511
 30
0.0
 10
16.1257941034
 20
11.5633327578
 30
0.0
 10
16.1092823438
 20
11.5179126201
 30
0.0
 10
16.09661637
 20
11.4852483371
 30
0.0
 10
16.0835472772
 20
11.4536492027
 30
0.0
 10
16.0700884865
 20
11.423147775
 30
0.0
 10
16.0562539642
 20
11.3937756722
 30
0.0
 10
16.0420580057
 20
11.365563268
 30
0.0
 10
16.0275152693
 20
11.3385397399
 30
0.0
 10
16.0126407358
 20
11.3127330172
 30
0.0
 10
15.9974496916
 20
11.2881697597
 30
0.0
 10
15.9819577165
 20
11.264875321
 30
0.0
 10
15.9661806447
 20
11.2428737381
 30
0.0
 10
15.9501345392
 20
11.2221877219
 30
0.0
 10
15.9338356661
 20
11.2028386494
 30
0.0
 10
15.9173004659
 20
11.1848465616
 30
0.0
 10
15.9005455477
 20
11.1682301554
 30
0.0
 10
15.8835876603
 20
11.1530068137
 30
0.0
 10
15.8664436906
 20
11.1391926358
 30
0.0
 10
15.8491306809
 20
11.1268024692
 30
0.0
 10
15.8316658653
 20
11.1158499406
 30
0.0
 10
15.8140667512
 20
11.1063474498
 30
0.0
 10
15.7963511982
 20
11.0983061764
 30
0.0
 10
15.778537529
 20
11.0917360269
 30
0.0
 10
15.760644631
 20
11.0866455141
 30
0.0
 10
15.7426920118
 20
11.0830415792
 30
0.0
 10
15.7246997921
 20
11.0809293352
 30
0.0
 10
15.7066885343
 20
11.0803118861
 30
0.0
 10
15.6886791675
 20
11.0811901241
 30
0.0
 10
15.6706921679
 20
11.083562857
 30
0.0
 10
15.6527493366
 20
11.0874262026
 30
0.0
 10
15.6409459969
 20
11.0909573376
 30
0.0
 10
15.6350720968
 20
11.0929567297
 30
0.0
  0
SPLINE
  5
2B7
100
AcDbEntity
  8
02___PRT_ALL_AXES
100
AcDbSpline
 62
7
  6
CONTINUOUS
 70
0
 71
3
 72
57
 73
53
 74
0
 42
0.0000001
 43
0.0000001
 44
0.0000000001
 40
0.0
 40
0.0
 40
0.0
 40
0.0
 40
0.0081850643
 40
0.0162195881
 40
0.0241607725
 40
0.0320683628
 40
0.0400030477
 40
0.0480247538
 40
0.0561910247
 40
0.0645556523
 40
0.0731676662
 40
0.0820707135
 40
0.0913027973
 40
0.1008963025
 40
0.1108782233
 40
0.1212705175
 40
0.1320905207
 40
0.1433513787
 40
0.1550624685
 40
0.1672297894
 40
0.179856319
 40
0.1929423296
 40
0.206485668
 40
0.220482
 40
0.234925025
 40
0.2498066627
 40
0.2651172183
 40
0.2808455261
 40
0.2969790788
 40
0.3135041407
 40
0.3304058508
 40
0.3476683161
 40
0.3652746959
 40
0.38320728
 40
0.4199748772
 40
0.4578162213
 40
0.4965651509
 40
0.53604763
 40
0.5760834478
 40
0.6164878385
 40
0.6570730485
 40
0.6976498712
 40
0.738029167
 40
0.7780233844
 40
0.8174480972
 40
0.8561235753
 40
0.8938764101
 40
0.9305412213
 40
0.9484173676
 40
0.9659640793
 40
0.9831638979
 40
1.0
 40
1.0
 40
1.0
 40
1.0
 10
15.6350720964
 20
13.9286532641
 30
0.0
 10
15.6418180977
 20
13.9309495068
 30
0.0
 10
15.6553901264
 20
13.9349276392
 30
0.0
 10
15.6760578012
 20
13.938992505
 30
0.0
 10
15.6967775875
 20
13.9410806753
 30
0.0
 10
15.7175151335
 20
13.9411870547
 30
0.0
 10
15.738238138
 20
13.93931158
 30
0.0
 10
15.7589139788
 20
13.9354582276
 30
0.0
 10
15.7795111767
 20
13.9296349455
 30
0.0
 10
15.7999995404
 20
13.9218530219
 30
0.0
 10
15.8203502821
 20
13.9121265184
 30
0.0
 10
15.8405358186
 20
13.9004718065
 30
0.0
 10
15.860529486
 20
13.8869073036
 30
0.0
 10
15.88030525
 20
13.8714533814
 30
0.0
 10
15.8998374847
 20
13.8541323929
 30
0.0
 10
15.9191008351
 20
13.8349687548
 30
0.0
 10
15.9380701571
 20
13.8139890429
 30
0.0
 10
15.9567205125
 20
13.7912220715
 30
0.0
 10
15.9750271987
 20
13.7666989471
 30
0.0
 10
15.9929657994
 20
13.7404530953
 30
0.0
 10
16.0105122426
 20
13.7125202641
 30
0.0
 10
16.0276428607
 20
13.6829385076
 30
0.0
 10
16.0443344486
 20
13.651748154
 30
0.0
 10
16.0605643176
 20
13.6189917618
 30
0.0
 10
16.076310346
 20
13.5847140678
 30
0.0
 10
16.0915510238
 20
13.548961928
 30
0.0
 10
16.1062654957
 20
13.5117842532
 30
0.0
 10
16.1204335986
 20
13.4732319409
 30
0.0
 10
16.1340358974
 20
13.4333578026
 30
0.0
 10
16.147053716
 20
13.3922164931
 30
0.0
 10
16.1594691782
 20
13.3498644182
 30
0.0
 10
16.1712651904
 20
13.3063597099
 30
0.0
 10
16.1824256424
 20
13.2617619319
 30
0.0
 10
16.1965552237
 20
13.2004132696
 30
0.0
 10
16.2124787411
 20
13.1214150359
 30
0.0
 10
16.2286747605
 20
13.0240434743
 30
0.0
 10
16.2420246326
 20
12.9238564636
 30
0.0
 10
16.2524545983
 20
12.8214040436
 30
0.0
 10
16.2599070191
 20
12.7172476662
 30
0.0
 10
16.2643407038
 20
12.6119586927
 30
0.0
 10
16.2657311437
 20
12.5061147236
 30
0.0
 10
16.2640706519
 20
12.4002964885
 30
0.0
 10
16.2593684074
 20
12.2950845733
 30
0.0
 10
16.251650402
 20
12.1910561478
 30
0.0
 10
16.2409592958
 20
12.0887818579
 30
0.0
 10
16.2273541722
 20
11.988822151
 30
0.0
 10
16.2109101974
 20
11.8917258078
 30
0.0
 10
16.1947837853
 20
11.812988717
 30
0.0
 10
16.1804960322
 20
11.7518723772
 30
0.0
 10
16.1692218424
 20
11.7074636823
 30
0.0
 10
16.1573149594
 20
11.6641589904
 30
0.0
 10
16.1488731034
 20
11.6357517814
 30
0.0
 10
16.1445454024
 20
11.6217473358
 30
0.0
  0
SPLINE
  5
2B8
100
AcDbEntity
  8
02___PRT_ALL_AXES
100
AcDbSpline
 62
7
  6
CONTINUOUS
 70
0
 71
3
 72
24
 73
20
 74
0
 42
0.0000001
 43
0.0000001
 44
0.0000000001
 40
0.0
 40
0.0
 40
0.0
 40
0.0
 40
0.0167012685
 40
0.0336271824
 40
0.0509916433
 40
0.0689887355
 40
0.1074848091
 40
0.1501896597
 40
0.1977129703
 40
0.2503376256
 40
0.3081004307
 40
0.3708540048
 40
0.4383107642
 40
0.5100740938
 40
0.5856612586
 40
0.66452115
 40
0.7460485386
 40
0.8295974942
 40
1.0
 40
1.0
 40
1.0
 40
1.0
 10
15.7386176077
 20
13.148901447
 30
0.0
 10
15.7382167132
 20
13.1489014467
 30
0.0
 10
15.7374086194
 20
13.1488499012
 30
0.0
 10
15.7362036112
 20
13.1486189443
 30
0.0
 10
15.7350055404
 20
13.1482351091
 30
0.0
 10
15.7333861574
 20
13.1475055855
 30
0.0
 10
15.7313851658
 20
13.1461852505
 30
0.0
 10
15.7291251658
 20
13.1440617497
 30
0.0
 10
15.7269648755
 20
13.1413874911
 30
0.0
 10
15.7249211918
 20
13.1381877257
 30
0.0
 10
15.7230106907
 20
13.1344914122
 30
0.0
 10
15.7212506863
 20
13.1303326798
 30
0.0
 10
15.7196576607
 20
13.1257505197
 30
0.0
 10
15.71824691
 20
13.1207884428
 30
0.0
 10
15.7170321155
 20
13.1154939242
 30
0.0
 10
15.7160251604
 20
13.1099179432
 30
0.0
 10
15.7152358187
 20
13.1041141053
 30
0.0
 10
15.7144793351
 20
13.0960954165
 30
0.0
 10
15.7142670741
 20
13.0899951842
 30
0.0
 10
15.7142797294
 20
13.0859048902
 30
0.0
  0
SPLINE
  5
2B9
100
AcDbEntity
  8
02___PRT_ALL_AXES
100
AcDbSpline
 62
7
  6
CONTINUOUS
 70
0
 71
3
 72
18
 73
14
 74
0
 42
0.0000001
 43
0.0000001
 44
0.0000000001
 40
0.0
 40
0.0
 40
0.0
 40
0.0
 40
0.0426789408
 40
0.0860983419
 40
0.1309532768
 40
0.1778577335
 40
0.2273257038
 40
0.2797665915
 40
0.3946246344
 40
0.5240274825
 40
0.6683846099
 40
0.8273413094
 40
1.0
 40
1.0
 40
1.0
 40
1.0
 10
15.8954917598
 20
13.1352998886
 30
0.0
 10
15.8950354505
 20
13.1352998949
 30
0.0
 10
15.8941135809
 20
13.1352328675
 30
0.0
 10
15.8927415619
 20
13.1349329355
 30
0.0
 10
15.8913802633
 20
13.1344351865
 30
0.0
 10
15.8900346405
 20
13.133742413
 30
0.0
 10
15.8887085094
 20
13.1328577749
 30
0.0
 10
15.8869172607
 20
13.1313819839
 30
0.0
 10
15.8847572692
 20
13.1290381812
 30
0.0
 10
15.8823840517
 20
13.1256161538
 30
0.0
 10
15.8801762985
 20
13.1215416056
 30
0.0
 10
15.8781596259
 20
13.1168634728
 30
0.0
 10
15.8770029964
 20
13.1135083829
 30
0.0
 10
15.8764559854
 20
13.1117452796
 30
0.0
  0
SPLINE
  5
2BA
100
AcDbEntity
  8
LAYER_FEATURE
100
AcDbSpline
 62
7
  6
CONTINUOUS
 70
0
 71
3
 72
54
 73
50
 74
0
 42
0.0000001
 43
0.0000001
 44
0.0000000001
 40
0.0
 40
0.0
 40
0.0
 40
0.0
 40
0.033050083
 40
0.0673809185
 40
0.1028689289
 40
0.1393805316
 40
0.1767738169
 40
0.214899975
 40
0.25360464
 40
0.2927291642
 40
0.332111844
 40
0.3715891171
 40
0.410996745
 40
0.4501709878
 40
0.4889497822
 40
0.5271739364
 40
0.5646883543
 40
0.6013432993
 40
0.6369957232
 40
0.6544041331
 40
0.6715120654
 40
0.6883041813
 40
0.7047658546
 40
0.7208832311
 40
0.736643294
 40
0.752033935
 40
0.7670440316
 40
0.7816635337
 40
0.7958835599
 40
0.8096965037
 40
0.823096154
 40
0.8360778312
 40
0.8486385411
 40
0.8607771508
 40
0.8724945867
 40
0.88379406
 40
0.8946813196
 40
0.905164933
 40
0.915256592
 40
0.9249714402
 40
0.9343284073
 40
0.9433505317
 40
0.9520652404
 40
0.9605045434
 40
0.9687050901
 40
0.9767080295
 40
0.9845586187
 40
0.9923055502
 40
1.0
 40
1.0
 40
1.0
 40
1.0
 10
15.1851019604
 20
13.5263602786
 30
0.0
 10
15.1756746352
 20
13.4958534429
 30
0.0
 10
15.1577378776
 20
13.4332550378
 30
0.0
 10
15.133939582
 20
13.3367423807
 30
0.0
 10
15.1128216036
 20
13.2361885406
 30
0.0
 10
15.0944884064
 20
13.132086431
 30
0.0
 10
15.0790300744
 20
13.0249440675
 30
0.0
 10
15.0665227844
 20
12.9152854744
 30
0.0
 10
15.0570281397
 20
12.8036470358
 30
0.0
 10
15.050592933
 20
12.690575076
 30
0.0
 10
15.0472488871
 20
12.5766230492
 30
0.0
 10
15.0470124819
 20
12.4623488005
 30
0.0
 10
15.0498848758
 20
12.3483117758
 30
0.0
 10
15.0558519115
 20
12.2350702466
 30
0.0
 10
15.0648841878
 20
12.1231784974
 30
0.0
 10
15.0769371945
 20
12.0131841787
 30
0.0
 10
15.0919515425
 20
11.9056251243
 30
0.0
 10
15.1098532625
 20
11.8010282454
 30
0.0
 10
15.1272392212
 20
11.7160956519
 30
0.0
 10
15.1425594062
 20
11.6500551248
 30
0.0
 10
15.1546213048
 20
11.6019721328
 30
0.0
 10
15.1673308842
 20
11.555003147
 30
0.0
 10
15.1806726579
 20
11.5092055411
 30
0.0
 10
15.1946302391
 20
11.464635406
 30
0.0
 10
15.2091865271
 20
11.4213472704
 30
0.0
 10
15.2243236886
 20
11.3793940865
 30
0.0
 10
15.2400231935
 20
11.3388271491
 30
0.0
 10
15.2562658392
 20
11.2996960338
 30
0.0
 10
15.2730317778
 20
11.2620485319
 30
0.0
 10
15.2903005496
 20
11.2259305925
 30
0.0
 10
15.3080511167
 20
11.1913862662
 30
0.0
 10
15.3262618994
 20
11.1584576526
 30
0.0
 10
15.3449108156
 20
11.1271848516
 30
0.0
 10
15.3639753229
 20
11.0976059207
 30
0.0
 10
15.3834324647
 20
11.0697568394
 30
0.0
 10
15.4032589193
 20
11.0436714833
 30
0.0
 10
15.4234310459
 20
11.019381607
 30
0.0
 10
15.4439249335
 20
10.9969168468
 30
0.0
 10
15.4647164422
 20
10.9763047422
 30
0.0
 10
15.4857812279
 20
10.9575707759
 30
0.0
 10
15.507094741
 20
10.9407384324
 30
0.0
 10
15.5286321832
 20
10.9258292668
 30
0.0
 10
15.5503684178
 20
10.912862968
 30
0.0
 10
15.5722777888
 20
10.9018573861
 30
0.0
 10
15.5943339924
 20
10.8928284795
 30
0.0
 10
15.6165095543
 20
10.8857901435
 30
0.0
 10
15.6387767262
 20
10.8807539036
 30
0.0
 10
15.6611035772
 20
10.8777284995
 30
0.0
 10
15.6760303683
 20
10.877054996
 30
0.0
 10
15.68346411
 20
10.8770550021
 30
0.0
  0
SPLINE
  5
2BB
100
AcDbEntity
  8
02___PRT_ALL_AXES
100
AcDbSpline
 62
7
  6
CONTINUOUS
 70
0
 71
3
 72
33
 73
29
 74
0
 42
0.0000001
 43
0.0000001
 44
0.0000000001
 40
0.0
 40
0.0
 40
0.0
 40
0.0
 40
0.0187276665
 40
0.0376987661
 40
0.0570394648
 40
0.0768670765
 40
0.097288164
 40
0.1183973187
 40
0.1402767955
 40
0.1629966779
 40
0.1866154426
 40
0.2111807319
 40
0.2367302067
 40
0.2632925011
 40
0.2908881241
 40
0.3195302658
 40
0.3492255194
 40
0.3799745974
 40
0.4117729328
 40
0.4446111702
 40
0.4784756112
 40
0.5133486592
 40
0.5860273646
 40
0.6624467632
 40
0.7423563162
 40
0.8254685151
 40
0.9114644738
 40
1.0
 40
1.0
 40
1.0
 40
1.0
 10
15.8023803629
 20
11.8860781964
 30
0.0
 10
15.7994387551
 20
11.8863016231
 30
0.0
 10
15.7935347558
 20
11.8870269515
 30
0.0
 10
15.7847417503
 20
11.8889297932
 30
0.0
 10
15.7759841822
 20
11.8916486277
 30
0.0
 10
15.767275085
 20
11.8951785348
 30
0.0
 10
15.7586256704
 20
11.8995136476
 30
0.0
 10
15.7500470918
 20
11.9046472288
 30
0.0
 10
15.7415500633
 20
11.9105716933
 30
0.0
 10
15.7331451062
 20
11.9172786835
 30
0.0
 10
15.7248425941
 20
11.9247590605
 30
0.0
 10
15.716652809
 20
11.9330028613
 30
0.0
 10
15.7085859243
 20
11.941999234
 30
0.0
 10
15.700652037
 20
11.9517364482
 30
0.0
 10
15.6928611538
 20
11.9622018776
 30
0.0
 10
15.685223168
 20
11.9733819781
 30
0.0
 10
15.6777478115
 20
11.9852622719
 30
0.0
 10
15.670444668
 20
11.9978273811
 30
0.0
 10
15.6633231384
 20
12.0110610445
 30
0.0
 10
15.6563924471
 20
12.024946098
 30
0.0
 10
15.6496614579
 20
12.0394645767
 30
0.0
 10
15.6408434951
 20
12.0599241323
 30
0.0
 10
15.6304132165
 20
12.0869758178
 30
0.0
 10
15.6189930818
 20
12.1212065976
 30
0.0
 10
15.6085616322
 20
12.1574640886
 30
0.0
 10
15.599173324
 20
12.1955599269
 30
0.0
 10
15.5908772879
 20
12.2352963363
 30
0.0
 10
15.5861654908
 20
12.2623885446
 30
0.0
 10
15.5839924937
 20
12.2761648015
 30
0.0
  0
SPLINE
  5
2BC
100
AcDbEntity
  8
LAYER_FEATURE
100
AcDbSpline
 62
7
  6
CONTINUOUS
 70
0
 71
3
 72
19
 73
15
 74
0
 42
0.0000001
 43
0.0000001
 44
0.0000000001
 40
0.0
 40
0.0
 40
0.0
 40
0.0
 40
0.0571657783
 40
0.1144703014
 40
0.1720510614
 40
0.2300431329
 40
0.2885779984
 40
0.3477826511
 40
0.4686467861
 40
0.5935699381
 40
0.7233381653
 40
0.790265792
 40
0.8586461123
 40
1.0
 40
1.0
 40
1.0
 40
1.0
 10
15.2587080233
 20
14.1445549837
 30
0.0
 10
15.2631312972
 20
14.1445549794
 30
0.0
 10
15.2719904071
 20
14.1443175396
 30
0.0
 10
15.2852661778
 20
14.143249564
 30
0.0
 10
15.2985302832
 20
14.1414702688
 30
0.0
 10
15.3117761241
 20
14.1389805053
 30
0.0
 10
15.3249982116
 20
14.1357814514
 30
0.0
 10
15.3427069232
 20
14.1305375445
 30
0.0
 10
15.364810832
 20
14.1221572876
 30
0.0
 10
15.3909424607
 20
14.1093617321
 30
0.0
 10
15.4122910299
 20
14.0965137014
 30
0.0
 10
15.4292117696
 20
14.0849143608
 30
0.0
 10
15.4463965032
 20
14.0721424367
 30
0.0
 10
15.4588785334
 20
14.061743753
 30
0.0
 10
15.4670487873
 20
14.0544722726
 30
0.0
  0
SPLINE
  5
2BD
100
AcDbEntity
  8
LAYER_FEATURE
100
AcDbSpline
 62
7
  6
CONTINUOUS
 70
0
 71
3
 72
19
 73
15
 74
0
 42
0.0000001
 43
0.0000001
 44
0.0000000001
 40
0.0
 40
0.0
 40
0.0
 40
0.0
 40
0.057154261
 40
0.1144475981
 40
0.1720178295
 40
0.2300003349
 40
0.2885269088
 40
0.3477247903
 40
0.4685809158
 40
0.5935048522
 40
0.723283864
 40
0.7902209434
 40
0.8586133969
 40
1.0
 40
1.0
 40
1.0
 40
1.0
 10
15.2587080233
 20
10.8770550021
 30
0.0
 10
15.2631370296
 20
10.8770549977
 30
0.0
 10
15.2720076529
 20
10.8772930712
 30
0.0
 10
15.2853006445
 20
10.8783638067
 30
0.0
 10
15.2985819205
 20
10.8801477393
 30
0.0
 10
15.3118448657
 20
10.882643945
 30
0.0
 10
15.3250839524
 20
10.8858513187
 30
0.0
 10
15.3428156215
 20
10.8911088698
 30
0.0
 10
15.3649480111
 20
10.8995110455
 30
0.0
 10
15.3911123227
 20
10.9123397107
 30
0.0
 10
15.4124866392
 20
10.9252205745
 30
0.0
 10
15.4294274162
 20
10.9368494646
 30
0.0
 10
15.4466329158
 20
10.949654264
 30
0.0
 10
15.4591292008
 20
10.960079307
 30
0.0
 10
15.4673085327
 20
10.967369037
 30
0.0
  0
SPLINE
  5
2BE
100
AcDbEntity
  8
LAYER_FEATURE
100
AcDbSpline
 62
7
  6
CONTINUOUS
 70
0
 71
3
 72
54
 73
50
 74
0
 42
0.0000001
 43
0.0000001
 44
0.0000000001
 40
0.0
 40
0.0
 40
0.0
 40
0.0
 40
0.0076944498
 40
0.0154413813
 40
0.0232919705
 40
0.0312949099
 40
0.0394954566
 40
0.0479347596
 40
0.0566494683
 40
0.0656715927
 40
0.0750285598
 40
0.084743408
 40
0.094835067
 40
0.1053186804
 40
0.11620594
 40
0.1275054133
 40
0.1392228492
 40
0.1513614589
 40
0.1639221688
 40
0.176903846
 40
0.1903034963
 40
0.2041164401
 40
0.2183364663
 40
0.2329559684
 40
0.247966065
 40
0.263356706
 40
0.2791167689
 40
0.2952341454
 40
0.3116958187
 40
0.3284879346
 40
0.3455958669
 40
0.3630042768
 40
0.3986567007
 40
0.4353116457
 40
0.4728260636
 40
0.5110502178
 40
0.5498290122
 40
0.589003255
 40
0.6284108829
 40
0.667888156
 40
0.7072708358
 40
0.74639536
 40
0.785100025
 40
0.8232261831
 40
0.8606194684
 40
0.8971310711
 40
0.9326190815
 40
0.966949917
 40
1.0
 40
1.0
 40
1.0
 40
1.0
 10
15.7117132514
 20
14.1445549837
 30
0.0
 10
15.7191469931
 20
14.1445549898
 30
0.0
 10
15.7340737842
 20
14.1438814863
 30
0.0
 10
15.7564006352
 20
14.1408560823
 30
0.0
 10
15.7786678071
 20
14.1358198423
 30
0.0
 10
15.800843369
 20
14.1287815063
 30
0.0
 10
15.8228995726
 20
14.1197525997
 30
0.0
 10
15.8448089436
 20
14.1087470178
 30
0.0
 10
15.8665451782
 20
14.0957807191
 30
0.0
 10
15.8880826204
 20
14.0808715535
 30
0.0
 10
15.9093961335
 20
14.0640392099
 30
0.0
 10
15.9304609191
 20
14.0453052436
 30
0.0
 10
15.9512524279
 20
14.024693139
 30
0.0
 10
15.9717463154
 20
14.0022283788
 30
0.0
 10
15.9919184421
 20
13.9779385025
 30
0.0
 10
16.0117448967
 20
13.9518531464
 30
0.0
 10
16.0312020385
 20
13.9240040651
 30
0.0
 10
16.0502665458
 20
13.8944251342
 30
0.0
 10
16.068915462
 20
13.8631523332
 30
0.0
 10
16.0871262447
 20
13.8302237196
 30
0.0
 10
16.1048768118
 20
13.7956793933
 30
0.0
 10
16.1221455836
 20
13.7595614539
 30
0.0
 10
16.1389115221
 20
13.721913952
 30
0.0
 10
16.1551541679
 20
13.6827828367
 30
0.0
 10
16.1708536728
 20
13.6422158993
 30
0.0
 10
16.1859908342
 20
13.6002627154
 30
0.0
 10
16.2005471223
 20
13.5569745798
 30
0.0
 10
16.2145047035
 20
13.5124044448
 30
0.0
 10
16.2278464772
 20
13.4666068388
 30
0.0
 10
16.2405560566
 20
13.419637853
 30
0.0
 10
16.2526179552
 20
13.371554861
 30
0.0
 10
16.2679381402
 20
13.3055143339
 30
0.0
 10
16.2853240989
 20
13.2205817404
 30
0.0
 10
16.3032258189
 20
13.1159848616
 30
0.0
 10
16.3182401669
 20
13.0084258071
 30
0.0
 10
16.3302931736
 20
12.8984314884
 30
0.0
 10
16.3393254499
 20
12.7865397392
 30
0.0
 10
16.3452924856
 20
12.67329821
 30
0.0
 10
16.3481648795
 20
12.5592611853
 30
0.0
 10
16.3479284743
 20
12.4449869366
 30
0.0
 10
16.3445844284
 20
12.3310349098
 30
0.0
 10
16.3381492217
 20
12.21796295
 30
0.0
 10
16.328654577
 20
12.1063245114
 30
0.0
 10
16.316147287
 20
11.9966659183
 30
0.0
 10
16.300688955
 20
11.8895235548
 30
0.0
 10
16.2823557578
 20
11.7854214453
 30
0.0
 10
16.2612377794
 20
11.6848676051
 30
0.0
 10
16.2374394838
 20
11.588354948
 30
0.0
 10
16.2195027262
 20
11.5257565429
 30
0.0
 10
16.210075401
 20
11.4952497072
 30
0.0
  0
SPLINE
  5
2BF
100
AcDbEntity
  8
LAYER_FEATURE
100
AcDbSpline
 62
7
  6
CONTINUOUS
 70
0
 71
3
 72
35
 73
31
 74
0
 42
0.0000001
 43
0.0000001
 44
0.0000000001
 40
0.0
 40
0.0
 40
0.0
 40
0.0
 40
0.0212775213
 40
0.0426488271
 40
0.0642061834
 40
0.0860389164
 40
0.1082321823
 40
0.1308659592
 40
0.1540143001
 40
0.17774488
 40
0.2021187628
 40
0.2271903427
 40
0.2795970076
 40
0.3070241629
 40
0.3353041691
 40
0.3644618612
 40
0.3945172524
 40
0.4254858761
 40
0.4573791784
 40
0.4902048556
 40
0.5239671195
 40
0.5586669929
 40
0.5943025893
 40
0.6308693191
 40
0.6683600741
 40
0.7067654615
 40
0.7460739618
 40
0.8273403708
 40
0.9120339744
 40
1.0
 40
1.0
 40
1.0
 40
1.0
 10
15.7117132514
 20
10.8770550021
 30
0.0
 10
15.7176808422
 20
10.8770550071
 30
0.0
 10
15.7296467958
 20
10.8774880161
 30
0.0
 10
15.7475635721
 20
10.8794345476
 30
0.0
 10
15.7654506315
 20
10.8826764977
 30
0.0
 10
15.7832916964
 20
10.8872105454
 30
0.0
 10
15.8010723489
 20
10.8930322235
 30
0.0
 10
15.8187780548
 20
10.9001359629
 30
0.0
 10
15.8363947772
 20
10.9085151821
 30
0.0
 10
15.8539085553
 20
10.9181623222
 30
0.0
 10
15.8713063062
 20
10.9290693456
 30
0.0
 10
15.8946726959
 20
10.9455206149
 30
0.0
 10
15.9174028618
 20
10.9642863807
 30
0.0
 10
15.9394656356
 20
10.9850952801
 30
0.0
 10
15.9560835838
 20
11.0021455576
 30
0.0
 10
15.9725060357
 20
11.0203866056
 30
0.0
 10
15.9887212555
 20
11.0398049555
 30
0.0
 10
16.0047164538
 20
11.0603850179
 30
0.0
 10
16.0204792944
 20
11.0821106624
 30
0.0
 10
16.0359974713
 20
11.1049647902
 30
0.0
 10
16.0512588905
 20
11.1289294221
 30
0.0
 10
16.0662516292
 20
11.1539856941
 30
0.0
 10
16.0809639286
 20
11.180113897
 30
0.0
 10
16.0953842401
 20
11.2072934741
 30
0.0
 10
16.1095012196
 20
11.2355029854
 30
0.0
 10
16.1233038755
 20
11.2647203019
 30
0.0
 10
16.1414748471
 20
11.3054412105
 30
0.0
 10
16.1632858614
 20
11.3587383247
 30
0.0
 10
16.1877534578
 20
11.425635907
 30
0.0
 10
16.2027912487
 20
11.4716781819
 30
0.0
 10
16.210075401
 20
11.4952497072
 30
0.0
  0
SPLINE
  5
2C0
100
AcDbEntity
  8
LAYER_FEATURE
100
AcDbSpline
 62
7
  6
CONTINUOUS
 70
0
 71
3
 72
35
 73
31
 74
0
 42
0.0000001
 43
0.0000001
 44
0.0000000001
 40
0.0
 40
0.0
 40
0.0
 40
0.0
 40
0.0879660256
 40
0.1726596292
 40
0.2539260382
 40
0.2932345385
 40
0.3316399259
 40
0.3691306809
 40
0.4056974107
 40
0.4413330071
 40
0.4760328805
 40
0.5097951444
 40
0.5426208216
 40
0.5745141239
 40
0.6054827476
 40
0.6355381388
 40
0.6646958309
 40
0.6929758371
 40
0.7204029924
 40
0.7728096573
 40
0.7978812372
 40
0.82225512
 40
0.8459856999
 40
0.8691340408
 40
0.8917678177
 40
0.9139610836
 40
0.9357938166
 40
0.9573511729
 40
0.9787224787
 40
1.0
 40
1.0
 40
1.0
 40
1.0
 10
15.1851019604
 20
13.5263602786
 30
0.0
 10
15.1923861127
 20
13.549931804
 30
0.0
 10
15.2074239036
 20
13.5959740788
 30
0.0
 10
15.2318915
 20
13.6628716611
 30
0.0
 10
15.2537025143
 20
13.7161687753
 30
0.0
 10
15.2718734859
 20
13.7568896839
 30
0.0
 10
15.2856761418
 20
13.7861070004
 30
0.0
 10
15.2997931213
 20
13.8143165117
 30
0.0
 10
15.3142134327
 20
13.8414960889
 30
0.0
 10
15.3289257322
 20
13.8676242917
 30
0.0
 10
15.3439184709
 20
13.8926805637
 30
0.0
 10
15.3591798901
 20
13.9166451956
 30
0.0
 10
15.374698067
 20
13.9394993235
 30
0.0
 10
15.3904609076
 20
13.9612249679
 30
0.0
 10
15.4064561058
 20
13.9818050303
 30
0.0
 10
15.4226713257
 20
14.0012233802
 30
0.0
 10
15.4390937775
 20
14.0194644282
 30
0.0
 10
15.4557117258
 20
14.0365147057
 30
0.0
 10
15.4777744996
 20
14.0573236051
 30
0.0
 10
15.5005046655
 20
14.0760893709
 30
0.0
 10
15.5238710552
 20
14.0925406402
 30
0.0
 10
15.5412688061
 20
14.1034476636
 30
0.0
 10
15.5587825842
 20
14.1130948037
 30
0.0
 10
15.5763993066
 20
14.121474023
 30
0.0
 10
15.5941050125
 20
14.1285777624
 30
0.0
 10
15.6118856649
 20
14.1343994404
 30
0.0
 10
15.6297267299
 20
14.1389334881
 30
0.0
 10
15.6476137893
 20
14.1421754382
 30
0.0
 10
15.6655305656
 20
14.1441219697
 30
0.0
 10
15.6774965192
 20
14.1445549788
 30
0.0
 10
15.68346411
 20
14.1445549837
 30
0.0
  0
SPLINE
  5
2C1
100
AcDbEntity
  8
02___PRT_ALL_AXES
100
AcDbSpline
 62
7
  6
CONTINUOUS
 70
0
 71
3
 72
18
 73
14
 74
0
 42
0.0000001
 43
0.0000001
 44
0.0000000001
 40
0.0
 40
0.0
 40
0.0
 40
0.0
 40
0.0543221189
 40
0.1088695992
 40
0.163864367
 40
0.2195216877
 40
0.2760473279
 40
0.3336352304
 40
0.4526540004
 40
0.5778986208
 40
0.7103860995
 40
0.8508973549
 40
1.0
 40
1.0
 40
1.0
 40
1.0
 10
15.7950692713
 20
13.6045549927
 30
0.0
 10
15.7989446592
 20
13.6045549911
 30
0.0
 10
15.8067142447
 20
13.6042822775
 30
0.0
 10
15.8183490104
 20
13.6030563033
 30
0.0
 10
15.8299657162
 20
13.6010143216
 30
0.0
 10
15.8415543438
 20
13.5981583294
 30
0.0
 10
15.8531064292
 20
13.5944907363
 30
0.0
 10
15.8686158868
 20
13.5884583076
 30
0.0
 10
15.8879262142
 20
13.5788051101
 30
0.0
 10
15.9105261434
 20
13.5641689384
 30
0.0
 10
15.9327540287
 20
13.5464059784
 30
0.0
 10
15.9545476506
 20
13.5255768414
 30
0.0
 10
15.9683317763
 20
13.5101560841
 30
0.0
 10
15.9751480273
 20
13.5019898782
 30
0.0
  0
SPLINE
  5
2C2
100
AcDbEntity
  8
02___PRT_ALL_AXES
100
AcDbSpline
 62
7
  6
CONTINUOUS
 70
0
 71
3
 72
39
 73
35
 74
0
 42
0.0000001
 43
0.0000001
 44
0.0000000001
 40
0.0
 40
0.0
 40
0.0
 40
0.0
 40
0.0202790417
 40
0.0417769549
 40
0.0645047713
 40
0.0884573926
 40
0.1136160199
 40
0.1399501428
 40
0.1674191626
 40
0.1959737292
 40
0.2255568554
 40
0.2561048676
 40
0.2875482252
 40
0.3198122421
 40
0.3528177319
 40
0.3864816021
 40
0.4207174046
 40
0.4554358534
 40
0.4905453178
 40
0.525952301
 40
0.5615619047
 40
0.5972782846
 40
0.6330051002
 40
0.6686459629
 40
0.7041048831
 40
0.739286719
 40
0.7740976313
 40
0.8084455461
 40
0.8422406289
 40
0.8753957735
 40
0.9078271152
 40
0.9394545737
 40
0.9702024264
 40
1.0
 40
1.0
 40
1.0
 40
1.0
 10
15.9870616039
 20
13.4877168159
 30
0.0
 10
15.9944316167
 20
13.478887176
 30
0.0
 10
16.0089416761
 20
13.4601281462
 30
0.0
 10
16.0294379016
 20
13.4297999622
 30
0.0
 10
16.0492341306
 20
13.3965618416
 30
0.0
 10
16.0682680332
 20
13.3605194581
 30
0.0
 10
16.0864811207
 20
13.3217848526
 30
0.0
 10
16.1038162845
 20
13.2804796602
 30
0.0
 10
16.1202190075
 20
13.2367337192
 30
0.0
 10
16.1356374261
 20
13.1906849349
 30
0.0
 10
16.1500226618
 20
13.1424787292
 30
0.0
 10
16.1633290112
 20
13.0922675661
 30
0.0
 10
16.1755141381
 20
13.0402104286
 30
0.0
 10
16.186539233
 20
12.9864722896
 30
0.0
 10
16.196369162
 20
12.9312235654
 30
0.0
 10
16.204972585
 20
12.8746395544
 30
0.0
 10
16.2123220623
 20
12.8168998617
 30
0.0
 10
16.2183941464
 20
12.7581878165
 30
0.0
 10
16.2231694653
 20
12.6986898789
 30
0.0
 10
16.2266327838
 20
12.6385950371
 30
0.0
 10
16.2287730506
 20
12.5780941975
 30
0.0
 10
16.2295834338
 20
12.5173795713
 30
0.0
 10
16.2290613473
 20
12.4566440568
 30
0.0
 10
16.2272084592
 20
12.3960806189
 30
0.0
 10
16.2240306826
 20
12.33588167
 30
0.0
 10
16.2195381558
 20
12.2762384516
 30
0.0
 10
16.2137452127
 20
12.217340419
 30
0.0
 10
16.2066703383
 20
12.1593746289
 30
0.0
 10
16.1983361039
 20
12.1025251431
 30
0.0
 10
16.188769086
 20
12.0469724081
 30
0.0
 10
16.1779998051
 20
11.992892761
 30
0.0
 10
16.1660625302
 20
11.940457523
 30
0.0
 10
16.1529954963
 20
11.8898336094
 30
0.0
 10
16.1434007172
 20
11.8568558085
 30
0.0
 10
16.1384111142
 20
11.8407094471
 30
0.0
  0
SPLINE
  5
2C3
100
AcDbEntity
  8
LAYER_FEATURE
100
AcDbSpline
 62
7
  6
CONTINUOUS
 70
0
 71
3
 72
54
 73
50
 74
0
 42
0.0000001
 43
0.0000001
 44
0.0000000001
 40
0.0
 40
0.0
 40
0.0
 40
0.0
 40
0.0330500869
 40
0.0673809189
 40
0.1028689286
 40
0.1393805316
 40
0.1767738172
 40
0.214899975
 40
0.2536046397
 40
0.2927291642
 40
0.332111844
 40
0.3715891169
 40
0.4109967451
 40
0.4501709878
 40
0.4889497815
 40
0.5271739361
 40
0.5646883551
 40
0.6013432992
 40
0.6369957215
 40
0.6544041318
 40
0.6715120649
 40
0.6883041821
 40
0.7047658562
 40
0.7208832323
 40
0.736643294
 40
0.7520339335
 40
0.7670440292
 40
0.7816635318
 40
0.7958835594
 40
0.8096965048
 40
0.823096156
 40
0.8360778326
 40
0.8486385411
 40
0.8607771491
 40
0.8724945842
 40
0.8837940579
 40
0.894681319
 40
0.9051649339
 40
0.9152565937
 40
0.9249714414
 40
0.9343284073
 40
0.9433505306
 40
0.9520652387
 40
0.9605045419
 40
0.9687050894
 40
0.9767080294
 40
0.9845586188
 40
0.9923055502
 40
1.0
 40
1.0
 40
1.0
 40
1.0
 10
14.7320967324
 20
13.5263602786
 30
0.0
 10
14.722669406
 20
13.4958534393
 30
0.0
 10
14.7047326484
 20
13.4332550338
 30
0.0
 10
14.6809343537
 20
13.3367423767
 30
0.0
 10
14.6598163743
 20
13.2361885407
 30
0.0
 10
14.6414831781
 20
13.1320864309
 30
0.0
 10
14.6260248487
 20
13.0249440669
 30
0.0
 10
14.6135175568
 20
12.9152854743
 30
0.0
 10
14.6040229089
 20
12.8036470363
 30
0.0
 10
14.5975877047
 20
12.6905750762
 30
0.0
 10
14.5942436629
 20
12.5766230491
 30
0.0
 10
14.5940072543
 20
12.4623488004
 30
0.0
 10
14.5968796436
 20
12.3483117755
 30
0.0
 10
14.6028466831
 20
12.235070247
 30
0.0
 10
14.6118789649
 20
12.1231784986
 30
0.0
 10
14.6239319671
 20
12.0131841787
 30
0.0
 10
14.638946309
 20
11.9056251226
 30
0.0
 10
14.6568480339
 20
11.8010282458
 30
0.0
 10
14.6742339982
 20
11.7160956556
 30
0.0
 10
14.6895541809
 20
11.6500551284
 30
0.0
 10
14.7016160771
 20
11.6019721333
 30
0.0
 10
14.7143256538
 20
11.5550031439
 30
0.0
 10
14.7276674258
 20
11.5092055357
 30
0.0
 10
14.741625008
 20
11.4646354018
 30
0.0
 10
14.756181299
 20
11.4213472703
 30
0.0
 10
14.7713184633
 20
11.3793940911
 30
0.0
 10
14.7870179695
 20
11.3388271563
 30
0.0
 10
14.803260614
 20
11.2996960394
 30
0.0
 10
14.82002655
 20
11.2620485327
 30
0.0
 10
14.8372953192
 20
11.2259305879
 30
0.0
 10
14.8550458848
 20
11.1913862586
 30
0.0
 10
14.8732566689
 20
11.1584576469
 30
0.0
 10
14.8919055874
 20
11.1271848514
 30
0.0
 10
14.9109700969
 20
11.0976059264
 30
0.0
 10
14.93042724
 20
11.0697568486
 30
0.0
 10
14.9502536937
 20
11.0436714906
 30
0.0
 10
14.9704258181
 20
11.0193816081
 30
0.0
 10
14.9909197033
 20
10.9969168409
 30
0.0
 10
15.0117112112
 20
10.9763047329
 30
0.0
 10
15.0327759983
 20
10.9575707695
 30
0.0
 10
15.054089513
 20
10.9407384321
 30
0.0
 10
15.0756269564
 20
10.9258292729
 30
0.0
 10
15.0973631915
 20
10.9128629781
 30
0.0
 10
15.119272562
 20
10.9018573947
 30
0.0
 10
15.1413287641
 20
10.8928284808
 30
0.0
 10
15.1635043251
 20
10.8857901359
 30
0.0
 10
15.1857714974
 20
10.880753896
 30
0.0
 10
15.2080983491
 20
10.8777284865
 30
0.0
 10
15.2230251403
 20
10.8770550093
 30
0.0
 10
15.230458882
 20
10.8770550021
 30
0.0
  0
SPLINE
  5
2C4
100
AcDbEntity
  8
02___PRT_ALL_AXES
100
AcDbSpline
 62
7
  6
CONTINUOUS
 70
0
 71
3
 72
18
 73
14
 74
0
 42
0.0000001
 43
0.0000001
 44
0.0000000001
 40
0.0
 40
0.0
 40
0.0
 40
0.0
 40
0.054322119
 40
0.108869599
 40
0.1638643661
 40
0.2195216858
 40
0.2760473252
 40
0.3336352281
 40
0.4526540019
 40
0.5778986194
 40
0.7103860947
 40
0.8508973556
 40
1.0
 40
1.0
 40
1.0
 40
1.0
 10
15.7950692713
 20
11.4170549931
 30
0.0
 10
15.7989446592
 20
11.4170549915
 30
0.0
 10
15.8067142446
 20
11.4173277116
 30
0.0
 10
15.8183490103
 20
11.4185536833
 30
0.0
 10
15.8299657161
 20
11.4205956648
 30
0.0
 10
15.8415543438
 20
11.4234516557
 30
0.0
 10
15.8531064294
 20
11.4271192481
 30
0.0
 10
15.8686158872
 20
11.4331516773
 30
0.0
 10
15.8879262132
 20
11.4428048777
 30
0.0
 10
15.9105261433
 20
11.4574410474
 30
0.0
 10
15.9327540301
 20
11.4752040057
 30
0.0
 10
15.9545476489
 20
11.4960331462
 30
0.0
 10
15.9683317779
 20
11.511453901
 30
0.0
 10
15.9751480272
 20
11.5196201083
 30
0.0
  0
SPLINE
  5
2C5
100
AcDbEntity
  8
02___PRT_ALL_AXES
100
AcDbSpline
 62
7
  6
CONTINUOUS
 70
0
 71
3
 72
15
 73
11
 74
0
 42
0.0000001
 43
0.0000001
 44
0.0000000001
 40
0.0
 40
0.0
 40
0.0
 40
0.0
 40
0.1030415345
 40
0.2124413698
 40
0.328254863
 40
0.4504494232
 40
0.5789180619
 40
0.7134904039
 40
0.8539416202
 40
1.0
 40
1.0
 40
1.0
 40
1.0
 10
15.9870616038
 20
11.5338931706
 30
0.0
 10
15.9946370316
 20
11.5429689118
 30
0.0
 10
16.0095439832
 20
11.5622820371
 30
0.0
 10
16.0305643945
 20
11.5935567989
 30
0.0
 10
16.0508427612
 20
11.6278944746
 30
0.0
 10
16.070311796
 20
11.6651800303
 30
0.0
 10
16.0889084118
 20
11.7052912434
 30
0.0
 10
16.1065711447
 20
11.7480954669
 30
0.0
 10
16.123241206
 20
11.7934501474
 30
0.0
 10
16.1334636152
 20
11.8246993344
 30
0.0
 10
16.1384111142
 20
11.8407094471
 30
0.0
  0
SPLINE
  5
2C6
100
AcDbEntity
  8
LAYER_FEATURE
100
AcDbSpline
 62
7
  6
CONTINUOUS
 70
0
 71
3
 72
36
 73
32
 74
0
 42
0.0000001
 43
0.0000001
 44
0.0000000001
 40
0.0
 40
0.0
 40
0.0
 40
0.0
 40
0.0879647301
 40
0.1726570648
 40
0.2539222764
 40
0.2932301914
 40
0.3316350098
 40
0.3691252116
 40
0.4056913988
 40
0.4413264641
 40
0.4760258261
 40
0.5097875916
 40
0.542612777
 40
0.5745056085
 40
0.6054737773
 40
0.6355287187
 40
0.6646859772
 40
0.6929655693
 40
0.7203923177
 40
0.746996252
 40
0.7728130251
 40
0.7978842365
 40
0.8222577519
 40
0.8459879813
 40
0.8691359833
 40
0.8917694219
 40
0.9139623571
 40
0.9357947692
 40
0.9573518063
 40
0.9787227939
 40
1.0
 40
1.0
 40
1.0
 40
1.0
 10
14.7320967324
 20
13.5263602786
 30
0.0
 10
14.7393808853
 20
13.5499318061
 30
0.0
 10
14.7544186749
 20
13.5959740798
 30
0.0
 10
14.7788862748
 20
13.6628716612
 30
0.0
 10
14.8006972835
 20
13.7161687749
 30
0.0
 10
14.8188682588
 20
13.7568896831
 30
0.0
 10
14.8326709151
 20
13.7861069993
 30
0.0
 10
14.8467878919
 20
13.8143165126
 30
0.0
 10
14.8612082037
 20
13.8414960893
 30
0.0
 10
14.875920507
 20
13.8676242897
 30
0.0
 10
14.8909132427
 20
13.8926805641
 30
0.0
 10
14.9061746584
 20
13.9166451977
 30
0.0
 10
14.9216928432
 20
13.9394993213
 30
0.0
 10
14.9374556781
 20
13.9612249638
 30
0.0
 10
14.9534508835
 20
13.9818050437
 30
0.0
 10
14.9696660639
 20
14.0012233435
 30
0.0
 10
14.9860886791
 20
14.0194645488
 30
0.0
 10
15.0027060451
 20
14.036514265
 30
0.0
 10
15.0195053953
 20
14.0523589609
 30
0.0
 10
15.0364738692
 20
14.0669859719
 30
0.0
 10
15.0535984624
 20
14.080383553
 30
0.0
 10
15.0708660796
 20
14.092540799
 30
0.0
 10
15.0882635163
 20
14.1034476171
 30
0.0
 10
15.1057773749
 20
14.1130948093
 30
0.0
 10
15.1233940701
 20
14.1214740303
 30
0.0
 10
15.1410997866
 20
14.1285777612
 30
0.0
 10
15.1588804393
 20
14.1343994297
 30
0.0
 10
15.1767215003
 20
14.1389334943
 30
0.0
 10
15.1946085605
 20
14.142175449
 30
0.0
 10
15.2125253388
 20
14.1441219475
 30
0.0
 10
15.2244912911
 20
14.1445549896
 30
0.0
 10
15.230458882
 20
14.1445549837
 30
0.0
  0
SPLINE
  5
2C7
100
AcDbEntity
  8
02___PRT_ALL_AXES
100
AcDbSpline
 62
7
  6
CONTINUOUS
 70
0
 71
3
 72
11
 73
7
 74
0
 42
0.0000001
 43
0.0000001
 44
0.0000000001
 40
0.0
 40
0.0
 40
0.0
 40
0.0
 40
0.2614540015
 40
0.5137412941
 40
0.7590936494
 40
1.0
 40
1.0
 40
1.0
 40
1.0
 10
15.7586329955
 20
13.1219609567
 30
0.0
 10
15.762156542
 20
13.1238977334
 30
0.0
 10
15.7692600809
 20
13.1273889055
 30
0.0
 10
15.7802231771
 20
13.1314598733
 30
0.0
 10
15.791256257
 20
13.1342482305
 30
0.0
 10
15.798686238
 20
13.1352511957
 30
0.0
 10
15.802380363
 20
13.1355317826
 30
0.0
  0
SPLINE
  5
2C8
100
AcDbEntity
  8
02___PRT_ALL_AXES
100
AcDbSpline
 62
7
  6
CONTINUOUS
 70
0
 71
3
 72
30
 73
26
 74
0
 42
0.0000001
 43
0.0000001
 44
0.0000000001
 40
0.0
 40
0.0
 40
0.0
 40
0.0
 40
0.0726692226
 40
0.1459101934
 40
0.2192739661
 40
0.2923100006
 40
0.3645712687
 40
0.4356190356
 40
0.5050277788
 40
0.5723903141
 40
0.637323265
 40
0.6687688164
 40
0.6994772216
 40
0.7294100803
 40
0.758531771
 40
0.7868097387
 40
0.8142148192
 40
0.8407216063
 40
0.8663088728
 40
0.8909600565
 40
0.9146637981
 40
0.9374146702
 40
0.9592137045
 40
0.9800698823
 40
1.0
 40
1.0
 40
1.0
 40
1.0
 10
15.5707278098
 20
12.3906729112
 30
0.0
 10
15.5693925559
 20
12.4081791954
 30
0.0
 10
15.5673154179
 20
12.4433783103
 30
0.0
 10
15.5659617013
 20
12.4963475674
 30
0.0
 10
15.56636111
 20
12.5494218444
 30
0.0
 10
15.5685107932
 20
12.6022171296
 30
0.0
 10
15.572395068
 20
12.6543524843
 30
0.0
 10
15.5779856109
 20
12.7054515205
 30
0.0
 10
15.5852416681
 20
12.7551459025
 30
0.0
 10
15.594110397
 20
12.803076732
 30
0.0
 10
15.6028823522
 20
12.841665757
 30
0.0
 10
15.610683787
 20
12.8713650992
 30
0.0
 10
15.6168319901
 20
12.8927494373
 30
0.0
 10
15.6233284208
 20
12.9134429179
 30
0.0
 10
15.6301614176
 20
12.9334082818
 30
0.0
 10
15.6373186094
 20
12.9526095043
 30
0.0
 10
15.6447870852
 20
12.9710119932
 30
0.0
 10
15.6525533892
 20
12.9885826204
 30
0.0
 10
15.6606035601
 20
13.0052897976
 30
0.0
 10
15.6689231688
 20
13.0211035178
 30
0.0
 10
15.67749737
 20
13.0359954511
 30
0.0
 10
15.686310902
 20
13.0499388541
 30
0.0
 10
15.6953483454
 20
13.0629090048
 30
0.0
 10
15.7045934048
 20
13.0748820794
 30
0.0
 10
15.7110288868
 20
13.0823527045
 30
0.0
 10
15.7142797294
 20
13.0859048902
 30
0.0
  0
SPLINE
  5
2C9
100
AcDbEntity
  8
02___PRT_ALL_AXES
100
AcDbSpline
 62
7
  6
CONTINUOUS
 70
0
 71
3
 72
10
 73
6
 74
0
 42
0.0000001
 43
0.0000001
 44
0.0000000001
 40
0.0
 40
0.0
 40
0.0
 40
0.0
 40
0.2507316947
 40
0.5009614713
 40
1.0
 40
1.0
 40
1.0
 40
1.0
 10
15.9695141534
 20
12.0396978396
 30
0.0
 10
15.9422199618
 20
12.0406653235
 30
0.0
 10
15.8876919167
 20
12.0427630527
 30
0.0
 10
15.7788702365
 20
12.0475485569
 30
0.0
 10
15.697361483
 20
12.0517491726
 30
0.0
 10
15.6430888851
 20
12.0548045632
 30
0.0
  0
LINE
  5
2CA
100
AcDbEntity
  8
02___PRT_ALL_AXES
100
AcDbLine
 62
7
  6
CONTINUOUS
 10
15.8184175725
 20
11.8862175284
 11
15.7878160681
 21
11.888478007
  0
LINE
  5
2CB
100
AcDbEntity
  8
02___PRT_ALL_AXES
100
AcDbLine
 62
7
  6
CONTINUOUS
 10
15.7586329955
 20
13.1219609567
 11
15.7179510579
 21
13.1191397521
  0
SPLINE
  5
2CC
100
AcDbEntity
  8
02___PRT_ALL_AXES
100
AcDbSpline
 62
7
  6
CONTINUOUS
 70
0
 71
3
 72
29
 73
25
 74
0
 42
0.0000001
 43
0.0000001
 44
0.0000000001
 40
0.0
 40
0.0
 40
0.0
 40
0.0
 40
0.0155183128
 40
0.0313974918
 40
0.0479690227
 40
0.0655143552
 40
0.0842561934
 40
0.1043592628
 40
0.1259362847
 40
0.1490559793
 40
0.1737506322
 40
0.2000224065
 40
0.2278485066
 40
0.2571855422
 40
0.3201219204
 40
0.3881961207
 40
0.4605809473
 40
0.5363203943
 40
0.6143669868
 40
0.6936134298
 40
0.7729224355
 40
0.851155104
 40
0.9271987974
 40
1.0
 40
1.0
 40
1.0
 40
1.0
 10
15.9803065926
 20
12.0332172168
 30
0.0
 10
15.9808366411
 20
12.033217224
 30
0.0
 10
15.9819111339
 20
12.0333081386
 30
0.0
 10
15.9835053074
 20
12.0337142376
 30
0.0
 10
15.9850818123
 20
12.0343865127
 30
0.0
 10
15.9866332683
 20
12.0353197553
 30
0.0
 10
15.9881541161
 20
12.0365083672
 30
0.0
 10
15.9896389774
 20
12.0379464885
 30
0.0
 10
15.9910825928
 20
12.0396277656
 30
0.0
 10
15.9924795955
 20
12.0415451538
 30
0.0
 10
15.9938245788
 20
12.043690752
 30
0.0
 10
15.9951121514
 20
12.0460557147
 30
0.0
 10
15.9963371361
 20
12.0486302508
 30
0.0
 10
15.9979171346
 20
12.0524173813
 30
0.0
 10
15.9996833183
 20
12.0576087477
 30
0.0
 10
16.0014339668
 20
12.0643370065
 30
0.0
 10
16.0028329646
 20
12.0715925123
 30
0.0
 10
16.0038564176
 20
12.0792535368
 30
0.0
 10
16.0044866827
 20
12.0871917142
 30
0.0
 10
16.0047129454
 20
12.0952734681
 30
0.0
 10
16.00453127
 20
12.1033626731
 30
0.0
 10
16.0039448108
 20
12.1113231875
 30
0.0
 10
16.0029637035
 20
12.1190206773
 30
0.0
 10
16.0020333298
 20
12.1240225698
 30
0.0
 10
16.0014992337
 20
12.1264511553
 30
0.0
  0
SPLINE
  5
2CD
100
AcDbEntity
  8
02___PRT_ALL_AXES
100
AcDbSpline
 62
7
  6
CONTINUOUS
 70
0
 71
3
 72
41
 73
37
 74
0
 42
0.0000001
 43
0.0000001
 44
0.0000000001
 40
0.0
 40
0.0
 40
0.0
 40
0.0
 40
0.0475917742
 40
0.0939248207
 40
0.1389527059
 40
0.1826334882
 40
0.2249307678
 40
0.2658140962
 40
0.3052596528
 40
0.3432510098
 40
0.3797800254
 40
0.4148478662
 40
0.4484661859
 40
0.4806584868
 40
0.5114616681
 40
0.5409277154
 40
0.5691255047
 40
0.5827777039
 40
0.5961473853
 40
0.6220917071
 40
0.647092581
 40
0.6713010711
 40
0.6948889696
 40
0.7180461435
 40
0.7409760784
 40
0.7638898344
 40
0.7869990218
 40
0.8105087025
 40
0.8346111477
 40
0.8594811172
 40
0.8852729321
 40
0.8985593442
 40
0.9121241109
 40
0.9401360281
 40
0.9694041218
 40
1.0
 40
1.0
 40
1.0
 40
1.0
 10
15.4807408497
 20
13.1809005387
 30
0.0
 10
15.4842418149
 20
13.1922296661
 30
0.0
 10
15.4914118818
 20
13.2145088603
 30
0.0
 10
15.5028346251
 20
13.24719477
 30
0.0
 10
15.5147661102
 20
13.2786589371
 30
0.0
 10
15.527186533
 20
13.3088491209
 30
0.0
 10
15.5400753634
 20
13.3377154761
 30
0.0
 10
15.5534113297
 20
13.3652103471
 30
0.0
 10
15.5671724875
 20
13.3912884075
 30
0.0
 10
15.5813362746
 20
13.4159067106
 30
0.0
 10
15.595879569
 20
13.4390247683
 30
0.0
 10
15.6107787549
 20
13.4606045923
 30
0.0
 10
15.6260098308
 20
13.4806107422
 30
0.0
 10
15.6415483979
 20
13.4990102624
 30
0.0
 10
15.6573700391
 20
13.51577292
 30
0.0
 10
15.6734492819
 20
13.5308702587
 30
0.0
 10
15.687188662
 20
13.5421623605
 30
0.0
 10
15.6982808329
 20
13.5503069226
 30
0.0
 10
15.7092061509
 20
13.5577136793
 30
0.0
 10
15.7229863235
 20
13.5659293242
 30
0.0
 10
15.7398449328
 20
13.5741328558
 30
0.0
 10
15.7568324692
 20
13.5805649975
 30
0.0
 10
15.7739194121
 20
13.5852106701
 30
0.0
 10
15.7910750728
 20
13.5880583231
 30
0.0
 10
15.8082668994
 20
13.5891002697
 30
0.0
 10
15.8254613004
 20
13.5883335859
 30
0.0
 10
15.8426246024
 20
13.5857604288
 30
0.0
 10
15.8597240361
 20
13.5813878077
 30
0.0
 10
15.8767286383
 20
13.5752267252
 30
0.0
 10
15.8936086078
 20
13.5672918358
 30
0.0
 10
15.9074115402
 20
13.5592945223
 30
0.0
 10
15.9183560412
 20
13.5520610871
 30
0.0
 10
15.9294671817
 20
13.5440938716
 30
0.0
 10
15.9432339093
 20
13.5330208241
 30
0.0
 10
15.959349858
 20
13.5181796577
 30
0.0
 10
15.9696902945
 20
13.5074164839
 30
0.0
 10
15.9748192162
 20
13.501776792
 30
0.0
  0
SPLINE
  5
2CE
100
AcDbEntity
  8
LAYER_FEATURE
100
AcDbSpline
 62
7
  6
CONTINUOUS
 70
0
 71
3
 72
24
 73
20
 74
0
 42
0.0000001
 43
0.0000001
 44
0.0000000001
 40
0.0
 40
0.0
 40
0.0
 40
0.0
 40
0.0837691096
 40
0.1649049933
 40
0.2432972041
 40
0.3188487788
 40
0.3914796511
 40
0.4611281741
 40
0.5277538026
 40
0.5913400597
 40
0.6518980962
 40
0.7094709094
 40
0.7641382688
 40
0.8160223285
 40
0.8652937018
 40
0.9121775215
 40
0.9569585843
 40
0.9786743724
 40
1.0
 40
1.0
 40
1.0
 40
1.0
 10
15.2642643684
 20
13.3980601798
 30
0.0
 10
15.269711
 20
13.4156854864
 30
0.0
 10
15.2809083917
 20
13.4502377063
 30
0.0
 10
15.2989261955
 20
13.500704811
 30
0.0
 10
15.3178651226
 20
13.5488955672
 30
0.0
 10
15.3376816887
 20
13.5946992699
 30
0.0
 10
15.3583306133
 20
13.63801135
 30
0.0
 10
15.3797649214
 20
13.6787330154
 30
0.0
 10
15.4019361089
 20
13.7167715973
 30
0.0
 10
15.4247943762
 20
13.7520406946
 30
0.0
 10
15.4482888917
 20
13.784460303
 30
0.0
 10
15.4723680334
 20
13.8139568326
 30
0.0
 10
15.4969797746
 20
13.8404630509
 30
0.0
 10
15.5220715207
 20
13.8639176899
 30
0.0
 10
15.5475914208
 20
13.8842654437
 30
0.0
 10
15.5734836894
 20
13.9014547219
 30
0.0
 10
15.5955547332
 20
13.9132295872
 30
0.0
 10
15.6132929532
 20
13.9209558708
 30
0.0
 10
15.6221813298
 20
13.9242654238
 30
0.0
 10
15.6266271772
 20
13.925778727
 30
0.0
  0
SPLINE
  5
2CF
100
AcDbEntity
  8
02___PRT_ALL_AXES
100
AcDbSpline
 62
7
  6
CONTINUOUS
 70
0
 71
3
 72
14
 73
10
 74
0
 42
0.0000001
 43
0.0000001
 44
0.0000000001
 40
0.0
 40
0.0
 40
0.0
 40
0.0
 40
0.1179234552
 40
0.2360731572
 40
0.3554157227
 40
0.4768825496
 40
0.6013454251
 40
0.7295963577
 40
1.0
 40
1.0
 40
1.0
 40
1.0
 10
15.802380363
 20
13.1355317826
 30
0.0
 10
15.8054949741
 20
13.1357683526
 30
0.0
 10
15.8117579743
 20
13.1359351354
 30
0.0
 10
15.8211620694
 20
13.1352517566
 30
0.0
 10
15.830547293
 20
13.1336362432
 30
0.0
 10
15.8398966351
 20
13.1310923518
 30
0.0
 10
15.8491963109
 20
13.1276250425
 30
0.0
 10
15.861726112
 20
13.121678501
 30
0.0
 10
15.8706816393
 20
13.115983026
 30
0.0
 10
15.8764559854
 20
13.1117452796
 30
0.0
  0
SPLINE
  5
2D0
100
AcDbEntity
  8
LAYER_FEATURE
100
AcDbSpline
 62
7
  6
CONTINUOUS
 70
0
 71
3
 72
78
 73
74
 74
0
 42
0.0000001
 43
0.0000001
 44
0.0000000001
 40
0.0
 40
0.0
 40
0.0
 40
0.0
 40
0.017841777
 40
0.0361843086
 40
0.0549960803
 40
0.0742433104
 40
0.0938904901
 40
0.1139004768
 40
0.1342347104
 40
0.1548533963
 40
0.1757156793
 40
0.196779811
 40
0.2180033134
 40
0.2393431404
 40
0.260755834
 40
0.2821976795
 40
0.3036248597
 40
0.3249936092
 40
0.3462603678
 40
0.3673819352
 40
0.3883156288
 40
0.4090194416
 40
0.4294522043
 40
0.4495737509
 40
0.469345094
 40
0.4887286046
 40
0.5076882001
 40
0.526189547
 40
0.5442002815
 40
0.5616902506
 40
0.578631774
 40
0.5949999429
 40
0.6107729629
 40
0.6259325526
 40
0.6404644025
 40
0.6543587216
 40
0.6676108908
 40
0.6802222467
 40
0.6922010045
 40
0.7035633446
 40
0.7143346596
 40
0.7245509234
 40
0.7342600653
 40
0.7435231465
 40
0.7480119325
 40
0.7524184435
 40
0.7567541272
 40
0.7610311789
 40
0.7652624428
 40
0.7694612944
 40
0.7736415008
 40
0.7778170575
 40
0.7820020181
 40
0.7862103191
 40
0.7904556129
 40
0.7947511092
 40
0.7991094448
 40
0.8035425715
 40
0.8126739276
 40
0.8222281276
 40
0.8322707586
 40
0.8428539784
 40
0.8540175639
 40
0.865790254
 40
0.8781911334
 40
0.8912309219
 40
0.904913117
 40
0.9192349769
 40
0.9341883462
 40
0.9497603427
 40
0.9659339566
 40
0.9826884323
 40
1.0
 40
1.0
 40
1.0
 40
1.0
 10
15.2200747397
 20
13.4881091754
 30
0.0
 10
15.2137554731
 20
13.4676600213
 30
0.0
 10
15.201536559
 20
13.42600114
 30
0.0
 10
15.1846689948
 20
13.3622123413
 30
0.0
 10
15.1690385066
 20
13.2963750511
 30
0.0
 10
15.1546829971
 20
13.2286479986
 30
0.0
 10
15.1416370469
 20
13.159193823
 30
0.0
 10
15.1299321487
 20
13.0881795344
 30
0.0
 10
15.1195965434
 20
13.0157758969
 30
0.0
 10
15.1106551831
 20
12.9421570699
 30
0.0
 10
15.1031296618
 20
12.8675001615
 30
0.0
 10
15.0970381506
 20
12.7919848067
 30
0.0
 10
15.0923953509
 20
12.7157927265
 30
0.0
 10
15.0892124738
 20
12.6391072847
 30
0.0
 10
15.0874972098
 20
12.5621130416
 30
0.0
 10
15.0872537063
 20
12.4849953079
 30
0.0
 10
15.0884825429
 20
12.407939694
 30
0.0
 10
15.0911807508
 20
12.3311316595
 30
0.0
 10
15.0953418164
 20
12.2547560632
 30
0.0
 10
15.1009556997
 20
12.1789967152
 30
0.0
 10
15.1080088379
 20
12.1040359271
 30
0.0
 10
15.1164841973
 20
12.0300540704
 30
0.0
 10
15.1263613158
 20
11.9572291398
 30
0.0
 10
15.137616357
 20
11.8857363179
 30
0.0
 10
15.1502221509
 20
11.8157475436
 30
0.0
 10
15.1641482709
 20
11.74743109
 30
0.0
 10
15.17936112
 20
11.6809511559
 30
0.0
 10
15.1958240191
 20
11.6164674607
 30
0.0
 10
15.2134972937
 20
11.5541348418
 30
0.0
 10
15.2323383766
 20
11.4941028641
 30
0.0
 10
15.2523019466
 20
11.4365154522
 30
0.0
 10
15.273340062
 20
11.3815105291
 30
0.0
 10
15.2954023128
 20
11.3292196608
 30
0.0
 10
15.3184359751
 20
11.2797677126
 30
0.0
 10
15.3423862352
 20
11.2332725502
 30
0.0
 10
15.3671964184
 20
11.1898447645
 30
0.0
 10
15.3928082628
 20
11.1495874398
 30
0.0
 10
15.4191622125
 20
11.112595968
 30
0.0
 10
15.4461977478
 20
11.0789580194
 30
0.0
 10
15.4738538553
 20
11.0487536127
 30
0.0
 10
15.5020689027
 20
11.0220555957
 30
0.0
 10
15.5307821259
 20
10.9989296823
 30
0.0
 10
15.5599283419
 20
10.9794370587
 30
0.0
 10
15.5847883816
 20
10.9661269125
 30
0.0
 10
15.6047705004
 20
10.9574303563
 30
0.0
 10
15.6196617004
 20
10.9519118959
 30
0.0
 10
15.6346031334
 20
10.9473342239
 30
0.0
 10
15.6495859201
 20
10.9437002937
 30
0.0
 10
15.6646006136
 20
10.9410127811
 30
0.0
 10
15.6796377574
 20
10.939273703
 30
0.0
 10
15.6946877466
 20
10.9384842864
 30
0.0
 10
15.7097409363
 20
10.9386451852
 30
0.0
 10
15.724787654
 20
10.9397562655
 30
0.0
 10
15.7398182643
 20
10.9418166467
 30
0.0
 10
15.7548232223
 20
10.9448248876
 30
0.0
 10
15.7697929952
 20
10.9487786543
 30
0.0
 10
15.7847186468
 20
10.9536753917
 30
0.0
 10
15.8047424904
 20
10.9615327787
 30
0.0
 10
15.8296794492
 20
10.9737993337
 30
0.0
 10
15.8589556206
 20
10.9920784446
 30
0.0
 10
15.8878197504
 20
11.0140094764
 30
0.0
 10
15.9162061485
 20
11.0395331282
 30
0.0
 10
15.9440539714
 20
11.06858569
 30
0.0
 10
15.9713014979
 20
11.101096639
 30
0.0
 10
15.9978875826
 20
11.1369884261
 30
0.0
 10
16.0237514774
 20
11.1761759151
 30
0.0
 10
16.0488332919
 20
11.2185662577
 30
0.0
 10
16.0730742918
 20
11.2640589011
 30
0.0
 10
16.0964172377
 20
11.3125457335
 30
0.0
 10
16.1188066699
 20
11.3639112418
 30
0.0
 10
16.1401891669
 20
11.4180329218
 30
0.0
 10
16.1605134306
 20
11.4747808699
 30
0.0
 10
16.1731257337
 20
11.5136593498
 30
0.0
 10
16.1792572088
 20
11.5335008104
 30
0.0
  0
SPLINE
  5
2D1
100
AcDbEntity
  8
LAYER_FEATURE
100
AcDbSpline
 62
7
  6
CONTINUOUS
 70
0
 71
3
 72
11
 73
7
 74
0
 42
0.0000001
 43
0.0000001
 44
0.0000000001
 40
0.0
 40
0.0
 40
0.0
 40
0.0
 40
0.2386785351
 40
0.4853323809
 40
0.7393320135
 40
1.0
 40
1.0
 40
1.0
 40
1.0
 10
15.2133511017
 20
13.5263602786
 30
0.0
 10
15.2053832263
 20
13.5005762242
 30
0.0
 10
15.1900963061
 20
13.4478599937
 30
0.0
 10
15.1693933836
 20
13.3668555985
 30
0.0
 10
15.1505947206
 20
13.2828392526
 30
0.0
 10
15.1395092456
 20
13.2257030551
 30
0.0
 10
15.1342842418
 20
13.1966964523
 30
0.0
  0
SPLINE
  5
2D2
100
AcDbEntity
  8
LAYER_FEATURE
100
AcDbSpline
 62
7
  6
CONTINUOUS
 70
0
 71
3
 72
52
 73
48
 74
0
 42
0.0000001
 43
0.0000001
 44
0.0000000001
 40
0.0
 40
0.0
 40
0.0
 40
0.0
 40
0.0385787062
 40
0.0777419568
 40
0.1173726481
 40
0.1573511421
 40
0.1975559498
 40
0.2378643827
 40
0.2781532092
 40
0.3182993001
 40
0.3581802771
 40
0.3976751686
 40
0.436665068
 40
0.4750338177
 40
0.5126687014
 40
0.5494611818
 40
0.5853076639
 40
0.6201103314
 40
0.6537780439
 40
0.6862273515
 40
0.7173836364
 40
0.7324571393
 40
0.7471841569
 40
0.7615584866
 40
0.7755747762
 40
0.7892286008
 40
0.8025165324
 40
0.8154362234
 40
0.8279865039
 40
0.8401674957
 40
0.8519807256
 40
0.8634292526
 40
0.8745178146
 40
0.8852529941
 40
0.8956433837
 40
0.9056997615
 40
0.9154352773
 40
0.9248656426
 40
0.9340092955
 40
0.9428875389
 40
0.9515246365
 40
0.9599478436
 40
0.9681873376
 40
0.9762760325
 40
0.9842492659
 40
0.9921443512
 40
1.0
 40
1.0
 40
1.0
 40
1.0
 10
15.1142342066
 20
13.072148071
 30
0.0
 10
15.1098210795
 20
13.0411732917
 30
0.0
 10
15.1017447619
 20
12.978635269
 30
0.0
 10
15.0919249172
 20
12.8839439262
 30
0.0
 10
15.084331924
 20
12.7879088936
 30
0.0
 10
15.0789933181
 20
12.6908766262
 30
0.0
 10
15.0759284226
 20
12.5931961289
 30
0.0
 10
15.0751482927
 20
12.4952190665
 30
0.0
 10
15.076655787
 20
12.3972981047
 30
0.0
 10
15.080445416
 20
12.2997857257
 30
0.0
 10
15.0865035051
 20
12.2030329176
 30
0.0
 10
15.0948081076
 20
12.1073878986
 30
0.0
 10
15.105329216
 20
12.0131948471
 30
0.0
 10
15.1180287513
 20
11.9207926375
 30
0.0
 10
15.1328608202
 20
11.8305135998
 30
0.0
 10
15.1497717834
 20
11.7426822976
 30
0.0
 10
15.168700565
 20
11.6576142947
 30
0.0
 10
15.1895787886
 20
11.5756151072
 30
0.0
 10
15.2123312134
 20
11.4969785666
 30
0.0
 10
15.2368757175
 20
11.4219874497
 30
0.0
 10
15.2589865379
 20
11.3621122383
 30
0.0
 10
15.2775397033
 20
11.3162859971
 30
0.0
 10
15.2916924801
 20
11.2833706689
 30
0.0
 10
15.3062233847
 20
11.2515606864
 30
0.0
 10
15.3211195116
 20
11.2208845209
 30
0.0
 10
15.3363674623
 20
11.1913697238
 30
0.0
 10
15.3519535892
 20
11.1630427606
 30
0.0
 10
15.3678639586
 20
11.1359290349
 30
0.0
 10
15.3840843876
 20
11.110052856
 30
0.0
 10
15.4006004268
 20
11.0854373999
 30
0.0
 10
15.4173974088
 20
11.0621047095
 30
0.0
 10
15.4344604672
 20
11.0400756913
 30
0.0
 10
15.451774563
 20
11.0193701092
 30
0.0
 10
15.4693244728
 20
11.0000065508
 30
0.0
 10
15.4870948295
 20
10.9820024483
 30
0.0
 10
15.5050701379
 20
10.9653740993
 30
0.0
 10
15.5232347852
 20
10.9501366866
 30
0.0
 10
15.5415730075
 20
10.9363042591
 30
0.0
 10
15.5600688908
 20
10.9238897703
 30
0.0
 10
15.5787063388
 20
10.9129051108
 30
0.0
 10
15.5974690239
 20
10.903361119
 30
0.0
 10
15.6163402829
 20
10.8952675142
 30
0.0
 10
15.6353031074
 20
10.8886328557
 30
0.0
 10
15.6543399058
 20
10.8834644724
 30
0.0
 10
15.673433136
 20
10.8797683319
 30
0.0
 10
15.6925628908
 20
10.8775488463
 30
0.0
 10
15.7053422694
 20
10.8770549969
 30
0.0
 10
15.7117132514
 20
10.8770550021
 30
0.0
  0
SPLINE
  5
2D3
100
AcDbEntity
  8
02___PRT_ALL_AXES
100
AcDbSpline
 62
7
  6
CONTINUOUS
 70
0
 71
3
 72
26
 73
22
 74
0
 42
0.0000001
 43
0.0000001
 44
0.0000000001
 40
0.0
 40
0.0
 40
0.0
 40
0.0
 40
0.0879740516
 40
0.1726756708
 40
0.2539496032
 40
0.3316661544
 40
0.4057252502
 40
0.4760611182
 40
0.542648003
 40
0.6055071761
 40
0.6647154691
 40
0.7204154459
 40
0.7728269785
 40
0.8222593594
 40
0.8691219014
 40
0.8917577745
 40
0.9139531
 40
0.9357878603
 40
0.9573472159
 40
0.9787205042
 40
1.0
 40
1.0
 40
1.0
 40
1.0
 10
15.4614297297
 20
13.1906908957
 30
0.0
 10
15.4663062587
 20
13.2064713494
 30
0.0
 10
15.4763736207
 20
13.2372952762
 30
0.0
 10
15.4927540777
 20
13.2820817478
 30
0.0
 10
15.5100873156
 20
13.3244363525
 30
0.0
 10
15.5283188524
 20
13.3642259534
 30
0.0
 10
15.5473919369
 20
13.4013265373
 30
0.0
 10
15.5672476192
 20
13.435622659
 30
0.0
 10
15.5878252658
 20
13.4670079858
 30
0.0
 10
15.6090630062
 20
13.4953853823
 30
0.0
 10
15.6308984434
 20
13.5206668941
 30
0.0
 10
15.6532686918
 20
13.5427731696
 30
0.0
 10
15.6761122876
 20
13.5616330274
 30
0.0
 10
15.6993631287
 20
13.5771803255
 30
0.0
 10
15.7192588606
 20
13.5874448002
 30
0.0
 10
15.7352456745
 20
13.5938585589
 30
0.0
 10
15.7471495481
 20
13.5977561651
 30
0.0
 10
15.7590935828
 20
13.60079155
 30
0.0
 10
15.7710684863
 20
13.6029619514
 30
0.0
 10
15.7830632635
 20
13.6042650891
 30
0.0
 10
15.7910741358
 20
13.6045549943
 30
0.0
 10
15.7950692713
 20
13.6045549927
 30
0.0
  0
SPLINE
  5
2D4
100
AcDbEntity
  8
LAYER_FEATURE
100
AcDbSpline
 62
7
  6
CONTINUOUS
 70
0
 71
3
 72
51
 73
47
 74
0
 42
0.0000001
 43
0.0000001
 44
0.0000000001
 40
0.0
 40
0.0
 40
0.0
 40
0.0
 40
0.0078968759
 40
0.0160009738
 40
0.0243450599
 40
0.0329581679
 40
0.0418655873
 40
0.0510889718
 40
0.0606465264
 40
0.0705532386
 40
0.0808211305
 40
0.0914595118
 40
0.1024752231
 40
0.1138728682
 40
0.1256550259
 40
0.1378224401
 40
0.1503741898
 40
0.1633078386
 40
0.17661957
 40
0.1903043091
 40
0.2043558294
 40
0.2187668469
 40
0.2335291035
 40
0.2486334412
 40
0.2640698728
 40
0.2798276453
 40
0.3122594078
 40
0.3458308382
 40
0.3804335267
 40
0.4159513312
 40
0.4522615451
 40
0.489235987
 40
0.5267420231
 40
0.5646435273
 40
0.6028018236
 40
0.6410765971
 40
0.6793267933
 40
0.7174115145
 40
0.7551909124
 40
0.7925270965
 40
0.8292850485
 40
0.8653335714
 40
0.9005462765
 40
0.9348026071
 40
0.9679889451
 40
1.0
 40
1.0
 40
1.0
 40
1.0
 10
15.6266271776
 20
11.0958312668
 30
0.0
 10
15.6205026027
 20
11.0979159851
 30
0.0
 10
15.6082533607
 20
11.1026269221
 30
0.0
 10
15.5902003668
 20
11.1111439734
 30
0.0
 10
15.572272093
 20
11.1211833549
 30
0.0
 10
15.5544889863
 20
11.1327322767
 30
0.0
 10
15.536869177
 20
11.1457772702
 30
0.0
 10
15.5194310684
 20
11.1603033748
 30
0.0
 10
15.502192715
 20
11.1762943516
 30
0.0
 10
15.4851720542
 20
11.1937325788
 30
0.0
 10
15.4683868643
 20
11.2125990341
 30
0.0
 10
15.4518547734
 20
11.2328732576
 30
0.0
 10
15.435593224
 20
11.2545333274
 30
0.0
 10
15.4196194609
 20
11.2775558651
 30
0.0
 10
15.403950498
 20
11.30191604
 30
0.0
 10
15.3886030881
 20
11.3275875804
 30
0.0
 10
15.3735936962
 20
11.3545427908
 30
0.0
 10
15.3589384625
 20
11.3827525681
 30
0.0
 10
15.3446531782
 20
11.4121864318
 30
0.0
 10
15.3307532668
 20
11.4428125611
 30
0.0
 10
15.3172537576
 20
11.4745978296
 30
0.0
 10
15.3041692684
 20
11.5075078375
 30
0.0
 10
15.291513974
 20
11.541506957
 30
0.0
 10
15.2793016208
 20
11.5765583268
 30
0.0
 10
15.2675453556
 20
11.6126240596
 30
0.0
 10
15.2523502829
 20
11.6624897329
 30
0.0
 10
15.2346272341
 20
11.7271030999
 30
0.0
 10
15.2155692605
 20
11.8073077908
 30
0.0
 10
15.1986048305
 20
11.8905625227
 30
0.0
 10
15.183807932
 20
11.9765061313
 30
0.0
 10
15.1712430501
 20
12.0647666762
 30
0.0
 10
15.1609649722
 20
12.1549616321
 30
0.0
 10
15.1530185616
 20
12.2467000183
 30
0.0
 10
15.1474384754
 20
12.3395840147
 30
0.0
 10
15.1442490587
 20
12.4332107572
 30
0.0
 10
15.1434642531
 20
12.527174109
 30
0.0
 10
15.1450874598
 20
12.6210664501
 30
0.0
 10
15.1491116024
 20
12.7144804732
 30
0.0
 10
15.1555191332
 20
12.8070109771
 30
0.0
 10
15.164282068
 20
12.8982566587
 30
0.0
 10
15.175362189
 20
12.9878218669
 30
0.0
 10
15.1887111723
 20
13.0753184155
 30
0.0
 10
15.2042707506
 20
13.1603671075
 30
0.0
 10
15.2219732539
 20
13.2426001281
 30
0.0
 10
15.2417411326
 20
13.3216602525
 30
0.0
 10
15.2565213195
 20
13.3730036645
 30
0.0
 10
15.2642643684
 20
13.3980601798
 30
0.0
  0
SPLINE
  5
2D5
100
AcDbEntity
  8
02___PRT_ALL_AXES
100
AcDbSpline
 62
7
  6
CONTINUOUS
 70
0
 71
3
 72
51
 73
47
 74
0
 42
0.0000001
 43
0.0000001
 44
0.0000000001
 40
0.0
 40
0.0
 40
0.0
 40
0.0
 40
0.0078968759
 40
0.0160009738
 40
0.0243450599
 40
0.0329581679
 40
0.0418655873
 40
0.0510889718
 40
0.0606465264
 40
0.0705532386
 40
0.0808211305
 40
0.0914595118
 40
0.1024752231
 40
0.1138728682
 40
0.1256550259
 40
0.1378224401
 40
0.1503741898
 40
0.1633078386
 40
0.17661957
 40
0.1903043091
 40
0.2043558294
 40
0.2187668469
 40
0.2335291035
 40
0.2486334412
 40
0.2640698728
 40
0.2798276453
 40
0.3122594078
 40
0.3458308382
 40
0.3804335267
 40
0.4159513312
 40
0.4522615451
 40
0.489235987
 40
0.5267420231
 40
0.5646435273
 40
0.6028018236
 40
0.6410765971
 40
0.6793267933
 40
0.7174115145
 40
0.7551909124
 40
0.7925270965
 40
0.8292850485
 40
0.8653335714
 40
0.9005462765
 40
0.9348026071
 40
0.9679889451
 40
1.0
 40
1.0
 40
1.0
 40
1.0
 10
15.6350720968
 20
11.0929567297
 30
0.0
 10
15.6289350797
 20
11.0950456831
 30
0.0
 10
15.6166609533
 20
11.0997661904
 30
0.0
 10
15.5985712845
 20
11.1083005442
 30
0.0
 10
15.5806065892
 20
11.1183603208
 30
0.0
 10
15.5627873559
 20
11.1299327044
 30
0.0
 10
15.5451317517
 20
11.143004199
 30
0.0
 10
15.5276582173
 20
11.1575598136
 30
0.0
 10
15.5103848439
 20
11.1735832763
 30
0.0
 10
15.4933296055
 20
11.1910569294
 30
0.0
 10
15.4765103163
 20
11.2099617121
 30
0.0
 10
15.4599446402
 20
11.230277123
 30
0.0
 10
15.4436500553
 20
11.2519811955
 30
0.0
 10
15.4276438413
 20
11.2750505038
 30
0.0
 10
15.4119430467
 20
11.2994601667
 30
0.0
 10
15.3965644583
 20
11.3251838592
 30
0.0
 10
15.3815245746
 20
11.3521938295
 30
0.0
 10
15.3668395686
 20
11.3804609152
 30
0.0
 10
15.3525252636
 20
11.4099545742
 30
0.0
 10
15.3385971144
 20
11.4406429209
 30
0.0
 10
15.3250701808
 20
11.4724927616
 30
0.0
 10
15.3119591102
 20
11.5054696265
 30
0.0
 10
15.2992781065
 20
11.5395378158
 30
0.0
 10
15.2870409437
 20
11.5746603928
 30
0.0
 10
15.2752607955
 20
11.6107993936
 30
0.0
 10
15.2600348538
 20
11.6607663697
 30
0.0
 10
15.2422758004
 20
11.7255109996
 30
0.0
 10
15.2231791103
 20
11.8058786273
 30
0.0
 10
15.2061802168
 20
11.8893024923
 30
0.0
 10
15.1913532583
 20
11.9754206964
 30
0.0
 10
15.1787628506
 20
12.0638605437
 30
0.0
 10
15.1684638927
 20
12.1542387318
 30
0.0
 10
15.1605013388
 20
12.2461634857
 30
0.0
 10
15.1549099167
 20
12.3392361771
 30
0.0
 10
15.1517140206
 20
12.4330531236
 30
0.0
 10
15.1509276207
 20
12.527207363
 30
0.0
 10
15.1525541249
 20
12.6212904476
 30
0.0
 10
15.1565864426
 20
12.7148942425
 30
0.0
 10
15.1630069904
 20
12.8076127233
 30
0.0
 10
15.1717877272
 20
12.8990437717
 30
0.0
 10
15.1828903576
 20
12.9887909328
 30
0.0
 10
15.1962664595
 20
13.0764652317
 30
0.0
 10
15.2118576473
 20
13.1616867012
 30
0.0
 10
15.2295961135
 20
13.2440867793
 30
0.0
 10
15.2494041509
 20
13.3233075153
 30
0.0
 10
15.2642143639
 20
13.374755232
 30
0.0
 10
15.2719731429
 20
13.39986265
 30
0.0
  0
SPLINE
  5
2D6
100
AcDbEntity
  8
02___PRT_ALL_AXES
100
AcDbSpline
 62
7
  6
CONTINUOUS
 70
0
 71
3
 72
24
 73
20
 74
0
 42
0.0000001
 43
0.0000001
 44
0.0000000001
 40
0.0
 40
0.0
 40
0.0
 40
0.0
 40
0.1683770494
 40
0.2515273184
 40
0.3329843625
 40
0.4120376172
 40
0.4880155258
 40
0.5603001349
 40
0.6283427267
 40
0.6916826767
 40
0.7499715901
 40
0.8030060973
 40
0.8507744344
 40
0.8935233224
 40
0.9318481796
 40
0.9496856249
 40
0.9668494229
 40
0.9835449361
 40
1.0
 40
1.0
 40
1.0
 40
1.0
 10
15.9197611677
 20
13.0680889102
 30
0.0
 10
15.9198870469
 20
13.072365216
 30
0.0
 10
15.9198201609
 20
13.0787648415
 30
0.0
 10
15.9192189988
 20
13.0872056079
 30
0.0
 10
15.9185211152
 20
13.0933591738
 30
0.0
 10
15.917582165
 20
13.0992961446
 30
0.0
 10
15.9164120655
 20
13.1049544367
 30
0.0
 10
15.9150232854
 20
13.1102747663
 30
0.0
 10
15.9134305146
 20
13.11520173
 30
0.0
 10
15.9116504545
 20
13.1196843893
 30
0.0
 10
15.9097013387
 20
13.1236769764
 30
0.0
 10
15.9076025447
 20
13.1271393783
 30
0.0
 10
15.9053727662
 20
13.1300376502
 30
0.0
 10
15.9030310859
 20
13.1323424771
 30
0.0
 10
15.90094806
 20
13.1337801869
 30
0.0
 10
15.8992588901
 20
13.1345747967
 30
0.0
 10
15.8980100155
 20
13.1349923702
 30
0.0
 10
15.8967531854
 20
13.1352437892
 30
0.0
 10
15.8959098534
 20
13.1352998828
 30
0.0
 10
15.8954917598
 20
13.1352998886
 30
0.0
  0
SPLINE
  5
2D7
100
AcDbEntity
  8
LAYER_FEATURE
100
AcDbSpline
 62
7
  6
CONTINUOUS
 70
0
 71
3
 72
13
 73
9
 74
0
 42
0.0000001
 43
0.0000001
 44
0.0000000001
 40
0.0
 40
0.0
 40
0.0
 40
0.0
 40
0.2000986699
 40
0.3113095429
 40
0.4309525536
 40
0.5595081164
 40
0.697213005
 40
1.0
 40
1.0
 40
1.0
 40
1.0
 10
14.7283254497
 20
13.0721454584
 30
0.0
 10
14.7291695391
 20
13.0725192889
 30
0.0
 10
14.7303938744
 20
13.0733106042
 30
0.0
 10
14.7318632985
 20
13.0746514062
 30
0.0
 10
14.7329745085
 20
13.0758860614
 30
0.0
 10
14.7340493651
 20
13.077307564
 30
0.0
 10
14.7354744357
 20
13.0795146323
 30
0.0
 10
14.7364045492
 20
13.0813284244
 30
0.0
 10
14.7369825866
 20
13.0826001442
 30
0.0
  0
SPLINE
  5
2D8
100
AcDbEntity
  8
LAYER_FEATURE
100
AcDbSpline
 62
7
  6
CONTINUOUS
 70
0
 71
3
 72
16
 73
12
 74
0
 42
0.0000001
 43
0.0000001
 44
0.0000000001
 40
0.0
 40
0.0
 40
0.0
 40
0.0
 40
0.0380626591
 40
0.0772307873
 40
0.162403062
 40
0.2615095463
 40
0.3772677836
 40
0.5102598478
 40
0.65966605
 40
0.8237155614
 40
1.0
 40
1.0
 40
1.0
 40
1.0
 10
14.7133127235
 20
13.0721655661
 30
0.0
 10
14.7132268273
 20
13.0721655577
 30
0.0
 10
14.7130521248
 20
13.072148963
 30
0.0
 10
14.712698009
 20
13.0720478427
 30
0.0
 10
14.7122577987
 20
13.0717850122
 30
0.0
 10
14.7117793187
 20
13.0712993485
 30
0.0
 10
14.7113364034
 20
13.0706473264
 30
0.0
 10
14.7109357615
 20
13.0698407763
 30
0.0
 10
14.7105842937
 20
13.0688949677
 30
0.0
 10
14.710289183
 20
13.0678287616
 30
0.0
 10
14.7101386955
 20
13.0670748988
 30
0.0
 10
14.7100731338
 20
13.0666825163
 30
0.0
  0
SPLINE
  5
2D9
100
AcDbEntity
  8
02___PRT_ALL_AXES
100
AcDbSpline
 62
7
  6
CONTINUOUS
 70
0
 71
3
 72
63
 73
59
 74
0
 42
0.0000001
 43
0.0000001
 44
0.0000000001
 40
0.0
 40
0.0
 40
0.0
 40
0.0
 40
0.0175792946
 40
0.0355791422
 40
0.0539778127
 40
0.0727521897
 40
0.0918780706
 40
0.1113302174
 40
0.1511061679
 40
0.1918630701
 40
0.2333716831
 40
0.2753949879
 40
0.3176907502
 40
0.3600140067
 40
0.4021195202
 40
0.4437642302
 40
0.4847097314
 40
0.5247248117
 40
0.5443146729
 40
0.5635898787
 40
0.5825247643
 40
0.6010946483
 40
0.6192759342
 40
0.6370462229
 40
0.6543844365
 40
0.6712709486
 40
0.6876877286
 40
0.7036185077
 40
0.7190489629
 40
0.7339669224
 40
0.7483626055
 40
0.7622289023
 40
0.7755616897
 40
0.7883602016
 40
0.8006274634
 40
0.8123707874
 40
0.8236023355
 40
0.8343397514
 40
0.8446068439
 40
0.8495741454
 40
0.8544359921
 40
0.8638619213
 40
0.8729324903
 40
0.8817020162
 40
0.8902327197
 40
0.8985938456
 40
0.9068600865
 40
0.9151093661
 40
0.9234202006
 40
0.931868978
 40
0.9405275237
 40
0.9494612343
 40
0.9587278989
 40
0.9635028629
 40
0.9683789934
 40
0.9784524447
 40
0.9889838881
 40
1.0
 40
1.0
 40
1.0
 40
1.0
 10
15.4807408497
 20
13.1809005387
 30
0.0
 10
15.477099553
 20
13.1691172983
 30
0.0
 10
15.4700184948
 20
13.1451788145
 30
0.0
 10
15.4601059909
 20
13.1086271175
 30
0.0
 10
15.4507895596
 20
13.0710545163
 30
0.0
 10
15.4420852446
 20
13.0325253637
 30
0.0
 10
15.4340078175
 20
12.9931052045
 30
0.0
 10
15.424018709
 20
12.9390470355
 30
0.0
 10
15.4132281724
 20
12.869718505
 30
0.0
 10
15.4030646691
 20
12.7846870285
 30
0.0
 10
15.3956621164
 20
12.6977885446
 30
0.0
 10
15.391071385
 20
12.6096159297
 30
0.0
 10
15.3893240782
 20
12.5207697869
 30
0.0
 10
15.3904322053
 20
12.4318557242
 30
0.0
 10
15.3943881504
 20
12.3434798205
 30
0.0
 10
15.4011646878
 20
12.2562441072
 30
0.0
 10
15.4107152353
 20
12.170743791
 30
0.0
 10
15.4210021976
 20
12.1009380739
 30
0.0
 10
15.430596679
 20
12.0464336804
 30
0.0
 10
15.4383887142
 20
12.0066361893
 30
0.0
 10
15.4468139706
 20
11.9676997444
 30
0.0
 10
15.4558581227
 20
11.9296906434
 30
0.0
 10
15.4655056794
 20
11.8926737537
 30
0.0
 10
15.4757401579
 20
11.8567121861
 30
0.0
 10
15.486544065
 20
11.8218672349
 30
0.0
 10
15.4978989506
 20
11.788198259
 30
0.0
 10
15.5097854456
 20
11.7557625824
 30
0.0
 10
15.5221832937
 20
11.7246153879
 30
0.0
 10
15.5350713946
 20
11.6948096181
 30
0.0
 10
15.5484278614
 20
11.6663958871
 30
0.0
 10
15.5622300737
 20
11.639422392
 30
0.0
 10
15.5764547236
 20
11.6139348243
 30
0.0
 10
15.5910778975
 20
11.5899763031
 30
0.0
 10
15.6060751456
 20
11.5675873259
 30
0.0
 10
15.6214215773
 20
11.5468056968
 30
0.0
 10
15.6370918592
 20
11.5276665849
 30
0.0
 10
15.6530606233
 20
11.5102022868
 30
0.0
 10
15.6693014303
 20
11.4944431979
 30
0.0
 10
15.6831913948
 20
11.4826260599
 30
0.0
 10
15.6944115389
 20
11.4740838635
 30
0.0
 10
15.7054601135
 20
11.466306747
 30
0.0
 10
15.7194000881
 20
11.4576547434
 30
0.0
 10
15.7364684554
 20
11.4489650007
 30
0.0
 10
15.7536755359
 20
11.4420939957
 30
0.0
 10
15.770990886
 20
11.4370581147
 30
0.0
 10
15.7883827658
 20
11.4338701833
 30
0.0
 10
15.8058173608
 20
11.4325390432
 30
0.0
 10
15.8232595908
 20
11.4330685558
 30
0.0
 10
15.8406741185
 20
11.4354571864
 30
0.0
 10
15.8580264584
 20
11.439698121
 30
0.0
 10
15.8752840254
 20
11.4457801741
 30
0.0
 10
15.8924155204
 20
11.4536882149
 30
0.0
 10
15.90642253
 20
11.4617052255
 30
0.0
 10
15.9175275876
 20
11.4689782912
 30
0.0
 10
15.9288038822
 20
11.4770047109
 30
0.0
 10
15.9427745312
 20
11.488184821
 30
0.0
 10
15.9591243471
 20
11.5032002945
 30
0.0
 10
15.9696092902
 20
11.514104834
 30
0.0
 10
15.9748093332
 20
11.5198223278
 30
0.0
  0
SPLINE
  5
2DA
100
AcDbEntity
  8
LAYER_FEATURE
100
AcDbSpline
 62
7
  6
CONTINUOUS
 70
0
 71
3
 72
9
 73
5
 74
0
 42
0.0000001
 43
0.0000001
 44
0.0000000001
 40
0.0
 40
0.0
 40
0.0
 40
0.0
 40
0.4714017284
 40
1.0
 40
1.0
 40
1.0
 40
1.0
 10
14.7552306404
 20
13.1964740362
 30
0.0
 10
14.7558897054
 20
13.1971811426
 30
0.0
 10
14.7571648414
 20
13.1987969884
 30
0.0
 10
14.7582315835
 20
13.2005530281
 30
0.0
 10
14.7587507129
 20
13.2015045347
 30
0.0
  0
SPLINE
  5
2DB
100
AcDbEntity
  8
LAYER_FEATURE
100
AcDbSpline
 62
7
  6
CONTINUOUS
 70
0
 71
3
 72
15
 73
11
 74
0
 42
0.0000001
 43
0.0000001
 44
0.0000000001
 40
0.0
 40
0.0
 40
0.0
 40
0.0
 40
0.079563631
 40
0.166528266
 40
0.2662290671
 40
0.3815131572
 40
0.5133161932
 40
0.6612731828
 40
0.8241277772
 40
1.0
 40
1.0
 40
1.0
 40
1.0
 10
14.7345027917
 20
13.1965181844
 30
0.0
 10
14.7343427253
 20
13.1965182015
 30
0.0
 10
14.7340055544
 20
13.1964568464
 30
0.0
 10
14.733530181
 20
13.1961956091
 30
0.0
 10
14.7330814438
 20
13.1957795222
 30
0.0
 10
14.7326623812
 20
13.1952182423
 30
0.0
 10
14.7322772527
 20
13.1945208777
 30
0.0
 10
14.7319318318
 20
13.1936986808
 30
0.0
 10
14.7316319297
 20
13.1927655922
 30
0.0
 10
14.7314713169
 20
13.1921027011
 30
0.0
 10
14.7313987272
 20
13.191756407
 30
0.0
  0
SPLINE
  5
2DC
100
AcDbEntity
  8
LAYER_FEATURE
100
AcDbSpline
 62
7
  6
CONTINUOUS
 70
0
 71
3
 72
15
 73
11
 74
0
 42
0.0000001
 43
0.0000001
 44
0.0000000001
 40
0.0
 40
0.0
 40
0.0
 40
0.0
 40
0.0825247371
 40
0.1716068819
 40
0.2721881628
 40
0.3871729076
 40
0.5177942784
 40
0.6640924935
 40
0.8252919466
 40
1.0
 40
1.0
 40
1.0
 40
1.0
 10
14.7598897628
 20
13.3155750238
 30
0.0
 10
14.7597431277
 20
13.3155750229
 30
0.0
 10
14.7594364524
 20
13.3155242167
 30
0.0
 10
14.7589989663
 20
13.3153053887
 30
0.0
 10
14.7585821368
 20
13.3149539904
 30
0.0
 10
14.75818893
 20
13.3144777399
 30
0.0
 10
14.7578226537
 20
13.3138834915
 30
0.0
 10
14.757487743
 20
13.3131793864
 30
0.0
 10
14.7571888625
 20
13.312375446
 30
0.0
 10
14.7570226228
 20
13.3118016337
 30
0.0
 10
14.7569455171
 20
13.3115009297
 30
0.0
  0
SPLINE
  5
2DD
100
AcDbEntity
  8
02___PRT_ALL_AXES
100
AcDbSpline
 62
7
  6
CONTINUOUS
 70
0
 71
3
 72
9
 73
5
 74
0
 42
0.0000001
 43
0.0000001
 44
0.0000000001
 40
0.0
 40
0.0
 40
0.0
 40
0.0
 40
0.4904756806
 40
1.0
 40
1.0
 40
1.0
 40
1.0
 10
15.4614297297
 20
13.1906908957
 30
0.0
 10
15.4551027905
 20
13.170216913
 30
0.0
 10
15.443066649
 20
13.128203449
 30
0.0
 10
15.4326098445
 20
13.0857717586
 30
0.0
 10
15.4276539178
 20
13.0640688873
 30
0.0
  0
SPLINE
  5
2DE
100
AcDbEntity
  8
02___PRT_ALL_AXES
100
AcDbSpline
 62
7
  6
CONTINUOUS
 70
0
 71
3
 72
50
 73
46
 74
0
 42
0.0000001
 43
0.0000001
 44
0.0000000001
 40
0.0
 40
0.0
 40
0.0
 40
0.0
 40
0.0356465387
 40
0.0722651522
 40
0.1097310883
 40
0.1479137443
 40
0.1866777191
 40
0.2258838107
 40
0.2653899778
 40
0.3050522753
 40
0.3447257749
 40
0.3842654781
 40
0.4235272282
 40
0.4623686292
 40
0.500649979
 40
0.5382352253
 40
0.5749929576
 40
0.6107974488
 40
0.645529768
 40
0.6790789926
 40
0.7113435577
 40
0.7422327961
 40
0.7571377073
 40
0.7716707294
 40
0.7858244656
 40
0.7995926113
 40
0.8129700505
 40
0.8259529662
 40
0.838538963
 40
0.8507272059
 40
0.8625185762
 40
0.8739158472
 40
0.8849238789
 40
0.8955498343
 40
0.9058034146
 40
0.9156971104
 40
0.9252464609
 40
0.9344703106
 40
0.9520254007
 40
0.9604220663
 40
0.9686054367
 40
0.976612929
 40
0.9844852484
 40
0.9922658162
 40
1.0
 40
1.0
 40
1.0
 40
1.0
 10
15.4276539178
 20
13.0640688873
 30
0.0
 10
15.422867934
 20
13.0431102258
 30
0.0
 10
15.4138677957
 20
13.0004581886
 30
0.0
 10
15.4021999027
 20
12.9353074206
 30
0.0
 10
15.3922177902
 20
12.8683302481
 30
0.0
 10
15.3839648294
 20
12.7998154358
 30
0.0
 10
15.3774766724
 20
12.7300572899
 30
0.0
 10
15.3727814106
 20
12.6593558917
 30
0.0
 10
15.3698993601
 20
12.5880153563
 30
0.0
 10
15.3688429961
 20
12.5163426167
 30
0.0
 10
15.3696168905
 20
12.4446460503
 30
0.0
 10
15.3722176936
 20
12.3732341402
 30
0.0
 10
15.3766341489
 20
12.302414126
 30
0.0
 10
15.3828471424
 20
12.2324906609
 30
0.0
 10
15.3908297878
 20
12.1637644781
 30
0.0
 10
15.4005475471
 20
12.0965310685
 30
0.0
 10
15.4119583862
 20
12.0310793868
 30
0.0
 10
15.4250129738
 20
11.9676905361
 30
0.0
 10
15.439654899
 20
11.9066366356
 30
0.0
 10
15.4558210111
 20
11.8481791518
 30
0.0
 10
15.473441534
 20
11.7925692614
 30
0.0
 10
15.4894594074
 20
11.748284961
 30
0.0
 10
15.5029741404
 20
11.7145023651
 30
0.0
 10
15.5133041873
 20
11.6903242952
 30
0.0
 10
15.5239374647
 20
11.6670295049
 30
0.0
 10
15.5348626823
 20
11.6446429058
 30
0.0
 10
15.5460681128
 20
11.6231885207
 30
0.0
 10
15.5575417869
 20
11.6026893326
 30
0.0
 10
15.5692714659
 20
11.5831672936
 30
0.0
 10
15.5812446738
 20
11.564643296
 30
0.0
 10
15.5934487162
 20
11.5471371565
 30
0.0
 10
15.6058706988
 20
11.5306676046
 30
0.0
 10
15.6184975667
 20
11.5152522644
 30
0.0
 10
15.6313160673
 20
11.5009076873
 30
0.0
 10
15.644312979
 20
11.4876492337
 30
0.0
 10
15.6574743857
 20
11.4754915206
 30
0.0
 10
15.670788299
 20
11.4644469062
 30
0.0
 10
15.6884278869
 20
11.4514393822
 30
0.0
 10
15.7066299443
 20
11.4404025279
 30
0.0
 10
15.7252750298
 20
11.4316397903
 30
0.0
 10
15.7391352773
 20
11.4263284875
 30
0.0
 10
15.7530603537
 20
11.4221897534
 30
0.0
 10
15.7670355825
 20
11.4192290143
 30
0.0
 10
15.7810432585
 20
11.417450762
 30
0.0
 10
15.7904048419
 20
11.4170549951
 30
0.0
 10
15.7950692713
 20
11.4170549931
 30
0.0
  0
SPLINE
  5
2DF
100
AcDbEntity
  8
LAYER_FEATURE
100
AcDbSpline
 62
7
  6
CONTINUOUS
 70
0
 71
3
 72
14
 73
10
 74
0
 42
0.0000001
 43
0.0000001
 44
0.0000000001
 40
0.0
 40
0.0
 40
0.0
 40
0.0
 40
0.0858722553
 40
0.1774650281
 40
0.2792916263
 40
0.394235758
 40
0.5237630701
 40
0.6682654643
 40
1.0
 40
1.0
 40
1.0
 40
1.0
 10
14.7892749494
 20
13.4284042828
 30
0.0
 10
14.7891416604
 20
13.428404274
 30
0.0
 10
14.788864814
 20
13.4283628586
 30
0.0
 10
14.7884658134
 20
13.4281825308
 30
0.0
 10
14.7880822898
 20
13.4278908047
 30
0.0
 10
14.7877170831
 20
13.4274935095
 30
0.0
 10
14.7873727021
 20
13.4269957323
 30
0.0
 10
14.786925319
 20
13.4261672157
 30
0.0
 10
14.7866655914
 20
13.4254708779
 30
0.0
 10
14.7865135652
 20
13.424978921
 30
0.0
  0
SPLINE
  5
2E0
100
AcDbEntity
  8
LAYER_FEATURE
100
AcDbSpline
 62
7
  6
CONTINUOUS
 70
0
 71
3
 72
78
 73
74
 74
0
 42
0.0000001
 43
0.0000001
 44
0.0000000001
 40
0.0
 40
0.0
 40
0.0
 40
0.0
 40
0.0173115677
 40
0.0340660434
 40
0.0502396573
 40
0.0658116538
 40
0.0807650231
 40
0.095086883
 40
0.1087690781
 40
0.1218088666
 40
0.134209746
 40
0.1459824361
 40
0.1571460216
 40
0.1677292414
 40
0.1777718724
 40
0.1873260724
 40
0.1964574285
 40
0.2008905552
 40
0.2052488908
 40
0.2095443871
 40
0.2137896809
 40
0.2179979819
 40
0.2221829425
 40
0.2263584992
 40
0.2305387056
 40
0.2347375572
 40
0.2389688211
 40
0.2432458728
 40
0.2475815565
 40
0.2519880675
 40
0.2564768535
 40
0.2657399347
 40
0.2754490766
 40
0.2856653404
 40
0.2964366554
 40
0.3077989955
 40
0.3197777533
 40
0.3323891092
 40
0.3456412784
 40
0.3595355975
 40
0.3740674474
 40
0.3892270371
 40
0.4050000571
 40
0.421368226
 40
0.4383097494
 40
0.4557997185
 40
0.473810453
 40
0.4923117999
 40
0.5112713954
 40
0.530654906
 40
0.5504262491
 40
0.5705477957
 40
0.5909805584
 40
0.6116843712
 40
0.6326180648
 40
0.6537396322
 40
0.6750063908
 40
0.6963751403
 40
0.7178023205
 40
0.739244166
 40
0.7606568596
 40
0.7819966866
 40
0.803220189
 40
0.8242843207
 40
0.8451466037
 40
0.8657652896
 40
0.8860995232
 40
0.9061095099
 40
0.9257566896
 40
0.9450039197
 40
0.9638156914
 40
0.982158223
 40
1.0
 40
1.0
 40
1.0
 40
1.0
 10
15.2200747397
 20
13.4881091754
 30
0.0
 10
15.2262062147
 20
13.507950636
 30
0.0
 10
15.2388185178
 20
13.5468291159
 30
0.0
 10
15.2591427815
 20
13.603577064
 30
0.0
 10
15.2805252785
 20
13.657698744
 30
0.0
 10
15.3029147107
 20
13.7090642523
 30
0.0
 10
15.3262576566
 20
13.7575510847
 30
0.0
 10
15.3504986566
 20
13.8030437282
 30
0.0
 10
15.375580471
 20
13.8454340707
 30
0.0
 10
15.4014443658
 20
13.8846215597
 30
0.0
 10
15.4280304506
 20
13.9205133468
 30
0.0
 10
15.455277977
 20
13.9530242958
 30
0.0
 10
15.4831257999
 20
13.9820768577
 30
0.0
 10
15.511512198
 20
14.0076005094
 30
0.0
 10
15.5403763278
 20
14.0295315412
 30
0.0
 10
15.5696524992
 20
14.0478106521
 30
0.0
 10
15.594589458
 20
14.0600772071
 30
0.0
 10
15.6146133016
 20
14.0679345941
 30
0.0
 10
15.6295389532
 20
14.0728313315
 30
0.0
 10
15.6445087261
 20
14.0767850982
 30
0.0
 10
15.6595136841
 20
14.0797933391
 30
0.0
 10
15.6745442944
 20
14.0818537203
 30
0.0
 10
15.6895910121
 20
14.0829648006
 30
0.0
 10
15.7046442018
 20
14.0831256994
 30
0.0
 10
15.719694191
 20
14.0823362828
 30
0.0
 10
15.7347313349
 20
14.0805972047
 30
0.0
 10
15.7497460283
 20
14.0779096921
 30
0.0
 10
15.764728815
 20
14.074275762
 30
0.0
 10
15.779670248
 20
14.0696980899
 30
0.0
 10
15.794561448
 20
14.0641796295
 30
0.0
 10
15.8145435669
 20
14.0554830733
 30
0.0
 10
15.8394036065
 20
14.0421729271
 30
0.0
 10
15.8685498225
 20
14.0226803035
 30
0.0
 10
15.8972630457
 20
13.9995543901
 30
0.0
 10
15.9254780931
 20
13.9728563731
 30
0.0
 10
15.9531342006
 20
13.9426519664
 30
0.0
 10
15.980169736
 20
13.9090140178
 30
0.0
 10
16.0065236856
 20
13.872022546
 30
0.0
 10
16.03213553
 20
13.8317652213
 30
0.0
 10
16.0569457132
 20
13.7883374356
 30
0.0
 10
16.0808959733
 20
13.7418422732
 30
0.0
 10
16.1039296356
 20
13.692390325
 30
0.0
 10
16.1259918865
 20
13.6400994567
 30
0.0
 10
16.1470300018
 20
13.5850945336
 30
0.0
 10
16.1669935719
 20
13.5275071217
 30
0.0
 10
16.1858346547
 20
13.467475144
 30
0.0
 10
16.2035079294
 20
13.4051425251
 30
0.0
 10
16.2199708284
 20
13.3406588299
 30
0.0
 10
16.2351836775
 20
13.2741788958
 30
0.0
 10
16.2491097975
 20
13.2058624422
 30
0.0
 10
16.2617155914
 20
13.1358736679
 30
0.0
 10
16.2729706326
 20
13.0643808461
 30
0.0
 10
16.2828477511
 20
12.9915559154
 30
0.0
 10
16.2913231105
 20
12.9175740587
 30
0.0
 10
16.2983762487
 20
12.8426132706
 30
0.0
 10
16.303990132
 20
12.7668539226
 30
0.0
 10
16.3081511976
 20
12.6904783264
 30
0.0
 10
16.3108494055
 20
12.6136702918
 30
0.0
 10
16.3120782422
 20
12.5366146779
 30
0.0
 10
16.3118347386
 20
12.4594969442
 30
0.0
 10
16.3101194746
 20
12.3825027011
 30
0.0
 10
16.3069365975
 20
12.3058172593
 30
0.0
 10
16.3022937979
 20
12.2296251792
 30
0.0
 10
16.2962022866
 20
12.1541098243
 30
0.0
 10
16.2886767653
 20
12.0794529159
 30
0.0
 10
16.279735405
 20
12.0058340889
 30
0.0
 10
16.2693997997
 20
11.9334304514
 30
0.0
 10
16.2576949016
 20
11.8624161628
 30
0.0
 10
16.2446489513
 20
11.7929619872
 30
0.0
 10
16.2302934418
 20
11.7252349347
 30
0.0
 10
16.2146629536
 20
11.6593976445
 30
0.0
 10
16.1977953894
 20
11.5956088458
 30
0.0
 10
16.1855764753
 20
11.5539499645
 30
0.0
 10
16.1792572088
 20
11.5335008104
 30
0.0
  0
SPLINE
  5
2E1
100
AcDbEntity
  8
LAYER_FEATURE
100
AcDbSpline
 62
7
  6
CONTINUOUS
 70
0
 71
3
 72
35
 73
31
 74
0
 42
0.0000001
 43
0.0000001
 44
0.0000000001
 40
0.0
 40
0.0
 40
0.0
 40
0.0
 40
0.0879660256
 40
0.1726596292
 40
0.2539260382
 40
0.2932345385
 40
0.3316399259
 40
0.3691306809
 40
0.4056974107
 40
0.4413330071
 40
0.4760328805
 40
0.5097951444
 40
0.5426208216
 40
0.5745141239
 40
0.6054827476
 40
0.6355381388
 40
0.6646958309
 40
0.6929758371
 40
0.7204029924
 40
0.7728096573
 40
0.7978812372
 40
0.82225512
 40
0.8459856999
 40
0.8691340408
 40
0.8917678177
 40
0.9139610836
 40
0.9357938166
 40
0.9573511729
 40
0.9787224787
 40
1.0
 40
1.0
 40
1.0
 40
1.0
 10
15.2133511017
 20
13.5263602786
 30
0.0
 10
15.220635254
 20
13.549931804
 30
0.0
 10
15.2356730449
 20
13.5959740788
 30
0.0
 10
15.2601406413
 20
13.6628716611
 30
0.0
 10
15.2819516556
 20
13.7161687753
 30
0.0
 10
15.3001226272
 20
13.7568896839
 30
0.0
 10
15.3139252831
 20
13.7861070004
 30
0.0
 10
15.3280422626
 20
13.8143165117
 30
0.0
 10
15.3424625741
 20
13.8414960889
 30
0.0
 10
15.3571748735
 20
13.8676242917
 30
0.0
 10
15.3721676123
 20
13.8926805637
 30
0.0
 10
15.3874290315
 20
13.9166451956
 30
0.0
 10
15.4029472083
 20
13.9394993235
 30
0.0
 10
15.4187100489
 20
13.9612249679
 30
0.0
 10
15.4347052472
 20
13.9818050303
 30
0.0
 10
15.450920467
 20
14.0012233802
 30
0.0
 10
15.4673429189
 20
14.0194644282
 30
0.0
 10
15.4839608672
 20
14.0365147057
 30
0.0
 10
15.5060236409
 20
14.0573236051
 30
0.0
 10
15.5287538068
 20
14.0760893709
 30
0.0
 10
15.5521201965
 20
14.0925406402
 30
0.0
 10
15.5695179474
 20
14.1034476636
 30
0.0
 10
15.5870317255
 20
14.1130948037
 30
0.0
 10
15.6046484479
 20
14.121474023
 30
0.0
 10
15.6223541539
 20
14.1285777624
 30
0.0
 10
15.6401348063
 20
14.1343994404
 30
0.0
 10
15.6579758712
 20
14.1389334881
 30
0.0
 10
15.6758629306
 20
14.1421754382
 30
0.0
 10
15.6937797069
 20
14.1441219697
 30
0.0
 10
15.7057456605
 20
14.1445549788
 30
0.0
 10
15.7117132514
 20
14.1445549837
 30
0.0
  0
SPLINE
  5
2E2
100
AcDbEntity
  8
02___PRT_ALL_AXES
100
AcDbSpline
 62
7
  6
CONTINUOUS
 70
0
 71
3
 72
52
 73
48
 74
0
 42
0.0000001
 43
0.0000001
 44
0.0000000001
 40
0.0
 40
0.0
 40
0.0
 40
0.0
 40
0.0330501465
 40
0.0673811094
 40
0.1028692275
 40
0.1393809374
 40
0.1767743308
 40
0.2149005995
 40
0.2536053776
 40
0.292730016
 40
0.3321128102
 40
0.3715901982
 40
0.410997941
 40
0.4501722976
 40
0.4889512045
 40
0.5271754705
 40
0.5646899981
 40
0.6013450494
 40
0.6369975763
 40
0.6715126456
 40
0.7047649955
 40
0.7208824187
 40
0.7366425271
 40
0.7520332124
 40
0.7670433525
 40
0.7816628977
 40
0.795882966
 40
0.8096959505
 40
0.8230956399
 40
0.8360773545
 40
0.8486381003
 40
0.8607767444
 40
0.8724942139
 40
0.8837937204
 40
0.8946810127
 40
0.9051646575
 40
0.9152563465
 40
0.924971223
 40
0.9343282167
 40
0.9433503666
 40
0.9520651
 40
0.9605044273
 40
0.9687049982
 40
0.9767079613
 40
0.9845585736
 40
0.9923055277
 40
1.0
 40
1.0
 40
1.0
 40
1.0
 10
15.374619731
 20
13.1906908957
 30
0.0
 10
15.3683084063
 20
13.1702674414
 30
0.0
 10
15.3563002507
 20
13.12835956
 30
0.0
 10
15.3403679501
 20
13.0637470333
 30
0.0
 10
15.3262300505
 20
12.9964290242
 30
0.0
 10
15.3139564886
 20
12.9267355657
 30
0.0
 10
15.3036075645
 20
12.8550067459
 30
0.0
 10
15.2952342811
 20
12.7815933807
 30
0.0
 10
15.2888778831
 20
12.7068545633
 30
0.0
 10
15.2845696951
 20
12.6311560432
 30
0.0
 10
15.2823309488
 20
12.5548683435
 30
0.0
 10
15.2821726788
 20
12.478364925
 30
0.0
 10
15.284095666
 20
12.402020322
 30
0.0
 10
15.2880904331
 20
12.3262082789
 30
0.0
 10
15.2941372908
 20
12.2512998852
 30
0.0
 10
15.3022064398
 20
12.1776617322
 30
0.0
 10
15.3122581242
 20
12.1056540482
 30
0.0
 10
15.3242428313
 20
12.0356289994
 30
0.0
 10
15.3381015783
 20
11.9679285071
 30
0.0
 10
15.3537661432
 20
11.9028839326
 30
0.0
 10
15.3684090053
 20
11.8506262608
 30
0.0
 10
15.380998596
 20
11.8104237136
 30
0.0
 10
15.3907436884
 20
11.7814434598
 30
0.0
 10
15.4008775796
 20
11.7533569904
 30
0.0
 10
15.4113879642
 20
11.7261985551
 30
0.0
 10
15.42226196
 20
11.700001366
 30
0.0
 10
15.4334862871
 20
11.674797413
 30
0.0
 10
15.4450472471
 20
11.6506174601
 30
0.0
 10
15.456930756
 20
11.6274909981
 30
0.0
 10
15.4691223669
 20
11.6054462118
 30
0.0
 10
15.4816072962
 20
11.5845099467
 30
0.0
 10
15.4943704522
 20
11.5647076805
 30
0.0
 10
15.507396466
 20
11.5460634996
 30
0.0
 10
15.5206697233
 20
11.5286000813
 30
0.0
 10
15.5341743978
 20
11.5123386848
 30
0.0
 10
15.5478944824
 20
11.4972991522
 30
0.0
 10
15.5618138165
 20
11.4834999219
 30
0.0
 10
15.5759161024
 20
11.4709580548
 30
0.0
 10
15.5901849047
 20
11.4596892729
 30
0.0
 10
15.6046036215
 20
11.449708006
 30
0.0
 10
15.6191554241
 20
11.4410274343
 30
0.0
 10
15.6338231363
 20
11.4336595057
 30
0.0
 10
15.6485891481
 20
11.4276149029
 30
0.0
 10
15.6634350671
 20
11.4229029301
 30
0.0
 10
15.6783423168
 20
11.4195313063
 30
0.0
 10
15.6932895202
 20
11.4175058773
 30
0.0
 10
15.7032825901
 20
11.4170549952
 30
0.0
 10
15.7082592726
 20
11.4170549931
 30
0.0
  0
SPLINE
  5
2E3
100
AcDbEntity
  8
LAYER_FEATURE
100
AcDbSpline
 62
7
  6
CONTINUOUS
 70
0
 71
3
 72
54
 73
50
 74
0
 42
0.0000001
 43
0.0000001
 44
0.0000000001
 40
0.0
 40
0.0
 40
0.0
 40
0.0
 40
0.0330500869
 40
0.0673809189
 40
0.1028689286
 40
0.1393805316
 40
0.1767738172
 40
0.214899975
 40
0.2536046397
 40
0.2927291642
 40
0.332111844
 40
0.3715891169
 40
0.4109967451
 40
0.4501709878
 40
0.4889497815
 40
0.5271739361
 40
0.5646883551
 40
0.6013432992
 40
0.6369957215
 40
0.6544041318
 40
0.6715120649
 40
0.6883041821
 40
0.7047658562
 40
0.7208832323
 40
0.736643294
 40
0.7520339335
 40
0.7670440292
 40
0.7816635318
 40
0.7958835594
 40
0.8096965048
 40
0.823096156
 40
0.8360778326
 40
0.8486385411
 40
0.8607771491
 40
0.8724945842
 40
0.8837940579
 40
0.894681319
 40
0.9051649339
 40
0.9152565937
 40
0.9249714414
 40
0.9343284073
 40
0.9433505306
 40
0.9520652387
 40
0.9605045419
 40
0.9687050894
 40
0.9767080294
 40
0.9845586188
 40
0.9923055502
 40
1.0
 40
1.0
 40
1.0
 40
1.0
 10
14.7603458737
 20
13.5263602786
 30
0.0
 10
14.7509185474
 20
13.4958534393
 30
0.0
 10
14.7329817898
 20
13.4332550338
 30
0.0
 10
14.7091834951
 20
13.3367423767
 30
0.0
 10
14.6880655156
 20
13.2361885407
 30
0.0
 10
14.6697323194
 20
13.1320864309
 30
0.0
 10
14.65427399
 20
13.0249440669
 30
0.0
 10
14.6417666981
 20
12.9152854743
 30
0.0
 10
14.6322720503
 20
12.8036470363
 30
0.0
 10
14.625836846
 20
12.6905750762
 30
0.0
 10
14.6224928042
 20
12.5766230491
 30
0.0
 10
14.6222563957
 20
12.4623488004
 30
0.0
 10
14.625128785
 20
12.3483117755
 30
0.0
 10
14.6310958244
 20
12.235070247
 30
0.0
 10
14.6401281062
 20
12.1231784986
 30
0.0
 10
14.6521811084
 20
12.0131841787
 30
0.0
 10
14.6671954504
 20
11.9056251226
 30
0.0
 10
14.6850971752
 20
11.8010282458
 30
0.0
 10
14.7024831395
 20
11.7160956556
 30
0.0
 10
14.7178033223
 20
11.6500551284
 30
0.0
 10
14.7298652184
 20
11.6019721333
 30
0.0
 10
14.7425747952
 20
11.5550031439
 30
0.0
 10
14.7559165671
 20
11.5092055357
 30
0.0
 10
14.7698741493
 20
11.4646354018
 30
0.0
 10
14.7844304403
 20
11.4213472703
 30
0.0
 10
14.7995676046
 20
11.3793940911
 30
0.0
 10
14.8152671109
 20
11.3388271563
 30
0.0
 10
14.8315097553
 20
11.2996960394
 30
0.0
 10
14.8482756914
 20
11.2620485327
 30
0.0
 10
14.8655444605
 20
11.2259305879
 30
0.0
 10
14.8832950261
 20
11.1913862586
 30
0.0
 10
14.9015058102
 20
11.1584576469
 30
0.0
 10
14.9201547287
 20
11.1271848514
 30
0.0
 10
14.9392192382
 20
11.0976059264
 30
0.0
 10
14.9586763814
 20
11.0697568486
 30
0.0
 10
14.9785028351
 20
11.0436714906
 30
0.0
 10
14.9986749594
 20
11.0193816081
 30
0.0
 10
15.0191688447
 20
10.9969168409
 30
0.0
 10
15.0399603526
 20
10.9763047329
 30
0.0
 10
15.0610251396
 20
10.9575707695
 30
0.0
 10
15.0823386543
 20
10.9407384321
 30
0.0
 10
15.1038760977
 20
10.9258292729
 30
0.0
 10
15.1256123329
 20
10.9128629781
 30
0.0
 10
15.1475217033
 20
10.9018573947
 30
0.0
 10
15.1695779054
 20
10.8928284808
 30
0.0
 10
15.1917534664
 20
10.8857901359
 30
0.0
 10
15.2140206387
 20
10.880753896
 30
0.0
 10
15.2363474905
 20
10.8777284865
 30
0.0
 10
15.2512742817
 20
10.8770550093
 30
0.0
 10
15.2587080233
 20
10.8770550021
 30
0.0
  0
SPLINE
  5
2E4
100
AcDbEntity
  8
LAYER_FEATURE
100
AcDbSpline
 62
7
  6
CONTINUOUS
 70
0
 71
3
 72
39
 73
35
 74
0
 42
0.0000001
 43
0.0000001
 44
0.0000000001
 40
0.0
 40
0.0
 40
0.0
 40
0.0
 40
0.0467313337
 40
0.0924384521
 40
0.1370875524
 40
0.1806492723
 40
0.2230961905
 40
0.2644044617
 40
0.3045536133
 40
0.3435270068
 40
0.3813121722
 40
0.4179012131
 40
0.4532912738
 40
0.4874850609
 40
0.5204914363
 40
0.5523260857
 40
0.5830122469
 40
0.6125815078
 40
0.6410746588
 40
0.6685425711
 40
0.6950470511
 40
0.720661605
 40
0.7454719971
 40
0.7695764856
 40
0.793085595
 40
0.8161212816
 40
0.838815393
 40
0.8613074011
 40
0.8837414931
 40
0.9062632361
 40
0.9290161126
 40
0.9521382516
 40
0.9757596409
 40
1.0
 40
1.0
 40
1.0
 40
1.0
 10
14.7911640659
 20
13.4881091754
 30
0.0
 10
14.7954432732
 20
13.5019566953
 30
0.0
 10
14.8041756319
 20
13.5292664631
 30
0.0
 10
14.8179573196
 20
13.5694915041
 30
0.0
 10
14.8322646454
 20
13.6084875206
 30
0.0
 10
14.8470808174
 20
13.6462089767
 30
0.0
 10
14.8623887817
 20
13.682612371
 30
0.0
 10
14.8781707638
 20
13.7176554984
 30
0.0
 10
14.8944085369
 20
13.7512978413
 30
0.0
 10
14.9110833465
 20
13.7835005086
 30
0.0
 10
14.9281759782
 20
13.8142263069
 30
0.0
 10
14.9456667847
 20
13.843439772
 30
0.0
 10
14.9635357203
 20
13.871107204
 30
0.0
 10
14.9817623792
 20
13.8971966981
 30
0.0
 10
15.0003260379
 20
13.9216781673
 30
0.0
 10
15.0192056851
 20
13.9445233643
 30
0.0
 10
15.0383800689
 20
13.9657058774
 30
0.0
 10
15.0578277318
 20
13.9852011131
 30
0.0
 10
15.0775270314
 20
14.0029862661
 30
0.0
 10
15.0974561443
 20
14.0190402767
 30
0.0
 10
15.1175930413
 20
14.033343775
 30
0.0
 10
15.1379154109
 20
14.045879044
 30
0.0
 10
15.1584005512
 20
14.0566299848
 30
0.0
 10
15.1790252119
 20
14.065582135
 30
0.0
 10
15.1997654125
 20
14.072722778
 30
0.0
 10
15.2205962881
 20
14.0780411612
 30
0.0
 10
15.2414920252
 20
14.0815288106
 30
0.0
 10
15.2624259494
 20
14.083179915
 30
0.0
 10
15.2833707872
 20
14.0829916499
 30
0.0
 10
15.3042991147
 20
14.0809643322
 30
0.0
 10
15.325183665
 20
14.0771014717
 30
0.0
 10
15.345998276
 20
14.0714092791
 30
0.0
 10
15.3667159728
 20
14.0638973666
 30
0.0
 10
15.3802547293
 20
14.0577704877
 30
0.0
 10
15.3869884149
 20
14.0544269384
 30
0.0
  0
SPLINE
  5
2E5
100
AcDbEntity
  8
LAYER_FEATURE
100
AcDbSpline
 62
7
  6
CONTINUOUS
 70
0
 71
3
 72
60
 73
56
 74
0
 42
0.0000001
 43
0.0000001
 44
0.0000000001
 40
0.0
 40
0.0
 40
0.0
 40
0.0
 40
0.0170301477
 40
0.0344368188
 40
0.052202135
 40
0.0703074774
 40
0.0887332212
 40
0.1074589975
 40
0.145724135
 40
0.1849279372
 40
0.2248853824
 40
0.2654047918
 40
0.3062896324
 40
0.3473402616
 40
0.3883556383
 40
0.4291350182
 40
0.4694796532
 40
0.5091945105
 40
0.5480900344
 40
0.5671739568
 40
0.585985409
 40
0.6045030745
 40
0.6227063441
 40
0.6405753865
 40
0.6580912228
 40
0.6752358062
 40
0.6919921077
 40
0.7083442098
 40
0.7242774089
 40
0.7397783288
 40
0.754835047
 40
0.7694372376
 40
0.7835763318
 40
0.7972457017
 40
0.8104408703
 40
0.8231597526
 40
0.8354029312
 40
0.8471739731
 40
0.8584797883
 40
0.8693310331
 40
0.8797425538
 40
0.8897338602
 40
0.8993296063
 40
0.9085600412
 40
0.9174613716
 40
0.9260759556
 40
0.9344522358
 40
0.942644311
 40
0.9507110803
 40
0.9587149447
 40
0.9667201413
 40
0.9747908677
 40
0.9829894113
 40
0.9913744956
 40
1.0
 40
1.0
 40
1.0
 40
1.0
 10
14.7911640659
 20
13.4881091754
 30
0.0
 10
14.7862871533
 20
13.4723274803
 30
0.0
 10
14.7767802827
 20
13.4403044885
 30
0.0
 10
14.7633929678
 20
13.3914704442
 30
0.0
 10
14.7507371373
 20
13.3413653543
 30
0.0
 10
14.738831188
 20
13.290061884
 30
0.0
 10
14.7276921959
 20
13.2376336973
 30
0.0
 10
14.7137849496
 20
13.165815652
 30
0.0
 10
14.6984707362
 20
13.0737586801
 30
0.0
 10
14.6835098302
 20
12.9608307234
 30
0.0
 10
14.6719222745
 20
12.8453095297
 30
0.0
 10
14.6637753303
 20
12.7278613629
 30
0.0
 10
14.659116317
 20
12.6091624716
 30
0.0
 10
14.6579722915
 20
12.4898968453
 30
0.0
 10
14.6603498968
 20
12.3707516778
 30
0.0
 10
14.6662353246
 20
12.2524135754
 30
0.0
 10
14.6755943859
 20
12.1355640459
 30
0.0
 10
14.6883727601
 20
12.0208770994
 30
0.0
 10
14.7018929858
 20
11.9270708383
 30
0.0
 10
14.7143931143
 20
11.85364231
 30
0.0
 10
14.7245117277
 20
11.7998663456
 30
0.0
 10
14.73541801
 20
11.7471165266
 30
0.0
 10
14.7470962921
 20
11.6954687763
 30
0.0
 10
14.759529671
 20
11.6449976102
 30
0.0
 10
14.7727001884
 20
11.5957757783
 30
0.0
 10
14.7865888191
 20
11.5478742231
 30
0.0
 10
14.8011755113
 20
11.5013619572
 30
0.0
 10
14.8164392159
 20
11.4563059656
 30
0.0
 10
14.8323579225
 20
11.4127711049
 30
0.0
 10
14.8489086964
 20
11.3708200067
 30
0.0
 10
14.8660677196
 20
11.3305129846
 30
0.0
 10
14.8838103347
 20
11.291907944
 30
0.0
 10
14.9021110931
 20
11.2550602974
 30
0.0
 10
14.920943808
 20
11.2200228844
 30
0.0
 10
14.9402816124
 20
11.1868458986
 30
0.0
 10
14.9600970222
 20
11.1555768232
 30
0.0
 10
14.9803620055
 20
11.1262603789
 30
0.0
 10
15.0010480569
 20
11.0989384872
 30
0.0
 10
15.0221262737
 20
11.0736502553
 30
0.0
 10
15.0435674289
 20
11.0504319883
 30
0.0
 10
15.065342031
 20
11.0293172329
 30
0.0
 10
15.0874203534
 20
11.0103368583
 30
0.0
 10
15.1097724117
 20
10.9935191689
 30
0.0
 10
15.132367858
 20
10.9788900289
 30
0.0
 10
15.1551757694
 20
10.966472959
 30
0.0
 10
15.1781643243
 20
10.9562891335
 30
0.0
 10
15.2013004115
 20
10.9483571947
 30
0.0
 10
15.2245492797
 20
10.9426928151
 30
0.0
 10
15.2478744022
 20
10.9393080221
 30
0.0
 10
15.2712376914
 20
10.9382104123
 30
0.0
 10
15.2946001993
 20
10.9394025426
 30
0.0
 10
15.3179228369
 20
10.9428815933
 30
0.0
 10
15.3411680655
 20
10.9486399995
 30
0.0
 10
15.3642975582
 20
10.9566646737
 30
0.0
 10
15.3793801229
 20
10.9634090194
 30
0.0
 10
15.3868748637
 20
10.9671266966
 30
0.0
  0
SPLINE
  5
2E6
100
AcDbEntity
  8
LAYER_FEATURE
100
AcDbSpline
 62
7
  6
CONTINUOUS
 70
0
 71
3
 72
13
 73
9
 74
0
 42
0.0000001
 43
0.0000001
 44
0.0000000001
 40
0.0
 40
0.0
 40
0.0
 40
0.0
 40
0.1174110709
 40
0.2416530616
 40
0.5015180719
 40
0.7605971126
 40
0.8838822205
 40
1.0
 40
1.0
 40
1.0
 40
1.0
 10
14.7813061537
 20
13.4065048803
 30
0.0
 10
14.7812066959
 20
13.4061170051
 30
0.0
 10
14.7810337921
 20
13.4053103027
 30
0.0
 10
14.7807886976
 20
13.4036165825
 30
0.0
 10
14.7806758876
 20
13.401420634
 30
0.0
 10
14.7808085557
 20
13.3992289752
 30
0.0
 10
14.7810696003
 20
13.3975480918
 30
0.0
 10
14.7812501724
 20
13.3967509061
 30
0.0
 10
14.7813533983
 20
13.3963685834
 30
0.0
  0
SPLINE
  5
2E7
100
AcDbEntity
  8
LAYER_FEATURE
100
AcDbSpline
 62
7
  6
CONTINUOUS
 70
0
 71
3
 72
11
 73
7
 74
0
 42
0.0000001
 43
0.0000001
 44
0.0000000001
 40
0.0
 40
0.0
 40
0.0
 40
0.0
 40
0.2606123036
 40
0.5188993118
 40
0.7676151085
 40
1.0
 40
1.0
 40
1.0
 40
1.0
 10
14.7909507526
 20
13.3400592518
 30
0.0
 10
14.7910885103
 20
13.3428697147
 30
0.0
 10
14.7911612848
 20
13.3484773384
 30
0.0
 10
14.7906837695
 20
13.3567584936
 30
0.0
 10
14.7896367021
 20
13.3646800651
 30
0.0
 10
14.7885362408
 20
13.36976513
 30
0.0
 10
14.7878822208
 20
13.3721874564
 30
0.0
  0
SPLINE
  5
2E8
100
AcDbEntity
  8
LAYER_FEATURE
100
AcDbSpline
 62
7
  6
CONTINUOUS
 70
0
 71
3
 72
12
 73
8
 74
0
 42
0.0000001
 43
0.0000001
 44
0.0000000001
 40
0.0
 40
0.0
 40
0.0
 40
0.0
 40
0.2499248106
 40
0.5126975584
 40
0.7688613342
 40
0.888622348
 40
1.0
 40
1.0
 40
1.0
 40
1.0
 10
14.7523943012
 20
13.2919173376
 30
0.0
 10
14.7522201622
 20
13.2910865948
 30
0.0
 10
14.751987479
 20
13.2893551649
 30
0.0
 10
14.751940297
 20
13.2867397193
 30
0.0
 10
14.7521461567
 20
13.2845742095
 30
0.0
 10
14.7524652397
 20
13.2829491928
 30
0.0
 10
14.7526734633
 20
13.28219122
 30
0.0
 10
14.7527902201
 20
13.2818314281
 30
0.0
  0
SPLINE
  5
2E9
100
AcDbEntity
  8
LAYER_FEATURE
100
AcDbSpline
 62
7
  6
CONTINUOUS
 70
0
 71
3
 72
13
 73
9
 74
0
 42
0.0000001
 43
0.0000001
 44
0.0000000001
 40
0.0
 40
0.0
 40
0.0
 40
0.0
 40
0.2659987569
 40
0.5260027965
 40
0.6515067495
 40
0.7728551482
 40
0.8892588445
 40
1.0
 40
1.0
 40
1.0
 40
1.0
 10
14.7642880071
 20
13.2279206043
 30
0.0
 10
14.7643282211
 20
13.2307319425
 30
0.0
 10
14.7642111687
 20
13.2362958982
 30
0.0
 10
14.7635736676
 20
13.2431595833
 30
0.0
 10
14.7627657002
 20
13.2484571023
 30
0.0
 10
14.7620301897
 20
13.2522268896
 30
0.0
 10
14.7611644535
 20
13.2558085643
 30
0.0
 10
14.7604870386
 20
13.2581132847
 30
0.0
 10
14.760125732
 20
13.2592266695
 30
0.0
  0
SPLINE
  5
2EA
100
AcDbEntity
  8
LAYER_FEATURE
100
AcDbSpline
 62
7
  6
CONTINUOUS
 70
0
 71
3
 72
33
 73
29
 74
0
 42
0.0000001
 43
0.0000001
 44
0.0000000001
 40
0.0
 40
0.0
 40
0.0
 40
0.0
 40
0.0216618547
 40
0.043411555
 40
0.0653356382
 40
0.0875180957
 40
0.1100393015
 40
0.1329751061
 40
0.1563961501
 40
0.1803674364
 40
0.2301740438
 40
0.2561267142
 40
0.2828304637
 40
0.3103212342
 40
0.3386298034
 40
0.3677820834
 40
0.3977994233
 40
0.428698997
 40
0.4604940936
 40
0.4931943809
 40
0.5268062464
 40
0.5613330313
 40
0.5967752253
 40
0.6703898206
 40
0.7476114707
 40
0.8283623312
 40
0.9125354775
 40
1.0
 40
1.0
 40
1.0
 40
1.0
 10
15.2707553005
 20
14.0541799825
 30
0.0
 10
15.2653489297
 20
14.0541799828
 30
0.0
 10
15.2545105384
 20
14.0538038942
 30
0.0
 10
15.2382796659
 20
14.0521131386
 30
0.0
 10
15.2220734071
 20
14.0492969631
 30
0.0
 10
15.2059052899
 20
14.0453580184
 30
0.0
 10
15.1897872877
 20
14.0402997921
 30
0.0
 10
15.173731667
 20
14.0341267845
 30
0.0
 10
15.1577496499
 20
14.0268439277
 30
0.0
 10
15.1362839476
 20
14.0155194277
 30
0.0
 10
15.1152715008
 20
14.0020749986
 30
0.0
 10
15.0947931678
 20
13.986747981
 30
0.0
 10
15.0793513995
 20
13.974020616
 30
0.0
 10
15.0640516933
 20
13.9602305709
 30
0.0
 10
15.0489037696
 20
13.9453872662
 30
0.0
 10
15.0339186683
 20
13.9295017463
 30
0.0
 10
15.0191069082
 20
13.9125855508
 30
0.0
 10
15.0044790636
 20
13.8946509668
 30
0.0
 10
14.9900455831
 20
13.8757109819
 30
0.0
 10
14.9758167571
 20
13.8557793307
 30
0.0
 10
14.9618028359
 20
13.8348704546
 30
0.0
 10
14.9480137697
 20
13.8129993934
 30
0.0
 10
14.929710384
 20
13.7821865859
 30
0.0
 10
14.9075001988
 20
13.7413209394
 30
0.0
 10
14.8822301057
 20
13.6893188436
 30
0.0
 10
14.8580868562
 20
13.633898408
 30
0.0
 10
14.8351404672
 20
13.5752209743
 30
0.0
 10
14.8209479255
 20
13.5347928096
 30
0.0
 10
14.8140486095
 20
13.514082357
 30
0.0
  0
SPLINE
  5
2EB
100
AcDbEntity
  8
LAYER_FEATURE
100
AcDbSpline
 62
7
  6
CONTINUOUS
 70
0
 71
3
 72
13
 73
9
 74
0
 42
0.0000001
 43
0.0000001
 44
0.0000000001
 40
0.0
 40
0.0
 40
0.0
 40
0.0
 40
0.2583847861
 40
0.5239582896
 40
0.6533202466
 40
0.7771810518
 40
0.8933657582
 40
1.0
 40
1.0
 40
1.0
 40
1.0
 10
14.7275393262
 20
13.1712165317
 30
0.0
 10
14.7273961916
 20
13.1703598805
 30
0.0
 10
14.7272235085
 20
13.16860208
 30
0.0
 10
14.7272565918
 20
13.1664013956
 30
0.0
 10
14.7274367646
 20
13.1646659048
 30
0.0
 10
14.727643012
 20
13.1634404628
 30
0.0
 10
14.7279166668
 20
13.1623067286
 30
0.0
 10
14.7281512425
 20
13.1615941411
 30
0.0
 10
14.7282808209
 20
13.1612599456
 30
0.0
  0
SPLINE
  5
2EC
100
AcDbEntity
  8
LAYER_FEATURE
100
AcDbSpline
 62
7
  6
CONTINUOUS
 70
0
 71
3
 72
13
 73
9
 74
0
 42
0.0000001
 43
0.0000001
 44
0.0000000001
 40
0.0
 40
0.0
 40
0.0
 40
0.0
 40
0.2715842464
 40
0.5333505379
 40
0.6583231567
 40
0.7782345235
 40
0.8923436339
 40
1.0
 40
1.0
 40
1.0
 40
1.0
 10
14.7415890549
 20
13.1101695548
 30
0.0
 10
14.741532743
 20
13.112959756
 30
0.0
 10
14.7412294786
 20
13.1184373333
 30
0.0
 10
14.740358955
 20
13.1251533108
 30
0.0
 10
14.7393689628
 20
13.1302660489
 30
0.0
 10
14.7385072144
 20
13.1338543758
 30
0.0
 10
14.7375222638
 20
13.1372258843
 30
0.0
 10
14.7367655369
 20
13.1393770219
 30
0.0
 10
14.7363656119
 20
13.1404084683
 30
0.0
  0
SPLINE
  5
2ED
100
AcDbEntity
  8
02___PRT_ALL_AXES
100
AcDbSpline
 62
7
  6
CONTINUOUS
 70
0
 71
3
 72
26
 73
22
 74
0
 42
0.0000001
 43
0.0000001
 44
0.0000000001
 40
0.0
 40
0.0
 40
0.0
 40
0.0
 40
0.0879740516
 40
0.1726756708
 40
0.2539496032
 40
0.3316661544
 40
0.4057252502
 40
0.4760611182
 40
0.542648003
 40
0.6055071761
 40
0.6647154691
 40
0.7204154459
 40
0.7728269785
 40
0.8222593594
 40
0.8691219014
 40
0.8917577745
 40
0.9139531
 40
0.9357878603
 40
0.9573472159
 40
0.9787205042
 40
1.0
 40
1.0
 40
1.0
 40
1.0
 10
15.374619731
 20
13.1906908957
 30
0.0
 10
15.37949626
 20
13.2064713494
 30
0.0
 10
15.389563622
 20
13.2372952762
 30
0.0
 10
15.4059440791
 20
13.2820817478
 30
0.0
 10
15.4232773169
 20
13.3244363525
 30
0.0
 10
15.4415088537
 20
13.3642259534
 30
0.0
 10
15.4605819382
 20
13.4013265373
 30
0.0
 10
15.4804376205
 20
13.435622659
 30
0.0
 10
15.5010152672
 20
13.4670079858
 30
0.0
 10
15.5222530075
 20
13.4953853823
 30
0.0
 10
15.5440884447
 20
13.5206668941
 30
0.0
 10
15.5664586931
 20
13.5427731696
 30
0.0
 10
15.5893022889
 20
13.5616330274
 30
0.0
 10
15.61255313
 20
13.5771803255
 30
0.0
 10
15.6324488619
 20
13.5874448002
 30
0.0
 10
15.6484356758
 20
13.5938585589
 30
0.0
 10
15.6603395494
 20
13.5977561651
 30
0.0
 10
15.6722835841
 20
13.60079155
 30
0.0
 10
15.6842584876
 20
13.6029619514
 30
0.0
 10
15.6962532648
 20
13.6042650891
 30
0.0
 10
15.7042641371
 20
13.6045549943
 30
0.0
 10
15.7082592726
 20
13.6045549927
 30
0.0
  0
SPLINE
  5
2EE
100
AcDbEntity
  8
02___PRT_ALL_AXES
100
AcDbSpline
 62
7
  6
CONTINUOUS
 70
0
 71
3
 72
24
 73
20
 74
0
 42
0.0000001
 43
0.0000001
 44
0.0000000001
 40
0.0
 40
0.0
 40
0.0
 40
0.0
 40
0.0837691096
 40
0.1649049933
 40
0.2432972041
 40
0.3188487788
 40
0.3914796511
 40
0.4611281741
 40
0.5277538026
 40
0.5913400597
 40
0.6518980962
 40
0.7094709094
 40
0.7641382688
 40
0.8160223285
 40
0.8652937018
 40
0.9121775215
 40
0.9569585843
 40
0.9786743724
 40
1.0
 40
1.0
 40
1.0
 40
1.0
 10
15.2719731429
 20
13.39986265
 30
0.0
 10
15.2774308394
 20
13.4175237626
 30
0.0
 10
15.2886509788
 20
13.4521461758
 30
0.0
 10
15.306705386
 20
13.5027158051
 30
0.0
 10
15.3256827877
 20
13.5510044614
 30
0.0
 10
15.3455396114
 20
13.5969012149
 30
0.0
 10
15.3662304846
 20
13.640301284
 30
0.0
 10
15.3877083368
 20
13.681105676
 30
0.0
 10
15.4099245653
 20
13.7192215338
 30
0.0
 10
15.4328292695
 20
13.7545622808
 30
0.0
 10
15.4563715144
 20
13.7870477499
 30
0.0
 10
15.4804995732
 20
13.8166042022
 30
0.0
 10
15.5051613135
 20
13.8431642682
 30
0.0
 10
15.5303040337
 20
13.8666665555
 30
0.0
 10
15.5558757778
 20
13.8870556461
 30
0.0
 10
15.5818206469
 20
13.9042798445
 30
0.0
 10
15.6039365284
 20
13.9160786306
 30
0.0
 10
15.6217107837
 20
13.9238206103
 30
0.0
 10
15.6306172172
 20
13.9271368867
 30
0.0
 10
15.6350720964
 20
13.9286532641
 30
0.0
  0
SPLINE
  5
2EF
100
AcDbEntity
  8
LAYER_FEATURE
100
AcDbSpline
 62
7
  6
CONTINUOUS
 70
0
 71
3
 72
52
 73
48
 74
0
 42
0.0000001
 43
0.0000001
 44
0.0000000001
 40
0.0
 40
0.0
 40
0.0
 40
0.0
 40
0.0383102988
 40
0.0772423358
 40
0.1166781383
 40
0.1564966634
 40
0.1965748484
 40
0.2367882315
 40
0.2770116271
 40
0.3171197956
 40
0.3569881134
 40
0.3964932521
 40
0.4355138552
 40
0.4739312454
 40
0.5116301323
 40
0.5484993747
 40
0.5844327557
 40
0.6193298452
 40
0.6530969047
 40
0.6856479308
 40
0.7169058015
 40
0.7320292877
 40
0.7468053525
 40
0.7612275037
 40
0.7752901093
 40
0.7889884719
 40
0.8023188985
 40
0.8152787868
 40
0.8278667254
 40
0.8400826087
 40
0.8519277485
 40
0.8634050068
 40
0.8745189468
 40
0.8852760018
 40
0.8956846409
 40
0.9057555531
 40
0.9155018411
 40
0.9249392175
 40
0.9340861744
 40
0.9429641325
 40
0.9515975452
 40
0.960013937
 40
0.9682438343
 40
0.9763205821
 40
0.9842800264
 40
0.9921600548
 40
1.0
 40
1.0
 40
1.0
 40
1.0
 10
14.7100731338
 20
13.0666825163
 30
0.0
 10
14.7056602187
 20
13.0373310101
 30
0.0
 10
14.6975533907
 20
12.9780300749
 30
0.0
 10
14.6876006548
 20
12.8881727091
 30
0.0
 10
14.6797817415
 20
12.7969314129
 30
0.0
 10
14.6741255326
 20
12.704641324
 30
0.0
 10
14.6706528872
 20
12.6116405637
 30
0.0
 10
14.6693765629
 20
12.5182701369
 30
0.0
 10
14.6703013064
 20
12.424872338
 30
0.0
 10
14.6734236656
 20
12.3317895847
 30
0.0
 10
14.6787321796
 20
12.2393631205
 30
0.0
 10
14.6862072453
 20
12.1479317508
 30
0.0
 10
14.6958213646
 20
12.0578305851
 30
0.0
 10
14.707539079
 20
11.9693897826
 30
0.0
 10
14.7213172703
 20
11.8829333237
 30
0.0
 10
14.7371051658
 20
11.798777794
 30
0.0
 10
14.7548446994
 20
11.7172311653
 30
0.0
 10
14.7744705753
 20
11.6385917433
 30
0.0
 10
14.7959107604
 20
11.5631465685
 30
0.0
 10
14.8190864028
 20
11.4911719642
 30
0.0
 10
14.8399989018
 20
11.4336865208
 30
0.0
 10
14.8575663058
 20
11.3896777682
 30
0.0
 10
14.8709761227
 20
11.3580625288
 30
0.0
 10
14.8847525003
 20
11.3275045951
 30
0.0
 10
14.8988829692
 20
11.298031824
 30
0.0
 10
14.9133545813
 20
11.2696711747
 30
0.0
 10
14.928154144
 20
11.2424485513
 30
0.0
 10
14.9432681826
 20
11.2163888218
 30
0.0
 10
14.9586829684
 20
11.1915157796
 30
0.0
 10
14.9743845104
 20
11.1678521105
 30
0.0
 10
14.9903586064
 20
11.1454193978
 30
0.0
 10
15.0065908571
 20
11.1242381142
 30
0.0
 10
15.0230666868
 20
11.104327607
 30
0.0
 10
15.0397713363
 20
11.08570607
 30
0.0
 10
15.056689912
 20
11.0683905731
 30
0.0
 10
15.0738073933
 20
11.0523970753
 30
0.0
 10
15.0911086419
 20
11.0377404368
 30
0.0
 10
15.1085783696
 20
11.0244344017
 30
0.0
 10
15.126201152
 20
11.0124916541
 30
0.0
 10
15.1439613864
 20
11.0019238395
 30
0.0
 10
15.1618432444
 20
10.9927415716
 30
0.0
 10
15.1798305651
 20
10.9849543619
 30
0.0
 10
15.1979068563
 20
10.9785706104
 30
0.0
 10
15.2160550478
 20
10.973597516
 30
0.0
 10
15.2342581052
 20
10.9700409441
 30
0.0
 10
15.2524966827
 20
10.9679052226
 30
0.0
 10
15.2646812041
 20
10.9674299925
 30
0.0
 10
15.2707553005
 20
10.9674299999
 30
0.0
  0
SPLINE
  5
2F0
100
AcDbEntity
  8
LAYER_FEATURE
100
AcDbSpline
 62
7
  6
CONTINUOUS
 70
0
 71
3
 72
12
 73
8
 74
0
 42
0.0000001
 43
0.0000001
 44
0.0000000001
 40
0.0
 40
0.0
 40
0.0
 40
0.0
 40
0.1126607354
 40
0.2333806489
 40
0.4903500916
 40
0.7523504178
 40
1.0
 40
1.0
 40
1.0
 40
1.0
 10
14.8140486095
 20
13.514082357
 30
0.0
 10
14.8139354472
 20
13.5137161635
 30
0.0
 10
14.8137345869
 20
13.5129469636
 30
0.0
 10
14.8134310491
 20
13.5113055606
 30
0.0
 10
14.8132448893
 20
13.5091312325
 30
0.0
 10
14.8133155756
 20
13.5065194352
 30
0.0
 10
14.8135643724
 20
13.5047975347
 30
0.0
 10
14.8137468099
 20
13.5039750028
 30
0.0
  0
SPLINE
  5
2F1
100
AcDbEntity
  8
LAYER_FEATURE
100
AcDbSpline
 62
7
  6
CONTINUOUS
 70
0
 71
3
 72
11
 73
7
 74
0
 42
0.0000001
 43
0.0000001
 44
0.0000000001
 40
0.0
 40
0.0
 40
0.0
 40
0.0
 40
0.2553250409
 40
0.5118768144
 40
0.7624153647
 40
1.0
 40
1.0
 40
1.0
 40
1.0
 10
14.8213686192
 20
13.4457078604
 30
0.0
 10
14.8216041911
 20
13.4484953016
 30
0.0
 10
14.8218687459
 20
13.4541029605
 30
0.0
 10
14.8216740497
 20
13.4624605568
 30
0.0
 10
14.8208993403
 20
13.4705894289
 30
0.0
 10
14.8199814961
 20
13.4758655046
 30
0.0
 10
14.8194178462
 20
13.4784067576
 30
0.0
  0
SPLINE
  5
2F2
100
AcDbEntity
  8
02___PRT_ALL_AXES
100
AcDbSpline
 62
7
  6
CONTINUOUS
 70
0
 71
3
 72
20
 73
16
 74
0
 42
0.0000001
 43
0.0000001
 44
0.0000000001
 40
0.0
 40
0.0
 40
0.0
 40
0.0
 40
0.1741644219
 40
0.3347397139
 40
0.4804778084
 40
0.5475728439
 40
0.6107690488
 40
0.6701129487
 40
0.7257220186
 40
0.7777992056
 40
0.8266486636
 40
0.8726896264
 40
0.9164664949
 40
0.9586469497
 40
1.0
 40
1.0
 40
1.0
 40
1.0
 10
15.7586329955
 20
13.1219609567
 30
0.0
 10
15.7580953025
 20
13.1239567238
 30
0.0
 10
15.7569424229
 20
13.1277622868
 30
0.0
 10
15.7548870941
 20
13.1330870158
 30
0.0
 10
15.7529293363
 20
13.1370718174
 30
0.0
 10
15.7512415243
 20
13.1398813845
 30
0.0
 10
15.74996444
 20
13.1417364677
 30
0.0
 10
15.7486456385
 20
13.1433914329
 30
0.0
 10
15.7472893875
 20
13.1448403552
 30
0.0
 10
15.7459000334
 20
13.1460779251
 30
0.0
 10
15.744481894
 20
13.1470993609
 30
0.0
 10
15.7430394085
 20
13.1479002013
 30
0.0
 10
15.7415772179
 20
13.1484762306
 30
0.0
 10
15.7401013756
 20
13.1488237274
 30
0.0
 10
15.739108373
 20
13.1489014474
 30
0.0
 10
15.7386176077
 20
13.148901447
 30
0.0
  0
SPLINE
  5
2F3
100
AcDbEntity
  8
LAYER_FEATURE
100
AcDbSpline
 62
7
  6
CONTINUOUS
 70
0
 71
3
 72
36
 73
32
 74
0
 42
0.0000001
 43
0.0000001
 44
0.0000000001
 40
0.0
 40
0.0
 40
0.0
 40
0.0
 40
0.0879647301
 40
0.1726570648
 40
0.2539222764
 40
0.2932301914
 40
0.3316350098
 40
0.3691252116
 40
0.4056913988
 40
0.4413264641
 40
0.4760258261
 40
0.5097875916
 40
0.542612777
 40
0.5745056085
 40
0.6054737773
 40
0.6355287187
 40
0.6646859772
 40
0.6929655693
 40
0.7203923177
 40
0.746996252
 40
0.7728130251
 40
0.7978842365
 40
0.8222577519
 40
0.8459879813
 40
0.8691359833
 40
0.8917694219
 40
0.9139623571
 40
0.9357947692
 40
0.9573518063
 40
0.9787227939
 40
1.0
 40
1.0
 40
1.0
 40
1.0
 10
14.7603458737
 20
13.5263602786
 30
0.0
 10
14.7676300267
 20
13.5499318061
 30
0.0
 10
14.7826678162
 20
13.5959740798
 30
0.0
 10
14.8071354161
 20
13.6628716612
 30
0.0
 10
14.8289464248
 20
13.7161687749
 30
0.0
 10
14.8471174001
 20
13.7568896831
 30
0.0
 10
14.8609200565
 20
13.7861069993
 30
0.0
 10
14.8750370332
 20
13.8143165126
 30
0.0
 10
14.889457345
 20
13.8414960893
 30
0.0
 10
14.9041696483
 20
13.8676242897
 30
0.0
 10
14.919162384
 20
13.8926805641
 30
0.0
 10
14.9344237997
 20
13.9166451977
 30
0.0
 10
14.9499419846
 20
13.9394993213
 30
0.0
 10
14.9657048194
 20
13.9612249638
 30
0.0
 10
14.9817000249
 20
13.9818050437
 30
0.0
 10
14.9979152052
 20
14.0012233435
 30
0.0
 10
15.0143378204
 20
14.0194645488
 30
0.0
 10
15.0309551864
 20
14.036514265
 30
0.0
 10
15.0477545366
 20
14.0523589609
 30
0.0
 10
15.0647230105
 20
14.0669859719
 30
0.0
 10
15.0818476037
 20
14.080383553
 30
0.0
 10
15.0991152209
 20
14.092540799
 30
0.0
 10
15.1165126576
 20
14.1034476171
 30
0.0
 10
15.1340265162
 20
14.1130948093
 30
0.0
 10
15.1516432114
 20
14.1214740303
 30
0.0
 10
15.1693489279
 20
14.1285777612
 30
0.0
 10
15.1871295806
 20
14.1343994297
 30
0.0
 10
15.2049706416
 20
14.1389334943
 30
0.0
 10
15.2228577018
 20
14.142175449
 30
0.0
 10
15.2407744801
 20
14.1441219475
 30
0.0
 10
15.2527404324
 20
14.1445549896
 30
0.0
 10
15.2587080233
 20
14.1445549837
 30
0.0
  0
SPLINE
  5
2F4
100
AcDbEntity
  8
02___PRT_ALL_AXES
100
AcDbSpline
 62
7
  6
CONTINUOUS
 70
0
 71
3
 72
35
 73
31
 74
0
 42
0.0000001
 43
0.0000001
 44
0.0000000001
 40
0.0
 40
0.0
 40
0.0
 40
0.0
 40
0.0208351043
 40
0.0428606307
 40
0.0660784277
 40
0.090476362
 40
0.1160307931
 40
0.1427079727
 40
0.1704654448
 40
0.1992531387
 40
0.2290143096
 40
0.2596863409
 40
0.291201449
 40
0.3234873095
 40
0.3564676236
 40
0.3900626398
 40
0.4241896413
 40
0.4587634079
 40
0.5288962498
 40
0.599750184
 40
0.6705968636
 40
0.7407080705
 40
0.7752657411
 40
0.8093732189
 40
0.842945374
 40
0.875899602
 40
0.908156263
 40
0.9396392665
 40
0.9702762752
 40
1.0
 40
1.0
 40
1.0
 40
1.0
 10
15.9197611677
 20
13.0680889102
 30
0.0
 10
15.9238629381
 20
13.062740986
 30
0.0
 10
15.9319305721
 20
13.0514520633
 30
0.0
 10
15.9433238985
 20
13.0333543772
 30
0.0
 10
15.9543115539
 20
13.0136769389
 30
0.0
 10
15.9648603591
 20
12.9924794007
 30
0.0
 10
15.9749391597
 20
12.9698248738
 30
0.0
 10
15.9845176841
 20
12.9457813599
 30
0.0
 10
15.9935671096
 20
12.9204211088
 30
0.0
 10
16.0020600849
 20
12.8938205068
 30
0.0
 10
16.0099708865
 20
12.8660597959
 30
0.0
 10
16.0172755145
 20
12.8372228252
 30
0.0
 10
16.0239517832
 20
12.8073967767
 30
0.0
 10
16.0299793964
 20
12.7766718937
 30
0.0
 10
16.0353400282
 20
12.7451411762
 30
0.0
 10
16.0400173417
 20
12.7129001652
 30
0.0
 10
16.0439972017
 20
12.6800463598
 30
0.0
 10
16.0483777439
 20
12.6353470274
 30
0.0
 10
16.0520166982
 20
12.5786529579
 30
0.0
 10
16.0534521447
 20
12.5101230313
 30
0.0
 10
16.0519585811
 20
12.4416013425
 30
0.0
 10
16.0482713749
 20
12.384924952
 30
0.0
 10
16.0438525591
 20
12.3402479927
 30
0.0
 10
16.0398447424
 20
12.3074166385
 30
0.0
 10
16.0351399989
 20
12.2752019977
 30
0.0
 10
16.0297525424
 20
12.2437014851
 30
0.0
 10
16.0236988041
 20
12.2130105621
 30
0.0
 10
16.016997152
 20
12.1832220624
 30
0.0
 10
16.0096680834
 20
12.1544264398
 30
0.0
 10
16.0042932793
 20
12.1356513507
 30
0.0
 10
16.0014992337
 20
12.1264511553
 30
0.0
  0
SPLINE
  5
2F5
100
AcDbEntity
  8
02___PRT_ALL_AXES
100
AcDbSpline
 62
7
  6
CONTINUOUS
 70
0
 71
3
 72
16
 73
12
 74
0
 42
0.0000001
 43
0.0000001
 44
0.0000000001
 40
0.0
 40
0.0
 40
0.0
 40
0.0
 40
0.1526259657
 40
0.2972752543
 40
0.4338296764
 40
0.5622777418
 40
0.682740307
 40
0.7400701641
 40
0.7955233457
 40
0.9010374578
 40
1.0
 40
1.0
 40
1.0
 40
1.0
 10
15.9695141534
 20
12.0396978396
 30
0.0
 10
15.9658684201
 20
12.0315360665
 30
0.0
 10
15.9584109717
 20
12.0157944404
 30
0.0
 10
15.946375921
 20
11.9934037175
 30
0.0
 10
15.9338291053
 20
11.97293602
 30
0.0
 10
15.9208160885
 20
11.954467638
 30
0.0
 10
15.9094386358
 20
11.9405763066
 30
0.0
 10
15.9001317107
 20
11.9305709572
 30
0.0
 10
15.8910152185
 20
11.9216019741
 30
0.0
 10
15.8794272546
 20
11.9116898652
 30
0.0
 10
15.8695156853
 20
11.9049125485
 30
0.0
 10
15.8645351884
 20
11.9019479561
 30
0.0
  0
SPLINE
  5
2F6
100
AcDbEntity
  8
02___PRT_ALL_AXES
100
AcDbSpline
 62
7
  6
CONTINUOUS
 70
0
 71
3
 72
12
 73
8
 74
0
 42
0.0000001
 43
0.0000001
 44
0.0000000001
 40
0.0
 40
0.0
 40
0.0
 40
0.0
 40
0.2506851007
 40
0.5009326943
 40
0.6258862019
 40
0.750720948
 40
1.0
 40
1.0
 40
1.0
 40
1.0
 10
15.6115771504
 20
12.1479264814
 30
0.0
 10
15.6441830188
 20
12.1465952109
 30
0.0
 10
15.7093287988
 20
12.1437084064
 30
0.0
 10
15.7906978401
 20
12.1395411625
 30
0.0
 10
15.8556862015
 20
12.1358604263
 30
0.0
 10
15.9205346858
 20
12.1319483205
 30
0.0
 10
15.9691295582
 20
12.1287329759
 30
0.0
 10
16.0014992337
 20
12.1264511553
 30
0.0
  0
SPLINE
  5
2F7
100
AcDbEntity
  8
02___PRT_ALL_AXES
100
AcDbSpline
 62
7
  6
CONTINUOUS
 70
0
 71
3
 72
22
 73
18
 74
0
 42
0.0000001
 43
0.0000001
 44
0.0000000001
 40
0.0
 40
0.0
 40
0.0
 40
0.0
 40
0.0351116731
 40
0.0716803468
 40
0.1109605593
 40
0.1538966853
 40
0.201117005
 40
0.2529803694
 40
0.3096330245
 40
0.3710572205
 40
0.4371081129
 40
0.5075408079
 40
0.5820303111
 40
0.6601866809
 40
0.7415670203
 40
0.8256854217
 40
1.0
 40
1.0
 40
1.0
 40
1.0
 10
15.8405334792
 20
11.8498116117
 30
0.0
 10
15.8412490828
 20
11.8498116112
 30
0.0
 10
15.8427148629
 20
11.8499803453
 30
0.0
 10
15.8448658299
 20
11.8507269614
 30
0.0
 10
15.8469688849
 20
11.8519521608
 30
0.0
 10
15.8490097518
 20
11.8536387021
 30
0.0
 10
15.850978119
 20
11.8557706134
 30
0.0
 10
15.8528625673
 20
11.858331369
 30
0.0
 10
15.8546510339
 20
11.8613022212
 30
0.0
 10
15.8563310682
 20
11.8646614458
 30
0.0
 10
15.8578904201
 20
11.8683841892
 30
0.0
 10
15.8593174
 20
11.8724425892
 30
0.0
 10
15.860601153
 20
11.8768060217
 30
0.0
 10
15.8617318085
 20
11.8814413271
 30
0.0
 10
15.8627007148
 20
11.8863132996
 30
0.0
 10
15.8637793814
 20
11.8931557403
 30
0.0
 10
15.8643030595
 20
11.898402879
 30
0.0
 10
15.8645351884
 20
11.9019479561
 30
0.0
  0
ENDSEC
  0
SECTION
  2
OBJECTS
  0
DICTIONARY
  5
C
100
AcDbDictionary
280
0
281
1
  3
ACAD_GROUP
350
D
  3
ACAD_MLINESTYLE
350
17
  3
ACAD_LAYOUT
350
1A
  3
ACAD_PLOTSETTINGS
350
19
  3
ACAD_PLOTSTYLENAME
350
E
  0
DICTIONARY
  5
D
102
{ACAD_REACTORS
330
C
102
}
100
AcDbDictionary
280
0
281
1
  0
ACDBDICTIONARYWDFLT
  5
E
102
{ACAD_REACTORS
330
C
102
}
100
AcDbDictionary
281
1
  3
Normal
350
F
100
AcDbDictionaryWithDefault
340
F
  0
DICTIONARY
  5
17
102
{ACAD_REACTORS
330
C
102
}
100
AcDbDictionary
280
0
281
1
  3
Standard
350
18
  0
DICTIONARY
  5
19
102
{ACAD_REACTORS
330
C
102
}
100
AcDbDictionary
281
1
  0
DICTIONARY
  5
1A
102
{ACAD_REACTORS
330
C
102
}
100
AcDbDictionary
281
1
  3
Model
350
2F8
  3
Layout1
350
2F9
  0
ACDBPLACEHOLDER
  5
F
102
{ACAD_REACTORS
330
E
102
}
  0
MLINESTYLE
  5
18
102
{ACAD_REACTORS
330
17
102
}
100
AcDbMlineStyle
  2
STANDARD
 70
0
  3

 62
256
 51
90.0
 52
90.0
 71
2
 49
0.5
 62
256
  6
BYLAYER
 49
-0.5
 62
256
  6
BYLAYER
  0
LAYOUT
  5
2F8
102
{ACAD_REACTORS
330
1A
102
}
100
AcDbPlotSettings
  1

  2
none_device
  4
ANSI_C_(22.00_x_17.00_Inches)
  6

 40
0.0
 41
0.0
 42
0.0
 43
0.0
 44
558.8
 45
431.8
 46
0.0
 47
0.0
 48
0.0
 49
0.0
140
0.0
141
0.0
142
1.0
143
1.0
 70
1024
 72
0
 73
0
 74
0
  7

 75
0
147
1.0
148
0.0
149
0.0
100
AcDbLayout
  1
Model
 70
0
 71
0
 10
0.0
 20
0.0
 11
22.0
 21
17.0
 12
0.0
 22
0.0
 32
0.0
 14
0.0
 24
0.0
 34
0.0
 15
0.0
 25
0.0
 35
0.0
146
0.0
 13
0.0
 23
0.0
 33
0.0
 16
1.0
 26
0.0
 36
0.0
 17
0.0
 27
1.0
 37
0.0
 76
0
330
222
345
0
346
0
  0
LAYOUT
  5
2F9
102
{ACAD_REACTORS
330
1A
102
}
100
AcDbPlotSettings
  1

  2
none_device
  4
ANSI_C_(22.00_x_17.00_Inches)
  6

 40
0.0
 41
0.0
 42
0.0
 43
0.0
 44
558.8
 45
431.8
 46
0.0
 47
0.0
 48
0.0
 49
0.0
140
0.0
141
0.0
142
1.0
143
1.0
 70
0
 72
0
 73
0
 74
0
  7

 75
0
147
1.0
148
0.0
149
0.0
100
AcDbLayout
  1
Layout1
 70
0
 71
1
 10
0.0
 20
0.0
 11
22.0
 21
17.0
 12
0.0
 22
0.0
 32
0.0
 14
0.0
 24
0.0
 34
0.0
 15
0.0
 25
0.0
 35
0.0
146
0.0
 13
0.0
 23
0.0
 33
0.0
 16
1.0
 26
0.0
 36
0.0
 17
0.0
 27
1.0
 37
0.0
 76
0
330
223
345
0
346
0
  0
ENDSEC
  0
EOF