999
DXF file: _cgs_temp_output.dxf
999
Pro/ENGINEER 2016360 by Parametric Technology Corporation
  0
SECTION
  2
HEADER
  9
$ACADVER
  1
AC1021
  9
$DWGCODEPAGE
  3
ANSI_1252
  9
$EXTMAX
 10
22.0
 20
17.0
 30
0.0
  9
$EXTMIN
 10
0.0
 20
0.0
 30
0.0
  9
$LIMMIN
 10
0.0
 20
0.0
  9
$LIMMAX
 10
22.0
 20
17.0
  9
$VIEWCTR
 10
11.0
 20
8.5
  9
$VIEWSIZE
 40
17.0
  9
$CLAYER
  8
0
  9
$LTSCALE
 40
1.21
  9
$CELTYPE
  6
BYLAYER
  9
$DIMSCALE
 40
1.0
  9
$DIMASZ
 40
0.1875
  9
$DIMEXO
 40
0.0625
  9
$DIMDLI
 40
0.836
  9
$DIMEXE
 40
0.125
  9
$DIMCEN
 40
0.198
  9
$DIMLFAC
 40
1.0
  9
$DIMBLK
  1
_CLOSED
  9
$DIMALT
 70
0
  9
$DIMALTF
 40
25.4
  9
$DIMTXT
 40
0.15625
  9
$DIMTOL
 70
0
  9
$DIMLIM
 70
0
  9
$DIMTFAC
 40
1.0
  9
$DIMGAP
 40
0.09
  9
$DIMDSEP
 70
46
  9
$AUNITS
 70
0
  9
$PDMODE
 70
3
  9
$PDSIZE
 40
0.3125
  9
$HANDSEED
  5
2EA
  9
$TILEMODE
 70
1
  9
$MEASUREMENT
 70
0
  9
$INSUNITS
 70
1
  0
ENDSEC
  0
SECTION
  2
CLASSES
  0
CLASS
  1
ACDBDICTIONARYWDFLT
  2
AcDbDictionaryWithDefault
  3
AutoCAD 2000
 90
0
 91
1
280
0
281
0
  0
CLASS
  1
ACDBPLACEHOLDER
  2
AcDbPlaceHolder
  3
AutoCAD 2000
 90
0
 91
1
280
0
281
0
  0
CLASS
  1
LAYOUT
  2
AcDbLayout
  3
AutoCAD 2000
 90
0
 91
0
280
0
281
0
  0
ENDSEC
  0
SECTION
  2
TABLES
  0
TABLE
  2
VPORT
  5
8
100
AcDbSymbolTable
 70
2
  0
VPORT
  5
1F4
100
AcDbSymbolTableRecord
100
AcDbViewportTableRecord
  2
*ACTIVE
 70
0
 10
0.0
 20
0.0
 11
1.0
 21
1.0
 12
11.0
 22
8.5
 13
0.0
 23
0.0
 14
1.0
 24
1.0
 15
0.0
 25
0.0
 16
0.0
 26
0.0
 36
1.0
 17
0.0
 27
0.0
 37
0.0
 40
17.0
 41
1.2941176471
 42
50.0
 43
0.0
 44
0.0
 50
0.0
 51
0.0
 71
0
 72
100
 73
1
 74
1
 75
0
 76
0
 77
0
 78
0
  0
ENDTAB
  0
TABLE
  2
LTYPE
  5
5
100
AcDbSymbolTable
 70
6
  0
LTYPE
  5
14
100
AcDbSymbolTableRecord
100
AcDbLinetypeTableRecord
  2
BYBLOCK
 70
0
  3

 72
65
 73
0
 40
0.0
  0
LTYPE
  5
15
100
AcDbSymbolTableRecord
100
AcDbLinetypeTableRecord
  2
BYLAYER
 70
0
  3

 72
65
 73
0
 40
0.0
  0
LTYPE
  5
16
100
AcDbSymbolTableRecord
100
AcDbLinetypeTableRecord
  2
CONTINUOUS
 70
64
  3
Solid line
 72
65
 73
0
 40
0.0
  0
LTYPE
  5
1F5
100
AcDbSymbolTableRecord
100
AcDbLinetypeTableRecord
  2
CENTER
 70
64
  3
____ _ ____ _ ____ _ ____ _ ____ _ ____ _ ____
 72
65
 73
4
 40
0.6
 49
0.375
 74
0
 49
-0.075
 74
0
 49
0.075
 74
0
 49
-0.075
 74
0
  0
LTYPE
  5
1F6
100
AcDbSymbolTableRecord
100
AcDbLinetypeTableRecord
  2
HIDDEN
 70
64
  3
- - - - - - - - - - - - - - - - - - - -
 72
65
 73
2
 40
0.2
 49
0.1
 74
0
 49
-0.1
 74
0
  0
LTYPE
  5
1F7
100
AcDbSymbolTableRecord
100
AcDbLinetypeTableRecord
  2
PHANTOM
 70
64
  3
_____ _ _ _____ _ _ _____ _ _ _____
 72
65
 73
6
 40
0.8
 49
0.45
 74
0
 49
-0.05
 74
0
 49
0.1
 74
0
 49
-0.05
 74
0
 49
0.1
 74
0
 49
-0.05
 74
0
  0
LTYPE
  5
1F8
100
AcDbSymbolTableRecord
100
AcDbLinetypeTableRecord
  2
DOT
 70
64
  3
. . . . . . . . . . . . . . . . . . . .
 72
65
 73
2
 40
0.2
 49
0.1
 74
0
 49
-0.1
 74
0
  0
LTYPE
  5
1F9
100
AcDbSymbolTableRecord
100
AcDbLinetypeTableRecord
  2
DASHED
 70
64
  3
- - - - - - - - - - - - - - - - - - - -
 72
65
 73
2
 40
0.2
 49
0.1
 74
0
 49
-0.1
 74
0
  0
ENDTAB
  0
TABLE
  2
LAYER
  5
2
100
AcDbSymbolTable
 70
36
  0
LAYER
  5
10
100
AcDbSymbolTableRecord
100
AcDbLayerTableRecord
  2
0
 70
0
 62
7
  6
CONTINUOUS
370
-3
390
F
  0
LAYER
  5
1FA
100
AcDbSymbolTableRecord
100
AcDbLayerTableRecord
  2
DEFAULT_1
 70
0
 62
7
  6
CENTER
370
-3
390
F
  0
LAYER
  5
1FB
100
AcDbSymbolTableRecord
100
AcDbLayerTableRecord
  2
DEFAULT_2
 70
0
 62
8
  6
HIDDEN
370
-3
390
F
  0
LAYER
  5
1FC
100
AcDbSymbolTableRecord
100
AcDbLayerTableRecord
  2
DEFAULT_3
 70
0
 62
7
  6
PHANTOM
370
-3
390
F
  0
LAYER
  5
1FD
100
AcDbSymbolTableRecord
100
AcDbLayerTableRecord
  2
01_ALL_DTM_PLN
 70
0
 62
7
  6
CONTINUOUS
370
-3
390
F
  0
LAYER
  5
1FE
100
AcDbSymbolTableRecord
100
AcDbLayerTableRecord
  2
01__ASM_ALL_DTM_PLN
 70
0
 62
7
  6
CONTINUOUS
370
-3
390
F
  0
LAYER
  5
1FF
100
AcDbSymbolTableRecord
100
AcDbLayerTableRecord
  2
01__ASM_DEF_DTM_PLN
 70
0
 62
7
  6
CONTINUOUS
370
-3
390
F
  0
LAYER
  5
200
100
AcDbSymbolTableRecord
100
AcDbLayerTableRecord
  2
01___PRT_ALL_DTM_PLN
 70
0
 62
7
  6
CONTINUOUS
370
-3
390
F
  0
LAYER
  5
201
100
AcDbSymbolTableRecord
100
AcDbLayerTableRecord
  2
01___PRT_DEF_DTM_PLN
 70
0
 62
7
  6
CONTINUOUS
370
-3
390
F
  0
LAYER
  5
202
100
AcDbSymbolTableRecord
100
AcDbLayerTableRecord
  2
02_ALL_AXES
 70
0
 62
7
  6
CONTINUOUS
370
-3
390
F
  0
LAYER
  5
203
100
AcDbSymbolTableRecord
100
AcDbLayerTableRecord
  2
02__ASM_ALL_AXES
 70
0
 62
7
  6
CONTINUOUS
370
-3
390
F
  0
LAYER
  5
204
100
AcDbSymbolTableRecord
100
AcDbLayerTableRecord
  2
02___PRT_ALL_AXES
 70
0
 62
7
  6
CONTINUOUS
370
-3
390
F
  0
LAYER
  5
205
100
AcDbSymbolTableRecord
100
AcDbLayerTableRecord
  2
03_ALL_CURVES
 70
0
 62
7
  6
CONTINUOUS
370
-3
390
F
  0
LAYER
  5
206
100
AcDbSymbolTableRecord
100
AcDbLayerTableRecord
  2
03__ASM_ALL_CURVES
 70
0
 62
7
  6
CONTINUOUS
370
-3
390
F
  0
LAYER
  5
207
100
AcDbSymbolTableRecord
100
AcDbLayerTableRecord
  2
03___PRT_ALL_CURVES
 70
0
 62
7
  6
CONTINUOUS
370
-3
390
F
  0
LAYER
  5
208
100
AcDbSymbolTableRecord
100
AcDbLayerTableRecord
  2
04_ALL_DTM_PNT
 70
0
 62
7
  6
CONTINUOUS
370
-3
390
F
  0
LAYER
  5
209
100
AcDbSymbolTableRecord
100
AcDbLayerTableRecord
  2
04__ASM_ALL_DTM_PNT
 70
0
 62
7
  6
CONTINUOUS
370
-3
390
F
  0
LAYER
  5
20A
100
AcDbSymbolTableRecord
100
AcDbLayerTableRecord
  2
04___PRT_ALL_DTM_PNT
 70
0
 62
7
  6
CONTINUOUS
370
-3
390
F
  0
LAYER
  5
20B
100
AcDbSymbolTableRecord
100
AcDbLayerTableRecord
  2
05_ALL_DTM_CSYS
 70
0
 62
7
  6
CONTINUOUS
370
-3
390
F
  0
LAYER
  5
20C
100
AcDbSymbolTableRecord
100
AcDbLayerTableRecord
  2
05__ASM_ALL_DTM_CSYS
 70
0
 62
7
  6
CONTINUOUS
370
-3
390
F
  0
LAYER
  5
20D
100
AcDbSymbolTableRecord
100
AcDbLayerTableRecord
  2
05__ASM_DEF_DTM_CSYS
 70
0
 62
7
  6
CONTINUOUS
370
-3
390
F
  0
LAYER
  5
20E
100
AcDbSymbolTableRecord
100
AcDbLayerTableRecord
  2
05___PRT_ALL_DTM_CSYS
 70
0
 62
7
  6
CONTINUOUS
370
-3
390
F
  0
LAYER
  5
20F
100
AcDbSymbolTableRecord
100
AcDbLayerTableRecord
  2
05___PRT_DEF_DTM_CSYS
 70
0
 62
7
  6
CONTINUOUS
370
-3
390
F
  0
LAYER
  5
210
100
AcDbSymbolTableRecord
100
AcDbLayerTableRecord
  2
06_ALL_SURFS
 70
0
 62
7
  6
CONTINUOUS
370
-3
390
F
  0
LAYER
  5
211
100
AcDbSymbolTableRecord
100
AcDbLayerTableRecord
  2
06__ASM_ALL_SURFS
 70
0
 62
7
  6
CONTINUOUS
370
-3
390
F
  0
LAYER
  5
212
100
AcDbSymbolTableRecord
100
AcDbLayerTableRecord
  2
06___PRT_ALL_SURFS
 70
0
 62
7
  6
CONTINUOUS
370
-3
390
F
  0
LAYER
  5
213
100
AcDbSymbolTableRecord
100
AcDbLayerTableRecord
  2
07__ASM_ALL_SKELETONS
 70
0
 62
7
  6
CONTINUOUS
370
-3
390
F
  0
LAYER
  5
214
100
AcDbSymbolTableRecord
100
AcDbLayerTableRecord
  2
LAYER_AXIS
 70
0
 62
7
  6
CONTINUOUS
370
-3
390
F
  0
LAYER
  5
215
100
AcDbSymbolTableRecord
100
AcDbLayerTableRecord
  2
LAYER_CHAMFER_FEAT
 70
0
 62
7
  6
CONTINUOUS
370
-3
390
F
  0
LAYER
  5
216
100
AcDbSymbolTableRecord
100
AcDbLayerTableRecord
  2
LAYER_CUT_FEAT
 70
0
 62
7
  6
CONTINUOUS
370
-3
390
F
  0
LAYER
  5
217
100
AcDbSymbolTableRecord
100
AcDbLayerTableRecord
  2
LAYER_DATUM
 70
0
 62
7
  6
CONTINUOUS
370
-3
390
F
  0
LAYER
  5
218
100
AcDbSymbolTableRecord
100
AcDbLayerTableRecord
  2
LAYER_DIM
 70
0
 62
7
  6
CONTINUOUS
370
-3
390
F
  0
LAYER
  5
219
100
AcDbSymbolTableRecord
100
AcDbLayerTableRecord
  2
LAYER_FEATURE
 70
0
 62
7
  6
CONTINUOUS
370
-3
390
F
  0
LAYER
  5
21A
100
AcDbSymbolTableRecord
100
AcDbLayerTableRecord
  2
LAYER_GEOM_FEAT
 70
0
 62
7
  6
CONTINUOUS
370
-3
390
F
  0
LAYER
  5
21B
100
AcDbSymbolTableRecord
100
AcDbLayerTableRecord
  2
LAYER_NOGEOM_FEAT
 70
0
 62
7
  6
CONTINUOUS
370
-3
390
F
  0
LAYER
  5
21C
100
AcDbSymbolTableRecord
100
AcDbLayerTableRecord
  2
LAYER_PARAMETER_DIM
 70
0
 62
7
  6
CONTINUOUS
370
-3
390
F
  0
LAYER
  5
21D
100
AcDbSymbolTableRecord
100
AcDbLayerTableRecord
  2
LAYER_PROTRUSION_FEAT
 70
0
 62
7
  6
CONTINUOUS
370
-3
390
F
  0
LAYER
  5
21E
100
AcDbSymbolTableRecord
100
AcDbLayerTableRecord
  2
LAYER_QUILT
 70
0
 62
7
  6
CONTINUOUS
370
-3
390
F
  0
LAYER
  5
21F
100
AcDbSymbolTableRecord
100
AcDbLayerTableRecord
  2
LAYER_ROUND_FEAT
 70
0
 62
7
  6
CONTINUOUS
370
-3
390
F
  0
ENDTAB
  0
TABLE
  2
STYLE
  5
3
100
AcDbSymbolTable
 70
1
  0
STYLE
  5
11
100
AcDbSymbolTableRecord
100
AcDbTextStyleTableRecord
  2
STANDARD
 70
0
 40
0.0
 41
0.8
 50
0.0
 71
0
 42
0.2
  3
txt
  4

  0
STYLE
  5
220
100
AcDbSymbolTableRecord
100
AcDbTextStyleTableRecord
  2
TEXTSTYLE_1
 70
0
 40
0.0
 41
0.8
 50
0.0
 71
0
 42
0.2
  3
gdt
  4

  0
ENDTAB
  0
TABLE
  2
VIEW
  5
6
100
AcDbSymbolTable
 70
0
  0
ENDTAB
  0
TABLE
  2
UCS
  5
7
100
AcDbSymbolTable
 70
0
  0
ENDTAB
  0
TABLE
  2
APPID
  5
9
100
AcDbSymbolTable
 70
1
  0
APPID
  5
221
100
AcDbSymbolTableRecord
100
AcDbRegAppTableRecord
  2
ACAD
 70
0
  0
ENDTAB
  0
TABLE
  2
BLOCK_RECORD
  5
1
100
AcDbSymbolTable
 70
0
  0
BLOCK_RECORD
  5
222
100
AcDbSymbolTableRecord
100
AcDbBlockTableRecord
  2
*Model_Space
  0
BLOCK_RECORD
  5
223
100
AcDbSymbolTableRecord
100
AcDbBlockTableRecord
  2
*Paper_Space
  0
ENDTAB
  0
TABLE
  2
DIMSTYLE
  5
A
100
AcDbSymbolTable
 70
1
100
AcDbDimStyleTable
 71
0
  0
DIMSTYLE
105
224
100
AcDbSymbolTableRecord
100
AcDbDimStyleTableRecord
  2
STANDARD
 70
0
  3

  4

 40
1.0
 41
0.1875
 42
0.0625
 43
0.38
 44
0.125
 45
0.0
 46
0.0
 47
0.0001
 48
0.0001
140
0.15625
141
0.09
142
0.0
143
25.4
144
1.0
145
0.0
146
1.0
147
0.09
 71
0.0
 72
0.0
 73
1
 74
1
 75
0
 76
0
 77
0
 78
4
 79
1
170
0
171
3
172
0
173
0
174
0
175
0
176
0
177
0
178
0
270
2
179
4
271
4
272
4
273
2
274
2
275
0
280
0
281
0
282
0
283
1
284
4
285
0
286
0
287
3
288
0
340
11
278
46
  0
ENDTAB
  0
ENDSEC
  0
SECTION
  2
BLOCKS
  0
BLOCK
  5
20
100
AcDbEntity
  8
0
100
AcDbBlockBegin
  2
*Model_Space
 70
0
 10
0.0
 20
0.0
 30
0.0
  3
*Model_Space
  1

  0
ENDBLK
  5
21
100
AcDbEntity
  8
0
100
AcDbBlockEnd
  0
BLOCK
  5
1C
100
AcDbEntity
  8
0
100
AcDbBlockBegin
  2
*Paper_Space
 70
0
 10
0.0
 20
0.0
 30
0.0
  3
*Paper_Space
  1

  0
ENDBLK
  5
1D
100
AcDbEntity
  8
0
100
AcDbBlockEnd
  0
ENDSEC
  0
SECTION
  2
ENTITIES
  0
MTEXT
  5
225
100
AcDbEntity
  8
0
100
AcDbMText
 62
7
  6
CONTINUOUS
  7
STANDARD
 71
1
 72
1
 10
15.9560215477
 20
0.9479130325
 30
0.0
 11
1.0
 21
0.0
 31
0.0
 44
0.9
  1
SCALE: 1:0.250
 40
0.3
 41
3.36
  0
LINE
  5
226
100
AcDbEntity
  8
0
100
AcDbLine
 62
7
  6
CONTINUOUS
 10
0.0
 20
0.0
 11
0.0
 21
17.0
  0
LINE
  5
227
100
AcDbEntity
  8
0
100
AcDbLine
 62
7
  6
CONTINUOUS
 10
0.0
 20
0.0
 11
22.0
 21
0.0
  0
LINE
  5
228
100
AcDbEntity
  8
0
100
AcDbLine
 62
7
  6
CONTINUOUS
 10
0.0
 20
17.0
 11
22.0
 21
17.0
  0
LINE
  5
229
100
AcDbEntity
  8
0
100
AcDbLine
 62
7
  6
CONTINUOUS
 10
22.0
 20
0.0
 11
22.0
 21
17.0
  0
LINE
  5
22A
100
AcDbEntity
  8
LAYER_FEATURE
100
AcDbLine
 62
7
  6
CONTINUOUS
 10
6.6603672762
 20
4.0713698968
 11
6.6296970583
 21
4.0713698968
  0
LINE
  5
22B
100
AcDbEntity
  8
LAYER_FEATURE
100
AcDbLine
 62
7
  6
CONTINUOUS
 10
5.6003672762
 20
4.0713698968
 11
5.631037494
 21
4.0713698968
  0
LINE
  5
22C
100
AcDbEntity
  8
02___PRT_ALL_AXES
100
AcDbLine
 62
7
  6
CONTINUOUS
 10
5.6453672762
 20
4.1522448968
 11
6.6153672762
 21
4.1522448968
  0
LINE
  5
22D
100
AcDbEntity
  8
LAYER_FEATURE
100
AcDbLine
 62
7
  6
CONTINUOUS
 10
5.6003672762
 20
6.9688698968
 11
5.6003672762
 21
4.0713698968
  0
LINE
  5
22E
100
AcDbEntity
  8
LAYER_FEATURE
100
AcDbLine
 62
7
  6
CONTINUOUS
 10
5.631037494
 20
6.9688698968
 11
5.631037494
 21
4.0713698968
  0
LINE
  5
22F
100
AcDbEntity
  8
LAYER_FEATURE
100
AcDbLine
 62
7
  6
CONTINUOUS
 10
5.6453672762
 20
6.9014535722
 11
5.6453672762
 21
4.1387862213
  0
LINE
  5
230
100
AcDbEntity
  8
LAYER_FEATURE
100
AcDbLine
 62
7
  6
CONTINUOUS
 10
5.631037494
 20
4.0713698968
 11
5.6453672762
 21
4.1387862213
  0
LINE
  5
231
100
AcDbEntity
  8
LAYER_FEATURE
100
AcDbLine
 62
7
  6
CONTINUOUS
 10
5.631037494
 20
6.9688698968
 11
5.6453672762
 21
6.9014535722
  0
LINE
  5
232
100
AcDbEntity
  8
LAYER_FEATURE
100
AcDbLine
 62
7
  6
CONTINUOUS
 10
6.6296970583
 20
6.9688698968
 11
6.6153672762
 21
6.9014535722
  0
LINE
  5
233
100
AcDbEntity
  8
LAYER_FEATURE
100
AcDbLine
 62
7
  6
CONTINUOUS
 10
6.6296970583
 20
4.0713698968
 11
6.6153672762
 21
4.1387862213
  0
LINE
  5
234
100
AcDbEntity
  8
LAYER_FEATURE
100
AcDbLine
 62
7
  6
CONTINUOUS
 10
6.6153672762
 20
6.9014535722
 11
6.6153672762
 21
4.1387862213
  0
LINE
  5
235
100
AcDbEntity
  8
LAYER_FEATURE
100
AcDbLine
 62
7
  6
CONTINUOUS
 10
6.6296970583
 20
6.9688698968
 11
6.6296970583
 21
4.0713698968
  0
LINE
  5
236
100
AcDbEntity
  8
LAYER_FEATURE
100
AcDbLine
 62
7
  6
CONTINUOUS
 10
6.6603672762
 20
6.9688698968
 11
6.6603672762
 21
4.0713698968
  0
LINE
  5
237
100
AcDbEntity
  8
LAYER_FEATURE
100
AcDbLine
 62
7
  6
CONTINUOUS
 10
5.6453672762
 20
6.8093294847
 11
6.6153672762
 21
6.8093294847
  0
LINE
  5
238
100
AcDbEntity
  8
0
100
AcDbLine
 62
7
  6
CONTINUOUS
 10
5.6453672762
 20
6.8097352187
 11
6.6153672762
 21
6.8097352187
  0
LINE
  5
239
100
AcDbEntity
  8
LAYER_FEATURE
100
AcDbLine
 62
7
  6
CONTINUOUS
 10
5.6453672762
 20
6.8428578858
 11
6.6153672762
 21
6.8428578858
  0
LINE
  5
23A
100
AcDbEntity
  8
LAYER_FEATURE
100
AcDbLine
 62
7
  6
CONTINUOUS
 10
5.6453672762
 20
6.8484443141
 11
6.6153672762
 21
6.8484443141
  0
LINE
  5
23B
100
AcDbEntity
  8
0
100
AcDbLine
 62
7
  6
CONTINUOUS
 10
5.6453672762
 20
6.84862539
 11
6.6153672762
 21
6.84862539
  0
LINE
  5
23C
100
AcDbEntity
  8
LAYER_FEATURE
100
AcDbLine
 62
7
  6
CONTINUOUS
 10
5.6453672762
 20
6.8709834379
 11
6.6153672762
 21
6.8709834379
  0
LINE
  5
23D
100
AcDbEntity
  8
LAYER_FEATURE
100
AcDbLine
 62
7
  6
CONTINUOUS
 10
5.6453672762
 20
6.8743576586
 11
6.6153672762
 21
6.8743576586
  0
LINE
  5
23E
100
AcDbEntity
  8
0
100
AcDbLine
 62
7
  6
CONTINUOUS
 10
5.6453672762
 20
6.8744030403
 11
6.6153672762
 21
6.8744030403
  0
LINE
  5
23F
100
AcDbEntity
  8
LAYER_FEATURE
100
AcDbLine
 62
7
  6
CONTINUOUS
 10
5.6453672762
 20
6.8856835012
 11
6.6153672762
 21
6.8856835012
  0
LINE
  5
240
100
AcDbEntity
  8
LAYER_FEATURE
100
AcDbLine
 62
7
  6
CONTINUOUS
 10
5.6453672762
 20
6.8868119798
 11
6.6153672762
 21
6.8868119798
  0
LINE
  5
241
100
AcDbEntity
  8
LAYER_FEATURE
100
AcDbLine
 62
7
  6
CONTINUOUS
 10
6.6603672762
 20
6.9688698968
 11
6.6296970583
 21
6.9688698968
  0
LINE
  5
242
100
AcDbEntity
  8
LAYER_FEATURE
100
AcDbLine
 62
7
  6
CONTINUOUS
 10
5.6003672762
 20
6.9688698968
 11
5.631037494
 21
6.9688698968
  0
LINE
  5
243
100
AcDbEntity
  8
LAYER_FEATURE
100
AcDbLine
 62
7
  6
CONTINUOUS
 10
5.5408720839
 20
11.1512977814
 11
5.5715423017
 21
11.1512977814
  0
LINE
  5
244
100
AcDbEntity
  8
LAYER_FEATURE
100
AcDbLine
 62
7
  6
CONTINUOUS
 10
6.570201866
 20
11.1512977814
 11
6.6008720839
 21
11.1512977814
  0
LINE
  5
245
100
AcDbEntity
  8
02___PRT_ALL_AXES
100
AcDbLine
 62
7
  6
CONTINUOUS
 10
5.5858720839
 20
11.2321727814
 11
6.5558720839
 21
11.2321727814
  0
LINE
  5
246
100
AcDbEntity
  8
LAYER_FEATURE
100
AcDbLine
 62
7
  6
CONTINUOUS
 10
5.5408720839
 20
11.1512977814
 11
5.5408720839
 21
14.0487977814
  0
LINE
  5
247
100
AcDbEntity
  8
LAYER_FEATURE
100
AcDbLine
 62
7
  6
CONTINUOUS
 10
5.5715423017
 20
11.1512977814
 11
5.5715423017
 21
14.0487977814
  0
LINE
  5
248
100
AcDbEntity
  8
LAYER_FEATURE
100
AcDbLine
 62
7
  6
CONTINUOUS
 10
5.5858720839
 20
11.2187141957
 11
5.5858720839
 21
13.9813813671
  0
LINE
  5
249
100
AcDbEntity
  8
LAYER_FEATURE
100
AcDbLine
 62
7
  6
CONTINUOUS
 10
5.5858720839
 20
12.1428600147
 11
6.5558720839
 21
12.1428600147
  0
LINE
  5
24A
100
AcDbEntity
  8
LAYER_FEATURE
100
AcDbLine
 62
7
  6
CONTINUOUS
 10
6.5558720839
 20
12.1997028129
 11
5.5858720839
 21
12.1997028129
  0
LINE
  5
24B
100
AcDbEntity
  8
LAYER_FEATURE
100
AcDbLine
 62
7
  6
CONTINUOUS
 10
6.5558720839
 20
12.228369997
 11
5.5858720839
 21
12.228369997
  0
LINE
  5
24C
100
AcDbEntity
  8
LAYER_FEATURE
100
AcDbLine
 62
7
  6
CONTINUOUS
 10
5.5858720839
 20
12.2515564214
 11
6.5558720839
 21
12.2515564214
  0
LINE
  5
24D
100
AcDbEntity
  8
LAYER_FEATURE
100
AcDbLine
 62
7
  6
CONTINUOUS
 10
5.5858720839
 20
12.2734957059
 11
6.5558720839
 21
12.2734957059
  0
LINE
  5
24E
100
AcDbEntity
  8
LAYER_FEATURE
100
AcDbLine
 62
7
  6
CONTINUOUS
 10
6.5558720839
 20
12.3258530049
 11
5.5858720839
 21
12.3258530049
  0
LINE
  5
24F
100
AcDbEntity
  8
LAYER_FEATURE
100
AcDbLine
 62
7
  6
CONTINUOUS
 10
6.5558720839
 20
12.3552581796
 11
5.5858720839
 21
12.3552581796
  0
LINE
  5
250
100
AcDbEntity
  8
LAYER_FEATURE
100
AcDbLine
 62
7
  6
CONTINUOUS
 10
5.5858720839
 20
12.3849903264
 11
6.5558720839
 21
12.3849903264
  0
LINE
  5
251
100
AcDbEntity
  8
LAYER_FEATURE
100
AcDbLine
 62
7
  6
CONTINUOUS
 10
5.5858720839
 20
12.4073768183
 11
6.5558720839
 21
12.4073768183
  0
LINE
  5
252
100
AcDbEntity
  8
LAYER_FEATURE
100
AcDbLine
 62
7
  6
CONTINUOUS
 10
5.5715423017
 20
11.1512977814
 11
5.5858720839
 21
11.218714106
  0
LINE
  5
253
100
AcDbEntity
  8
LAYER_FEATURE
100
AcDbLine
 62
7
  6
CONTINUOUS
 10
6.5558720839
 20
12.4547282678
 11
5.5858720839
 21
12.4547282678
  0
LINE
  5
254
100
AcDbEntity
  8
LAYER_FEATURE
100
AcDbLine
 62
7
  6
CONTINUOUS
 10
6.5558720839
 20
12.4845791911
 11
5.5858720839
 21
12.4845791911
  0
LINE
  5
255
100
AcDbEntity
  8
LAYER_FEATURE
100
AcDbLine
 62
7
  6
CONTINUOUS
 10
5.5715423017
 20
14.0487977814
 11
5.5858720839
 21
13.9813814568
  0
LINE
  5
256
100
AcDbEntity
  8
LAYER_FEATURE
100
AcDbLine
 62
7
  6
CONTINUOUS
 10
5.5858720839
 20
12.520561569
 11
6.5558720839
 21
12.520561569
  0
LINE
  5
257
100
AcDbEntity
  8
LAYER_FEATURE
100
AcDbLine
 62
7
  6
CONTINUOUS
 10
5.5858720839
 20
12.5431727814
 11
6.5558720839
 21
12.5431727814
  0
LINE
  5
258
100
AcDbEntity
  8
LAYER_FEATURE
100
AcDbLine
 62
7
  6
CONTINUOUS
 10
6.5558720839
 20
12.5850477814
 11
5.5858720839
 21
12.5850477814
  0
LINE
  5
259
100
AcDbEntity
  8
LAYER_FEATURE
100
AcDbLine
 62
7
  6
CONTINUOUS
 10
6.5558720839
 20
12.6150477814
 11
5.5858720839
 21
12.6150477814
  0
LINE
  5
25A
100
AcDbEntity
  8
LAYER_FEATURE
100
AcDbLine
 62
7
  6
CONTINUOUS
 10
5.5858720839
 20
12.6569227814
 11
6.5558720839
 21
12.6569227814
  0
LINE
  5
25B
100
AcDbEntity
  8
LAYER_FEATURE
100
AcDbLine
 62
7
  6
CONTINUOUS
 10
6.5558720839
 20
13.9813814568
 11
6.570201866
 21
14.0487977814
  0
LINE
  5
25C
100
AcDbEntity
  8
LAYER_FEATURE
100
AcDbLine
 62
7
  6
CONTINUOUS
 10
6.5558720839
 20
11.218714106
 11
6.570201866
 21
11.1512977814
  0
LINE
  5
25D
100
AcDbEntity
  8
LAYER_FEATURE
100
AcDbLine
 62
7
  6
CONTINUOUS
 10
6.5558720839
 20
11.218714106
 11
6.5558720839
 21
13.9813814568
  0
LINE
  5
25E
100
AcDbEntity
  8
LAYER_FEATURE
100
AcDbLine
 62
7
  6
CONTINUOUS
 10
6.570201866
 20
11.1512977814
 11
6.570201866
 21
14.0487977814
  0
LINE
  5
25F
100
AcDbEntity
  8
LAYER_FEATURE
100
AcDbLine
 62
7
  6
CONTINUOUS
 10
6.6008720839
 20
11.1512977814
 11
6.6008720839
 21
14.0487977814
  0
LINE
  5
260
100
AcDbEntity
  8
02___PRT_ALL_AXES
100
AcDbLine
 62
7
  6
CONTINUOUS
 10
5.5858720839
 20
13.9679227814
 11
6.5558720839
 21
13.9679227814
  0
LINE
  5
261
100
AcDbEntity
  8
LAYER_FEATURE
100
AcDbLine
 62
7
  6
CONTINUOUS
 10
5.5408720839
 20
14.0487977814
 11
5.5715423017
 21
14.0487977814
  0
LINE
  5
262
100
AcDbEntity
  8
LAYER_FEATURE
100
AcDbLine
 62
7
  6
CONTINUOUS
 10
6.570201866
 20
14.0487977814
 11
6.6008720839
 21
14.0487977814
  0
LINE
  5
263
100
AcDbEntity
  8
LAYER_FEATURE
100
AcDbLine
 62
7
  6
CONTINUOUS
 10
14.9829267295
 20
11.0620549929
 11
15.0111758708
 21
11.0620549929
  0
LINE
  5
264
100
AcDbEntity
  8
LAYER_FEATURE
100
AcDbLine
 62
7
  6
CONTINUOUS
 10
15.9310022418
 20
11.0620549929
 11
15.9592513831
 21
11.0620549929
  0
LINE
  5
265
100
AcDbEntity
  8
02___PRT_ALL_AXES
100
AcDbLine
 62
7
  6
CONTINUOUS
 10
15.0243744742
 20
11.1429299929
 11
15.7452296125
 21
11.1429299929
  0
LINE
  5
266
100
AcDbEntity
  8
LAYER_FEATURE
100
AcDbLine
 62
7
  6
CONTINUOUS
 10
14.5470782023
 20
12.9723496589
 11
14.5513201821
 21
13.0003021184
  0
LINE
  5
267
100
AcDbEntity
  8
LAYER_FEATURE
100
AcDbLine
 62
7
  6
CONTINUOUS
 10
14.5673457179
 20
13.0920929235
 11
14.5726504344
 21
13.1188218766
  0
LINE
  5
268
100
AcDbEntity
  8
LAYER_FEATURE
100
AcDbLine
 62
7
  6
CONTINUOUS
 10
14.5921553907
 20
13.2060590874
 11
14.5984701231
 21
13.2312988898
  0
LINE
  5
269
100
AcDbEntity
  8
LAYER_FEATURE
100
AcDbLine
 62
7
  6
CONTINUOUS
 10
14.6231589392
 20
13.319258367
 11
14.6285226405
 21
13.336615311
  0
LINE
  5
26A
100
AcDbEntity
  8
02___PRT_ALL_AXES
100
AcDbLine
 62
7
  6
CONTINUOUS
 10
15.832852516
 20
13.7189799214
 11
15.8247989103
 21
13.7136262456
  0
LINE
  5
26B
100
AcDbEntity
  8
02___PRT_ALL_AXES
100
AcDbLine
 62
7
  6
CONTINUOUS
 10
15.6811983001
 20
11.7920927929
 11
15.6700528181
 21
11.7923691849
  0
LINE
  5
26C
100
AcDbEntity
  8
02___PRT_ALL_AXES
100
AcDbLine
 62
7
  6
CONTINUOUS
 10
15.6811983001
 20
11.7920927929
 11
15.6611166901
 21
11.7935928662
  0
LINE
  5
26D
100
AcDbEntity
  8
02___PRT_ALL_AXES
100
AcDbLine
 62
7
  6
CONTINUOUS
 10
15.832852516
 20
11.3026300644
 11
15.8247989103
 21
11.3079837402
  0
LINE
  5
26E
100
AcDbEntity
  8
LAYER_FEATURE
100
AcDbLine
 62
7
  6
CONTINUOUS
 10
14.5457027967
 20
13.030071733
 11
14.5374054606
 21
13.0500752394
  0
LINE
  5
26F
100
AcDbEntity
  8
LAYER_FEATURE
100
AcDbLine
 62
7
  6
CONTINUOUS
 10
14.5682152365
 20
13.1498798321
 11
14.5607347386
 21
13.1719054285
  0
LINE
  5
270
100
AcDbEntity
  8
LAYER_FEATURE
100
AcDbLine
 62
7
  6
CONTINUOUS
 10
14.5952611917
 20
13.2633365184
 11
14.5886718766
 21
13.2871653045
  0
LINE
  5
271
100
AcDbEntity
  8
LAYER_FEATURE
100
AcDbLine
 62
7
  6
CONTINUOUS
 10
14.6265718676
 20
13.3693142082
 11
14.6209392227
 21
13.394709363
  0
LINE
  5
272
100
AcDbEntity
  8
LAYER_FEATURE
100
AcDbLine
 62
7
  6
CONTINUOUS
 10
15.4189530149
 20
12.235183424
 11
15.4189578862
 21
12.2351220003
  0
LINE
  5
273
100
AcDbEntity
  8
LAYER_FEATURE
100
AcDbLine
 62
7
  6
CONTINUOUS
 10
15.4190512538
 20
12.2352347932
 11
15.4190559866
 21
12.2351733091
  0
LINE
  5
274
100
AcDbEntity
  8
LAYER_FEATURE
100
AcDbLine
 62
7
  6
CONTINUOUS
 10
14.5237175574
 20
12.9598790163
 11
14.5350978471
 21
12.9601905845
  0
LINE
  5
275
100
AcDbEntity
  8
LAYER_FEATURE
100
AcDbLine
 62
7
  6
CONTINUOUS
 10
14.5204418133
 20
12.9540630436
 11
15.3939090549
 21
12.9540630436
  0
LINE
  5
276
100
AcDbEntity
  8
LAYER_FEATURE
100
AcDbLine
 62
7
  6
CONTINUOUS
 10
15.3963243865
 20
12.9723496589
 11
14.5470782023
 21
12.9723496589
  0
LINE
  5
277
100
AcDbEntity
  8
LAYER_FEATURE
100
AcDbLine
 62
7
  6
CONTINUOUS
 10
15.4000866436
 20
13.0003021184
 11
14.5513201821
 21
13.0003021184
  0
LINE
  5
278
100
AcDbEntity
  8
LAYER_FEATURE
100
AcDbLine
 62
7
  6
CONTINUOUS
 10
14.5365259867
 20
13.0600494522
 11
15.4089874939
 21
13.0600494522
  0
LINE
  5
279
100
AcDbEntity
  8
LAYER_FEATURE
100
AcDbLine
 62
7
  6
CONTINUOUS
 10
14.5401326542
 20
13.0807076637
 11
15.412418925
 21
13.0807076637
  0
LINE
  5
27A
100
AcDbEntity
  8
0
100
AcDbLine
 62
7
  6
CONTINUOUS
 10
14.5433012703
 20
13.0856933859
 11
15.4132681148
 21
13.0856933859
  0
LINE
  5
27B
100
AcDbEntity
  8
LAYER_FEATURE
100
AcDbLine
 62
7
  6
CONTINUOUS
 10
15.4143581117
 20
13.0920929235
 11
14.5673457179
 21
13.0920929235
  0
LINE
  5
27C
100
AcDbEntity
  8
LAYER_FEATURE
100
AcDbLine
 62
7
  6
CONTINUOUS
 10
15.4189330024
 20
13.1188218766
 11
14.5726504344
 21
13.1188218766
  0
LINE
  5
27D
100
AcDbEntity
  8
LAYER_FEATURE
100
AcDbLine
 62
7
  6
CONTINUOUS
 10
14.5602463706
 20
13.1820549442
 11
15.4311369709
 21
13.1820549442
  0
LINE
  5
27E
100
AcDbEntity
  8
LAYER_FEATURE
100
AcDbLine
 62
7
  6
CONTINUOUS
 10
14.5646361078
 20
13.201688335
 11
15.4352331804
 21
13.201688335
  0
LINE
  5
27F
100
AcDbEntity
  8
0
100
AcDbLine
 62
7
  6
CONTINUOUS
 10
14.5676281908
 20
13.2058845009
 11
15.4361086468
 21
13.2058845009
  0
LINE
  5
280
100
AcDbEntity
  8
LAYER_FEATURE
100
AcDbLine
 62
7
  6
CONTINUOUS
 10
15.4361450716
 20
13.2060590874
 11
14.5921553907
 21
13.2060590874
  0
LINE
  5
281
100
AcDbEntity
  8
LAYER_FEATURE
100
AcDbLine
 62
7
  6
CONTINUOUS
 10
15.4416363903
 20
13.2312988898
 11
14.5984701231
 21
13.2312988898
  0
LINE
  5
282
100
AcDbEntity
  8
LAYER_FEATURE
100
AcDbLine
 62
7
  6
CONTINUOUS
 10
14.5885794682
 20
13.2973892527
 11
15.4573588812
 21
13.2973892527
  0
LINE
  5
283
100
AcDbEntity
  8
LAYER_FEATURE
100
AcDbLine
 62
7
  6
CONTINUOUS
 10
14.5937086479
 20
13.3158026973
 11
15.4619689287
 21
13.3158026973
  0
LINE
  5
284
100
AcDbEntity
  8
0
100
AcDbLine
 62
7
  6
CONTINUOUS
 10
14.5964944611
 20
13.319258367
 11
15.4628544698
 21
13.319258367
  0
LINE
  5
285
100
AcDbEntity
  8
LAYER_FEATURE
100
AcDbLine
 62
7
  6
CONTINUOUS
 10
15.4675900783
 20
13.336615311
 11
14.6285226405
 21
13.336615311
  0
LINE
  5
286
100
AcDbEntity
  8
LAYER_FEATURE
100
AcDbLine
 62
7
  6
CONTINUOUS
 10
14.6212436922
 20
13.4049061333
 11
15.4871579062
 21
13.4049061333
  0
LINE
  5
287
100
AcDbEntity
  8
02___PRT_ALL_AXES
100
AcDbLine
 62
7
  6
CONTINUOUS
 10
15.0243744742
 20
13.8786799929
 11
15.7453572442
 21
13.8786799929
  0
LINE
  5
288
100
AcDbEntity
  8
LAYER_FEATURE
100
AcDbLine
 62
7
  6
CONTINUOUS
 10
14.9829267295
 20
13.9595549929
 11
15.0111758708
 21
13.9595549929
  0
LINE
  5
289
100
AcDbEntity
  8
LAYER_FEATURE
100
AcDbLine
 62
7
  6
CONTINUOUS
 10
15.9310022418
 20
13.9595549929
 11
15.9592513831
 21
13.9595549929
  0
CIRCLE
  5
28A
100
AcDbEntity
  8
LAYER_FEATURE
100
AcDbCircle
 62
7
  6
CONTINUOUS
 10
15.5603552569
 20
5.4606247044
 40
1.44875
  0
CIRCLE
  5
28B
100
AcDbEntity
  8
LAYER_FEATURE
100
AcDbCircle
 62
7
  6
CONTINUOUS
 10
15.5603552569
 20
5.4606247044
 40
1.3813336754
  0
CIRCLE
  5
28C
100
AcDbEntity
  8
02___PRT_ALL_AXES
100
AcDbCircle
 62
7
  6
CONTINUOUS
 10
15.5603552569
 20
5.4606247044
 40
1.248
  0
CIRCLE
  5
28D
100
AcDbEntity
  8
LAYER_CHAMFER_FEAT
100
AcDbCircle
 62
7
  6
CONTINUOUS
 10
15.5603552569
 20
5.4606247044
 40
1.2145
  0
CIRCLE
  5
28E
100
AcDbEntity
  8
LAYER_CHAMFER_FEAT
100
AcDbCircle
 62
7
  6
CONTINUOUS
 10
15.5603552569
 20
5.4606247044
 40
1.19875
  0
ARC
  5
28F
100
AcDbEntity
  8
02___PRT_ALL_AXES
100
AcDbCircle
 62
7
  6
CONTINUOUS
 10
15.5603552569
 20
5.4606247044
 40
0.71875
100
AcDbArc
 50
62.9785815553
 51
139.0214184447
  0
ARC
  5
290
100
AcDbEntity
  8
02___PRT_ALL_AXES
100
AcDbCircle
 62
7
  6
CONTINUOUS
 10
15.5603552569
 20
5.4606247044
 40
0.71875
100
AcDbArc
 50
22.9785815553
 51
51.0214184447
  0
ARC
  5
291
100
AcDbEntity
  8
02___PRT_ALL_AXES
100
AcDbCircle
 62
7
  6
CONTINUOUS
 10
15.5603552569
 20
5.4606247044
 40
0.71875
100
AcDbArc
 50
230.9785815553
 51
259.0214184447
  0
ARC
  5
292
100
AcDbEntity
  8
02___PRT_ALL_AXES
100
AcDbCircle
 62
7
  6
CONTINUOUS
 10
15.5603552569
 20
5.4606247044
 40
0.71875
100
AcDbArc
 50
150.9785815553
 51
219.0214184447
  0
ARC
  5
293
100
AcDbEntity
  8
02___PRT_ALL_AXES
100
AcDbCircle
 62
7
  6
CONTINUOUS
 10
15.5603552569
 20
5.4606247044
 40
0.71875
100
AcDbArc
 50
270.9785815553
 51
11.0214184447
  0
ARC
  5
294
100
AcDbEntity
  8
02___PRT_ALL_AXES
100
AcDbCircle
 62
7
  6
CONTINUOUS
 10
15.5603552569
 20
5.4606247044
 40
0.6925274455
100
AcDbArc
 50
50.5328218771
 51
63.4671781229
  0
ARC
  5
295
100
AcDbEntity
  8
02___PRT_ALL_AXES
100
AcDbCircle
 62
7
  6
CONTINUOUS
 10
15.5603552569
 20
5.4606247044
 40
0.6925274455
100
AcDbArc
 50
218.5328218771
 51
231.4671781229
  0
ARC
  5
296
100
AcDbEntity
  8
02___PRT_ALL_AXES
100
AcDbCircle
 62
7
  6
CONTINUOUS
 10
15.5603552569
 20
5.4606247044
 40
0.666304891
100
AcDbArc
 50
23.2112877325
 51
138.7887122675
  0
ARC
  5
297
100
AcDbEntity
  8
02___PRT_ALL_AXES
100
AcDbCircle
 62
7
  6
CONTINUOUS
 10
15.5603552569
 20
5.4606247044
 40
0.666304891
100
AcDbArc
 50
151.2112877325
 51
258.7887122675
  0
ARC
  5
298
100
AcDbEntity
  8
02___PRT_ALL_AXES
100
AcDbCircle
 62
7
  6
CONTINUOUS
 10
15.5603552569
 20
5.4606247044
 40
0.666304891
100
AcDbArc
 50
271.2112877325
 51
10.7887122675
  0
ARC
  5
299
100
AcDbEntity
  8
02___PRT_ALL_AXES
100
AcDbCircle
 62
7
  6
CONTINUOUS
 10
15.9375177887
 20
6.0414040727
 40
0.078125
100
AcDbArc
 50
323.7865070527
 51
150.2134929473
  0
ARC
  5
29A
100
AcDbEntity
  8
02___PRT_ALL_AXES
100
AcDbCircle
 62
7
  6
CONTINUOUS
 10
15.070683811
 20
4.9709532585
 40
0.078125
100
AcDbArc
 50
131.7865070527
 51
318.2134929473
  0
ARC
  5
29B
100
AcDbEntity
  8
02___PRT_ALL_AXES
100
AcDbCircle
 62
7
  6
CONTINUOUS
 10
16.2225963004
 20
5.66309211
 40
0.078125
100
AcDbArc
 50
264.3336782569
 51
129.6663217431
  0
ARC
  5
29C
100
AcDbEntity
  8
02___PRT_ALL_AXES
100
AcDbCircle
 62
7
  6
CONTINUOUS
 10
15.4999999051
 20
4.770759876
 40
0.078125
100
AcDbArc
 50
152.3336782569
 51
17.6663217431
  0
ARC
  5
29D
100
AcDbEntity
  8
02___PRT_ALL_AXES
100
AcDbCircle
 62
7
  6
CONTINUOUS
 10
14.9930924663
 20
5.8578263866
 40
0.078125
100
AcDbArc
 50
32.3336782569
 51
257.6663217431
  0
ARC
  5
29E
100
AcDbEntity
  8
02___PRT_ALL_AXES
100
AcDbCircle
 62
7
  6
CONTINUOUS
 10
11.7879811467
 20
-36.7371289752
 40
48.7068673944
100
AcDbArc
 50
85.3470072839
 51
85.5100012793
  0
ARC
  5
29F
100
AcDbEntity
  8
02___PRT_ALL_AXES
100
AcDbCircle
 62
7
  6
CONTINUOUS
 10
18.4175676273
 20
-28.6783335685
 40
41.9665788471
100
AcDbArc
 50
93.6404228845
 51
93.89964478
  0
ARC
  5
2A0
100
AcDbEntity
  8
02___PRT_ALL_AXES
100
AcDbCircle
 62
7
  6
CONTINUOUS
 10
13.7260464957
 20
38.6714966017
 40
25.6073544375
100
AcDbArc
 50
274.0795341349
 51
274.6616423683
  0
ARC
  5
2A1
100
AcDbEntity
  8
02___PRT_ALL_AXES
100
AcDbCircle
 62
7
  6
CONTINUOUS
 10
16.575914347
 20
31.5860604514
 40
19.6341235296
100
AcDbArc
 50
266.9444505781
 51
267.9116299606
  0
ARC
  5
2A2
100
AcDbEntity
  8
LAYER_FEATURE
100
AcDbCircle
 62
7
  6
CONTINUOUS
 10
17.2842075319
 20
12.5909822877
 40
2.7874321298
100
AcDbArc
 50
169.8811559092
 51
170.3122102587
  0
ARC
  5
2A3
100
AcDbEntity
  8
LAYER_FEATURE
100
AcDbCircle
 62
7
  6
CONTINUOUS
 10
16.9632808395
 20
12.6550792426
 40
2.4601378109
100
AcDbArc
 50
167.1625183845
 51
167.6310645387
  0
ARC
  5
2A4
100
AcDbEntity
  8
LAYER_FEATURE
100
AcDbCircle
 62
7
  6
CONTINUOUS
 10
16.62290402
 20
12.7406365733
 40
2.1091348768
100
AcDbArc
 50
164.1748616484
 51
164.6941185808
  0
ARC
  5
2A5
100
AcDbEntity
  8
LAYER_CHAMFER_FEAT
100
AcDbCircle
 62
7
  6
CONTINUOUS
 10
16.1110393267
 20
11.7312350901
 40
0.4792940647
100
AcDbArc
 50
221.100545533
 51
222.0298759462
  0
ARC
  5
2A6
100
AcDbEntity
  8
LAYER_CHAMFER_FEAT
100
AcDbCircle
 62
7
  6
CONTINUOUS
 10
16.1090997456
 20
13.2920916609
 40
0.4767039482
100
AcDbArc
 50
137.9683738071
 51
138.9635408185
  0
ARC
  5
2A7
100
AcDbEntity
  8
02___PRT_ALL_AXES
100
AcDbCircle
 62
7
  6
CONTINUOUS
 10
15.8056489405
 20
12.9571336096
 40
0.3199708426
100
AcDbArc
 50
139.5780327713
 51
141.99671373
  0
ARC
  5
2A8
100
AcDbEntity
  8
LAYER_FEATURE
100
AcDbCircle
 62
7
  6
CONTINUOUS
 10
14.5692764939
 20
13.2208330945
 40
0.0272344489
100
AcDbArc
 50
326.6763040144
 51
327.1477189327
  0
SPLINE
  5
2A9
100
AcDbEntity
  8
02___PRT_ALL_AXES
100
AcDbSpline
 62
7
  6
CONTINUOUS
 70
0
 71
3
 72
39
 73
35
 74
0
 42
0.0000001
 43
0.0000001
 44
0.0000000001
 40
0.0
 40
0.0
 40
0.0
 40
0.0
 40
0.0471879257
 40
0.0932796168
 40
0.1382376395
 40
0.1820289815
 40
0.2246235009
 40
0.2659952331
 40
0.3061223783
 40
0.3449878512
 40
0.3825797222
 40
0.4188917739
 40
0.4539241205
 40
0.4876839122
 40
0.5201861335
 40
0.5514544978
 40
0.5815224343
 40
0.6104341507
 40
0.638245738
 40
0.6650262538
 40
0.690858689
 40
0.7158406727
 40
0.7400847404
 40
0.7637179644
 40
0.7868807523
 40
0.8097246914
 40
0.8324094419
 40
0.8550988545
 40
0.8779566562
 40
0.9011421476
 40
0.9248063569
 40
0.9490889842
 40
0.9741163009
 40
1.0
 40
1.0
 40
1.0
 40
1.0
 10
16.3353383277
 20
11.7350357525
 30
0.0
 10
16.3317498114
 20
11.7234233093
 30
0.0
 10
16.3244191172
 20
11.700540535
 30
0.0
 10
16.3128176488
 20
11.6668745001
 30
0.0
 10
16.3007516478
 20
11.6343031315
 30
0.0
 10
16.2882368848
 20
11.6028688542
 30
0.0
 10
16.2752894832
 20
11.5726122028
 30
0.0
 10
16.2619262161
 20
11.5435723282
 30
0.0
 10
16.2481643168
 20
11.5157867234
 30
0.0
 10
16.2340215169
 20
11.4892912506
 30
0.0
 10
16.2195159849
 20
11.4641200735
 30
0.0
 10
16.2046663005
 20
11.4403056218
 30
0.0
 10
16.1894914117
 20
11.4178785555
 30
0.0
 10
16.1740105912
 20
11.3968677405
 30
0.0
 10
16.1582433925
 20
11.377300234
 30
0.0
 10
16.1422096063
 20
11.3592012826
 30
0.0
 10
16.1259292219
 20
11.3425943364
 30
0.0
 10
16.1094224003
 20
11.3275010827
 30
0.0
 10
16.0927094687
 20
11.3139414972
 30
0.0
 10
16.0758109503
 20
11.3019339089
 30
0.0
 10
16.058747646
 20
11.2914950591
 30
0.0
 10
16.0415407707
 20
11.2826401392
 30
0.0
 10
16.0242121443
 20
11.2753827597
 30
0.0
 10
16.0067844055
 20
11.2697348105
 30
0.0
 10
15.9892811829
 20
11.2657061854
 30
0.0
 10
15.971727137
 20
11.263304392
 30
0.0
 10
15.9541478009
 20
11.262534124
 30
0.0
 10
15.9365692035
 20
11.2633969287
 30
0.0
 10
15.919017365
 20
11.2658910762
 30
0.0
 10
15.9015177601
 20
11.2700117118
 30
0.0
 10
15.8840950579
 20
11.2757511386
 30
0.0
 10
15.8667725765
 20
11.2830995002
 30
0.0
 10
15.8495738839
 20
11.2920441744
 30
0.0
 10
15.8384046076
 20
11.2989392808
 30
0.0
 10
15.8328525165
 20
11.3026300698
 30
0.0
  0
SPLINE
  5
2AA
100
AcDbEntity
  8
02___PRT_ALL_AXES
100
AcDbSpline
 62
7
  6
CONTINUOUS
 70
0
 71
3
 72
22
 73
18
 74
0
 42
0.0000001
 43
0.0000001
 44
0.0000000001
 40
0.0
 40
0.0
 40
0.0
 40
0.0
 40
0.1761770058
 40
0.2598638364
 40
0.3401718346
 40
0.4168126196
 40
0.4895406104
 40
0.5581576945
 40
0.6225238244
 40
0.6825690277
 40
0.7383094573
 40
0.7898679775
 40
0.8374999001
 40
0.8816226069
 40
0.9228433513
 40
0.961972147
 40
1.0
 40
1.0
 40
1.0
 40
1.0
 10
15.6811983001
 20
11.7920927929
 30
0.0
 10
15.6817635447
 20
11.7887033009
 30
0.0
 10
15.6827550178
 20
11.7837270696
 30
0.0
 10
15.6844137311
 20
11.7773014695
 30
0.0
 10
15.6857671962
 20
11.7728058218
 30
0.0
 10
15.6872440546
 20
11.768574839
 30
0.0
 10
15.6888365724
 20
11.7646306202
 30
0.0
 10
15.6905364139
 20
11.7609937554
 30
0.0
 10
15.6923348045
 20
11.7576830976
 30
0.0
 10
15.694222649
 20
11.7547156936
 30
0.0
 10
15.6961907025
 20
11.7521067349
 30
0.0
 10
15.6982297608
 20
11.7498696234
 30
0.0
 10
15.7003308895
 20
11.7480162321
 30
0.0
 10
15.7024852416
 20
11.7465574398
 30
0.0
 10
15.7046839527
 20
11.7455038152
 30
0.0
 10
15.7069148685
 20
11.7448657754
 30
0.0
 10
15.708423379
 20
11.744722515
 30
0.0
 10
15.7091651053
 20
11.7447225219
 30
0.0
  0
SPLINE
  5
2AB
100
AcDbEntity
  8
02___PRT_ALL_AXES
100
AcDbSpline
 62
7
  6
CONTINUOUS
 70
0
 71
3
 72
15
 73
11
 74
0
 42
0.0000001
 43
0.0000001
 44
0.0000000001
 40
0.0
 40
0.0
 40
0.0
 40
0.0
 40
0.1514127832
 40
0.2935540639
 40
0.4269361725
 40
0.5523583525
 40
0.6708789589
 40
0.7838558482
 40
0.8929358159
 40
1.0
 40
1.0
 40
1.0
 40
1.0
 10
15.860429938
 20
11.9649776873
 30
0.0
 10
15.8609431517
 20
11.9643114625
 30
0.0
 10
15.8619824839
 20
11.9630529257
 30
0.0
 10
15.8636344148
 20
11.9613479176
 30
0.0
 10
15.8653243115
 20
11.9598923068
 30
0.0
 10
15.8670470127
 20
11.958691583
 30
0.0
 10
15.8687974597
 20
11.9577506743
 30
0.0
 10
15.8705702279
 20
11.9570742267
 30
0.0
 10
15.8723583836
 20
11.956666331
 30
0.0
 10
15.8735607802
 20
11.9565751802
 30
0.0
 10
15.8741554368
 20
11.956575175
 30
0.0
  0
SPLINE
  5
2AC
100
AcDbEntity
  8
LAYER_CHAMFER_FEAT
100
AcDbSpline
 62
7
  6
CONTINUOUS
 70
0
 71
3
 72
14
 73
10
 74
0
 42
0.0000001
 43
0.0000001
 44
0.0000000001
 40
0.0
 40
0.0
 40
0.0
 40
0.0
 40
0.2714511826
 40
0.4018358216
 40
0.5286296802
 40
0.6518278929
 40
0.7714385178
 40
0.8874836488
 40
1.0
 40
1.0
 40
1.0
 40
1.0
 10
15.6606565284
 20
11.5594544612
 30
0.0
 10
15.6677046759
 20
11.5450918467
 30
0.0
 10
15.6786322682
 20
11.5240652046
 30
0.0
 10
15.6940964212
 20
11.4970141492
 30
0.0
 10
15.7057625932
 20
11.4778662709
 30
0.0
 10
15.7176421727
 20
11.459603048
 30
0.0
 10
15.7297253464
 20
11.4422397896
 30
0.0
 10
15.7420016095
 20
11.4257916585
 30
0.0
 10
15.7504371828
 20
11.4152843549
 30
0.0
 10
15.7546866286
 20
11.4101933021
 30
0.0
  0
SPLINE
  5
2AD
100
AcDbEntity
  8
02___PRT_ALL_AXES
100
AcDbSpline
 62
7
  6
CONTINUOUS
 70
0
 71
3
 72
60
 73
56
 74
0
 42
0.0000001
 43
0.0000001
 44
0.0000000001
 40
0.0
 40
0.0
 40
0.0
 40
0.0
 40
0.0092160213
 40
0.018105103
 40
0.0267145939
 40
0.0350983551
 40
0.0433161064
 40
0.0514322647
 40
0.0595143008
 40
0.0676307432
 40
0.0758490536
 40
0.0842336329
 40
0.0928441783
 40
0.101734525
 40
0.1109519939
 40
0.1205371863
 40
0.1305241174
 40
0.1409405758
 40
0.1518086071
 40
0.1631450481
 40
0.1749620605
 40
0.1872676354
 40
0.2000660515
 40
0.2133582846
 40
0.2271423667
 40
0.2414136985
 40
0.2561653217
 40
0.2713881552
 40
0.2870712005
 40
0.3032017222
 40
0.3197654061
 40
0.3367465002
 40
0.3541279401
 40
0.3718914628
 40
0.3900177096
 40
0.4084863212
 40
0.4272760257
 40
0.4463647209
 40
0.4853455409
 40
0.525239751
 40
0.565848086
 40
0.6069647
 40
0.648379157
 40
0.6898783657
 40
0.7312484837
 40
0.7722768135
 40
0.8127537114
 40
0.8524745311
 40
0.8912416294
 40
0.9102089837
 40
0.9288680771
 40
0.9471971518
 40
0.9651752794
 40
0.9827825601
 40
1.0
 40
1.0
 40
1.0
 40
1.0
 10
15.8328525162
 20
13.7189799191
 30
0.0
 10
15.8388491886
 20
13.7229662463
 30
0.0
 10
15.850920214
 20
13.7303733014
 30
0.0
 10
15.8695460109
 20
13.7398451156
 30
0.0
 10
15.8883142989
 20
13.7474464522
 30
0.0
 10
15.907194955
 20
13.7531612744
 30
0.0
 10
15.9261578202
 20
13.7569773569
 30
0.0
 10
15.9451707413
 20
13.7588857415
 30
0.0
 10
15.9642004613
 20
13.7588817676
 30
0.0
 10
15.9832132458
 20
13.7569654416
 30
0.0
 10
16.0021758217
 20
13.7531414575
 30
0.0
 10
16.0210561232
 20
13.7474187371
 30
0.0
 10
16.0398236818
 20
13.7398097212
 30
0.0
 10
16.0584496168
 20
13.7303296672
 30
0.0
 10
16.076906358
 20
13.7189961438
 30
0.0
 10
16.0951672712
 20
13.7058287773
 30
0.0
 10
16.113206322
 20
13.6908492029
 30
0.0
 10
16.1309978404
 20
13.6740811369
 30
0.0
 10
16.1485163929
 20
13.6555504951
 30
0.0
 10
16.1657367418
 20
13.6352855061
 30
0.0
 10
16.1826338623
 20
13.6133167975
 30
0.0
 10
16.199182993
 20
13.5896774469
 30
0.0
 10
16.2153597015
 20
13.5644030008
 30
0.0
 10
16.2311399548
 20
13.5375314658
 30
0.0
 10
16.2465001874
 20
13.5091032794
 30
0.0
 10
16.2614173662
 20
13.4791612645
 30
0.0
 10
16.2758690487
 20
13.4477505732
 30
0.0
 10
16.2898334366
 20
13.4149186212
 30
0.0
 10
16.3032894243
 20
13.3807150161
 30
0.0
 10
16.3162166424
 20
13.3451914806
 30
0.0
 10
16.3285954984
 20
13.3084017712
 30
0.0
 10
16.3404072131
 20
13.2704015943
 30
0.0
 10
16.3516338551
 20
13.2312485176
 30
0.0
 10
16.3622583695
 20
13.1910018833
 30
0.0
 10
16.3722646169
 20
13.1497227017
 30
0.0
 10
16.3816373627
 20
13.1074736106
 30
0.0
 10
16.3903624448
 20
13.0643185675
 30
0.0
 10
16.4011895381
 20
13.0052474403
 30
0.0
 10
16.4129800331
 20
12.9296021288
 30
0.0
 10
16.4242633739
 20
12.8369142598
 30
0.0
 10
16.4327092915
 20
12.7422495568
 30
0.0
 10
16.4382662016
 20
12.6461823648
 30
0.0
 10
16.4409001374
 20
12.5492945898
 30
0.0
 10
16.4405950023
 20
12.4521735367
 30
0.0
 10
16.4373526615
 20
12.3554078461
 30
0.0
 10
16.4311929306
 20
12.2595840684
 30
0.0
 10
16.4221534594
 20
12.1652825939
 30
0.0
 10
16.4102894581
 20
12.0730755368
 30
0.0
 10
16.3980220274
 20
11.9979083086
 30
0.0
 10
16.3868212432
 20
11.9392772237
 30
0.0
 10
16.3778256952
 20
11.8964902092
 30
0.0
 10
16.3681882859
 20
11.8546359443
 30
0.0
 10
16.3579235552
 20
11.8137776735
 30
0.0
 10
16.3470472052
 20
11.7739777009
 30
0.0
 10
16.3393101447
 20
11.747888557
 30
0.0
 10
16.3353383277
 20
11.7350357525
 30
0.0
  0
SPLINE
  5
2AE
100
AcDbEntity
  8
02___PRT_ALL_AXES
100
AcDbSpline
 62
7
  6
CONTINUOUS
 70
0
 71
3
 72
17
 73
13
 74
0
 42
0.0000001
 43
0.0000001
 44
0.0000000001
 40
0.0
 40
0.0
 40
0.0
 40
0.0
 40
0.0469960529
 40
0.0945007624
 40
0.1430027339
 40
0.1929541198
 40
0.2986572205
 40
0.4142996735
 40
0.5415738834
 40
0.6814370483
 40
0.834267933
 40
1.0
 40
1.0
 40
1.0
 40
1.0
 10
15.5924641048
 20
13.245389789
 30
0.0
 10
15.5920153112
 20
13.2453897911
 30
0.0
 10
15.5911120406
 20
13.245338269
 30
0.0
 10
15.5897634336
 20
13.2451070602
 30
0.0
 10
15.5884208387
 20
13.2447225724
 30
0.0
 10
15.5866093597
 20
13.2439937197
 30
0.0
 10
15.5843614688
 20
13.2426745987
 30
0.0
 10
15.5817946009
 20
13.2405364454
 30
0.0
 10
15.5793194802
 20
13.2378340258
 30
0.0
 10
15.5769515999
 20
13.2345887312
 30
0.0
 10
15.574706154
 20
13.2308247814
 30
0.0
 10
15.5733547538
 20
13.2280958463
 30
0.0
 10
15.5726985107
 20
13.2266556361
 30
0.0
  0
SPLINE
  5
2AF
100
AcDbEntity
  8
02___PRT_ALL_AXES
100
AcDbSpline
 62
7
  6
CONTINUOUS
 70
0
 71
3
 72
11
 73
7
 74
0
 42
0.0000001
 43
0.0000001
 44
0.0000000001
 40
0.0
 40
0.0
 40
0.0
 40
0.0
 40
0.2434958623
 40
0.4927535125
 40
0.745644681
 40
1.0
 40
1.0
 40
1.0
 40
1.0
 10
15.5641013229
 20
13.1955272532
 30
0.0
 10
15.5637251411
 20
13.1930377723
 30
0.0
 10
15.5630765997
 20
13.1879822835
 30
0.0
 10
15.5624149496
 20
13.1802987255
 30
0.0
 10
15.5620570875
 20
13.1724826877
 30
0.0
 10
15.5620235475
 20
13.1672362865
 30
0.0
 10
15.5620584138
 20
13.1646064885
 30
0.0
  0
SPLINE
  5
2B0
100
AcDbEntity
  8
02___PRT_ALL_AXES
100
AcDbSpline
 62
7
  6
CONTINUOUS
 70
0
 71
3
 72
21
 73
17
 74
0
 42
0.0000001
 43
0.0000001
 44
0.0000000001
 40
0.0
 40
0.0
 40
0.0
 40
0.0
 40
0.0424957846
 40
0.0857429143
 40
0.1304455817
 40
0.1772249661
 40
0.2265990601
 40
0.2789783642
 40
0.3346721568
 40
0.3938988041
 40
0.4567983498
 40
0.5234449025
 40
0.5938563203
 40
0.6680034579
 40
0.8271542008
 40
1.0
 40
1.0
 40
1.0
 40
1.0
 10
15.7768729993
 20
13.2335369804
 30
0.0
 10
15.7762971054
 20
13.2335369786
 30
0.0
 10
15.7751334189
 20
13.2334515602
 30
0.0
 10
15.7734018058
 20
13.2330692627
 30
0.0
 10
15.7716840153
 20
13.2324349915
 30
0.0
 10
15.7699864145
 20
13.2315522781
 30
0.0
 10
15.7683139871
 20
13.2304252398
 30
0.0
 10
15.7666714787
 20
13.2290583095
 30
0.0
 10
15.7650634661
 20
13.2274562418
 30
0.0
 10
15.7634945022
 20
13.2256242924
 30
0.0
 10
15.7619691316
 20
13.2235682967
 30
0.0
 10
15.760491943
 20
13.2212947076
 30
0.0
 10
15.7590673799
 20
13.2188106601
 30
0.0
 10
15.7571999925
 20
13.215141252
 30
0.0
 10
15.7550447162
 20
13.2100693743
 30
0.0
 10
15.753598404
 20
13.2058049044
 30
0.0
 10
15.7529154785
 20
13.2035642999
 30
0.0
  0
SPLINE
  5
2B1
100
AcDbEntity
  8
LAYER_FEATURE
100
AcDbSpline
 62
7
  6
CONTINUOUS
 70
0
 71
3
 72
54
 73
50
 74
0
 42
0.0000001
 43
0.0000001
 44
0.0000000001
 40
0.0
 40
0.0
 40
0.0
 40
0.0
 40
0.033050083
 40
0.0673809185
 40
0.1028689289
 40
0.1393805316
 40
0.1767738169
 40
0.214899975
 40
0.25360464
 40
0.2927291642
 40
0.332111844
 40
0.3715891171
 40
0.410996745
 40
0.4501709878
 40
0.4889497822
 40
0.5271739364
 40
0.5646883543
 40
0.6013432993
 40
0.6369957232
 40
0.6544041331
 40
0.6715120654
 40
0.6883041813
 40
0.7047658546
 40
0.7208832311
 40
0.736643294
 40
0.752033935
 40
0.7670440316
 40
0.7816635337
 40
0.7958835599
 40
0.8096965037
 40
0.823096154
 40
0.8360778312
 40
0.8486385411
 40
0.8607771508
 40
0.8724945867
 40
0.88379406
 40
0.8946813196
 40
0.905164933
 40
0.915256592
 40
0.9249714402
 40
0.9343284073
 40
0.9433505317
 40
0.9520652404
 40
0.9605045434
 40
0.9687050901
 40
0.9767080295
 40
0.9845586187
 40
0.9923055502
 40
1.0
 40
1.0
 40
1.0
 40
1.0
 10
15.4890728375
 20
13.4113624344
 30
0.0
 10
15.4807130288
 20
13.3843100836
 30
0.0
 10
15.4648073655
 20
13.3288000978
 30
0.0
 10
15.4437039036
 20
13.2432161883
 30
0.0
 10
15.4249772495
 20
13.154048705
 30
0.0
 10
15.4087200379
 20
13.0617347456
 30
0.0
 10
15.3950121521
 20
12.9667247997
 30
0.0
 10
15.3839211428
 20
12.869483553
 30
0.0
 10
15.3755016377
 20
12.7704866515
 30
0.0
 10
15.3697951307
 20
12.6702185555
 30
0.0
 10
15.3668297526
 20
12.5691700482
 30
0.0
 10
15.3666201171
 20
12.4678358062
 30
0.0
 10
15.3691672514
 20
12.3667119258
 30
0.0
 10
15.3744586014
 20
12.266293462
 30
0.0
 10
15.382468095
 20
12.1670719338
 30
0.0
 10
15.3931562624
 20
12.0695329779
 30
0.0
 10
15.4064704394
 20
11.9741535256
 30
0.0
 10
15.4223450327
 20
11.8814008228
 30
0.0
 10
15.4377622677
 20
11.806085692
 30
0.0
 10
15.4513476498
 20
11.7475233578
 30
0.0
 10
15.4620437022
 20
11.7048851116
 30
0.0
 10
15.4733140943
 20
11.6632347256
 30
0.0
 10
15.4851450934
 20
11.6226230765
 30
0.0
 10
15.497522168
 20
11.583099904
 30
0.0
 10
15.5104301542
 20
11.5447135618
 30
0.0
 10
15.5238532377
 20
11.5075110063
 30
0.0
 10
15.5377749868
 20
11.4715377236
 30
0.0
 10
15.5521783735
 20
11.4368376757
 30
0.0
 10
15.5670457972
 20
11.4034532421
 30
0.0
 10
15.5823591151
 20
11.3714251688
 30
0.0
 10
15.5980996716
 20
11.3407925184
 30
0.0
 10
15.6142483305
 20
11.311592623
 30
0.0
 10
15.6307855101
 20
11.283861042
 30
0.0
 10
15.6476912209
 20
11.2576315234
 30
0.0
 10
15.6649451056
 20
11.2329359723
 30
0.0
 10
15.6825264836
 20
11.2098044285
 30
0.0
 10
15.7004143908
 20
11.1882650509
 30
0.0
 10
15.7185876239
 20
11.1683441197
 30
0.0
 10
15.7370247766
 20
11.150066056
 30
0.0
 10
15.7557042614
 20
11.133453457
 30
0.0
 10
15.7746043086
 20
11.1185271477
 30
0.0
 10
15.793702928
 20
11.1053062426
 30
0.0
 10
15.8129778292
 20
11.0938082011
 30
0.0
 10
15.8324062614
 20
11.0840488519
 30
0.0
 10
15.8519648995
 20
11.0760423464
 30
0.0
 10
15.8716293802
 20
11.0698010063
 30
0.0
 10
15.8913750973
 20
11.0653350522
 30
0.0
 10
15.9111737356
 20
11.0626522341
 30
0.0
 10
15.9244102704
 20
11.0620549956
 30
0.0
 10
15.9310022418
 20
11.0620550011
 30
0.0
  0
SPLINE
  5
2B2
100
AcDbEntity
  8
02___PRT_ALL_AXES
100
AcDbSpline
 62
7
  6
CONTINUOUS
 70
0
 71
3
 72
17
 73
13
 74
0
 42
0.0000001
 43
0.0000001
 44
0.0000000001
 40
0.0
 40
0.0
 40
0.0
 40
0.0
 40
0.0533212069
 40
0.1070905134
 40
0.1615154073
 40
0.2167925639
 40
0.3305805431
 40
0.4498357953
 40
0.5756500998
 40
0.7088837227
 40
0.8501820647
 40
1.0
 40
1.0
 40
1.0
 40
1.0
 10
15.6700528181
 20
11.7923691847
 30
0.0
 10
15.667523794
 20
11.7925612607
 30
0.0
 10
15.6624561879
 20
11.7931234994
 30
0.0
 10
15.654890542
 20
11.7944911076
 30
0.0
 10
15.6473427024
 20
11.7963844435
 30
0.0
 10
15.6372154423
 20
11.7996377069
 30
0.0
 10
15.6245827055
 20
11.8050707027
 30
0.0
 10
15.6097562572
 20
11.8135960038
 30
0.0
 10
15.5951509152
 20
11.8241576274
 30
0.0
 10
15.5808062554
 20
11.8367196443
 30
0.0
 10
15.5667593074
 20
11.8512423819
 30
0.0
 10
15.5578816925
 20
11.8618865285
 30
0.0
 10
15.55349363
 20
11.8675016374
 30
0.0
  0
SPLINE
  5
2B3
100
AcDbEntity
  8
LAYER_FEATURE
100
AcDbSpline
 62
7
  6
CONTINUOUS
 70
0
 71
3
 72
19
 73
15
 74
0
 42
0.0000001
 43
0.0000001
 44
0.0000000001
 40
0.0
 40
0.0
 40
0.0
 40
0.0
 40
0.0571238984
 40
0.1143877452
 40
0.1719302137
 40
0.2298875164
 40
0.2883922094
 40
0.3475722836
 40
0.4684073138
 40
0.5933333371
 40
0.7231407859
 40
0.7901026497
 40
0.8585272134
 40
1.0
 40
1.0
 40
1.0
 40
1.0
 10
15.0111758708
 20
13.9595549848
 30
0.0
 10
15.0151167422
 20
13.9595549809
 30
0.0
 10
15.0230097823
 20
13.9593424355
 30
0.0
 10
15.0348377439
 20
13.9583864365
 30
0.0
 10
15.04665521
 20
13.9567937062
 30
0.0
 10
15.0584562439
 20
13.9545650137
 30
0.0
 10
15.0702359076
 20
13.9517014268
 30
0.0
 10
15.0860133058
 20
13.9470071878
 30
0.0
 10
15.1057060337
 20
13.9395051586
 30
0.0
 10
15.1289839167
 20
13.9280516464
 30
0.0
 10
15.147997951
 20
13.9165524618
 30
0.0
 10
15.1630672616
 20
13.9061713157
 30
0.0
 10
15.1783728721
 20
13.8947394166
 30
0.0
 10
15.189487422
 20
13.8854331961
 30
0.0
 10
15.1967617424
 20
13.8789262174
 30
0.0
  0
SPLINE
  5
2B4
100
AcDbEntity
  8
LAYER_FEATURE
100
AcDbSpline
 62
7
  6
CONTINUOUS
 70
0
 71
3
 72
19
 73
15
 74
0
 42
0.0000001
 43
0.0000001
 44
0.0000000001
 40
0.0
 40
0.0
 40
0.0
 40
0.0
 40
0.0571107812
 40
0.1143618887
 40
0.1718923679
 40
0.2298387788
 40
0.2883340337
 40
0.3475064029
 40
0.4683323284
 40
0.593259262
 40
0.7230790011
 40
0.7900516224
 40
0.8584899999
 40
1.0
 40
1.0
 40
1.0
 40
1.0
 10
15.0111758708
 20
11.062055001
 30
0.0
 10
15.0151225218
 20
11.0620549972
 30
0.0
 10
15.0230271706
 20
11.062268183
 30
0.0
 10
15.034872495
 20
11.0632269788
 30
0.0
 10
15.0467072728
 20
11.0648244067
 30
0.0
 10
15.0585255508
 20
11.067059626
 30
0.0
 10
15.0703223516
 20
11.069931641
 30
0.0
 10
15.0861228955
 20
11.0746397043
 30
0.0
 10
15.1058443341
 20
11.082163941
 30
0.0
 10
15.1291551506
 20
11.0936509925
 30
0.0
 10
15.1481951159
 20
11.1051834322
 30
0.0
 10
15.1632846064
 20
11.1155944999
 30
0.0
 10
15.1786111255
 20
11.1270597029
 30
0.0
 10
15.1897400263
 20
11.1363926116
 30
0.0
 10
15.197023478
 20
11.1429180716
 30
0.0
  0
SPLINE
  5
2B5
100
AcDbEntity
  8
LAYER_FEATURE
100
AcDbSpline
 62
7
  6
CONTINUOUS
 70
0
 71
3
 72
54
 73
50
 74
0
 42
0.0000001
 43
0.0000001
 44
0.0000000001
 40
0.0
 40
0.0
 40
0.0
 40
0.0
 40
0.0076944498
 40
0.0154413813
 40
0.0232919705
 40
0.0312949099
 40
0.0394954566
 40
0.0479347596
 40
0.0566494683
 40
0.0656715927
 40
0.0750285598
 40
0.084743408
 40
0.094835067
 40
0.1053186804
 40
0.11620594
 40
0.1275054133
 40
0.1392228492
 40
0.1513614589
 40
0.1639221688
 40
0.176903846
 40
0.1903034963
 40
0.2041164401
 40
0.2183364663
 40
0.2329559684
 40
0.247966065
 40
0.263356706
 40
0.2791167689
 40
0.2952341454
 40
0.3116958187
 40
0.3284879346
 40
0.3455958669
 40
0.3630042768
 40
0.3986567007
 40
0.4353116457
 40
0.4728260636
 40
0.5110502178
 40
0.5498290122
 40
0.589003255
 40
0.6284108829
 40
0.667888156
 40
0.7072708358
 40
0.74639536
 40
0.785100025
 40
0.8232261831
 40
0.8606194684
 40
0.8971310711
 40
0.9326190815
 40
0.966949917
 40
1.0
 40
1.0
 40
1.0
 40
1.0
 10
15.9592513831
 20
13.9595549847
 30
0.0
 10
15.9658433546
 20
13.9595549902
 30
0.0
 10
15.9790798893
 20
13.9589577517
 30
0.0
 10
15.9988785277
 20
13.9562749337
 30
0.0
 10
16.0186242447
 20
13.9518089795
 30
0.0
 10
16.0382887254
 20
13.9455676395
 30
0.0
 10
16.0578473635
 20
13.9375611339
 30
0.0
 10
16.0772757958
 20
13.9278017847
 30
0.0
 10
16.096550697
 20
13.9163037432
 30
0.0
 10
16.1156493164
 20
13.9030828381
 30
0.0
 10
16.1345493636
 20
13.8881565288
 30
0.0
 10
16.1532288483
 20
13.8715439298
 30
0.0
 10
16.171666001
 20
13.8532658661
 30
0.0
 10
16.1898392342
 20
13.8333449349
 30
0.0
 10
16.2077271414
 20
13.8118055573
 30
0.0
 10
16.2253085193
 20
13.7886740135
 30
0.0
 10
16.2425624041
 20
13.7639784625
 30
0.0
 10
16.2594681148
 20
13.7377489438
 30
0.0
 10
16.2760052945
 20
13.7100173628
 30
0.0
 10
16.2921539534
 20
13.6808174675
 30
0.0
 10
16.3078945098
 20
13.650184817
 30
0.0
 10
16.3232078277
 20
13.6181567437
 30
0.0
 10
16.3380752514
 20
13.5847723101
 30
0.0
 10
16.3524786381
 20
13.5500722622
 30
0.0
 10
16.3664003873
 20
13.5140989796
 30
0.0
 10
16.3798234708
 20
13.476896424
 30
0.0
 10
16.3927314569
 20
13.4385100819
 30
0.0
 10
16.4051085316
 20
13.3989869093
 30
0.0
 10
16.4169395306
 20
13.3583752602
 30
0.0
 10
16.4282099227
 20
13.3167248742
 30
0.0
 10
16.4389059751
 20
13.2740866281
 30
0.0
 10
16.4524913572
 20
13.2155242938
 30
0.0
 10
16.4679085922
 20
13.140209163
 30
0.0
 10
16.4837831856
 20
13.0474564602
 30
0.0
 10
16.4970973625
 20
12.9520770079
 30
0.0
 10
16.50778553
 20
12.8545380521
 30
0.0
 10
16.5157950236
 20
12.7553165239
 30
0.0
 10
16.5210863735
 20
12.65489806
 30
0.0
 10
16.5236335079
 20
12.5537741796
 30
0.0
 10
16.5234238723
 20
12.4524399376
 30
0.0
 10
16.5204584942
 20
12.3513914303
 30
0.0
 10
16.5147519873
 20
12.2511233343
 30
0.0
 10
16.5063324822
 20
12.1521264328
 30
0.0
 10
16.4952414729
 20
12.0548851861
 30
0.0
 10
16.4815335871
 20
11.9598752402
 30
0.0
 10
16.4652763755
 20
11.8675612808
 30
0.0
 10
16.4465497213
 20
11.7783937975
 30
0.0
 10
16.4254462595
 20
11.692809888
 30
0.0
 10
16.4095405961
 20
11.6372999022
 30
0.0
 10
16.4011807874
 20
11.6102475514
 30
0.0
  0
SPLINE
  5
2B6
100
AcDbEntity
  8
LAYER_FEATURE
100
AcDbSpline
 62
7
  6
CONTINUOUS
 70
0
 71
3
 72
34
 73
30
 74
0
 42
0.0000001
 43
0.0000001
 44
0.0000000001
 40
0.0
 40
0.0
 40
0.0
 40
0.0
 40
0.021277618
 40
0.042649021
 40
0.0642064753
 40
0.0860393076
 40
0.1082326744
 40
0.1308665541
 40
0.1540150003
 40
0.1777456881
 40
0.2021196816
 40
0.2271913755
 40
0.2795982787
 40
0.3070255587
 40
0.3353056934
 40
0.364463518
 40
0.3945190459
 40
0.4254878103
 40
0.4573812577
 40
0.4902070841
 40
0.5239695015
 40
0.5586695326
 40
0.594305291
 40
0.6308721871
 40
0.6683631124
 40
0.7460728074
 40
0.8273395859
 40
0.9120335745
 40
1.0
 40
1.0
 40
1.0
 40
1.0
 10
15.9592513831
 20
11.0620550011
 30
0.0
 10
15.9645432254
 20
11.0620550054
 30
0.0
 10
15.9751541972
 20
11.0624389821
 30
0.0
 10
15.9910421419
 20
11.0641650953
 30
0.0
 10
16.0069037348
 20
11.0670399386
 30
0.0
 10
16.0227245414
 20
11.071060567
 30
0.0
 10
16.0384917764
 20
11.0762230191
 30
0.0
 10
16.0541925516
 20
11.0825223565
 30
0.0
 10
16.0698144194
 20
11.0899527429
 30
0.0
 10
16.085345
 20
11.0985074754
 30
0.0
 10
16.1007726919
 20
11.1081794266
 30
0.0
 10
16.1214931553
 20
11.122767813
 30
0.0
 10
16.1416494386
 20
11.1394086107
 30
0.0
 10
16.1612139029
 20
11.1578611848
 30
0.0
 10
16.1759500942
 20
11.17298075
 30
0.0
 10
16.1905129264
 20
11.189156247
 30
0.0
 10
16.2048919928
 20
11.2063757325
 30
0.0
 10
16.2190759521
 20
11.2246253824
 30
0.0
 10
16.233053865
 20
11.2438908926
 30
0.0
 10
16.2468148194
 20
11.264157101
 30
0.0
 10
16.2603480889
 20
11.285408063
 30
0.0
 10
16.2736431083
 20
11.3076270556
 30
0.0
 10
16.2866894213
 20
11.3307965823
 30
0.0
 10
16.2994768996
 20
11.3548984882
 30
0.0
 10
16.3163699365
 20
11.3886558074
 30
0.0
 10
16.3367304634
 20
11.4330926216
 30
0.0
 10
16.359689405
 20
11.4891936801
 30
0.0
 10
16.3813865384
 20
11.5485167348
 30
0.0
 10
16.3947214665
 20
11.5893451811
 30
0.0
 10
16.4011807874
 20
11.6102475514
 30
0.0
  0
SPLINE
  5
2B7
100
AcDbEntity
  8
LAYER_CHAMFER_FEAT
100
AcDbSpline
 62
7
  6
CONTINUOUS
 70
0
 71
3
 72
47
 73
43
 74
0
 42
0.0000001
 43
0.0000001
 44
0.0000000001
 40
0.0
 40
0.0
 40
0.0
 40
0.0
 40
0.0101615349
 40
0.0206688775
 40
0.0315257322
 40
0.0427341056
 40
0.0542944679
 40
0.0662058927
 40
0.0784661757
 40
0.0910719389
 40
0.1040187356
 40
0.1173011399
 40
0.1309128225
 40
0.1448466133
 40
0.1736466546
 40
0.2036310378
 40
0.2347180654
 40
0.2668175417
 40
0.2998319162
 40
0.33365735
 40
0.3681846398
 40
0.4033001106
 40
0.4388864277
 40
0.4748233951
 40
0.5109887131
 40
0.5472587295
 40
0.5835091737
 40
0.6196158914
 40
0.6554555754
 40
0.6909065085
 40
0.72584931
 40
0.7601677137
 40
0.7937493571
 40
0.826486634
 40
0.8582775723
 40
0.8890268276
 40
0.9186467366
 40
0.9470585653
 40
0.9607904389
 40
0.9741955197
 40
0.987267451
 40
1.0
 40
1.0
 40
1.0
 40
1.0
 10
15.7546866287
 20
13.6114166832
 30
0.0
 10
15.7500680578
 20
13.6058834009
 30
0.0
 10
15.7409061938
 20
13.5944327023
 30
0.0
 10
15.7276085512
 20
13.5764493459
 30
0.0
 10
15.7145405872
 20
13.5573910541
 30
0.0
 10
15.7017155852
 20
13.537277346
 30
0.0
 10
15.6891462193
 20
13.516128294
 30
0.0
 10
15.6768450661
 20
13.4939651506
 30
0.0
 10
15.6648244356
 20
13.4708101573
 30
0.0
 10
15.6530963731
 20
13.4466865913
 30
0.0
 10
15.6416726466
 20
13.4216187028
 30
0.0
 10
15.6305647714
 20
13.3956317258
 30
0.0
 10
15.6197838352
 20
13.3687517268
 30
0.0
 10
15.6057050242
 20
13.3313453221
 30
0.0
 10
15.5890382211
 20
13.2825181447
 30
0.0
 10
15.5707220694
 20
13.2214469697
 30
0.0
 10
15.5539493917
 20
13.157512218
 30
0.0
 10
15.5387881263
 20
13.0909715521
 30
0.0
 10
15.5252995535
 20
13.0220923158
 30
0.0
 10
15.5135383485
 20
12.9511518147
 30
0.0
 10
15.5035521399
 20
12.8784357599
 30
0.0
 10
15.4953814378
 20
12.8042371802
 30
0.0
 10
15.4890593524
 20
12.7288551827
 30
0.0
 10
15.4846115388
 20
12.6525937252
 30
0.0
 10
15.4820560255
 20
12.5757603661
 30
0.0
 10
15.4814031842
 20
12.4986650044
 30
0.0
 10
15.4826556611
 20
12.4216186105
 30
0.0
 10
15.485808373
 20
12.344931955
 30
0.0
 10
15.4908485405
 20
12.2689143363
 30
0.0
 10
15.4977557091
 20
12.1938723147
 30
0.0
 10
15.5065018856
 20
12.1201084559
 30
0.0
 10
15.5170515851
 20
12.0479200824
 30
0.0
 10
15.5293620707
 20
11.9775980593
 30
0.0
 10
15.5433834326
 20
11.9094255466
 30
0.0
 10
15.5590589227
 20
11.8436769467
 30
0.0
 10
15.5763251247
 20
11.7806163017
 30
0.0
 10
15.5951122211
 20
11.7204977125
 30
0.0
 10
15.6121607095
 20
11.6725197995
 30
0.0
 10
15.6265330102
 20
11.6358313373
 30
0.0
 10
15.6375211646
 20
11.6095103562
 30
0.0
 10
15.6488291645
 20
11.5840992331
 30
0.0
 10
15.6566779292
 20
11.5675619939
 30
0.0
 10
15.6606565284
 20
11.5594544612
 30
0.0
  0
SPLINE
  5
2B8
100
AcDbEntity
  8
LAYER_FEATURE
100
AcDbSpline
 62
7
  6
CONTINUOUS
 70
0
 71
3
 72
34
 73
30
 74
0
 42
0.0000001
 43
0.0000001
 44
0.0000000001
 40
0.0
 40
0.0
 40
0.0
 40
0.0
 40
0.0879664255
 40
0.1726604141
 40
0.2539271926
 40
0.3316368876
 40
0.3691278129
 40
0.405694709
 40
0.4413304674
 40
0.4760304985
 40
0.5097929159
 40
0.5426187423
 40
0.5745121897
 40
0.6054809541
 40
0.635536482
 40
0.6646943066
 40
0.6929744413
 40
0.7204017213
 40
0.7728086245
 40
0.7978803184
 40
0.8222543119
 40
0.8459849997
 40
0.8691334459
 40
0.8917673256
 40
0.9139606924
 40
0.9357935247
 40
0.957350979
 40
0.978722382
 40
1.0
 40
1.0
 40
1.0
 40
1.0
 10
15.4890728375
 20
13.4113624344
 30
0.0
 10
15.4955321585
 20
13.4322648047
 30
0.0
 10
15.5088670866
 20
13.473093251
 30
0.0
 10
15.53056422
 20
13.5324163058
 30
0.0
 10
15.5535231616
 20
13.5885173642
 30
0.0
 10
15.5738836885
 20
13.6329541784
 30
0.0
 10
15.5907767253
 20
13.6667114977
 30
0.0
 10
15.6035642037
 20
13.6908134036
 30
0.0
 10
15.6166105166
 20
13.7139829303
 30
0.0
 10
15.629905536
 20
13.7362019228
 30
0.0
 10
15.6434388056
 20
13.7574528848
 30
0.0
 10
15.6571997599
 20
13.7777190933
 30
0.0
 10
15.6711776728
 20
13.7969846035
 30
0.0
 10
15.6853616321
 20
13.8152342533
 30
0.0
 10
15.6997406985
 20
13.8324537388
 30
0.0
 10
15.7143035308
 20
13.8486292358
 30
0.0
 10
15.7290397221
 20
13.863748801
 30
0.0
 10
15.7486041864
 20
13.8822013751
 30
0.0
 10
15.7687604697
 20
13.8988421728
 30
0.0
 10
15.789480933
 20
13.9134305592
 30
0.0
 10
15.8049086249
 20
13.9231025104
 30
0.0
 10
15.8204392055
 20
13.9316572429
 30
0.0
 10
15.8360610734
 20
13.9390876293
 30
0.0
 10
15.8517618485
 20
13.9453869667
 30
0.0
 10
15.8675290835
 20
13.9505494188
 30
0.0
 10
15.8833498902
 20
13.9545700472
 30
0.0
 10
15.899211483
 20
13.9574448905
 30
0.0
 10
15.9150994277
 20
13.9591710037
 30
0.0
 10
15.9257103996
 20
13.9595549804
 30
0.0
 10
15.9310022418
 20
13.9595549847
 30
0.0
  0
SPLINE
  5
2B9
100
AcDbEntity
  8
LAYER_CHAMFER_FEAT
100
AcDbSpline
 62
7
  6
CONTINUOUS
 70
0
 71
3
 72
19
 73
15
 74
0
 42
0.0000001
 43
0.0000001
 44
0.0000000001
 40
0.0
 40
0.0
 40
0.0
 40
0.0
 40
0.1469609938
 40
0.2860005777
 40
0.4176992047
 40
0.5428220807
 40
0.6032335763
 40
0.6623805345
 40
0.7204153477
 40
0.7775022261
 40
0.8338162641
 40
0.8895418293
 40
0.9448707407
 40
1.0
 40
1.0
 40
1.0
 40
1.0
 10
15.7550217002
 20
11.4103390788
 30
0.0
 10
15.7621030302
 20
11.402483962
 30
0.0
 10
15.7764068204
 20
11.3876553474
 30
0.0
 10
15.7989149253
 20
11.3676825554
 30
0.0
 10
15.8218106778
 20
11.3506673742
 30
0.0
 10
15.8413986998
 20
11.3388574138
 30
0.0
 10
15.8571696034
 20
11.3310091812
 30
0.0
 10
15.8689169075
 20
11.3259578384
 30
0.0
 10
15.880712373
 20
11.3216771083
 30
0.0
 10
15.8925485392
 20
11.3181701002
 30
0.0
 10
15.9044173611
 20
11.3154394933
 30
0.0
 10
15.916311019
 20
11.3134874824
 30
0.0
 10
15.9282206772
 20
11.3123156476
 30
0.0
 10
15.9361720736
 20
11.3120549921
 30
0.0
 10
15.9401393675
 20
11.3120549929
 30
0.0
  0
SPLINE
  5
2BA
100
AcDbEntity
  8
LAYER_FEATURE
100
AcDbSpline
 62
7
  6
CONTINUOUS
 70
0
 71
3
 72
54
 73
50
 74
0
 42
0.0000001
 43
0.0000001
 44
0.0000000001
 40
0.0
 40
0.0
 40
0.0
 40
0.0
 40
0.0330500869
 40
0.0673809189
 40
0.1028689286
 40
0.1393805316
 40
0.1767738172
 40
0.214899975
 40
0.2536046397
 40
0.2927291642
 40
0.332111844
 40
0.3715891169
 40
0.4109967451
 40
0.4501709878
 40
0.4889497815
 40
0.5271739361
 40
0.5646883551
 40
0.6013432992
 40
0.6369957215
 40
0.6544041318
 40
0.6715120649
 40
0.6883041821
 40
0.7047658562
 40
0.7208832323
 40
0.736643294
 40
0.7520339335
 40
0.7670440292
 40
0.7816635318
 40
0.7958835594
 40
0.8096965048
 40
0.823096156
 40
0.8360778326
 40
0.8486385411
 40
0.8607771491
 40
0.8724945842
 40
0.8837940579
 40
0.894681319
 40
0.9051649339
 40
0.9152565937
 40
0.9249714414
 40
0.9343284073
 40
0.9433505306
 40
0.9520652387
 40
0.9605045419
 40
0.9687050894
 40
0.9767080294
 40
0.9845586188
 40
0.9923055502
 40
1.0
 40
1.0
 40
1.0
 40
1.0
 10
14.5409973252
 20
13.4113624344
 30
0.0
 10
14.5326375155
 20
13.3843100804
 30
0.0
 10
14.5167318522
 20
13.3288000942
 30
0.0
 10
14.4956283911
 20
13.2432161848
 30
0.0
 10
14.476901736
 20
13.1540487051
 30
0.0
 10
14.4606445253
 20
13.0617347455
 30
0.0
 10
14.4469366418
 20
12.9667247991
 30
0.0
 10
14.4358456309
 20
12.8694835529
 30
0.0
 10
14.4274261229
 20
12.7704866519
 30
0.0
 10
14.4217196182
 20
12.6702185556
 30
0.0
 10
14.4187542437
 20
12.5691700481
 30
0.0
 10
14.4185446052
 20
12.4678358061
 30
0.0
 10
14.4210917354
 20
12.3667119256
 30
0.0
 10
14.4263830887
 20
12.2662934623
 30
0.0
 10
14.4343925872
 20
12.1670719348
 30
0.0
 10
14.4450807506
 20
12.0695329778
 30
0.0
 10
14.4583949223
 20
11.9741535241
 30
0.0
 10
14.4742695199
 20
11.8814008231
 30
0.0
 10
14.4896867598
 20
11.8060856953
 30
0.0
 10
14.50327214
 20
11.7475233609
 30
0.0
 10
14.5139681902
 20
11.7048851121
 30
0.0
 10
14.52523858
 20
11.6632347229
 30
0.0
 10
14.5370695775
 20
11.6226230718
 30
0.0
 10
14.549446653
 20
11.5830999002
 30
0.0
 10
14.5623546417
 20
11.5447135617
 30
0.0
 10
14.5757777277
 20
11.5075110104
 30
0.0
 10
14.5896994781
 20
11.47153773
 30
0.0
 10
14.6041028637
 20
11.4368376806
 30
0.0
 10
14.6189702852
 20
11.4034532428
 30
0.0
 10
14.6342836008
 20
11.3714251647
 30
0.0
 10
14.6500241558
 20
11.3407925116
 30
0.0
 10
14.666172816
 20
11.311592618
 30
0.0
 10
14.6827099977
 20
11.2838610418
 30
0.0
 10
14.6996157104
 20
11.2576315284
 30
0.0
 10
14.7168695963
 20
11.2329359804
 30
0.0
 10
14.7344509734
 20
11.209804435
 30
0.0
 10
14.7523388786
 20
11.1882650518
 30
0.0
 10
14.7705121097
 20
11.1683441144
 30
0.0
 10
14.7889492617
 20
11.1500660477
 30
0.0
 10
14.8076287477
 20
11.1334534512
 30
0.0
 10
14.8265287963
 20
11.1185271474
 30
0.0
 10
14.8456274168
 20
11.1053062481
 30
0.0
 10
14.8649023185
 20
11.0938082101
 30
0.0
 10
14.8843307503
 20
11.0840488595
 30
0.0
 10
14.903889387
 20
11.0760423475
 30
0.0
 10
14.9235538669
 20
11.0698009995
 30
0.0
 10
14.9432995843
 20
11.0653350454
 30
0.0
 10
14.9630982233
 20
11.0626522225
 30
0.0
 10
14.9763347581
 20
11.0620550075
 30
0.0
 10
14.9829267295
 20
11.062055001
 30
0.0
  0
SPLINE
  5
2BB
100
AcDbEntity
  8
LAYER_CHAMFER_FEAT
100
AcDbSpline
 62
7
  6
CONTINUOUS
 70
0
 71
3
 72
19
 73
15
 74
0
 42
0.0000001
 43
0.0000001
 44
0.0000000001
 40
0.0
 40
0.0
 40
0.0
 40
0.0
 40
0.0551288732
 40
0.1104574109
 40
0.1661826247
 40
0.2224963482
 40
0.279582956
 40
0.3376175515
 40
0.3967643571
 40
0.4571757637
 40
0.5822986929
 40
0.7139976919
 40
0.8530379773
 40
1.0
 40
1.0
 40
1.0
 40
1.0
 10
15.9401393675
 20
13.7095549929
 30
0.0
 10
15.9361719395
 20
13.709554992
 30
0.0
 10
15.9282202729
 20
13.7092943226
 30
0.0
 10
15.9163102119
 20
13.708122404
 30
0.0
 10
15.9044161519
 20
13.706170265
 30
0.0
 10
15.8925469316
 20
13.7034394706
 30
0.0
 10
15.8807103701
 20
13.6999322257
 30
0.0
 10
15.8689145125
 20
13.6956512085
 30
0.0
 10
15.8571668235
 20
13.6905995224
 30
0.0
 10
15.8413953948
 20
13.6827507606
 30
0.0
 10
15.8218067371
 20
13.6709399958
 30
0.0
 10
15.7989102759
 20
13.6539236786
 30
0.0
 10
15.7764015008
 20
13.6339495621
 30
0.0
 10
15.7620973177
 20
13.6191199846
 30
0.0
 10
15.7550157966
 20
13.6112643591
 30
0.0
  0
SPLINE
  5
2BC
100
AcDbEntity
  8
LAYER_FEATURE
100
AcDbSpline
 62
7
  6
CONTINUOUS
 70
0
 71
3
 72
34
 73
30
 74
0
 42
0.0000001
 43
0.0000001
 44
0.0000000001
 40
0.0
 40
0.0
 40
0.0
 40
0.0
 40
0.0879664337
 40
0.1726604085
 40
0.253927194
 40
0.3316368864
 40
0.3691278143
 40
0.4056947097
 40
0.4413304651
 40
0.4760304991
 40
0.5097929185
 40
0.5426187396
 40
0.5745121887
 40
0.6054809573
 40
0.6355364808
 40
0.6646943039
 40
0.6929744437
 40
0.7204017232
 40
0.7728086253
 40
0.7978803222
 40
0.8222543096
 40
0.8459849986
 40
0.8691334489
 40
0.8917673258
 40
0.9139606908
 40
0.9357935258
 40
0.9573509803
 40
0.9787223819
 40
1.0
 40
1.0
 40
1.0
 40
1.0
 10
14.5409973252
 20
13.4113624344
 30
0.0
 10
14.5474566468
 20
13.4322648066
 30
0.0
 10
14.5607915737
 20
13.4730932519
 30
0.0
 10
14.5824887101
 20
13.5324163058
 30
0.0
 10
14.6054476463
 20
13.5885173641
 30
0.0
 10
14.6258081788
 20
13.6329541776
 30
0.0
 10
14.6427012118
 20
13.6667114985
 30
0.0
 10
14.6554886904
 20
13.6908134039
 30
0.0
 10
14.6685350068
 20
13.7139829284
 30
0.0
 10
14.6818300235
 20
13.7362019231
 30
0.0
 10
14.6953632902
 20
13.7574528869
 30
0.0
 10
14.7091242507
 20
13.7777190907
 30
0.0
 10
14.7231021617
 20
13.7969846023
 30
0.0
 10
14.7372861161
 20
13.8152342565
 30
0.0
 10
14.7516651876
 20
13.8324537373
 30
0.0
 10
14.7662280215
 20
13.8486292323
 30
0.0
 10
14.7809642071
 20
13.8637488041
 30
0.0
 10
14.8005286741
 20
13.882201377
 30
0.0
 10
14.820684961
 20
13.8988421697
 30
0.0
 10
14.8414054159
 20
13.913430567
 30
0.0
 10
14.8568331166
 20
13.9231025034
 30
0.0
 10
14.8723636947
 20
13.931657239
 30
0.0
 10
14.8879855574
 20
13.9390876382
 30
0.0
 10
14.9036863371
 20
13.9453869651
 30
0.0
 10
14.9194535736
 20
13.9505494095
 30
0.0
 10
14.9352743764
 20
13.9545700526
 30
0.0
 10
14.95113597
 20
13.9574449
 30
0.0
 10
14.9670239165
 20
13.959170984
 30
0.0
 10
14.9776348872
 20
13.95955499
 30
0.0
 10
14.9829267295
 20
13.9595549848
 30
0.0
  0
SPLINE
  5
2BD
100
AcDbEntity
  8
02___PRT_ALL_AXES
100
AcDbSpline
 62
7
  6
CONTINUOUS
 70
0
 71
3
 72
13
 73
9
 74
0
 42
0.0000001
 43
0.0000001
 44
0.0000000001
 40
0.0
 40
0.0
 40
0.0
 40
0.0
 40
0.2623064922
 40
0.5147162041
 40
0.6380015088
 40
0.7597440249
 40
0.8802901222
 40
1.0
 40
1.0
 40
1.0
 40
1.0
 10
15.6173297232
 20
13.2122790271
 30
0.0
 10
15.6215645857
 20
13.2147073751
 30
0.0
 10
15.6301061046
 20
13.2190839515
 30
0.0
 10
15.6412064342
 20
13.2233689576
 30
0.0
 10
15.6500991857
 20
13.2259583145
 30
0.0
 10
15.6567343581
 20
13.2274808405
 30
0.0
 10
15.6633820253
 20
13.2285974617
 30
0.0
 10
15.6678313379
 20
13.229072078
 30
0.0
 10
15.6700528181
 20
13.2292408022
 30
0.0
  0
LINE
  5
2BE
100
AcDbEntity
  8
02___PRT_ALL_AXES
100
AcDbLine
 62
7
  6
CONTINUOUS
 10
15.6173297232
 20
13.2122790271
 11
15.5677163006
 21
13.2088580342
  0
SPLINE
  5
2BF
100
AcDbEntity
  8
02___PRT_ALL_AXES
100
AcDbSpline
 62
7
  6
CONTINUOUS
 70
0
 71
3
 72
24
 73
20
 74
0
 42
0.0000001
 43
0.0000001
 44
0.0000000001
 40
0.0
 40
0.0
 40
0.0
 40
0.0
 40
0.017533931
 40
0.0352525971
 40
0.053333763
 40
0.0719420677
 40
0.1112713125
 40
0.1542281988
 40
0.2014411415
 40
0.2532720888
 40
0.3098721722
 40
0.3712296182
 40
0.4372062637
 40
0.5075643867
 40
0.5819864935
 40
0.6600904188
 40
0.741441003
 40
0.8255605916
 40
1.0
 40
1.0
 40
1.0
 40
1.0
 10
15.7091651053
 20
11.7447225219
 30
0.0
 10
15.70960787
 20
11.7447225261
 30
0.0
 10
15.710498856
 20
11.7447726758
 30
0.0
 10
15.7118293077
 20
11.7449976453
 30
0.0
 10
15.7131539975
 20
11.7453718568
 30
0.0
 10
15.7149409477
 20
11.7460809489
 30
0.0
 10
15.7171593332
 20
11.7473642901
 30
0.0
 10
15.7196956165
 20
11.7494462571
 30
0.0
 10
15.7221435739
 20
11.7520787586
 30
0.0
 10
15.7244882514
 20
11.755241325
 30
0.0
 10
15.7267151236
 20
11.7589111421
 30
0.0
 10
15.7288088132
 20
11.7630616783
 30
0.0
 10
15.730754286
 20
11.7676626194
 30
0.0
 10
15.7325371427
 20
11.7726799654
 30
0.0
 10
15.7341440013
 20
11.7780763373
 30
0.0
 10
15.7355626627
 20
11.783811243
 30
0.0
 10
15.7367824166
 20
11.7898416811
 30
0.0
 10
15.7381471965
 20
11.7983174443
 30
0.0
 10
15.7388183001
 20
11.8048195745
 30
0.0
 10
15.739121588
 20
11.8092140445
 30
0.0
  0
SPLINE
  5
2C0
100
AcDbEntity
  8
02___PRT_ALL_AXES
100
AcDbSpline
 62
7
  6
CONTINUOUS
 70
0
 71
3
 72
30
 73
26
 74
0
 42
0.0000001
 43
0.0000001
 44
0.0000000001
 40
0.0
 40
0.0
 40
0.0
 40
0.0
 40
0.015510094
 40
0.0313837718
 40
0.0479548326
 40
0.0655063658
 40
0.0842618758
 40
0.1043862516
 40
0.1259920692
 40
0.1491475499
 40
0.1738841605
 40
0.2002030536
 40
0.2280804319
 40
0.2574717573
 40
0.2883150536
 40
0.3205335067
 40
0.3887167483
 40
0.4611959857
 40
0.5370041633
 40
0.6150826165
 40
0.6943136879
 40
0.7735505203
 40
0.8516461164
 40
0.9274819311
 40
1.0
 40
1.0
 40
1.0
 40
1.0
 10
15.8741554368
 20
11.956575175
 30
0.0
 10
15.8748207569
 20
11.9565751692
 30
0.0
 10
15.8761696104
 20
11.9566898191
 30
0.0
 10
15.8781706382
 20
11.9572017016
 30
0.0
 10
15.8801492743
 20
11.9580490724
 30
0.0
 10
15.8820961824
 20
11.9592252994
 30
0.0
 10
15.8840043558
 20
11.9607232553
 30
0.0
 10
15.8858670181
 20
11.96253549
 30
0.0
 10
15.8876775059
 20
11.9646539649
 30
0.0
 10
15.8894290306
 20
11.9670697421
 30
0.0
 10
15.8911147533
 20
11.9697727811
 30
0.0
 10
15.8927278903
 20
11.9727518409
 30
0.0
 10
15.8942618053
 20
11.9759944849
 30
0.0
 10
15.8957100729
 20
11.979487105
 30
0.0
 10
15.8970666393
 20
11.9832150081
 30
0.0
 10
15.898777578
 20
11.9885799291
 30
0.0
 10
15.9006308827
 20
11.9957673064
 30
0.0
 10
15.9023706162
 20
12.0048940563
 30
0.0
 10
15.9036360139
 20
12.0145265348
 30
0.0
 10
15.9044052224
 20
12.0245012621
 30
0.0
 10
15.9046648302
 20
12.0346492098
 30
0.0
 10
15.9044103619
 20
12.0447979792
 30
0.0
 10
15.903646206
 20
12.0547753927
 30
0.0
 10
15.9023857192
 20
12.0644116823
 30
0.0
 10
15.9011971186
 20
12.0706682795
 30
0.0
 10
15.9005160741
 20
12.0737035428
 30
0.0
  0
SPLINE
  5
2C1
100
AcDbEntity
  8
LAYER_FEATURE
100
AcDbSpline
 62
7
  6
CONTINUOUS
 70
0
 71
3
 72
23
 73
19
 74
0
 42
0.0000001
 43
0.0000001
 44
0.0000000001
 40
0.0
 40
0.0
 40
0.0
 40
0.0
 40
0.0796432477
 40
0.1571993418
 40
0.2325913126
 40
0.3057502584
 40
0.3766159763
 40
0.4451379908
 40
0.5112765793
 40
0.5750040136
 40
0.6363059736
 40
0.6951831914
 40
0.7516533467
 40
0.8057532416
 40
0.8575412611
 40
0.9071000973
 40
0.9545396584
 40
1.0
 40
1.0
 40
1.0
 40
1.0
 10
15.5670474572
 20
13.2831366376
 30
0.0
 10
15.5710483885
 20
13.2960836561
 30
0.0
 10
15.5792408842
 20
13.3215483782
 30
0.0
 10
15.5922861033
 20
13.3589156493
 30
0.0
 10
15.6059080742
 20
13.3948998351
 30
0.0
 10
15.6200845353
 20
13.4294421645
 30
0.0
 10
15.634792469
 20
13.4624866051
 30
0.0
 10
15.6500080092
 20
13.4939795179
 30
0.0
 10
15.6657065404
 20
13.5238698627
 30
0.0
 10
15.6818627482
 20
13.5521092486
 30
0.0
 10
15.6984506915
 20
13.5786520116
 30
0.0
 10
15.7154438833
 20
13.6034552733
 30
0.0
 10
15.7328153563
 20
13.6264789681
 30
0.0
 10
15.7505378136
 20
13.6476858971
 30
0.0
 10
15.7685834863
 20
13.6670415633
 30
0.0
 10
15.7869249854
 20
13.6845146109
 30
0.0
 10
15.8055325778
 20
13.7000749623
 30
0.0
 10
15.8183573509
 20
13.7093441745
 30
0.0
 10
15.8247989105
 20
13.7136262434
 30
0.0
  0
SPLINE
  5
2C2
100
AcDbEntity
  8
LAYER_FEATURE
100
AcDbSpline
 62
7
  6
CONTINUOUS
 70
0
 71
3
 72
23
 73
19
 74
0
 42
0.0000001
 43
0.0000001
 44
0.0000000001
 40
0.0
 40
0.0
 40
0.0
 40
0.0
 40
0.0547445354
 40
0.1111801322
 40
0.1691864283
 40
0.2286341097
 40
0.2893867059
 40
0.3513013532
 40
0.4142296647
 40
0.4780185557
 40
0.5425110514
 40
0.607547038
 40
0.6729640086
 40
0.7385977997
 40
0.8042833056
 40
0.8698551981
 40
0.9351486385
 40
1.0
 40
1.0
 40
1.0
 40
1.0
 10
15.524688177
 20
13.3694557751
 30
0.0
 10
15.5185165791
 20
13.3494844771
 30
0.0
 10
15.5066314829
 20
13.3087219525
 30
0.0
 10
15.4903869721
 20
13.2461885712
 30
0.0
 10
15.4754898115
 20
13.1814764687
 30
0.0
 10
15.4619845246
 20
13.1147777469
 30
0.0
 10
15.4499111689
 20
13.0462895927
 30
0.0
 10
15.4393056792
 20
12.9762148066
 30
0.0
 10
15.4301996049
 20
12.9047608834
 30
0.0
 10
15.4226200179
 20
12.8321394868
 30
0.0
 10
15.4165894882
 20
12.7585657736
 30
0.0
 10
15.4121259615
 20
12.6842577581
 30
0.0
 10
15.4092427036
 20
12.6094356589
 30
0.0
 10
15.4079483165
 20
12.5343212213
 30
0.0
 10
15.4082466418
 20
12.4591371105
 30
0.0
 10
15.4101367902
 20
12.3841060378
 30
0.0
 10
15.4136131211
 20
12.3094508607
 30
0.0
 10
15.4169956078
 20
12.2598681767
 30
0.0
 10
15.4189530149
 20
12.235183424
 30
0.0
  0
SPLINE
  5
2C3
100
AcDbEntity
  8
LAYER_FEATURE
100
AcDbSpline
 62
7
  6
CONTINUOUS
 70
0
 71
3
 72
66
 73
62
 74
0
 42
0.0000001
 43
0.0000001
 44
0.0000000001
 40
0.0
 40
0.0
 40
0.0
 40
0.0
 40
0.0474389237
 40
0.0940976414
 40
0.1397833723
 40
0.1843109698
 40
0.2275047
 40
0.2485503794
 40
0.269201989
 40
0.2894411031
 40
0.3092502861
 40
0.3286131774
 40
0.3475145841
 40
0.3659405819
 40
0.3838786272
 40
0.4013176816
 40
0.4182483531
 40
0.4346630532
 40
0.4505561768
 40
0.4659243058
 40
0.480766441
 40
0.4950842646
 40
0.5088824372
 40
0.5221689316
 40
0.5349554033
 40
0.547257595
 40
0.5590957625
 40
0.5704951078
 40
0.5814861863
 40
0.5921052445
 40
0.6023944267
 40
0.6124017797
 40
0.6221809765
 40
0.6317906957
 40
0.6412936258
 40
0.650755121
 40
0.6602416003
 40
0.6698188385
 40
0.6795503232
 40
0.6894958355
 40
0.6997103632
 40
0.7102433874
 40
0.7211385266
 40
0.732433478
 40
0.7441601823
 40
0.7563451342
 40
0.7690097771
 40
0.7821709332
 40
0.7958412335
 40
0.8100295288
 40
0.824741269
 40
0.8399788461
 40
0.855741901
 40
0.8720275937
 40
0.8888308412
 40
0.9061445321
 40
0.9239596968
 40
0.9422657228
 40
0.96105034
 40
0.9803001562
 40
1.0
 40
1.0
 40
1.0
 40
1.0
 10
15.4189578862
 20
12.2351220003
 30
0.0
 10
15.421478939
 20
12.2033365205
 30
0.0
 10
15.4273739915
 20
12.1403551911
 30
0.0
 10
15.4388738662
 20
12.0470951072
 30
0.0
 10
15.4529123742
 20
11.9561608367
 30
0.0
 10
15.4694185296
 20
11.8680100497
 30
0.0
 10
15.485294937
 20
11.7966319794
 30
0.0
 10
15.4991995363
 20
11.7412911542
 30
0.0
 10
15.5100993248
 20
11.7011111633
 30
0.0
 10
15.5215465348
 20
11.6619487735
 30
0.0
 10
15.5335268752
 20
11.6238530186
 30
0.0
 10
15.5460252644
 20
11.5868717239
 30
0.0
 10
15.5590260091
 20
11.5510512591
 30
0.0
 10
15.5725127892
 20
11.5164365272
 30
0.0
 10
15.5864686919
 20
11.4830708947
 30
0.0
 10
15.6008762357
 20
11.450996139
 30
0.0
 10
15.6157173992
 20
11.4202523942
 30
0.0
 10
15.6309736516
 20
11.3908781006
 30
0.0
 10
15.6466259863
 20
11.3629099572
 30
0.0
 10
15.6626549577
 20
11.3363828784
 30
0.0
 10
15.6790407173
 20
11.3113299543
 30
0.0
 10
15.695763058
 20
11.2877824217
 30
0.0
 10
15.7128014588
 20
11.2657696439
 30
0.0
 10
15.730135129
 20
11.2453191021
 30
0.0
 10
15.7477430501
 20
11.226456401
 30
0.0
 10
15.7656040097
 20
11.209205292
 30
0.0
 10
15.7836966194
 20
11.1935877146
 30
0.0
 10
15.8019993054
 20
11.1796238549
 30
0.0
 10
15.8204902557
 20
11.1673322077
 30
0.0
 10
15.8391473149
 20
11.1567296279
 30
0.0
 10
15.8579478247
 20
11.1478313435
 30
0.0
 10
15.8768684185
 20
11.14065088
 30
0.0
 10
15.8958848198
 20
11.1351998657
 30
0.0
 10
15.9149717155
 20
11.1314877062
 30
0.0
 10
15.934102788
 20
11.1295211706
 30
0.0
 10
15.9532509587
 20
11.1293039871
 30
0.0
 10
15.9723888224
 20
11.1308365761
 30
0.0
 10
15.991489173
 20
11.1341160126
 30
0.0
 10
16.0105254728
 20
11.1391362475
 30
0.0
 10
16.0294721487
 20
11.1458884886
 30
0.0
 10
16.0483046739
 20
11.1543616241
 30
0.0
 10
16.0669994734
 20
11.1645425755
 30
0.0
 10
16.0855337331
 20
11.1764165259
 30
0.0
 10
16.1038851907
 20
11.189967022
 30
0.0
 10
16.1220319599
 20
11.2051759818
 30
0.0
 10
16.1399524144
 20
11.2220236455
 30
0.0
 10
16.1576251225
 20
11.2404885141
 30
0.0
 10
16.1750288271
 20
11.2605472901
 30
0.0
 10
16.1921424592
 20
11.2821748315
 30
0.0
 10
16.2089451677
 20
11.3053441234
 30
0.0
 10
16.2254163607
 20
11.3300262692
 30
0.0
 10
16.2415357494
 20
11.3561904952
 30
0.0
 10
16.2572833922
 20
11.3838041697
 30
0.0
 10
16.2726397381
 20
11.4128328284
 30
0.0
 10
16.2875856705
 20
11.4432402122
 30
0.0
 10
16.3021025317
 20
11.4749883044
 30
0.0
 10
16.3161721865
 20
11.5080374013
 30
0.0
 10
16.3297769787
 20
11.5423460806
 30
0.0
 10
16.3428999334
 20
11.577871495
 30
0.0
 10
16.3555244365
 20
11.6145688248
 30
0.0
 10
16.3635080328
 20
11.6395035505
 30
0.0
 10
16.3674173825
 20
11.6521542108
 30
0.0
  0
SPLINE
  5
2C4
100
AcDbEntity
  8
LAYER_FEATURE
100
AcDbSpline
 62
7
  6
CONTINUOUS
 70
0
 71
3
 72
54
 73
50
 74
0
 42
0.0000001
 43
0.0000001
 44
0.0000000001
 40
0.0
 40
0.0
 40
0.0
 40
0.0
 40
0.033050083
 40
0.0673809185
 40
0.1028689289
 40
0.1393805316
 40
0.1767738169
 40
0.214899975
 40
0.25360464
 40
0.2927291642
 40
0.332111844
 40
0.3715891171
 40
0.410996745
 40
0.4501709878
 40
0.4889497822
 40
0.5271739364
 40
0.5646883543
 40
0.6013432993
 40
0.6369957232
 40
0.6544041331
 40
0.6715120654
 40
0.6883041813
 40
0.7047658546
 40
0.7208832311
 40
0.736643294
 40
0.752033935
 40
0.7670440316
 40
0.7816635337
 40
0.7958835599
 40
0.8096965037
 40
0.823096154
 40
0.8360778312
 40
0.8486385411
 40
0.8607771508
 40
0.8724945867
 40
0.88379406
 40
0.8946813196
 40
0.905164933
 40
0.915256592
 40
0.9249714402
 40
0.9343284073
 40
0.9433505317
 40
0.9520652404
 40
0.9605045434
 40
0.9687050901
 40
0.9767080295
 40
0.9845586187
 40
0.9923055502
 40
1.0
 40
1.0
 40
1.0
 40
1.0
 10
15.5173219789
 20
13.4113624344
 30
0.0
 10
15.5089621702
 20
13.3843100836
 30
0.0
 10
15.4930565068
 20
13.3288000978
 30
0.0
 10
15.471953045
 20
13.2432161883
 30
0.0
 10
15.4532263908
 20
13.154048705
 30
0.0
 10
15.4369691792
 20
13.0617347456
 30
0.0
 10
15.4232612934
 20
12.9667247997
 30
0.0
 10
15.4121702841
 20
12.869483553
 30
0.0
 10
15.403750779
 20
12.7704866515
 30
0.0
 10
15.3980442721
 20
12.6702185555
 30
0.0
 10
15.395078894
 20
12.5691700482
 30
0.0
 10
15.3948692584
 20
12.4678358062
 30
0.0
 10
15.3974163927
 20
12.3667119258
 30
0.0
 10
15.4027077427
 20
12.266293462
 30
0.0
 10
15.4107172363
 20
12.1670719338
 30
0.0
 10
15.4214054037
 20
12.0695329779
 30
0.0
 10
15.4347195807
 20
11.9741535256
 30
0.0
 10
15.4505941741
 20
11.8814008228
 30
0.0
 10
15.466011409
 20
11.806085692
 30
0.0
 10
15.4795967911
 20
11.7475233578
 30
0.0
 10
15.4902928436
 20
11.7048851116
 30
0.0
 10
15.5015632357
 20
11.6632347256
 30
0.0
 10
15.5133942347
 20
11.6226230765
 30
0.0
 10
15.5257713094
 20
11.583099904
 30
0.0
 10
15.5386792955
 20
11.5447135618
 30
0.0
 10
15.552102379
 20
11.5075110063
 30
0.0
 10
15.5660241281
 20
11.4715377236
 30
0.0
 10
15.5804275149
 20
11.4368376757
 30
0.0
 10
15.5952949386
 20
11.4034532421
 30
0.0
 10
15.6106082564
 20
11.3714251688
 30
0.0
 10
15.6263488129
 20
11.3407925184
 30
0.0
 10
15.6424974718
 20
11.311592623
 30
0.0
 10
15.6590346515
 20
11.283861042
 30
0.0
 10
15.6759403622
 20
11.2576315234
 30
0.0
 10
15.693194247
 20
11.2329359723
 30
0.0
 10
15.7107756249
 20
11.2098044285
 30
0.0
 10
15.7286635321
 20
11.1882650509
 30
0.0
 10
15.7468367653
 20
11.1683441197
 30
0.0
 10
15.765273918
 20
11.150066056
 30
0.0
 10
15.7839534027
 20
11.133453457
 30
0.0
 10
15.8028534499
 20
11.1185271477
 30
0.0
 10
15.8219520693
 20
11.1053062426
 30
0.0
 10
15.8412269705
 20
11.0938082011
 30
0.0
 10
15.8606554028
 20
11.0840488519
 30
0.0
 10
15.8802140409
 20
11.0760423464
 30
0.0
 10
15.8998785216
 20
11.0698010063
 30
0.0
 10
15.9196242386
 20
11.0653350522
 30
0.0
 10
15.939422877
 20
11.0626522341
 30
0.0
 10
15.9526594117
 20
11.0620549956
 30
0.0
 10
15.9592513831
 20
11.0620550011
 30
0.0
  0
SPLINE
  5
2C5
100
AcDbEntity
  8
02___PRT_ALL_AXES
100
AcDbSpline
 62
7
  6
CONTINUOUS
 70
0
 71
3
 72
14
 73
10
 74
0
 42
0.0000001
 43
0.0000001
 44
0.0000000001
 40
0.0
 40
0.0
 40
0.0
 40
0.0
 40
0.1183320638
 40
0.2368580831
 40
0.3564955109
 40
0.4781304671
 40
0.6025959434
 40
0.7306532506
 40
1.0
 40
1.0
 40
1.0
 40
1.0
 10
15.6700528181
 20
13.2292408022
 30
0.0
 10
15.673534411
 20
13.2295052337
 30
0.0
 10
15.680533361
 20
13.2297013249
 30
0.0
 10
15.6910432318
 20
13.2289816184
 30
0.0
 10
15.7015336939
 20
13.2272494462
 30
0.0
 10
15.7119868399
 20
13.2245085702
 30
0.0
 10
15.7223881487
 20
13.2207639356
 30
0.0
 10
15.7363969642
 20
13.2143376439
 30
0.0
 10
15.7464351043
 20
13.2081652986
 30
0.0
 10
15.7529154785
 20
13.2035642999
 30
0.0
  0
SPLINE
  5
2C6
100
AcDbEntity
  8
LAYER_FEATURE
100
AcDbSpline
 62
7
  6
CONTINUOUS
 70
0
 71
3
 72
47
 73
43
 74
0
 42
0.0000001
 43
0.0000001
 44
0.0000000001
 40
0.0
 40
0.0
 40
0.0
 40
0.0
 40
0.0173869031
 40
0.0265241632
 40
0.035974874
 40
0.0457507008
 40
0.055860993
 40
0.0663129704
 40
0.0771119108
 40
0.0882613259
 40
0.0997631191
 40
0.1116177218
 40
0.123824222
 40
0.1363804861
 40
0.1492832618
 40
0.1625282654
 40
0.176110261
 40
0.1900231419
 40
0.2042599969
 40
0.2336729181
 40
0.2642812338
 40
0.2960060002
 40
0.3287599475
 40
0.3624486294
 40
0.3969713866
 40
0.4322222701
 40
0.4680908527
 40
0.5044630262
 40
0.5412217358
 40
0.5782477088
 40
0.6154201522
 40
0.6526174483
 40
0.6897178385
 40
0.7266001112
 40
0.7631442875
 40
0.7992323241
 40
0.8347488187
 40
0.8695817546
 40
0.9036232532
 40
0.9367703957
 40
0.9689260274
 40
1.0
 40
1.0
 40
1.0
 40
1.0
 10
15.8247989108
 20
11.3079837455
 30
0.0
 10
15.8147849873
 20
11.3146405669
 30
0.0
 10
15.8001141949
 20
11.3257343346
 30
0.0
 10
15.7814686421
 20
11.3422150268
 30
0.0
 10
15.7674112269
 20
11.3559083794
 30
0.0
 10
15.7535292257
 20
11.3707133771
 30
0.0
 10
15.7398341839
 20
11.3866168837
 30
0.0
 10
15.7263393409
 20
11.4036032655
 30
0.0
 10
15.7130572865
 20
11.4216562992
 30
0.0
 10
15.7000006102
 20
11.4407586479
 30
0.0
 10
15.6871816983
 20
11.4608920144
 30
0.0
 10
15.6746127525
 20
11.4820370929
 30
0.0
 10
15.6623057576
 20
11.5041735962
 30
0.0
 10
15.650272482
 20
11.5272802831
 30
0.0
 10
15.638524461
 20
11.5513349738
 30
0.0
 10
15.6270729635
 20
11.5763145684
 30
0.0
 10
15.6159290076
 20
11.6021950319
 30
0.0
 10
15.6051032104
 20
11.6289515572
 30
0.0
 10
15.5909536923
 20
11.6661646215
 30
0.0
 10
15.5741721951
 20
11.7147167614
 30
0.0
 10
15.5556756157
 20
11.7754252153
 30
0.0
 10
15.5386786513
 20
11.8389647395
 30
0.0
 10
15.5232469718
 20
11.9050906666
 30
0.0
 10
15.5094402304
 20
11.9735491946
 30
0.0
 10
15.4973118038
 20
12.0440770132
 30
0.0
 10
15.4869086681
 20
12.1164027672
 30
0.0
 10
15.4782710733
 20
12.1902480168
 30
0.0
 10
15.4714324974
 20
12.2653283779
 30
0.0
 10
15.466419409
 20
12.3413546292
 30
0.0
 10
15.463251243
 20
12.4180338523
 30
0.0
 10
15.4619402638
 20
12.4950705768
 30
0.0
 10
15.4624915538
 20
12.5721679358
 30
0.0
 10
15.4649029796
 20
12.649028826
 30
0.0
 10
15.4691651909
 20
12.7253570674
 30
0.0
 10
15.4752616898
 20
12.8008585604
 30
0.0
 10
15.4831688418
 20
12.8752424399
 30
0.0
 10
15.492856044
 20
12.9482222031
 30
0.0
 10
15.5042857614
 20
13.0195168806
 30
0.0
 10
15.5174137564
 20
13.0888519908
 30
0.0
 10
15.5321892794
 20
13.1559611314
 30
0.0
 10
15.5485549215
 20
13.2205853111
 30
0.0
 10
15.5607024427
 20
13.2626041631
 30
0.0
 10
15.5670474572
 20
13.2831366376
 30
0.0
  0
SPLINE
  5
2C7
100
AcDbEntity
  8
LAYER_CHAMFER_FEAT
100
AcDbSpline
 62
7
  6
CONTINUOUS
 70
0
 71
3
 72
39
 73
35
 74
0
 42
0.0000001
 43
0.0000001
 44
0.0000000001
 40
0.0
 40
0.0
 40
0.0
 40
0.0
 40
0.0439505371
 40
0.0865558924
 40
0.1278044862
 40
0.1676923344
 40
0.2062207586
 40
0.24339851
 40
0.2792420462
 40
0.3137765144
 40
0.3470366632
 40
0.3790678399
 40
0.4099270353
 40
0.4396839038
 40
0.4684216903
 40
0.4962379266
 40
0.5232447492
 40
0.5495686755
 40
0.575349661
 40
0.6007393101
 40
0.6258982117
 40
0.650992497
 40
0.6761898827
 40
0.7016555611
 40
0.7275483352
 40
0.7540173401
 40
0.781199568
 40
0.8092182829
 40
0.8381822571
 40
0.8681856907
 40
0.899308637
 40
0.9316177588
 40
0.9651672748
 40
1.0
 40
1.0
 40
1.0
 40
1.0
 10
16.248635628
 20
13.4621555246
 30
0.0
 10
16.2444265069
 20
13.4707328116
 30
0.0
 10
16.2359029558
 20
13.4875113944
 30
0.0
 10
16.222584298
 20
13.5118991799
 30
0.0
 10
16.2089447179
 20
13.5350906732
 30
0.0
 10
16.1950005861
 20
13.5570579841
 30
0.0
 10
16.1807681763
 20
13.5777751606
 30
0.0
 10
16.1662642204
 20
13.5972175532
 30
0.0
 10
16.1515056101
 20
13.6153620709
 30
0.0
 10
16.1365094668
 20
13.632187117
 30
0.0
 10
16.1212930753
 20
13.6476725895
 30
0.0
 10
16.1058738699
 20
13.6617998516
 30
0.0
 10
16.0902694307
 20
13.6745516968
 30
0.0
 10
16.0744974999
 20
13.6859123007
 30
0.0
 10
16.0585760423
 20
13.6958671861
 30
0.0
 10
16.0425233391
 20
13.7044031973
 30
0.0
 10
16.0263581166
 20
13.7115085041
 30
0.0
 10
16.0100997034
 20
13.7171726895
 30
0.0
 10
15.9937681662
 20
13.7213869309
 30
0.0
 10
15.9773843697
 20
13.7241442647
 30
0.0
 10
15.9609699096
 20
13.7254399211
 30
0.0
 10
15.9445468807
 20
13.7252715929
 30
0.0
 10
15.9281375283
 20
13.7236395855
 30
0.0
 10
15.911763859
 20
13.7205467967
 30
0.0
 10
15.8954473133
 20
13.7159985243
 30
0.0
 10
15.8792085772
 20
13.7100021714
 30
0.0
 10
15.8630675381
 20
13.7025669543
 30
0.0
 10
15.8470433715
 20
13.6937036313
 30
0.0
 10
15.8311546883
 20
13.6834243487
 30
0.0
 10
15.815419678
 20
13.6717425611
 30
0.0
 10
15.7998562726
 20
13.6586730713
 30
0.0
 10
15.7844820886
 20
13.6442319022
 30
0.0
 10
15.7693150238
 20
13.6284370145
 30
0.0
 10
15.7595389343
 20
13.6172299917
 30
0.0
 10
15.7546866287
 20
13.6114166832
 30
0.0
  0
SPLINE
  5
2C8
100
AcDbEntity
  8
LAYER_CHAMFER_FEAT
100
AcDbSpline
 62
7
  6
CONTINUOUS
 70
0
 71
3
 72
24
 73
20
 74
0
 42
0.0000001
 43
0.0000001
 44
0.0000000001
 40
0.0
 40
0.0
 40
0.0
 40
0.0
 40
0.0835156878
 40
0.1639171866
 40
0.2411801486
 40
0.3153005787
 40
0.3862975038
 40
0.4542160251
 40
0.5191308127
 40
0.5811499973
 40
0.640419357
 40
0.6690847715
 40
0.6971369575
 40
0.7515154045
 40
0.8038470578
 40
0.8544632653
 40
0.9037425913
 40
0.9521047137
 40
1.0
 40
1.0
 40
1.0
 40
1.0
 10
16.2303163727
 20
13.4498181258
 30
0.0
 10
16.2252992002
 20
13.4600420484
 30
0.0
 10
16.2151160331
 20
13.4799463993
 30
0.0
 10
16.1990715264
 20
13.5086645098
 30
0.0
 10
16.182571711
 20
13.5356339305
 30
0.0
 10
16.1656451446
 20
13.5608073691
 30
0.0
 10
16.1483206249
 20
13.5841412475
 30
0.0
 10
16.1306275206
 20
13.6055949398
 30
0.0
 10
16.1125952145
 20
13.6251312303
 30
0.0
 10
16.0942543505
 20
13.6427151188
 30
0.0
 10
16.0785659972
 20
13.6558594243
 30
0.0
 10
16.0658940774
 20
13.6653302446
 30
0.0
 10
16.0534183412
 20
13.6739301505
 30
0.0
 10
16.0376767736
 20
13.6834563225
 30
0.0
 10
16.018403584
 20
13.6929450074
 30
0.0
 10
15.9989768298
 20
13.7003509284
 30
0.0
 10
15.9794313756
 20
13.7056554928
 30
0.0
 10
15.9598075374
 20
13.708844466
 30
0.0
 10
15.9466706087
 20
13.7095549943
 30
0.0
 10
15.9401393675
 20
13.7095549929
 30
0.0
  0
SPLINE
  5
2C9
100
AcDbEntity
  8
02___PRT_ALL_AXES
100
AcDbSpline
 62
7
  6
CONTINUOUS
 70
0
 71
3
 72
47
 73
43
 74
0
 42
0.0000001
 43
0.0000001
 44
0.0000000001
 40
0.0
 40
0.0
 40
0.0
 40
0.0
 40
0.0173869031
 40
0.0265241632
 40
0.035974874
 40
0.0457507008
 40
0.055860993
 40
0.0663129704
 40
0.0771119108
 40
0.0882613259
 40
0.0997631191
 40
0.1116177218
 40
0.123824222
 40
0.1363804861
 40
0.1492832618
 40
0.1625282654
 40
0.176110261
 40
0.1900231419
 40
0.2042599969
 40
0.2336729181
 40
0.2642812338
 40
0.2960060002
 40
0.3287599475
 40
0.3624486294
 40
0.3969713866
 40
0.4322222701
 40
0.4680908527
 40
0.5044630262
 40
0.5412217358
 40
0.5782477088
 40
0.6154201522
 40
0.6526174483
 40
0.6897178385
 40
0.7266001112
 40
0.7631442875
 40
0.7992323241
 40
0.8347488187
 40
0.8695817546
 40
0.9036232532
 40
0.9367703957
 40
0.9689260274
 40
1.0
 40
1.0
 40
1.0
 40
1.0
 10
15.8328525165
 20
11.3026300698
 30
0.0
 10
15.8227940217
 20
11.3093165202
 30
0.0
 10
15.8080579306
 20
11.3204596655
 30
0.0
 10
15.7893293877
 20
11.3370137122
 30
0.0
 10
15.7752094039
 20
11.3507680129
 30
0.0
 10
15.7612656148
 20
11.3656389066
 30
0.0
 10
15.7475096173
 20
11.3816131987
 30
0.0
 10
15.7339547097
 20
11.3986751857
 30
0.0
 10
15.7206135378
 20
11.4168085723
 30
0.0
 10
15.7074987471
 20
11.4359959442
 30
0.0
 10
15.6946227791
 20
11.456218923
 30
0.0
 10
15.6819978898
 20
11.4774581167
 30
0.0
 10
15.6696361173
 20
11.4996931481
 30
0.0
 10
15.6575492824
 20
11.5229026813
 30
0.0
 10
15.6457489717
 20
11.5470644378
 30
0.0
 10
15.6342465044
 20
11.5721552149
 30
0.0
 10
15.6230529475
 20
11.5981508706
 30
0.0
 10
15.6121789655
 20
11.6250264874
 30
0.0
 10
15.5979664688
 20
11.6624051845
 30
0.0
 10
15.5811102783
 20
11.7111734266
 30
0.0
 10
15.5625313718
 20
11.7721520898
 30
0.0
 10
15.5454587551
 20
11.8359744241
 30
0.0
 10
15.5299583902
 20
11.9023946732
 30
0.0
 10
15.516090196
 20
11.9711579055
 30
0.0
 10
15.5039077866
 20
12.0419996386
 30
0.0
 10
15.4934583473
 20
12.1146473097
 30
0.0
 10
15.4847823071
 20
12.1888212394
 30
0.0
 10
15.4779132931
 20
12.2642357781
 30
0.0
 10
15.4728778919
 20
12.3406004172
 30
0.0
 10
15.4696956245
 20
12.4176209342
 30
0.0
 10
15.4683788102
 20
12.495000544
 30
0.0
 10
15.468932554
 20
12.5724410581
 30
0.0
 10
15.4713547129
 20
12.6496440509
 30
0.0
 10
15.475635895
 20
12.7263120241
 30
0.0
 10
15.4817595291
 20
12.8021495691
 30
0.0
 10
15.4897018752
 20
12.8768645263
 30
0.0
 10
15.4994321945
 20
12.9501691175
 30
0.0
 10
15.5109127848
 20
13.0217811227
 30
0.0
 10
15.5240992116
 20
13.0914248388
 30
0.0
 10
15.5389404995
 20
13.1588326776
 30
0.0
 10
15.5553789839
 20
13.2237444952
 30
0.0
 10
15.5675805729
 20
13.2659503702
 30
0.0
 10
15.5739538286
 20
13.2865742333
 30
0.0
  0
SPLINE
  5
2CA
100
AcDbEntity
  8
LAYER_FEATURE
100
AcDbSpline
 62
7
  6
CONTINUOUS
 70
0
 71
3
 72
11
 73
7
 74
0
 42
0.0000001
 43
0.0000001
 44
0.0000000001
 40
0.0
 40
0.0
 40
0.0
 40
0.0
 40
0.2221057691
 40
0.4624484853
 40
0.7217073982
 40
1.0
 40
1.0
 40
1.0
 40
1.0
 10
14.5627157142
 20
13.0856634703
 30
0.0
 10
14.563146131
 20
13.0860657647
 30
0.0
 10
14.5639933267
 20
13.0869566397
 30
0.0
 10
14.5651742381
 20
13.0884663419
 30
0.0
 10
14.5663083023
 20
13.0901925775
 30
0.0
 10
14.5670049235
 20
13.0914381067
 30
0.0
 10
14.5673457179
 20
13.0920929235
 30
0.0
  0
SPLINE
  5
2CB
100
AcDbEntity
  8
LAYER_FEATURE
100
AcDbSpline
 62
7
  6
CONTINUOUS
 70
0
 71
3
 72
16
 73
12
 74
0
 42
0.0000001
 43
0.0000001
 44
0.0000000001
 40
0.0
 40
0.0
 40
0.0
 40
0.0
 40
0.0390682438
 40
0.0791365604
 40
0.1655947211
 40
0.2650943232
 40
0.3804550253
 40
0.5125275613
 40
0.6608360249
 40
0.8239968482
 40
1.0
 40
1.0
 40
1.0
 40
1.0
 10
14.5433012703
 20
13.0856933717
 30
0.0
 10
14.5432195416
 20
13.0856933771
 30
0.0
 10
14.543053632
 20
13.0856785489
 30
0.0
 10
14.542717658
 20
13.0855881933
 30
0.0
 10
14.5422986636
 20
13.0853536065
 30
0.0
 10
14.5418385739
 20
13.0849164178
 30
0.0
 10
14.5414093516
 20
13.0843274736
 30
0.0
 10
14.5410165652
 20
13.0835965166
 30
0.0
 10
14.5406660904
 20
13.0827358668
 30
0.0
 10
14.5403642048
 20
13.0817607381
 30
0.0
 10
14.5402043284
 20
13.0810688096
 30
0.0
 10
14.5401326542
 20
13.0807076637
 30
0.0
  0
SPLINE
  5
2CC
100
AcDbEntity
  8
LAYER_FEATURE
100
AcDbSpline
 62
7
  6
CONTINUOUS
 70
0
 71
3
 72
15
 73
11
 74
0
 42
0.0000001
 43
0.0000001
 44
0.0000000001
 40
0.0
 40
0.0
 40
0.0
 40
0.0
 40
0.0821284159
 40
0.1709215602
 40
0.2713726457
 40
0.386383084
 40
0.5171516275
 40
0.6636699445
 40
0.8251034249
 40
1.0
 40
1.0
 40
1.0
 40
1.0
 10
14.5676281908
 20
13.2058845014
 30
0.0
 10
14.5674785436
 20
13.2058844993
 30
0.0
 10
14.5671652871
 20
13.2058319631
 30
0.0
 10
14.5667190404
 20
13.205605984
 30
0.0
 10
14.566294355
 20
13.2052434663
 30
0.0
 10
14.5658942353
 20
13.2047524424
 30
0.0
 10
14.5655221265
 20
13.2041400859
 30
0.0
 10
14.5651826626
 20
13.2034149657
 30
0.0
 10
14.5648806899
 20
13.2025876413
 30
0.0
 10
14.5647134545
 20
13.2019974876
 30
0.0
 10
14.5646361078
 20
13.201688335
 30
0.0
  0
SPLINE
  5
2CD
100
AcDbEntity
  8
02___PRT_ALL_AXES
100
AcDbSpline
 62
7
  6
CONTINUOUS
 70
0
 71
3
 72
21
 73
17
 74
0
 42
0.0000001
 43
0.0000001
 44
0.0000000001
 40
0.0
 40
0.0
 40
0.0
 40
0.0
 40
0.1739818544
 40
0.3343509255
 40
0.4090555886
 40
0.4799494434
 40
0.5469747283
 40
0.6101225037
 40
0.6694435249
 40
0.7250592663
 40
0.777175207
 40
0.8260960979
 40
0.8722404495
 40
0.9161490738
 40
0.9584824807
 40
1.0
 40
1.0
 40
1.0
 40
1.0
 10
15.6173297232
 20
13.2122790271
 30
0.0
 10
15.6166554153
 20
13.2147352901
 30
0.0
 10
15.615212534
 20
13.2194171804
 30
0.0
 10
15.6130266256
 20
13.2250005313
 30
0.0
 10
15.6111120602
 20
13.2290519084
 30
0.0
 10
15.609643601
 20
13.231798266
 30
0.0
 10
15.6081138143
 20
13.2343151563
 30
0.0
 10
15.6065278282
 20
13.2365937826
 30
0.0
 10
15.6048909647
 20
13.2386262016
 30
0.0
 10
15.6032085342
 20
13.2404052883
 30
0.0
 10
15.6014858145
 20
13.241924634
 30
0.0
 10
15.5997280439
 20
13.243178412
 30
0.0
 10
15.5979406735
 20
13.2441612551
 30
0.0
 10
15.5961293888
 20
13.2448681181
 30
0.0
 10
15.5943015428
 20
13.2452944695
 30
0.0
 10
15.593071932
 20
13.2453897862
 30
0.0
 10
15.5924641048
 20
13.245389789
 30
0.0
  0
SPLINE
  5
2CE
100
AcDbEntity
  8
LAYER_FEATURE
100
AcDbSpline
 62
7
  6
CONTINUOUS
 70
0
 71
3
 72
15
 73
11
 74
0
 42
0.0000001
 43
0.0000001
 44
0.0000000001
 40
0.0
 40
0.0
 40
0.0
 40
0.0
 40
0.085851709
 40
0.1774225667
 40
0.2792248012
 40
0.3941414306
 40
0.5236377513
 40
0.6681055709
 40
0.8272097206
 40
1.0
 40
1.0
 40
1.0
 40
1.0
 10
14.5964944611
 20
13.319258362
 30
0.0
 10
14.5963599929
 20
13.3192583532
 30
0.0
 10
14.5960806975
 20
13.3192165714
 30
0.0
 10
14.5956781665
 20
13.3190346482
 30
0.0
 10
14.5952912524
 20
13.3187403418
 30
0.0
 10
14.5949228038
 20
13.31833953
 30
0.0
 10
14.5945754255
 20
13.3178373572
 30
0.0
 10
14.5942524629
 20
13.317239622
 30
0.0
 10
14.5939575856
 20
13.3165533771
 30
0.0
 10
14.5937885533
 20
13.3160612713
 30
0.0
 10
14.5937086479
 20
13.3158026973
 30
0.0
  0
SPLINE
  5
2CF
100
AcDbEntity
  8
02___PRT_ALL_AXES
100
AcDbSpline
 62
7
  6
CONTINUOUS
 70
0
 71
3
 72
23
 73
19
 74
0
 42
0.0000001
 43
0.0000001
 44
0.0000000001
 40
0.0
 40
0.0
 40
0.0
 40
0.0
 40
0.0796432477
 40
0.1571993418
 40
0.2325913126
 40
0.3057502584
 40
0.3766159763
 40
0.4451379908
 40
0.5112765793
 40
0.5750040136
 40
0.6363059736
 40
0.6951831914
 40
0.7516533467
 40
0.8057532416
 40
0.8575412611
 40
0.9071000973
 40
0.9545396584
 40
1.0
 40
1.0
 40
1.0
 40
1.0
 10
15.5739538286
 20
13.2865742333
 30
0.0
 10
15.5779725678
 20
13.2995788781
 30
0.0
 10
15.5862015278
 20
13.325156942
 30
0.0
 10
15.5993048102
 20
13.3626905323
 30
0.0
 10
15.6129874116
 20
13.3988348813
 30
0.0
 10
15.6272269712
 20
13.4335309562
 30
0.0
 10
15.6420003689
 20
13.4667224754
 30
0.0
 10
15.6572836324
 20
13.498355561
 30
0.0
 10
15.6730520367
 20
13.5283789458
 30
0.0
 10
15.6892801547
 20
13.5567440232
 30
0.0
 10
15.7059419298
 20
13.5834049262
 30
0.0
 10
15.7230107572
 20
13.6083185855
 30
0.0
 10
15.7404595495
 20
13.6314447573
 30
0.0
 10
15.7582608882
 20
13.6527460769
 30
0.0
 10
15.7763868809
 20
13.6721878938
 30
0.0
 10
15.7948100168
 20
13.6897387128
 30
0.0
 10
15.8135004303
 20
13.7053683223
 30
0.0
 10
15.8263822856
 20
13.7146787911
 30
0.0
 10
15.8328525162
 20
13.7189799191
 30
0.0
  0
SPLINE
  5
2D0
100
AcDbEntity
  8
LAYER_CHAMFER_FEAT
100
AcDbSpline
 62
7
  6
CONTINUOUS
 70
0
 71
3
 72
75
 73
71
 74
0
 42
0.0000001
 43
0.0000001
 44
0.0000000001
 40
0.0
 40
0.0
 40
0.0
 40
0.0
 40
0.0113885627
 40
0.0222285462
 40
0.0325472125
 40
0.037522995
 40
0.0423828644
 40
0.0517774907
 40
0.0607899133
 40
0.0651749624
 40
0.0694907008
 40
0.0737471659
 40
0.0779549466
 40
0.0821251039
 40
0.086269078
 40
0.0903985821
 40
0.0945254817
 40
0.0986616703
 40
0.1028189435
 40
0.1070088735
 40
0.111242702
 40
0.1155312317
 40
0.119884753
 40
0.1288221863
 40
0.1381279575
 40
0.147861187
 40
0.1580702865
 40
0.1687935777
 40
0.1800601984
 40
0.1918911101
 40
0.2043000844
 40
0.2172946094
 40
0.2308766887
 40
0.2450435316
 40
0.2597881412
 40
0.2750998134
 40
0.2909645619
 40
0.3073654791
 40
0.3242830479
 40
0.3416954109
 40
0.3595786075
 40
0.3779067842
 40
0.3966523836
 40
0.415786316
 40
0.4352781181
 40
0.4550961001
 40
0.4752074848
 40
0.4955785392
 40
0.5161747013
 40
0.5369607021
 40
0.5789566164
 40
0.6212761895
 40
0.6636236319
 40
0.7057028193
 40
0.7265509361
 40
0.7472226305
 40
0.7676823986
 40
0.7878953982
 40
0.80782757
 40
0.8274457623
 40
0.8467178607
 40
0.865612924
 40
0.8841013285
 40
0.9021549217
 40
0.919747188
 40
0.9368534339
 40
0.9534509791
 40
0.969519417
 40
0.9850407698
 40
1.0
 40
1.0
 40
1.0
 40
1.0
 10
15.7546866286
 20
11.4101933021
 30
0.0
 10
15.7610192342
 20
11.4026065176
 30
0.0
 10
15.7738040762
 20
11.3881444646
 30
0.0
 10
15.7938430661
 20
11.3682144534
 30
0.0
 10
15.8110328025
 20
11.353386446
 30
0.0
 10
15.8249336878
 20
11.3427667756
 30
0.0
 10
15.8386018927
 20
11.3331872607
 30
0.0
 10
15.8558641974
 20
11.3226623335
 30
0.0
 10
15.8736739697
 20
11.3139826623
 30
0.0
 10
15.8879730673
 20
11.3083280994
 30
0.0
 10
15.8986366612
 20
11.3047462425
 30
0.0
 10
15.909330234
 20
11.3017877097
 30
0.0
 10
15.9200483424
 20
11.299454103
 30
0.0
 10
15.9307852025
 20
11.2977468764
 30
0.0
 10
15.9415350447
 20
11.2966671
 30
0.0
 10
15.9522920281
 20
11.2962153976
 30
0.0
 10
15.9630502951
 20
11.2963921272
 30
0.0
 10
15.9738039846
 20
11.2971970856
 30
0.0
 10
15.9845472353
 20
11.2986298701
 30
0.0
 10
15.9952742706
 20
11.3006894962
 30
0.0
 10
16.0059792491
 20
11.3033747636
 30
0.0
 10
16.0166567548
 20
11.3066841255
 30
0.0
 10
16.030972161
 20
11.3119712801
 30
0.0
 10
16.048812652
 20
11.3201935837
 30
0.0
 10
16.0698158454
 20
11.3324331234
 30
0.0
 10
16.0905642303
 20
11.3471016447
 30
0.0
 10
16.1110166198
 20
11.3641647265
 30
0.0
 10
16.1311349882
 20
11.3835853533
 30
0.0
 10
16.1508809316
 20
11.4053226662
 30
0.0
 10
16.1702164609
 20
11.4293318809
 30
0.0
 10
16.1891037986
 20
11.4555639725
 30
0.0
 10
16.2075055932
 20
11.4839655641
 30
0.0
 10
16.2253850662
 20
11.5144788829
 30
0.0
 10
16.2427061857
 20
11.5470417937
 30
0.0
 10
16.2594338188
 20
11.5815878803
 30
0.0
 10
16.27553387
 20
11.6180465619
 30
0.0
 10
16.2909734018
 20
11.6563432324
 30
0.0
 10
16.3057207406
 20
11.6963994167
 30
0.0
 10
16.3197455709
 20
11.7381329386
 30
0.0
 10
16.3330190186
 20
11.7814580975
 30
0.0
 10
16.3455137264
 20
11.8262858537
 30
0.0
 10
16.3572039202
 20
11.8725240201
 30
0.0
 10
16.3680654707
 20
11.9200774597
 30
0.0
 10
16.3780759483
 20
11.9688482877
 30
0.0
 10
16.3872146748
 20
12.0187360804
 30
0.0
 10
16.3954627656
 20
12.0696380809
 30
0.0
 10
16.4028031814
 20
12.1214494377
 30
0.0
 10
16.4092207266
 20
12.1740633389
 30
0.0
 10
16.4147022252
 20
12.2273715609
 30
0.0
 10
16.4207677711
 20
12.2994711782
 30
0.0
 10
16.4259216164
 20
12.3905483007
 30
0.0
 10
16.4282256061
 20
12.5004577238
 30
0.0
 10
16.4266502256
 20
12.6104522399
 30
0.0
 10
16.4221020562
 20
12.7017119993
 30
0.0
 10
16.4165182411
 20
12.7740427602
 30
0.0
 10
16.4113916698
 20
12.8275835773
 30
0.0
 10
16.4053245619
 20
12.8804712163
 30
0.0
 10
16.3983293715
 20
12.9325968858
 30
0.0
 10
16.3904205801
 20
12.9838531187
 30
0.0
 10
16.3816145272
 20
13.0341343261
 30
0.0
 10
16.3719294115
 20
13.0833369315
 30
0.0
 10
16.3613852417
 20
13.1313596111
 30
0.0
 10
16.3500037952
 20
13.1781035009
 30
0.0
 10
16.337808568
 20
13.2234724082
 30
0.0
 10
16.3248247259
 20
13.2673730115
 30
0.0
 10
16.3110790299
 20
13.3097150758
 30
0.0
 10
16.2965998209
 20
13.3504115848
 30
0.0
 10
16.2814167875
 20
13.3893791698
 30
0.0
 10
16.265561435
 20
13.4265373103
 30
0.0
 10
16.2543542232
 20
13.4505022528
 30
0.0
 10
16.248635628
 20
13.4621555246
 30
0.0
  0
SPLINE
  5
2D1
100
AcDbEntity
  8
LAYER_FEATURE
100
AcDbSpline
 62
7
  6
CONTINUOUS
 70
0
 71
3
 72
78
 73
74
 74
0
 42
0.0000001
 43
0.0000001
 44
0.0000000001
 40
0.0
 40
0.0
 40
0.0
 40
0.0
 40
0.0173115679
 40
0.0340660427
 40
0.0502396574
 40
0.0658116535
 40
0.0807650234
 40
0.0950868833
 40
0.1087690777
 40
0.1218088659
 40
0.1342097462
 40
0.1459824368
 40
0.1571460216
 40
0.1677292405
 40
0.177771872
 40
0.187326073
 40
0.1964574288
 40
0.2008905554
 40
0.2052488905
 40
0.2095443876
 40
0.2137896807
 40
0.2179979819
 40
0.2221829426
 40
0.2263584992
 40
0.2305387055
 40
0.2347375574
 40
0.2389688212
 40
0.2432458724
 40
0.2475815572
 40
0.251988067
 40
0.2564768537
 40
0.2657399337
 40
0.2754490764
 40
0.2856653418
 40
0.2964366565
 40
0.3077989945
 40
0.3197777521
 40
0.3323891101
 40
0.3456412803
 40
0.3595355974
 40
0.3740674458
 40
0.3892270369
 40
0.4050000588
 40
0.4213682268
 40
0.4383097484
 40
0.4557997176
 40
0.4738104539
 40
0.492311801
 40
0.5112713952
 40
0.5306549051
 40
0.5504262493
 40
0.5705477965
 40
0.5909805586
 40
0.6116843709
 40
0.6326180646
 40
0.6537396325
 40
0.6750063911
 40
0.6963751404
 40
0.7178023205
 40
0.739244166
 40
0.7606568596
 40
0.7819966866
 40
0.8032201893
 40
0.8242843208
 40
0.8451466035
 40
0.8657652895
 40
0.8860995234
 40
0.9061095101
 40
0.9257566896
 40
0.9450039192
 40
0.963815692
 40
0.9821582229
 40
1.0
 40
1.0
 40
1.0
 40
1.0
 10
15.524688177
 20
13.3694557751
 30
0.0
 10
15.5300752366
 20
13.3868883064
 30
0.0
 10
15.5411562936
 20
13.4210465932
 30
0.0
 10
15.5590130119
 20
13.4709048367
 30
0.0
 10
15.577799484
 20
13.518455664
 30
0.0
 10
15.5974706418
 20
13.5635849444
 30
0.0
 10
15.6179795442
 20
13.6061850465
 30
0.0
 10
15.6392774722
 20
13.6461544792
 30
0.0
 10
15.661314133
 20
13.683398256
 30
0.0
 10
15.6840379235
 20
13.7178280345
 30
0.0
 10
15.7073962184
 20
13.7493622438
 30
0.0
 10
15.7313356519
 20
13.7779260775
 30
0.0
 10
15.7558025039
 20
13.8034513972
 30
0.0
 10
15.780742544
 20
13.8258762465
 30
0.0
 10
15.8061023117
 20
13.8451446575
 30
0.0
 10
15.8318240912
 20
13.8612045331
 30
0.0
 10
15.8537334851
 20
13.8719818141
 30
0.0
 10
15.8713262555
 20
13.8788852454
 30
0.0
 10
15.8844398045
 20
13.883187462
 30
0.0
 10
15.8975921073
 20
13.886661232
 30
0.0
 10
15.9107753365
 20
13.8893042174
 30
0.0
 10
15.923981094
 20
13.8911144657
 30
0.0
 10
15.9372010075
 20
13.8920906576
 30
0.0
 10
15.9504266059
 20
13.8922319969
 30
0.0
 10
15.9636493946
 20
13.891538454
 30
0.0
 10
15.9768608935
 20
13.8900104905
 30
0.0
 10
15.9900526696
 20
13.8876492716
 30
0.0
 10
16.0032164187
 20
13.8844565505
 30
0.0
 10
16.0163438186
 20
13.8804346169
 30
0.0
 10
16.0294271059
 20
13.8755861757
 30
0.0
 10
16.0469832079
 20
13.8679454378
 30
0.0
 10
16.0688250291
 20
13.8562512839
 30
0.0
 10
16.094432631
 20
13.8391252255
 30
0.0
 10
16.1196598098
 20
13.8188069952
 30
0.0
 10
16.1444492999
 20
13.795350356
 30
0.0
 10
16.1687477182
 20
13.768813043
 30
0.0
 10
16.1925008995
 20
13.7392590396
 30
0.0
 10
16.2156552396
 20
13.7067586526
 30
0.0
 10
16.2381575758
 20
13.6713889213
 30
0.0
 10
16.259955589
 20
13.6332336609
 30
0.0
 10
16.2809980794
 20
13.5923834283
 30
0.0
 10
16.3012352456
 20
13.5489353808
 30
0.0
 10
16.3206189377
 20
13.5029930829
 30
0.0
 10
16.3391028427
 20
13.4546662481
 30
0.0
 10
16.356642664
 20
13.4040704639
 30
0.0
 10
16.3731962716
 20
13.3513269005
 30
0.0
 10
16.3887238468
 20
13.2965620103
 30
0.0
 10
16.4031880038
 20
13.2399072074
 30
0.0
 10
16.4165538832
 20
13.1814985304
 30
0.0
 10
16.4287892517
 20
13.1214763021
 30
0.0
 10
16.439864585
 20
13.0599847839
 30
0.0
 10
16.4497531607
 20
12.9971718234
 30
0.0
 10
16.4584311132
 20
12.9331884866
 30
0.0
 10
16.4658774926
 20
12.8681886853
 30
0.0
 10
16.4720743162
 20
12.8023288019
 30
0.0
 10
16.4770066183
 20
12.7357673099
 30
0.0
 10
16.4806624954
 20
12.6686643887
 30
0.0
 10
16.4830331202
 20
12.6011815316
 30
0.0
 10
16.484112767
 20
12.5334811533
 30
0.0
 10
16.4838988223
 20
12.4657261969
 30
0.0
 10
16.4823918055
 20
12.3980797381
 30
0.0
 10
16.4795953604
 20
12.3307045891
 30
0.0
 10
16.4755162399
 20
12.2637629033
 30
0.0
 10
16.4701642909
 20
12.197415783
 30
0.0
 10
16.4635524318
 20
12.1318228865
 30
0.0
 10
16.4556966335
 20
12.0671420382
 30
0.0
 10
16.4466158637
 20
12.0035288441
 30
0.0
 10
16.4363320446
 20
11.9411363201
 30
0.0
 10
16.4248699863
 20
11.8801144989
 30
0.0
 10
16.4122573635
 20
11.8206101109
 30
0.0
 10
16.3985245555
 20
11.762766052
 30
0.0
 10
16.3837048636
 20
11.7067217789
 30
0.0
 10
16.3729694341
 20
11.6701206562
 30
0.0
 10
16.3674173825
 20
11.6521542108
 30
0.0
  0
SPLINE
  5
2D2
100
AcDbEntity
  8
LAYER_FEATURE
100
AcDbSpline
 62
7
  6
CONTINUOUS
 70
0
 71
3
 72
34
 73
30
 74
0
 42
0.0000001
 43
0.0000001
 44
0.0000000001
 40
0.0
 40
0.0
 40
0.0
 40
0.0
 40
0.0879664255
 40
0.1726604141
 40
0.2539271926
 40
0.3316368876
 40
0.3691278129
 40
0.405694709
 40
0.4413304674
 40
0.4760304985
 40
0.5097929159
 40
0.5426187423
 40
0.5745121897
 40
0.6054809541
 40
0.635536482
 40
0.6646943066
 40
0.6929744413
 40
0.7204017213
 40
0.7728086245
 40
0.7978803184
 40
0.8222543119
 40
0.8459849997
 40
0.8691334459
 40
0.8917673256
 40
0.9139606924
 40
0.9357935247
 40
0.957350979
 40
0.978722382
 40
1.0
 40
1.0
 40
1.0
 40
1.0
 10
15.5173219789
 20
13.4113624344
 30
0.0
 10
15.5237812998
 20
13.4322648047
 30
0.0
 10
15.5371162279
 20
13.473093251
 30
0.0
 10
15.5588133613
 20
13.5324163058
 30
0.0
 10
15.5817723029
 20
13.5885173642
 30
0.0
 10
15.6021328298
 20
13.6329541784
 30
0.0
 10
15.6190258667
 20
13.6667114977
 30
0.0
 10
15.631813345
 20
13.6908134036
 30
0.0
 10
15.644859658
 20
13.7139829303
 30
0.0
 10
15.6581546774
 20
13.7362019228
 30
0.0
 10
15.6716879469
 20
13.7574528848
 30
0.0
 10
15.6854489013
 20
13.7777190933
 30
0.0
 10
15.6994268142
 20
13.7969846035
 30
0.0
 10
15.7136107735
 20
13.8152342533
 30
0.0
 10
15.7279898399
 20
13.8324537388
 30
0.0
 10
15.7425526721
 20
13.8486292358
 30
0.0
 10
15.7572888634
 20
13.863748801
 30
0.0
 10
15.7768533277
 20
13.8822013751
 30
0.0
 10
15.797009611
 20
13.8988421728
 30
0.0
 10
15.8177300744
 20
13.9134305592
 30
0.0
 10
15.8331577663
 20
13.9231025104
 30
0.0
 10
15.8486883469
 20
13.9316572429
 30
0.0
 10
15.8643102147
 20
13.9390876293
 30
0.0
 10
15.8800109899
 20
13.9453869667
 30
0.0
 10
15.8957782249
 20
13.9505494188
 30
0.0
 10
15.9115990315
 20
13.9545700472
 30
0.0
 10
15.9274606243
 20
13.9574448905
 30
0.0
 10
15.943348569
 20
13.9591710037
 30
0.0
 10
15.9539595409
 20
13.9595549804
 30
0.0
 10
15.9592513831
 20
13.9595549847
 30
0.0
  0
SPLINE
  5
2D3
100
AcDbEntity
  8
LAYER_CHAMFER_FEAT
100
AcDbSpline
 62
7
  6
CONTINUOUS
 70
0
 71
3
 72
59
 73
55
 74
0
 42
0.0000001
 43
0.0000001
 44
0.0000000001
 40
0.0
 40
0.0
 40
0.0
 40
0.0
 40
0.0077261687
 40
0.0155162793
 40
0.0234323509
 40
0.0315327828
 40
0.0398710466
 40
0.0484948414
 40
0.0574456914
 40
0.0667589094
 40
0.0764638227
 40
0.0865841621
 40
0.0971385323
 40
0.1081409073
 40
0.1196011126
 40
0.1315252726
 40
0.1439162154
 40
0.1567738312
 40
0.170095387
 40
0.1838757998
 40
0.1981078754
 40
0.212782515
 40
0.2278888967
 40
0.2434146339
 40
0.2593459161
 40
0.2756676334
 40
0.2923634889
 40
0.3094161002
 40
0.3268070918
 40
0.3445171804
 40
0.3808119933
 40
0.4181326028
 40
0.4562995893
 40
0.4951256854
 40
0.5344176795
 40
0.5739782382
 40
0.6136076808
 40
0.6531057284
 40
0.6922732455
 40
0.7309139938
 40
0.7688364191
 40
0.8058554951
 40
0.823971448
 40
0.8417961617
 40
0.8593092342
 40
0.8764910626
 40
0.8933229215
 40
0.9097870447
 40
0.9258667179
 40
0.941546368
 40
0.9568116979
 40
0.9716497303
 40
0.9860491286
 40
1.0
 40
1.0
 40
1.0
 40
1.0
 10
15.9401393675
 20
11.3120549929
 30
0.0
 10
15.9461525708
 20
11.3120549942
 30
0.0
 10
15.958237182
 20
11.3126564294
 30
0.0
 10
15.9763011384
 20
11.3153570037
 30
0.0
 10
15.9943051651
 20
11.3198509191
 30
0.0
 10
16.0122177297
 20
11.3261282732
 30
0.0
 10
16.0300117817
 20
11.3341762351
 30
0.0
 10
16.0476607917
 20
11.3439796098
 30
0.0
 10
16.0651395011
 20
11.3555211885
 30
0.0
 10
16.0824232965
 20
11.3687818863
 30
0.0
 10
16.0994880273
 20
11.3837407295
 30
0.0
 10
16.1163098138
 20
11.4003747665
 30
0.0
 10
16.1328649757
 20
11.4186589605
 30
0.0
 10
16.1491300183
 20
11.4385660961
 30
0.0
 10
16.1650816635
 20
11.460066716
 30
0.0
 10
16.1806969022
 20
11.4831290863
 30
0.0
 10
16.1959530574
 20
11.5077191912
 30
0.0
 10
16.2108278466
 20
11.533800749
 30
0.0
 10
16.2252994436
 20
11.5613352456
 30
0.0
 10
16.2393465344
 20
11.5902819802
 30
0.0
 10
16.2529483692
 20
11.6205981198
 30
0.0
 10
16.2660848096
 20
11.6522387616
 30
0.0
 10
16.2787363708
 20
11.685157
 30
0.0
 10
16.2908842607
 20
11.719303998
 30
0.0
 10
16.302510416
 20
11.7546290631
 30
0.0
 10
16.3135975324
 20
11.7910797221
 30
0.0
 10
16.3241291052
 20
11.8286018149
 30
0.0
 10
16.3340894164
 20
11.8671395267
 30
0.0
 10
16.3434637186
 20
11.9066356697
 30
0.0
 10
16.3552585049
 20
11.9609390633
 30
0.0
 10
16.3684025052
 20
12.0308080449
 30
0.0
 10
16.3815126346
 20
12.1168299507
 30
0.0
 10
16.3920075998
 20
12.2051938102
 30
0.0
 10
16.3998245384
 20
12.2953739134
 30
0.0
 10
16.4049166043
 20
12.3868346799
 30
0.0
 10
16.407253277
 20
12.4790324192
 30
0.0
 10
16.406820552
 20
12.5714190488
 30
0.0
 10
16.4036210254
 20
12.6634453381
 30
0.0
 10
16.3976738736
 20
12.7545641699
 30
0.0
 10
16.3890147436
 20
12.8442342336
 30
0.0
 10
16.3776955015
 20
12.931921945
 30
0.0
 10
16.3660201768
 20
13.0034164335
 30
0.0
 10
16.3553737298
 20
13.0591959806
 30
0.0
 10
16.3468281626
 20
13.0999139177
 30
0.0
 10
16.3376775823
 20
13.1397545847
 30
0.0
 10
16.3279355476
 20
13.1786588347
 30
0.0
 10
16.317616604
 20
13.2165687718
 30
0.0
 10
16.3067361234
 20
13.2534280396
 30
0.0
 10
16.2953103136
 20
13.2891818453
 30
0.0
 10
16.2833561822
 20
13.3237770909
 30
0.0
 10
16.2708915214
 20
13.3571623474
 30
0.0
 10
16.257934803
 20
13.3892882418
 30
0.0
 10
16.2445054423
 20
13.4201066585
 30
0.0
 10
16.2350997105
 20
13.4400707082
 30
0.0
 10
16.2303163727
 20
13.4498181258
 30
0.0
  0
SPLINE
  5
2D4
100
AcDbEntity
  8
LAYER_FEATURE
100
AcDbSpline
 62
7
  6
CONTINUOUS
 70
0
 71
3
 72
54
 73
50
 74
0
 42
0.0000001
 43
0.0000001
 44
0.0000000001
 40
0.0
 40
0.0
 40
0.0
 40
0.0
 40
0.0330500869
 40
0.0673809189
 40
0.1028689286
 40
0.1393805316
 40
0.1767738172
 40
0.214899975
 40
0.2536046397
 40
0.2927291642
 40
0.332111844
 40
0.3715891169
 40
0.4109967451
 40
0.4501709878
 40
0.4889497815
 40
0.5271739361
 40
0.5646883551
 40
0.6013432992
 40
0.6369957215
 40
0.6544041318
 40
0.6715120649
 40
0.6883041821
 40
0.7047658562
 40
0.7208832323
 40
0.736643294
 40
0.7520339335
 40
0.7670440292
 40
0.7816635318
 40
0.7958835594
 40
0.8096965048
 40
0.823096156
 40
0.8360778326
 40
0.8486385411
 40
0.8607771491
 40
0.8724945842
 40
0.8837940579
 40
0.894681319
 40
0.9051649339
 40
0.9152565937
 40
0.9249714414
 40
0.9343284073
 40
0.9433505306
 40
0.9520652387
 40
0.9605045419
 40
0.9687050894
 40
0.9767080294
 40
0.9845586188
 40
0.9923055502
 40
1.0
 40
1.0
 40
1.0
 40
1.0
 10
14.5692464666
 20
13.4113624344
 30
0.0
 10
14.5608866569
 20
13.3843100804
 30
0.0
 10
14.5449809935
 20
13.3288000942
 30
0.0
 10
14.5238775324
 20
13.2432161848
 30
0.0
 10
14.5051508774
 20
13.1540487051
 30
0.0
 10
14.4888936667
 20
13.0617347455
 30
0.0
 10
14.4751857831
 20
12.9667247991
 30
0.0
 10
14.4640947722
 20
12.8694835529
 30
0.0
 10
14.4556752643
 20
12.7704866519
 30
0.0
 10
14.4499687595
 20
12.6702185556
 30
0.0
 10
14.447003385
 20
12.5691700481
 30
0.0
 10
14.4467937465
 20
12.4678358061
 30
0.0
 10
14.4493408767
 20
12.3667119256
 30
0.0
 10
14.45463223
 20
12.2662934623
 30
0.0
 10
14.4626417285
 20
12.1670719348
 30
0.0
 10
14.473329892
 20
12.0695329778
 30
0.0
 10
14.4866440636
 20
11.9741535241
 30
0.0
 10
14.5025186612
 20
11.8814008231
 30
0.0
 10
14.5179359012
 20
11.8060856953
 30
0.0
 10
14.5315212813
 20
11.7475233609
 30
0.0
 10
14.5422173315
 20
11.7048851121
 30
0.0
 10
14.5534877213
 20
11.6632347229
 30
0.0
 10
14.5653187188
 20
11.6226230718
 30
0.0
 10
14.5776957943
 20
11.5830999002
 30
0.0
 10
14.5906037831
 20
11.5447135617
 30
0.0
 10
14.6040268691
 20
11.5075110104
 30
0.0
 10
14.6179486195
 20
11.47153773
 30
0.0
 10
14.632352005
 20
11.4368376806
 30
0.0
 10
14.6472194265
 20
11.4034532428
 30
0.0
 10
14.6625327421
 20
11.3714251647
 30
0.0
 10
14.6782732972
 20
11.3407925116
 30
0.0
 10
14.6944219573
 20
11.311592618
 30
0.0
 10
14.7109591391
 20
11.2838610418
 30
0.0
 10
14.7278648517
 20
11.2576315284
 30
0.0
 10
14.7451187377
 20
11.2329359804
 30
0.0
 10
14.7627001148
 20
11.209804435
 30
0.0
 10
14.78058802
 20
11.1882650518
 30
0.0
 10
14.7987612511
 20
11.1683441144
 30
0.0
 10
14.817198403
 20
11.1500660477
 30
0.0
 10
14.8358778891
 20
11.1334534512
 30
0.0
 10
14.8547779376
 20
11.1185271474
 30
0.0
 10
14.8738765581
 20
11.1053062481
 30
0.0
 10
14.8931514598
 20
11.0938082101
 30
0.0
 10
14.9125798916
 20
11.0840488595
 30
0.0
 10
14.9321385283
 20
11.0760423475
 30
0.0
 10
14.9518030082
 20
11.0698009995
 30
0.0
 10
14.9715487257
 20
11.0653350454
 30
0.0
 10
14.9913473647
 20
11.0626522225
 30
0.0
 10
15.0045838995
 20
11.0620550075
 30
0.0
 10
15.0111758708
 20
11.062055001
 30
0.0
  0
SPLINE
  5
2D5
100
AcDbEntity
  8
LAYER_FEATURE
100
AcDbSpline
 62
7
  6
CONTINUOUS
 70
0
 71
3
 72
38
 73
34
 74
0
 42
0.0000001
 43
0.0000001
 44
0.0000000001
 40
0.0
 40
0.0
 40
0.0
 40
0.0
 40
0.0914650225
 40
0.1357263749
 40
0.178968875
 40
0.2211674417
 40
0.2623000776
 40
0.3023476231
 40
0.3412940702
 40
0.3791268604
 40
0.415837182
 40
0.4514203434
 40
0.4858761809
 40
0.5192094961
 40
0.5514305575
 40
0.5825556604
 40
0.6126077507
 40
0.6416170926
 40
0.669621956
 40
0.6966693269
 40
0.7228155946
 40
0.7481271645
 40
0.7726809034
 40
0.7965643229
 40
0.8198754145
 40
0.8427220235
 40
0.865220686
 40
0.8874948918
 40
0.909672832
 40
0.9318847699
 40
0.9542602346
 40
0.9769252742
 40
1.0
 40
1.0
 40
1.0
 40
1.0
 10
14.6030098714
 20
13.3694557751
 30
0.0
 10
14.6100944524
 20
13.3923814874
 30
0.0
 10
14.6212336767
 20
13.426214231
 30
0.0
 10
14.6372901238
 20
13.4703377365
 30
0.0
 10
14.6496079893
 20
13.5020598086
 30
0.0
 10
14.6623197413
 20
13.5327394591
 30
0.0
 10
14.6754121625
 20
13.5623446812
 30
0.0
 10
14.6888714956
 20
13.5908444038
 30
0.0
 10
14.7026836615
 20
13.6182087883
 30
0.0
 10
14.7168342214
 20
13.644409181
 30
0.0
 10
14.7313084208
 20
13.6694181651
 30
0.0
 10
14.746091201
 20
13.6932095852
 30
0.0
 10
14.7611672148
 20
13.7157585813
 30
0.0
 10
14.7765208687
 20
13.7370415949
 30
0.0
 10
14.7921363436
 20
13.7570363809
 30
0.0
 10
14.8079976257
 20
13.7757220137
 30
0.0
 10
14.8240885253
 20
13.7930788958
 30
0.0
 10
14.8403926905
 20
13.8090887576
 30
0.0
 10
14.856893636
 20
13.8237346218
 30
0.0
 10
14.873574738
 20
13.8370007774
 30
0.0
 10
14.8904192197
 20
13.8488727428
 30
0.0
 10
14.9074100987
 20
13.8593372525
 30
0.0
 10
14.9245301155
 20
13.868382247
 30
0.0
 10
14.9417616469
 20
13.8759968693
 30
0.0
 10
14.9590865901
 20
13.8821715338
 30
0.0
 10
14.9764862672
 20
13.88689805
 30
0.0
 10
14.993941371
 20
13.8901698384
 30
0.0
 10
15.0114319987
 20
13.8919821573
 30
0.0
 10
15.0289378337
 20
13.8923322837
 30
0.0
 10
15.0464382403
 20
13.8912197117
 30
0.0
 10
15.0639130682
 20
13.888645998
 30
0.0
 10
15.0813409456
 20
13.8846153761
 30
0.0
 10
15.0927969792
 20
13.8809980894
 30
0.0
 10
15.0984976406
 20
13.8789614642
 30
0.0
  0
SPLINE
  5
2D6
100
AcDbEntity
  8
LAYER_FEATURE
100
AcDbSpline
 62
7
  6
CONTINUOUS
 70
0
 71
3
 72
60
 73
56
 74
0
 42
0.0000001
 43
0.0000001
 44
0.0000000001
 40
0.0
 40
0.0
 40
0.0
 40
0.0
 40
0.0168584761
 40
0.0340821211
 40
0.0516539683
 40
0.0695564501
 40
0.0877710073
 40
0.1062784076
 40
0.1440900345
 40
0.1828261738
 40
0.2223121353
 40
0.2623668689
 40
0.3028046101
 40
0.3434364697
 40
0.3840719893
 40
0.4245206808
 40
0.4645935657
 40
0.5041047305
 40
0.5428729155
 40
0.5807231551
 40
0.5992522158
 40
0.6174899451
 40
0.6354170359
 40
0.653014923
 40
0.6702658531
 40
0.6871529579
 40
0.7036603339
 40
0.7197731291
 40
0.7354776377
 40
0.750761405
 40
0.7656133451
 40
0.7800238715
 40
0.7939850466
 40
0.8074907499
 40
0.8205368709
 40
0.8331215298
 40
0.8452453295
 40
0.8569116432
 40
0.8681269402
 40
0.8789011504
 40
0.8892480658
 40
0.899185769
 40
0.9087370703
 40
0.9133770453
 40
0.9179313641
 40
0.9267992055
 40
0.9353811668
 40
0.9437220572
 40
0.9518720482
 40
0.959885984
 40
0.9678222962
 40
0.9757415671
 40
0.9837048615
 40
0.9917720053
 40
1.0
 40
1.0
 40
1.0
 40
1.0
 10
14.6030098714
 20
13.3694557751
 30
0.0
 10
14.5988184302
 20
13.3558922663
 30
0.0
 10
14.5906429766
 20
13.3283784319
 30
0.0
 10
14.5791139105
 20
13.2864339329
 30
0.0
 10
14.568199468
 20
13.2434176721
 30
0.0
 10
14.5579148343
 20
13.1993894054
 30
0.0
 10
14.5482741323
 20
13.154409635
 30
0.0
 10
14.5362108111
 20
13.0928130003
 30
0.0
 10
14.5228683146
 20
13.0138710212
 30
0.0
 10
14.5097271528
 20
12.9170316684
 30
0.0
 10
14.4994168704
 20
12.8179510742
 30
0.0
 10
14.4919947542
 20
12.7171763693
 30
0.0
 10
14.4875020584
 20
12.6152631053
 30
0.0
 10
14.485963756
 20
12.5127735499
 30
0.0
 10
14.4873883989
 20
12.4102731333
 30
0.0
 10
14.4917680683
 20
12.3083273477
 30
0.0
 10
14.4990784223
 20
12.2074986438
 30
0.0
 10
14.509278822
 20
12.1083428782
 30
0.0
 10
14.5223125892
 20
12.0114075993
 30
0.0
 10
14.5355669079
 20
11.9323719937
 30
0.0
 10
14.5475611648
 20
11.8706902967
 30
0.0
 10
14.5571518734
 20
11.8256400652
 30
0.0
 10
14.5673875715
 20
11.7815365756
 30
0.0
 10
14.5782541881
 20
11.7384405837
 30
0.0
 10
14.5897366704
 20
11.6964116036
 30
0.0
 10
14.6018191472
 20
11.6555076176
 30
0.0
 10
14.6144849176
 20
11.6157850477
 30
0.0
 10
14.6277164855
 20
11.5772986621
 30
0.0
 10
14.6414955858
 20
11.5401015007
 30
0.0
 10
14.6558032138
 20
11.5042447987
 30
0.0
 10
14.6706196583
 20
11.4697779139
 30
0.0
 10
14.6859245355
 20
11.4367482565
 30
0.0
 10
14.7016968279
 20
11.4052012226
 30
0.0
 10
14.717914925
 20
11.3751801318
 30
0.0
 10
14.7345566692
 20
11.3467261698
 30
0.0
 10
14.751599405
 20
11.3198783386
 30
0.0
 10
14.7690200335
 20
11.2946734124
 30
0.0
 10
14.7867950633
 20
11.271145914
 30
0.0
 10
14.8049006956
 20
11.2493280831
 30
0.0
 10
14.8233127889
 20
11.2292499488
 30
0.0
 10
14.8420072306
 20
11.210939126
 30
0.0
 10
14.8609588206
 20
11.1944216967
 30
0.0
 10
14.8770996744
 20
11.1820531973
 30
0.0
 10
14.8901106762
 20
11.1731095259
 30
0.0
 10
14.9029443735
 20
11.1649413692
 30
0.0
 10
14.9191128672
 20
11.1558511101
 30
0.0
 10
14.9388445057
 20
11.1467208327
 30
0.0
 10
14.9587060252
 20
11.1394811433
 30
0.0
 10
14.9786686351
 20
11.1341456934
 30
0.0
 10
14.9987028418
 20
11.1307249253
 30
0.0
 10
15.0187777468
 20
11.1292260272
 30
0.0
 10
15.0388614685
 20
11.1296521997
 30
0.0
 10
15.0589225301
 20
11.1320026767
 30
0.0
 10
15.0789276258
 20
11.1362718005
 30
0.0
 10
15.0920535808
 20
11.1403437555
 30
0.0
 10
15.0985775887
 20
11.1426770977
 30
0.0
  0
SPLINE
  5
2D7
100
AcDbEntity
  8
LAYER_FEATURE
100
AcDbSpline
 62
7
  6
CONTINUOUS
 70
0
 71
3
 72
13
 73
9
 74
0
 42
0.0000001
 43
0.0000001
 44
0.0000000001
 40
0.0
 40
0.0
 40
0.0
 40
0.0
 40
0.1180195981
 40
0.2427110207
 40
0.5029436048
 40
0.7616521468
 40
0.8844881291
 40
1.0
 40
1.0
 40
1.0
 40
1.0
 10
14.5885794682
 20
13.2973892527
 30
0.0
 10
14.5884809298
 20
13.2969953978
 30
0.0
 10
14.5883101538
 20
13.296177216
 30
0.0
 10
14.5880704772
 20
13.2944627716
 30
0.0
 10
14.5879660796
 20
13.2922457914
 30
0.0
 10
14.5881093186
 20
13.2900372018
 30
0.0
 10
14.5883801933
 20
13.2883478659
 30
0.0
 10
14.5885659682
 20
13.2875482986
 30
0.0
 10
14.5886718766
 20
13.2871653045
 30
0.0
  0
SPLINE
  5
2D8
100
AcDbEntity
  8
LAYER_FEATURE
100
AcDbSpline
 62
7
  6
CONTINUOUS
 70
0
 71
3
 72
12
 73
8
 74
0
 42
0.0000001
 43
0.0000001
 44
0.0000000001
 40
0.0
 40
0.0
 40
0.0
 40
0.0
 40
0.2612766746
 40
0.5197694289
 40
0.7682348118
 40
0.8866003885
 40
1.0
 40
1.0
 40
1.0
 40
1.0
 10
14.5984701231
 20
13.2312988898
 30
0.0
 10
14.5985954637
 20
13.2341106902
 30
0.0
 10
14.5986440119
 20
13.2397153213
 30
0.0
 10
14.5981307495
 20
13.2479815998
 30
0.0
 10
14.5972157179
 20
13.2546633709
 30
0.0
 10
14.5961912429
 20
13.259735529
 30
0.0
 10
14.5955867767
 20
13.262159113
 30
0.0
 10
14.5952611917
 20
13.2633365184
 30
0.0
  0
SPLINE
  5
2D9
100
AcDbEntity
  8
LAYER_FEATURE
100
AcDbSpline
 62
7
  6
CONTINUOUS
 70
0
 71
3
 72
13
 73
9
 74
0
 42
0.0000001
 43
0.0000001
 44
0.0000000001
 40
0.0
 40
0.0
 40
0.0
 40
0.0
 40
0.2520380804
 40
0.5155016508
 40
0.6454641639
 40
0.770993853
 40
0.8898387373
 40
1.0
 40
1.0
 40
1.0
 40
1.0
 10
14.5602463706
 20
13.1820549442
 30
0.0
 10
14.5600785896
 20
13.1812095436
 30
0.0
 10
14.5598592503
 20
13.1794548985
 30
0.0
 10
14.5598376816
 20
13.1772429349
 30
0.0
 10
14.5599739535
 20
13.1754725966
 30
0.0
 10
14.5601501768
 20
13.1742037528
 30
0.0
 10
14.5603966742
 20
13.1730157516
 30
0.0
 10
14.5606135918
 20
13.1722621335
 30
0.0
 10
14.5607347386
 20
13.1719054285
 30
0.0
  0
SPLINE
  5
2DA
100
AcDbEntity
  8
LAYER_FEATURE
100
AcDbSpline
 62
7
  6
CONTINUOUS
 70
0
 71
3
 72
13
 73
9
 74
0
 42
0.0000001
 43
0.0000001
 44
0.0000000001
 40
0.0
 40
0.0
 40
0.0
 40
0.0
 40
0.2673994706
 40
0.5278492648
 40
0.6532217619
 40
0.7742105022
 40
0.89003736
 40
1.0
 40
1.0
 40
1.0
 40
1.0
 10
14.5726504344
 20
13.1188218766
 30
0.0
 10
14.5726660077
 20
13.1216299229
 30
0.0
 10
14.5725012653
 20
13.1271759685
 30
0.0
 10
14.5718041782
 20
13.1340071644
 30
0.0
 10
14.5709494608
 20
13.1392616726
 30
0.0
 10
14.5701813024
 20
13.1429880937
 30
0.0
 10
14.5692846088
 20
13.1465189565
 30
0.0
 10
14.568586595
 20
13.1487864031
 30
0.0
 10
14.5682152365
 20
13.1498798321
 30
0.0
  0
SPLINE
  5
2DB
100
AcDbEntity
  8
LAYER_FEATURE
100
AcDbSpline
 62
7
  6
CONTINUOUS
 70
0
 71
3
 72
27
 73
23
 74
0
 42
0.0000001
 43
0.0000001
 44
0.0000000001
 40
0.0
 40
0.0
 40
0.0
 40
0.0
 40
0.0217135943
 40
0.0435142831
 40
0.0654878818
 40
0.0877177078
 40
0.1102835168
 40
0.133260637
 40
0.1567192709
 40
0.1807240569
 40
0.2305845396
 40
0.2832619076
 40
0.3390660064
 40
0.3982246447
 40
0.4608936658
 40
0.5271670871
 40
0.5970861899
 40
0.6706472747
 40
0.7478082525
 40
0.8284940491
 40
0.9126006008
 40
1.0
 40
1.0
 40
1.0
 40
1.0
 10
15.0243744742
 20
13.8786799879
 30
0.0
 10
15.0196091638
 20
13.8786799943
 30
0.0
 10
15.010056182
 20
13.8783503073
 30
0.0
 10
14.9957499879
 20
13.8768682753
 30
0.0
 10
14.981465235
 20
13.8743997057
 30
0.0
 10
14.9672137167
 20
13.8709468887
 30
0.0
 10
14.9530058654
 20
13.8665128973
 30
0.0
 10
14.9388523505
 20
13.8611015695
 30
0.0
 10
14.9247631046
 20
13.8547172522
 30
0.0
 10
14.9058398891
 20
13.844790445
 30
0.0
 10
14.8823606512
 20
13.8298539597
 30
0.0
 10
14.8549864028
 20
13.8083696016
 30
0.0
 10
14.8281247497
 20
13.7831673238
 30
0.0
 10
14.8018474308
 20
13.754323636
 30
0.0
 10
14.7762220876
 20
13.7219210487
 30
0.0
 10
14.7513174391
 20
13.6860514706
 30
0.0
 10
14.727201308
 20
13.6468160478
 30
0.0
 10
14.7039404749
 20
13.6043255516
 30
0.0
 10
14.6816001365
 20
13.5587002486
 30
0.0
 10
14.6602434427
 20
13.5100694705
 30
0.0
 10
14.6399312762
 20
13.4585722356
 30
0.0
 10
14.6273583203
 20
13.423086245
 30
0.0
 10
14.6212436922
 20
13.4049061333
 30
0.0
  0
SPLINE
  5
2DC
100
AcDbEntity
  8
LAYER_FEATURE
100
AcDbSpline
 62
7
  6
CONTINUOUS
 70
0
 71
3
 72
13
 73
9
 74
0
 42
0.0000001
 43
0.0000001
 44
0.0000000001
 40
0.0
 40
0.0
 40
0.0
 40
0.0
 40
0.2616606168
 40
0.5283057809
 40
0.6573498926
 40
0.7803461572
 40
0.8951639648
 40
1.0
 40
1.0
 40
1.0
 40
1.0
 10
14.5365259867
 20
13.0600494522
 30
0.0
 10
14.5363936064
 20
13.0591771338
 30
0.0
 10
14.5362424832
 20
13.0573971845
 30
0.0
 10
14.5363040417
 20
13.0551764751
 30
0.0
 10
14.536508892
 20
13.0534385355
 30
0.0
 10
14.5367328814
 20
13.0522209324
 30
0.0
 10
14.5370236003
 20
13.0511016433
 30
0.0
 10
14.5372700195
 20
13.0504017653
 30
0.0
 10
14.5374054606
 20
13.0500752394
 30
0.0
  0
SPLINE
  5
2DD
100
AcDbEntity
  8
LAYER_FEATURE
100
AcDbSpline
 62
7
  6
CONTINUOUS
 70
0
 71
3
 72
13
 73
9
 74
0
 42
0.0000001
 43
0.0000001
 44
0.0000000001
 40
0.0
 40
0.0
 40
0.0
 40
0.0
 40
0.2737652379
 40
0.5362077337
 40
0.6609672303
 40
0.7803151513
 40
0.8935326453
 40
1.0
 40
1.0
 40
1.0
 40
1.0
 10
14.5513201821
 20
13.0003021184
 30
0.0
 10
14.5512275229
 20
13.0030785352
 30
0.0
 10
14.550854577
 20
13.0085121285
 30
0.0
 10
14.5498965904
 20
13.0151580019
 30
0.0
 10
14.5488388378
 20
13.0201896
 30
0.0
 10
14.5479307251
 20
13.0237014004
 30
0.0
 10
14.5469023375
 20
13.0269859025
 30
0.0
 10
14.5461167232
 20
13.0290738245
 30
0.0
 10
14.5457027967
 20
13.030071733
 30
0.0
  0
SPLINE
  5
2DE
100
AcDbEntity
  8
LAYER_FEATURE
100
AcDbSpline
 62
7
  6
CONTINUOUS
 70
0
 71
3
 72
15
 73
11
 74
0
 42
0.0000001
 43
0.0000001
 44
0.0000000001
 40
0.0
 40
0.0
 40
0.0
 40
0.0
 40
0.0926080389
 40
0.1898139436
 40
0.2950451094
 40
0.4107857958
 40
0.5386078361
 40
0.6793316059
 40
0.833196775
 40
1.0
 40
1.0
 40
1.0
 40
1.0
 10
14.5350978471
 20
12.9601905845
 30
0.0
 10
14.5356512098
 20
12.9602057344
 30
0.0
 10
14.5367855569
 20
12.9603738672
 30
0.0
 10
14.5384397727
 20
12.9610203544
 30
0.0
 10
14.5400520096
 20
12.9620484581
 30
0.0
 10
14.5416113222
 20
12.9634435356
 30
0.0
 10
14.5431094062
 20
12.9651921141
 30
0.0
 10
14.5445367217
 20
12.9672799495
 30
0.0
 10
14.5458831177
 20
12.9696904472
 30
0.0
 10
14.546688453
 20
12.9714319137
 30
0.0
 10
14.5470782023
 20
12.9723496589
 30
0.0
  0
SPLINE
  5
2DF
100
AcDbEntity
  8
LAYER_FEATURE
100
AcDbSpline
 62
7
  6
CONTINUOUS
 70
0
 71
3
 72
16
 73
12
 74
0
 42
0.0000001
 43
0.0000001
 44
0.0000000001
 40
0.0
 40
0.0
 40
0.0
 40
0.0
 40
0.0375329361
 40
0.0763595554
 40
0.1613466878
 40
0.2607493391
 40
0.377034311
 40
0.5105560142
 40
0.6602951674
 40
0.8243004662
 40
1.0
 40
1.0
 40
1.0
 40
1.0
 10
14.5237175574
 20
12.9598790163
 30
0.0
 10
14.523629006
 20
12.9598765919
 30
0.0
 10
14.5234489026
 20
12.9598541028
 30
0.0
 10
14.5230843871
 20
12.9597376415
 30
0.0
 10
14.5226332925
 20
12.9594490268
 30
0.0
 10
14.52214551
 20
12.9589272328
 30
0.0
 10
14.5216957969
 20
12.9582326683
 30
0.0
 10
14.521291574
 20
12.9573784172
 30
0.0
 10
14.5209402331
 20
12.9563813591
 30
0.0
 10
14.5206493138
 20
12.9552622626
 30
0.0
 10
14.5205040319
 20
12.9544730324
 30
0.0
 10
14.5204418133
 20
12.9540630436
 30
0.0
  0
SPLINE
  5
2E0
100
AcDbEntity
  8
LAYER_FEATURE
100
AcDbSpline
 62
7
  6
CONTINUOUS
 70
0
 71
3
 72
52
 73
48
 74
0
 42
0.0000001
 43
0.0000001
 44
0.0000000001
 40
0.0
 40
0.0
 40
0.0
 40
0.0
 40
0.0388870989
 40
0.0783151969
 40
0.118168767
 40
0.1583297155
 40
0.1986784312
 40
0.2390943358
 40
0.2794565042
 40
0.3196442884
 40
0.3595379387
 40
0.3990192351
 40
0.437972126
 40
0.476283381
 40
0.5138432744
 40
0.5505462828
 40
0.5862918518
 40
0.6209851821
 40
0.654538142
 40
0.6868702234
 40
0.717909705
 40
0.7329258391
 40
0.7475966334
 40
0.7619162203
 40
0.7758795707
 40
0.7894825709
 40
0.8027220994
 40
0.8155961016
 40
0.8281036843
 40
0.840245232
 40
0.8520225177
 40
0.863438824
 40
0.8744990883
 40
0.8852100664
 40
0.8955804883
 40
0.9056212283
 40
0.9153454882
 40
0.9247689775
 40
0.9339100645
 40
0.9427899076
 40
0.9514325481
 40
0.9598649293
 40
0.9681168185
 40
0.9762206259
 40
0.9842111016
 40
0.9921248956
 40
1.0
 40
1.0
 40
1.0
 40
1.0
 10
14.5204418133
 20
12.9540630436
 30
0.0
 10
14.5169968322
 20
12.9282362851
 30
0.0
 10
14.510723692
 20
12.8761325846
 30
0.0
 10
14.5031942526
 20
12.7973074591
 30
0.0
 10
14.4974973734
 20
12.7174727343
 30
0.0
 10
14.4936532725
 20
12.6369101428
 30
0.0
 10
14.4916755678
 20
12.5559033111
 30
0.0
 10
14.4915712386
 20
12.4747376315
 30
0.0
 10
14.4933406732
 20
12.393698997
 30
0.0
 10
14.4969775955
 20
12.3130728664
 30
0.0
 10
14.5024691379
 20
12.233143222
 30
0.0
 10
14.5097958658
 20
12.1541915634
 30
0.0
 10
14.5189318391
 20
12.076495897
 30
0.0
 10
14.5298447474
 20
12.0003297448
 30
0.0
 10
14.5424959567
 20
11.925961153
 30
0.0
 10
14.5568407557
 20
11.8536517419
 30
0.0
 10
14.5728283991
 20
11.7836557119
 30
0.0
 10
14.5904024451
 20
11.7162190467
 30
0.0
 10
14.609500874
 20
11.6515781728
 30
0.0
 10
14.6300563057
 20
11.589960559
 30
0.0
 10
14.6485383299
 20
11.540781782
 30
0.0
 10
14.6640266041
 20
11.503153634
 30
0.0
 10
14.6758323424
 20
11.4761319273
 30
0.0
 10
14.6879451338
 20
11.4500219811
 30
0.0
 10
14.7003544559
 20
11.4248466629
 30
0.0
 10
14.7130493964
 20
11.4006281039
 30
0.0
 10
14.7260188315
 20
11.3773875499
 30
0.0
 10
14.7392514171
 20
11.3551453939
 30
0.0
 10
14.7527356161
 20
11.333921153
 30
0.0
 10
14.7664596781
 20
11.3137334312
 30
0.0
 10
14.7804116753
 20
11.2945999181
 30
0.0
 10
14.7945795283
 20
11.2765373946
 30
0.0
 10
14.8089510226
 20
11.2595617256
 30
0.0
 10
14.8235137883
 20
11.2436878246
 30
0.0
 10
14.8382553472
 20
11.2289296838
 30
0.0
 10
14.8531631229
 20
11.2153003925
 30
0.0
 10
14.8682244381
 20
11.2028121379
 30
0.0
 10
14.8834264859
 20
11.1914761874
 30
0.0
 10
14.8987563478
 20
11.1813029448
 30
0.0
 10
14.9142009606
 20
11.1723019695
 30
0.0
 10
14.9297470595
 20
11.1644819475
 30
0.0
 10
14.9453811107
 20
11.1578506564
 30
0.0
 10
14.9610893167
 20
11.1524149643
 30
0.0
 10
14.9768574147
 20
11.1481807594
 30
0.0
 10
14.9926711794
 20
11.1451527863
 30
0.0
 10
15.0085144906
 20
11.1433345479
 30
0.0
 10
15.0190979216
 20
11.142929991
 30
0.0
 10
15.0243744742
 20
11.142929993
 30
0.0
  0
SPLINE
  5
2E1
100
AcDbEntity
  8
LAYER_FEATURE
100
AcDbSpline
 62
7
  6
CONTINUOUS
 70
0
 71
3
 72
13
 73
9
 74
0
 42
0.0000001
 43
0.0000001
 44
0.0000000001
 40
0.0
 40
0.0
 40
0.0
 40
0.0
 40
0.1126459242
 40
0.233349967
 40
0.4902856267
 40
0.7522515083
 40
0.8790790098
 40
1.0
 40
1.0
 40
1.0
 40
1.0
 10
14.6212436922
 20
13.4049061333
 30
0.0
 10
14.6211295288
 20
13.4045367003
 30
0.0
 10
14.6209268933
 20
13.4037607018
 30
0.0
 10
14.6206206587
 20
13.4021047364
 30
0.0
 10
14.620432946
 20
13.3999115115
 30
0.0
 10
14.6204926914
 20
13.3976906366
 30
0.0
 10
14.6206961288
 20
13.3959519307
 30
0.0
 10
14.6208493432
 20
13.3951145906
 30
0.0
 10
14.6209392227
 20
13.394709363
 30
0.0
  0
SPLINE
  5
2E2
100
AcDbEntity
  8
LAYER_FEATURE
100
AcDbSpline
 62
7
  6
CONTINUOUS
 70
0
 71
3
 72
11
 73
7
 74
0
 42
0.0000001
 43
0.0000001
 44
0.0000000001
 40
0.0
 40
0.0
 40
0.0
 40
0.0
 40
0.2553250409
 40
0.5118768144
 40
0.7624153647
 40
1.0
 40
1.0
 40
1.0
 40
1.0
 10
14.6285226405
 20
13.336615311
 30
0.0
 10
14.6287582125
 20
13.3394027522
 30
0.0
 10
14.6290227673
 20
13.3450104111
 30
0.0
 10
14.6288280711
 20
13.3533680073
 30
0.0
 10
14.6280533617
 20
13.3614968795
 30
0.0
 10
14.6271355174
 20
13.3667729552
 30
0.0
 10
14.6265718676
 20
13.3693142082
 30
0.0
  0
SPLINE
  5
2E3
100
AcDbEntity
  8
LAYER_FEATURE
100
AcDbSpline
 62
7
  6
CONTINUOUS
 70
0
 71
3
 72
34
 73
30
 74
0
 42
0.0000001
 43
0.0000001
 44
0.0000000001
 40
0.0
 40
0.0
 40
0.0
 40
0.0
 40
0.0879664337
 40
0.1726604085
 40
0.253927194
 40
0.3316368864
 40
0.3691278143
 40
0.4056947097
 40
0.4413304651
 40
0.4760304991
 40
0.5097929185
 40
0.5426187396
 40
0.5745121887
 40
0.6054809573
 40
0.6355364808
 40
0.6646943039
 40
0.6929744437
 40
0.7204017232
 40
0.7728086253
 40
0.7978803222
 40
0.8222543096
 40
0.8459849986
 40
0.8691334489
 40
0.8917673258
 40
0.9139606908
 40
0.9357935258
 40
0.9573509803
 40
0.9787223819
 40
1.0
 40
1.0
 40
1.0
 40
1.0
 10
14.5692464666
 20
13.4113624344
 30
0.0
 10
14.5757057881
 20
13.4322648066
 30
0.0
 10
14.589040715
 20
13.4730932519
 30
0.0
 10
14.6107378515
 20
13.5324163058
 30
0.0
 10
14.6336967876
 20
13.5885173641
 30
0.0
 10
14.6540573201
 20
13.6329541776
 30
0.0
 10
14.6709503531
 20
13.6667114985
 30
0.0
 10
14.6837378318
 20
13.6908134039
 30
0.0
 10
14.6967841482
 20
13.7139829284
 30
0.0
 10
14.7100791648
 20
13.7362019231
 30
0.0
 10
14.7236124315
 20
13.7574528869
 30
0.0
 10
14.7373733921
 20
13.7777190907
 30
0.0
 10
14.751351303
 20
13.7969846023
 30
0.0
 10
14.7655352574
 20
13.8152342565
 30
0.0
 10
14.779914329
 20
13.8324537373
 30
0.0
 10
14.7944771629
 20
13.8486292323
 30
0.0
 10
14.8092133484
 20
13.8637488041
 30
0.0
 10
14.8287778155
 20
13.882201377
 30
0.0
 10
14.8489341024
 20
13.8988421697
 30
0.0
 10
14.8696545572
 20
13.913430567
 30
0.0
 10
14.885082258
 20
13.9231025034
 30
0.0
 10
14.900612836
 20
13.931657239
 30
0.0
 10
14.9162346988
 20
13.9390876382
 30
0.0
 10
14.9319354784
 20
13.9453869651
 30
0.0
 10
14.947702715
 20
13.9505494095
 30
0.0
 10
14.9635235178
 20
13.9545700526
 30
0.0
 10
14.9793851114
 20
13.9574449
 30
0.0
 10
14.9952730579
 20
13.959170984
 30
0.0
 10
15.0058840286
 20
13.95955499
 30
0.0
 10
15.0111758708
 20
13.9595549848
 30
0.0
  0
SPLINE
  5
2E4
100
AcDbEntity
  8
02___PRT_ALL_AXES
100
AcDbSpline
 62
7
  6
CONTINUOUS
 70
0
 71
3
 72
39
 73
35
 74
0
 42
0.0000001
 43
0.0000001
 44
0.0000000001
 40
0.0
 40
0.0
 40
0.0
 40
0.0
 40
0.0209720501
 40
0.0431216433
 40
0.0664485694
 40
0.0909393388
 40
0.1165695317
 40
0.1433051047
 40
0.1711037001
 40
0.199915676
 40
0.2296849959
 40
0.2603499935
 40
0.2918440408
 40
0.3240961441
 40
0.3570314841
 40
0.390571914
 40
0.4246364253
 40
0.4591415933
 40
0.4940020013
 40
0.5291306519
 40
0.5644393669
 40
0.5998391825
 40
0.6352407383
 40
0.6705546673
 40
0.705691983
 40
0.7405644695
 40
0.7750850752
 40
0.8091683133
 40
0.8427306734
 40
0.8756910495
 40
0.9079711626
 40
0.9394961093
 40
0.9701945545
 40
1.0
 40
1.0
 40
1.0
 40
1.0
 10
15.8071888277
 20
13.1488508164
 30
0.0
 10
15.8118369787
 20
13.1426604378
 30
0.0
 10
15.8209777715
 20
13.1296155321
 30
0.0
 10
15.8338890842
 20
13.1087483649
 30
0.0
 10
15.8463378912
 20
13.0861084451
 30
0.0
 10
15.8582872943
 20
13.0617630797
 30
0.0
 10
15.8697026294
 20
13.0357833975
 30
0.0
 10
15.8805502518
 20
13.008245901
 30
0.0
 10
15.8907981336
 20
12.979231761
 30
0.0
 10
15.9004158958
 20
12.9488266975
 30
0.0
 10
15.9093749728
 20
12.9171206669
 30
0.0
 10
15.9176487097
 20
12.8842075873
 30
0.0
 10
15.9252124643
 20
12.8501850391
 30
0.0
 10
15.9320436909
 20
12.8151539635
 30
0.0
 10
15.9381220154
 20
12.7792183509
 30
0.0
 10
15.9434293026
 20
12.7424849238
 30
0.0
 10
15.9479497178
 20
12.7050628113
 30
0.0
 10
15.9516697705
 20
12.6670632168
 30
0.0
 10
15.9545783572
 20
12.6285990805
 30
0.0
 10
15.9566667949
 20
12.5897847392
 30
0.0
 10
15.9579288478
 20
12.5507355824
 30
0.0
 10
15.9583607459
 20
12.5115677056
 30
0.0
 10
15.9579612011
 20
12.4723975612
 30
0.0
 10
15.9567314082
 20
12.4333416082
 30
0.0
 10
15.9546750391
 20
12.394515962
 30
0.0
 10
15.9517982326
 20
12.3560360464
 30
0.0
 10
15.9481095757
 20
12.3180162465
 30
0.0
 10
15.9436200763
 20
12.2805695635
 30
0.0
 10
15.9383431344
 20
12.2438072759
 30
0.0
 10
15.9322944951
 20
12.2078385934
 30
0.0
 10
15.9254922174
 20
12.1727703527
 30
0.0
 10
15.9179565491
 20
12.1387065918
 30
0.0
 10
15.9097100858
 20
12.1057487325
 30
0.0
 10
15.9036612341
 20
12.0842461705
 30
0.0
 10
15.9005160741
 20
12.0737035428
 30
0.0
  0
SPLINE
  5
2E5
100
AcDbEntity
  8
02___PRT_ALL_AXES
100
AcDbSpline
 62
7
  6
CONTINUOUS
 70
0
 71
3
 72
16
 73
12
 74
0
 42
0.0000001
 43
0.0000001
 44
0.0000000001
 40
0.0
 40
0.0
 40
0.0
 40
0.0
 40
0.1528259339
 40
0.2975797174
 40
0.4341559819
 40
0.5625609378
 40
0.6829374568
 40
0.7955914801
 40
0.8491872256
 40
0.9010587516
 40
1.0
 40
1.0
 40
1.0
 40
1.0
 10
15.860429938
 20
11.9649776873
 30
0.0
 10
15.8562054997
 20
11.9556838302
 30
0.0
 10
15.8475680744
 20
11.9377695655
 30
0.0
 10
15.8336356306
 20
11.9123175701
 30
0.0
 10
15.8191216443
 20
11.8890919192
 30
0.0
 10
15.8040775236
 20
11.8681776703
 30
0.0
 10
15.7885564729
 20
11.8496522479
 30
0.0
 10
15.7750492658
 20
11.8360412452
 30
0.0
 10
15.7640496886
 20
11.8264758597
 30
0.0
 10
15.7532954131
 20
11.8180562412
 30
0.0
 10
15.7448601813
 20
11.8124930943
 30
0.0
 10
15.739121588
 20
11.8092140445
 30
0.0
  0
SPLINE
  5
2E6
100
AcDbEntity
  8
02___PRT_ALL_AXES
100
AcDbSpline
 62
7
  6
CONTINUOUS
 70
0
 71
3
 72
26
 73
22
 74
0
 42
0.0000001
 43
0.0000001
 44
0.0000000001
 40
0.0
 40
0.0
 40
0.0
 40
0.0
 40
0.0841316875
 40
0.1681188014
 40
0.2512043203
 40
0.3326408702
 40
0.411709351
 40
0.4877297794
 40
0.5600755712
 40
0.6281893461
 40
0.6916020064
 40
0.7499572374
 40
0.8030443534
 40
0.850845136
 40
0.8936013383
 40
0.9132774475
 40
0.9319515546
 40
0.9497695273
 40
0.9669086311
 40
0.9835755503
 40
1.0
 40
1.0
 40
1.0
 40
1.0
 10
15.8071888277
 20
13.1488508164
 30
0.0
 10
15.8072771037
 20
13.1515404832
 30
0.0
 10
15.8073446251
 20
13.1569193851
 30
0.0
 10
15.8071229057
 20
13.1649536505
 30
0.0
 10
15.8065808598
 20
13.1728864764
 30
0.0
 10
15.8057243012
 20
13.1806333579
 30
0.0
 10
15.8045624803
 20
13.1881119769
 30
0.0
 10
15.8031079237
 20
13.195242998
 30
0.0
 10
15.8013762698
 20
13.2019510011
 30
0.0
 10
15.7993860497
 20
13.2081653548
 30
0.0
 10
15.7971583002
 20
13.2138211549
 30
0.0
 10
15.7947162712
 20
13.2188599255
 30
0.0
 10
15.7920839905
 20
13.2232308816
 30
0.0
 10
15.789286908
 20
13.2268895445
 30
0.0
 10
15.7867692136
 20
13.2293812883
 30
0.0
 10
15.7846957627
 20
13.2309463218
 30
0.0
 10
15.7831607032
 20
13.231885979
 30
0.0
 10
15.7816066697
 20
13.2326209966
 30
0.0
 10
15.7800375133
 20
13.2331484902
 30
0.0
 10
15.7784581684
 20
13.2334660821
 30
0.0
 10
15.7773983671
 20
13.2335369819
 30
0.0
 10
15.7768729993
 20
13.2335369804
 30
0.0
  0
SPLINE
  5
2E7
100
AcDbEntity
  8
02___PRT_ALL_AXES
100
AcDbSpline
 62
7
  6
CONTINUOUS
 70
0
 71
3
 72
10
 73
6
 74
0
 42
0.0000001
 43
0.0000001
 44
0.0000000001
 40
0.0
 40
0.0
 40
0.0
 40
0.0
 40
0.500757627
 40
0.7505854718
 40
1.0
 40
1.0
 40
1.0
 40
1.0
 10
15.5102458316
 20
12.0961444969
 30
0.0
 10
15.5754299286
 20
12.0931565064
 30
0.0
 10
15.6731109976
 20
12.0881389354
 30
0.0
 10
15.8031833504
 20
12.0803029531
 30
0.0
 10
15.8680950829
 20
12.0759772056
 30
0.0
 10
15.9005160741
 20
12.0737035428
 30
0.0
  0
ENDSEC
  0
SECTION
  2
OBJECTS
  0
DICTIONARY
  5
C
100
AcDbDictionary
280
0
281
1
  3
ACAD_GROUP
350
D
  3
ACAD_MLINESTYLE
350
17
  3
ACAD_LAYOUT
350
1A
  3
ACAD_PLOTSETTINGS
350
19
  3
ACAD_PLOTSTYLENAME
350
E
  0
DICTIONARY
  5
D
102
{ACAD_REACTORS
330
C
102
}
100
AcDbDictionary
280
0
281
1
  0
ACDBDICTIONARYWDFLT
  5
E
102
{ACAD_REACTORS
330
C
102
}
100
AcDbDictionary
281
1
  3
Normal
350
F
100
AcDbDictionaryWithDefault
340
F
  0
DICTIONARY
  5
17
102
{ACAD_REACTORS
330
C
102
}
100
AcDbDictionary
280
0
281
1
  3
Standard
350
18
  0
DICTIONARY
  5
19
102
{ACAD_REACTORS
330
C
102
}
100
AcDbDictionary
281
1
  0
DICTIONARY
  5
1A
102
{ACAD_REACTORS
330
C
102
}
100
AcDbDictionary
281
1
  3
Model
350
2E8
  3
Layout1
350
2E9
  0
ACDBPLACEHOLDER
  5
F
102
{ACAD_REACTORS
330
E
102
}
  0
MLINESTYLE
  5
18
102
{ACAD_REACTORS
330
17
102
}
100
AcDbMlineStyle
  2
STANDARD
 70
0
  3

 62
256
 51
90.0
 52
90.0
 71
2
 49
0.5
 62
256
  6
BYLAYER
 49
-0.5
 62
256
  6
BYLAYER
  0
LAYOUT
  5
2E8
102
{ACAD_REACTORS
330
1A
102
}
100
AcDbPlotSettings
  1

  2
none_device
  4
ANSI_C_(22.00_x_17.00_Inches)
  6

 40
0.0
 41
0.0
 42
0.0
 43
0.0
 44
558.8
 45
431.8
 46
0.0
 47
0.0
 48
0.0
 49
0.0
140
0.0
141
0.0
142
1.0
143
1.0
 70
1024
 72
0
 73
0
 74
0
  7

 75
0
147
1.0
148
0.0
149
0.0
100
AcDbLayout
  1
Model
 70
0
 71
0
 10
0.0
 20
0.0
 11
22.0
 21
17.0
 12
0.0
 22
0.0
 32
0.0
 14
0.0
 24
0.0
 34
0.0
 15
0.0
 25
0.0
 35
0.0
146
0.0
 13
0.0
 23
0.0
 33
0.0
 16
1.0
 26
0.0
 36
0.0
 17
0.0
 27
1.0
 37
0.0
 76
0
330
222
345
0
346
0
  0
LAYOUT
  5
2E9
102
{ACAD_REACTORS
330
1A
102
}
100
AcDbPlotSettings
  1

  2
none_device
  4
ANSI_C_(22.00_x_17.00_Inches)
  6

 40
0.0
 41
0.0
 42
0.0
 43
0.0
 44
558.8
 45
431.8
 46
0.0
 47
0.0
 48
0.0
 49
0.0
140
0.0
141
0.0
142
1.0
143
1.0
 70
0
 72
0
 73
0
 74
0
  7

 75
0
147
1.0
148
0.0
149
0.0
100
AcDbLayout
  1
Layout1
 70
0
 71
1
 10
0.0
 20
0.0
 11
22.0
 21
17.0
 12
0.0
 22
0.0
 32
0.0
 14
0.0
 24
0.0
 34
0.0
 15
0.0
 25
0.0
 35
0.0
146
0.0
 13
0.0
 23
0.0
 33
0.0
 16
1.0
 26
0.0
 36
0.0
 17
0.0
 27
1.0
 37
0.0
 76
0
330
223
345
0
346
0
  0
ENDSEC
  0
EOF