999
DXF file: _cgs_temp_output.dxf
999
Pro/ENGINEER 2016360 by Parametric Technology Corporation
  0
SECTION
  2
HEADER
  9
$ACADVER
  1
AC1021
  9
$DWGCODEPAGE
  3
ANSI_1252
  9
$EXTMAX
 10
22.0
 20
17.0
 30
0.0
  9
$EXTMIN
 10
0.0
 20
0.0
 30
0.0
  9
$LIMMIN
 10
0.0
 20
0.0
  9
$LIMMAX
 10
22.0
 20
17.0
  9
$VIEWCTR
 10
11.0
 20
8.5
  9
$VIEWSIZE
 40
17.0
  9
$CLAYER
  8
0
  9
$LTSCALE
 40
1.21
  9
$CELTYPE
  6
BYLAYER
  9
$DIMSCALE
 40
1.0
  9
$DIMASZ
 40
0.1875
  9
$DIMEXO
 40
0.0625
  9
$DIMDLI
 40
0.836
  9
$DIMEXE
 40
0.125
  9
$DIMCEN
 40
0.198
  9
$DIMLFAC
 40
1.0
  9
$DIMBLK
  1
_CLOSED
  9
$DIMALT
 70
0
  9
$DIMALTF
 40
25.4
  9
$DIMTXT
 40
0.15625
  9
$DIMTOL
 70
0
  9
$DIMLIM
 70
0
  9
$DIMTFAC
 40
1.0
  9
$DIMGAP
 40
0.09
  9
$DIMDSEP
 70
46
  9
$AUNITS
 70
0
  9
$PDMODE
 70
3
  9
$PDSIZE
 40
0.3125
  9
$HANDSEED
  5
2E7
  9
$TILEMODE
 70
1
  9
$MEASUREMENT
 70
0
  9
$INSUNITS
 70
1
  0
ENDSEC
  0
SECTION
  2
CLASSES
  0
CLASS
  1
ACDBDICTIONARYWDFLT
  2
AcDbDictionaryWithDefault
  3
AutoCAD 2000
 90
0
 91
1
280
0
281
0
  0
CLASS
  1
ACDBPLACEHOLDER
  2
AcDbPlaceHolder
  3
AutoCAD 2000
 90
0
 91
1
280
0
281
0
  0
CLASS
  1
LAYOUT
  2
AcDbLayout
  3
AutoCAD 2000
 90
0
 91
0
280
0
281
0
  0
ENDSEC
  0
SECTION
  2
TABLES
  0
TABLE
  2
VPORT
  5
8
100
AcDbSymbolTable
 70
2
  0
VPORT
  5
1F4
100
AcDbSymbolTableRecord
100
AcDbViewportTableRecord
  2
*ACTIVE
 70
0
 10
0.0
 20
0.0
 11
1.0
 21
1.0
 12
11.0
 22
8.5
 13
0.0
 23
0.0
 14
1.0
 24
1.0
 15
0.0
 25
0.0
 16
0.0
 26
0.0
 36
1.0
 17
0.0
 27
0.0
 37
0.0
 40
17.0
 41
1.2941176471
 42
50.0
 43
0.0
 44
0.0
 50
0.0
 51
0.0
 71
0
 72
100
 73
1
 74
1
 75
0
 76
0
 77
0
 78
0
  0
ENDTAB
  0
TABLE
  2
LTYPE
  5
5
100
AcDbSymbolTable
 70
6
  0
LTYPE
  5
14
100
AcDbSymbolTableRecord
100
AcDbLinetypeTableRecord
  2
BYBLOCK
 70
0
  3

 72
65
 73
0
 40
0.0
  0
LTYPE
  5
15
100
AcDbSymbolTableRecord
100
AcDbLinetypeTableRecord
  2
BYLAYER
 70
0
  3

 72
65
 73
0
 40
0.0
  0
LTYPE
  5
16
100
AcDbSymbolTableRecord
100
AcDbLinetypeTableRecord
  2
CONTINUOUS
 70
64
  3
Solid line
 72
65
 73
0
 40
0.0
  0
LTYPE
  5
1F5
100
AcDbSymbolTableRecord
100
AcDbLinetypeTableRecord
  2
CENTER
 70
64
  3
____ _ ____ _ ____ _ ____ _ ____ _ ____ _ ____
 72
65
 73
4
 40
0.6
 49
0.375
 74
0
 49
-0.075
 74
0
 49
0.075
 74
0
 49
-0.075
 74
0
  0
LTYPE
  5
1F6
100
AcDbSymbolTableRecord
100
AcDbLinetypeTableRecord
  2
HIDDEN
 70
64
  3
- - - - - - - - - - - - - - - - - - - -
 72
65
 73
2
 40
0.2
 49
0.1
 74
0
 49
-0.1
 74
0
  0
LTYPE
  5
1F7
100
AcDbSymbolTableRecord
100
AcDbLinetypeTableRecord
  2
PHANTOM
 70
64
  3
_____ _ _ _____ _ _ _____ _ _ _____
 72
65
 73
6
 40
0.8
 49
0.45
 74
0
 49
-0.05
 74
0
 49
0.1
 74
0
 49
-0.05
 74
0
 49
0.1
 74
0
 49
-0.05
 74
0
  0
LTYPE
  5
1F8
100
AcDbSymbolTableRecord
100
AcDbLinetypeTableRecord
  2
DOT
 70
64
  3
. . . . . . . . . . . . . . . . . . . .
 72
65
 73
2
 40
0.2
 49
0.1
 74
0
 49
-0.1
 74
0
  0
LTYPE
  5
1F9
100
AcDbSymbolTableRecord
100
AcDbLinetypeTableRecord
  2
DASHED
 70
64
  3
- - - - - - - - - - - - - - - - - - - -
 72
65
 73
2
 40
0.2
 49
0.1
 74
0
 49
-0.1
 74
0
  0
ENDTAB
  0
TABLE
  2
LAYER
  5
2
100
AcDbSymbolTable
 70
36
  0
LAYER
  5
10
100
AcDbSymbolTableRecord
100
AcDbLayerTableRecord
  2
0
 70
0
 62
7
  6
CONTINUOUS
370
-3
390
F
  0
LAYER
  5
1FA
100
AcDbSymbolTableRecord
100
AcDbLayerTableRecord
  2
DEFAULT_1
 70
0
 62
7
  6
CENTER
370
-3
390
F
  0
LAYER
  5
1FB
100
AcDbSymbolTableRecord
100
AcDbLayerTableRecord
  2
DEFAULT_2
 70
0
 62
8
  6
HIDDEN
370
-3
390
F
  0
LAYER
  5
1FC
100
AcDbSymbolTableRecord
100
AcDbLayerTableRecord
  2
DEFAULT_3
 70
0
 62
7
  6
PHANTOM
370
-3
390
F
  0
LAYER
  5
1FD
100
AcDbSymbolTableRecord
100
AcDbLayerTableRecord
  2
01_ALL_DTM_PLN
 70
0
 62
7
  6
CONTINUOUS
370
-3
390
F
  0
LAYER
  5
1FE
100
AcDbSymbolTableRecord
100
AcDbLayerTableRecord
  2
01__ASM_ALL_DTM_PLN
 70
0
 62
7
  6
CONTINUOUS
370
-3
390
F
  0
LAYER
  5
1FF
100
AcDbSymbolTableRecord
100
AcDbLayerTableRecord
  2
01__ASM_DEF_DTM_PLN
 70
0
 62
7
  6
CONTINUOUS
370
-3
390
F
  0
LAYER
  5
200
100
AcDbSymbolTableRecord
100
AcDbLayerTableRecord
  2
01___PRT_ALL_DTM_PLN
 70
0
 62
7
  6
CONTINUOUS
370
-3
390
F
  0
LAYER
  5
201
100
AcDbSymbolTableRecord
100
AcDbLayerTableRecord
  2
01___PRT_DEF_DTM_PLN
 70
0
 62
7
  6
CONTINUOUS
370
-3
390
F
  0
LAYER
  5
202
100
AcDbSymbolTableRecord
100
AcDbLayerTableRecord
  2
02_ALL_AXES
 70
0
 62
7
  6
CONTINUOUS
370
-3
390
F
  0
LAYER
  5
203
100
AcDbSymbolTableRecord
100
AcDbLayerTableRecord
  2
02__ASM_ALL_AXES
 70
0
 62
7
  6
CONTINUOUS
370
-3
390
F
  0
LAYER
  5
204
100
AcDbSymbolTableRecord
100
AcDbLayerTableRecord
  2
02___PRT_ALL_AXES
 70
0
 62
7
  6
CONTINUOUS
370
-3
390
F
  0
LAYER
  5
205
100
AcDbSymbolTableRecord
100
AcDbLayerTableRecord
  2
03_ALL_CURVES
 70
0
 62
7
  6
CONTINUOUS
370
-3
390
F
  0
LAYER
  5
206
100
AcDbSymbolTableRecord
100
AcDbLayerTableRecord
  2
03__ASM_ALL_CURVES
 70
0
 62
7
  6
CONTINUOUS
370
-3
390
F
  0
LAYER
  5
207
100
AcDbSymbolTableRecord
100
AcDbLayerTableRecord
  2
03___PRT_ALL_CURVES
 70
0
 62
7
  6
CONTINUOUS
370
-3
390
F
  0
LAYER
  5
208
100
AcDbSymbolTableRecord
100
AcDbLayerTableRecord
  2
04_ALL_DTM_PNT
 70
0
 62
7
  6
CONTINUOUS
370
-3
390
F
  0
LAYER
  5
209
100
AcDbSymbolTableRecord
100
AcDbLayerTableRecord
  2
04__ASM_ALL_DTM_PNT
 70
0
 62
7
  6
CONTINUOUS
370
-3
390
F
  0
LAYER
  5
20A
100
AcDbSymbolTableRecord
100
AcDbLayerTableRecord
  2
04___PRT_ALL_DTM_PNT
 70
0
 62
7
  6
CONTINUOUS
370
-3
390
F
  0
LAYER
  5
20B
100
AcDbSymbolTableRecord
100
AcDbLayerTableRecord
  2
05_ALL_DTM_CSYS
 70
0
 62
7
  6
CONTINUOUS
370
-3
390
F
  0
LAYER
  5
20C
100
AcDbSymbolTableRecord
100
AcDbLayerTableRecord
  2
05__ASM_ALL_DTM_CSYS
 70
0
 62
7
  6
CONTINUOUS
370
-3
390
F
  0
LAYER
  5
20D
100
AcDbSymbolTableRecord
100
AcDbLayerTableRecord
  2
05__ASM_DEF_DTM_CSYS
 70
0
 62
7
  6
CONTINUOUS
370
-3
390
F
  0
LAYER
  5
20E
100
AcDbSymbolTableRecord
100
AcDbLayerTableRecord
  2
05___PRT_ALL_DTM_CSYS
 70
0
 62
7
  6
CONTINUOUS
370
-3
390
F
  0
LAYER
  5
20F
100
AcDbSymbolTableRecord
100
AcDbLayerTableRecord
  2
05___PRT_DEF_DTM_CSYS
 70
0
 62
7
  6
CONTINUOUS
370
-3
390
F
  0
LAYER
  5
210
100
AcDbSymbolTableRecord
100
AcDbLayerTableRecord
  2
06_ALL_SURFS
 70
0
 62
7
  6
CONTINUOUS
370
-3
390
F
  0
LAYER
  5
211
100
AcDbSymbolTableRecord
100
AcDbLayerTableRecord
  2
06__ASM_ALL_SURFS
 70
0
 62
7
  6
CONTINUOUS
370
-3
390
F
  0
LAYER
  5
212
100
AcDbSymbolTableRecord
100
AcDbLayerTableRecord
  2
06___PRT_ALL_SURFS
 70
0
 62
7
  6
CONTINUOUS
370
-3
390
F
  0
LAYER
  5
213
100
AcDbSymbolTableRecord
100
AcDbLayerTableRecord
  2
07__ASM_ALL_SKELETONS
 70
0
 62
7
  6
CONTINUOUS
370
-3
390
F
  0
LAYER
  5
214
100
AcDbSymbolTableRecord
100
AcDbLayerTableRecord
  2
LAYER_AXIS
 70
0
 62
7
  6
CONTINUOUS
370
-3
390
F
  0
LAYER
  5
215
100
AcDbSymbolTableRecord
100
AcDbLayerTableRecord
  2
LAYER_CHAMFER_FEAT
 70
0
 62
7
  6
CONTINUOUS
370
-3
390
F
  0
LAYER
  5
216
100
AcDbSymbolTableRecord
100
AcDbLayerTableRecord
  2
LAYER_CUT_FEAT
 70
0
 62
7
  6
CONTINUOUS
370
-3
390
F
  0
LAYER
  5
217
100
AcDbSymbolTableRecord
100
AcDbLayerTableRecord
  2
LAYER_DATUM
 70
0
 62
7
  6
CONTINUOUS
370
-3
390
F
  0
LAYER
  5
218
100
AcDbSymbolTableRecord
100
AcDbLayerTableRecord
  2
LAYER_DIM
 70
0
 62
7
  6
CONTINUOUS
370
-3
390
F
  0
LAYER
  5
219
100
AcDbSymbolTableRecord
100
AcDbLayerTableRecord
  2
LAYER_FEATURE
 70
0
 62
7
  6
CONTINUOUS
370
-3
390
F
  0
LAYER
  5
21A
100
AcDbSymbolTableRecord
100
AcDbLayerTableRecord
  2
LAYER_GEOM_FEAT
 70
0
 62
7
  6
CONTINUOUS
370
-3
390
F
  0
LAYER
  5
21B
100
AcDbSymbolTableRecord
100
AcDbLayerTableRecord
  2
LAYER_NOGEOM_FEAT
 70
0
 62
7
  6
CONTINUOUS
370
-3
390
F
  0
LAYER
  5
21C
100
AcDbSymbolTableRecord
100
AcDbLayerTableRecord
  2
LAYER_PARAMETER_DIM
 70
0
 62
7
  6
CONTINUOUS
370
-3
390
F
  0
LAYER
  5
21D
100
AcDbSymbolTableRecord
100
AcDbLayerTableRecord
  2
LAYER_PROTRUSION_FEAT
 70
0
 62
7
  6
CONTINUOUS
370
-3
390
F
  0
LAYER
  5
21E
100
AcDbSymbolTableRecord
100
AcDbLayerTableRecord
  2
LAYER_QUILT
 70
0
 62
7
  6
CONTINUOUS
370
-3
390
F
  0
LAYER
  5
21F
100
AcDbSymbolTableRecord
100
AcDbLayerTableRecord
  2
LAYER_ROUND_FEAT
 70
0
 62
7
  6
CONTINUOUS
370
-3
390
F
  0
ENDTAB
  0
TABLE
  2
STYLE
  5
3
100
AcDbSymbolTable
 70
1
  0
STYLE
  5
11
100
AcDbSymbolTableRecord
100
AcDbTextStyleTableRecord
  2
STANDARD
 70
0
 40
0.0
 41
0.8
 50
0.0
 71
0
 42
0.2
  3
txt
  4

  0
STYLE
  5
220
100
AcDbSymbolTableRecord
100
AcDbTextStyleTableRecord
  2
TEXTSTYLE_1
 70
0
 40
0.0
 41
0.8
 50
0.0
 71
0
 42
0.2
  3
gdt
  4

  0
ENDTAB
  0
TABLE
  2
VIEW
  5
6
100
AcDbSymbolTable
 70
0
  0
ENDTAB
  0
TABLE
  2
UCS
  5
7
100
AcDbSymbolTable
 70
0
  0
ENDTAB
  0
TABLE
  2
APPID
  5
9
100
AcDbSymbolTable
 70
1
  0
APPID
  5
221
100
AcDbSymbolTableRecord
100
AcDbRegAppTableRecord
  2
ACAD
 70
0
  0
ENDTAB
  0
TABLE
  2
BLOCK_RECORD
  5
1
100
AcDbSymbolTable
 70
0
  0
BLOCK_RECORD
  5
222
100
AcDbSymbolTableRecord
100
AcDbBlockTableRecord
  2
*Model_Space
  0
BLOCK_RECORD
  5
223
100
AcDbSymbolTableRecord
100
AcDbBlockTableRecord
  2
*Paper_Space
  0
ENDTAB
  0
TABLE
  2
DIMSTYLE
  5
A
100
AcDbSymbolTable
 70
1
100
AcDbDimStyleTable
 71
0
  0
DIMSTYLE
105
224
100
AcDbSymbolTableRecord
100
AcDbDimStyleTableRecord
  2
STANDARD
 70
0
  3

  4

 40
1.0
 41
0.1875
 42
0.0625
 43
0.38
 44
0.125
 45
0.0
 46
0.0
 47
0.0001
 48
0.0001
140
0.15625
141
0.09
142
0.0
143
25.4
144
1.0
145
0.0
146
1.0
147
0.09
 71
0.0
 72
0.0
 73
1
 74
1
 75
0
 76
0
 77
0
 78
4
 79
1
170
0
171
3
172
0
173
0
174
0
175
0
176
0
177
0
178
0
270
2
179
4
271
4
272
4
273
2
274
2
275
0
280
0
281
0
282
0
283
1
284
4
285
0
286
0
287
3
288
0
340
11
278
46
  0
ENDTAB
  0
ENDSEC
  0
SECTION
  2
BLOCKS
  0
BLOCK
  5
20
100
AcDbEntity
  8
0
100
AcDbBlockBegin
  2
*Model_Space
 70
0
 10
0.0
 20
0.0
 30
0.0
  3
*Model_Space
  1

  0
ENDBLK
  5
21
100
AcDbEntity
  8
0
100
AcDbBlockEnd
  0
BLOCK
  5
1C
100
AcDbEntity
  8
0
100
AcDbBlockBegin
  2
*Paper_Space
 70
0
 10
0.0
 20
0.0
 30
0.0
  3
*Paper_Space
  1

  0
ENDBLK
  5
1D
100
AcDbEntity
  8
0
100
AcDbBlockEnd
  0
ENDSEC
  0
SECTION
  2
ENTITIES
  0
MTEXT
  5
225
100
AcDbEntity
  8
0
100
AcDbMText
 62
7
  6
CONTINUOUS
  7
STANDARD
 71
1
 72
1
 10
15.9560215477
 20
0.9479130325
 30
0.0
 11
1.0
 21
0.0
 31
0.0
 44
0.9
  1
SCALE: 1:0.250
 40
0.3
 41
3.36
  0
LINE
  5
226
100
AcDbEntity
  8
0
100
AcDbLine
 62
7
  6
CONTINUOUS
 10
0.0
 20
0.0
 11
0.0
 21
17.0
  0
LINE
  5
227
100
AcDbEntity
  8
0
100
AcDbLine
 62
7
  6
CONTINUOUS
 10
0.0
 20
0.0
 11
22.0
 21
0.0
  0
LINE
  5
228
100
AcDbEntity
  8
0
100
AcDbLine
 62
7
  6
CONTINUOUS
 10
0.0
 20
17.0
 11
22.0
 21
17.0
  0
LINE
  5
229
100
AcDbEntity
  8
0
100
AcDbLine
 62
7
  6
CONTINUOUS
 10
22.0
 20
0.0
 11
22.0
 21
17.0
  0
LINE
  5
22A
100
AcDbEntity
  8
LAYER_FEATURE
100
AcDbLine
 62
7
  6
CONTINUOUS
 10
6.5516172762
 20
4.0713698968
 11
6.5209470583
 21
4.0713698968
  0
LINE
  5
22B
100
AcDbEntity
  8
LAYER_FEATURE
100
AcDbLine
 62
7
  6
CONTINUOUS
 10
5.7091172762
 20
4.0713698968
 11
5.739787494
 21
4.0713698968
  0
LINE
  5
22C
100
AcDbEntity
  8
02___PRT_ALL_AXES
100
AcDbLine
 62
7
  6
CONTINUOUS
 10
5.7541172762
 20
4.1522448968
 11
6.5066172762
 21
4.1522448968
  0
LINE
  5
22D
100
AcDbEntity
  8
LAYER_FEATURE
100
AcDbLine
 62
7
  6
CONTINUOUS
 10
5.7091172762
 20
6.9688698968
 11
5.7091172762
 21
4.0713698968
  0
LINE
  5
22E
100
AcDbEntity
  8
LAYER_FEATURE
100
AcDbLine
 62
7
  6
CONTINUOUS
 10
5.739787494
 20
6.9688698968
 11
5.739787494
 21
4.0713698968
  0
LINE
  5
22F
100
AcDbEntity
  8
LAYER_FEATURE
100
AcDbLine
 62
7
  6
CONTINUOUS
 10
5.7541172762
 20
6.9014535722
 11
5.7541172762
 21
4.1387862213
  0
LINE
  5
230
100
AcDbEntity
  8
LAYER_FEATURE
100
AcDbLine
 62
7
  6
CONTINUOUS
 10
5.739787494
 20
4.0713698968
 11
5.7541172762
 21
4.1387862213
  0
LINE
  5
231
100
AcDbEntity
  8
LAYER_FEATURE
100
AcDbLine
 62
7
  6
CONTINUOUS
 10
5.739787494
 20
6.9688698968
 11
5.7541172762
 21
6.9014535722
  0
LINE
  5
232
100
AcDbEntity
  8
LAYER_FEATURE
100
AcDbLine
 62
7
  6
CONTINUOUS
 10
6.5209470583
 20
6.9688698968
 11
6.5066172762
 21
6.9014535722
  0
LINE
  5
233
100
AcDbEntity
  8
LAYER_FEATURE
100
AcDbLine
 62
7
  6
CONTINUOUS
 10
6.5209470583
 20
4.0713698968
 11
6.5066172762
 21
4.1387862213
  0
LINE
  5
234
100
AcDbEntity
  8
LAYER_FEATURE
100
AcDbLine
 62
7
  6
CONTINUOUS
 10
6.5066172762
 20
6.9014535722
 11
6.5066172762
 21
4.1387862213
  0
LINE
  5
235
100
AcDbEntity
  8
LAYER_FEATURE
100
AcDbLine
 62
7
  6
CONTINUOUS
 10
6.5209470583
 20
6.9688698968
 11
6.5209470583
 21
4.0713698968
  0
LINE
  5
236
100
AcDbEntity
  8
LAYER_FEATURE
100
AcDbLine
 62
7
  6
CONTINUOUS
 10
6.5516172762
 20
6.9688698968
 11
6.5516172762
 21
4.0713698968
  0
LINE
  5
237
100
AcDbEntity
  8
LAYER_FEATURE
100
AcDbLine
 62
7
  6
CONTINUOUS
 10
5.7541172762
 20
6.8093294847
 11
6.5066172762
 21
6.8093294847
  0
LINE
  5
238
100
AcDbEntity
  8
0
100
AcDbLine
 62
7
  6
CONTINUOUS
 10
5.7541172762
 20
6.8097352187
 11
6.5066172762
 21
6.8097352187
  0
LINE
  5
239
100
AcDbEntity
  8
LAYER_FEATURE
100
AcDbLine
 62
7
  6
CONTINUOUS
 10
5.7541172762
 20
6.8428578858
 11
6.5066172762
 21
6.8428578858
  0
LINE
  5
23A
100
AcDbEntity
  8
LAYER_FEATURE
100
AcDbLine
 62
7
  6
CONTINUOUS
 10
5.7541172762
 20
6.8484443141
 11
6.5066172762
 21
6.8484443141
  0
LINE
  5
23B
100
AcDbEntity
  8
0
100
AcDbLine
 62
7
  6
CONTINUOUS
 10
5.7541172762
 20
6.84862539
 11
6.5066172762
 21
6.84862539
  0
LINE
  5
23C
100
AcDbEntity
  8
LAYER_FEATURE
100
AcDbLine
 62
7
  6
CONTINUOUS
 10
5.7541172762
 20
6.8709834379
 11
6.5066172762
 21
6.8709834379
  0
LINE
  5
23D
100
AcDbEntity
  8
LAYER_FEATURE
100
AcDbLine
 62
7
  6
CONTINUOUS
 10
5.7541172762
 20
6.8743576586
 11
6.5066172762
 21
6.8743576586
  0
LINE
  5
23E
100
AcDbEntity
  8
0
100
AcDbLine
 62
7
  6
CONTINUOUS
 10
5.7541172762
 20
6.8744030403
 11
6.5066172762
 21
6.8744030403
  0
LINE
  5
23F
100
AcDbEntity
  8
LAYER_FEATURE
100
AcDbLine
 62
7
  6
CONTINUOUS
 10
5.7541172762
 20
6.8856835012
 11
6.5066172762
 21
6.8856835012
  0
LINE
  5
240
100
AcDbEntity
  8
LAYER_FEATURE
100
AcDbLine
 62
7
  6
CONTINUOUS
 10
5.7541172762
 20
6.8868119798
 11
6.5066172762
 21
6.8868119798
  0
LINE
  5
241
100
AcDbEntity
  8
LAYER_FEATURE
100
AcDbLine
 62
7
  6
CONTINUOUS
 10
6.5516172762
 20
6.9688698968
 11
6.5209470583
 21
6.9688698968
  0
LINE
  5
242
100
AcDbEntity
  8
LAYER_FEATURE
100
AcDbLine
 62
7
  6
CONTINUOUS
 10
5.7091172762
 20
6.9688698968
 11
5.739787494
 21
6.9688698968
  0
LINE
  5
243
100
AcDbEntity
  8
LAYER_FEATURE
100
AcDbLine
 62
7
  6
CONTINUOUS
 10
5.6496220839
 20
11.1512977814
 11
5.6802923017
 21
11.1512977814
  0
LINE
  5
244
100
AcDbEntity
  8
LAYER_FEATURE
100
AcDbLine
 62
7
  6
CONTINUOUS
 10
6.461451866
 20
11.1512977814
 11
6.4921220839
 21
11.1512977814
  0
LINE
  5
245
100
AcDbEntity
  8
02___PRT_ALL_AXES
100
AcDbLine
 62
7
  6
CONTINUOUS
 10
5.6946220839
 20
11.2321727814
 11
6.4471220839
 21
11.2321727814
  0
LINE
  5
246
100
AcDbEntity
  8
LAYER_FEATURE
100
AcDbLine
 62
7
  6
CONTINUOUS
 10
5.6496220839
 20
11.1512977814
 11
5.6496220839
 21
14.0487977814
  0
LINE
  5
247
100
AcDbEntity
  8
LAYER_FEATURE
100
AcDbLine
 62
7
  6
CONTINUOUS
 10
5.6802923017
 20
11.1512977814
 11
5.6802923017
 21
14.0487977814
  0
LINE
  5
248
100
AcDbEntity
  8
LAYER_FEATURE
100
AcDbLine
 62
7
  6
CONTINUOUS
 10
5.6946220839
 20
12.1428600147
 11
6.4471220839
 21
12.1428600147
  0
LINE
  5
249
100
AcDbEntity
  8
LAYER_FEATURE
100
AcDbLine
 62
7
  6
CONTINUOUS
 10
6.4471220839
 20
12.1997028129
 11
5.6946220839
 21
12.1997028129
  0
LINE
  5
24A
100
AcDbEntity
  8
LAYER_FEATURE
100
AcDbLine
 62
7
  6
CONTINUOUS
 10
5.6946220839
 20
11.2187141957
 11
5.6946220839
 21
13.9813813671
  0
LINE
  5
24B
100
AcDbEntity
  8
LAYER_FEATURE
100
AcDbLine
 62
7
  6
CONTINUOUS
 10
6.4471220839
 20
12.228369997
 11
5.6946220839
 21
12.228369997
  0
LINE
  5
24C
100
AcDbEntity
  8
LAYER_FEATURE
100
AcDbLine
 62
7
  6
CONTINUOUS
 10
5.6946220839
 20
12.2515564214
 11
6.4471220839
 21
12.2515564214
  0
LINE
  5
24D
100
AcDbEntity
  8
LAYER_FEATURE
100
AcDbLine
 62
7
  6
CONTINUOUS
 10
5.6946220839
 20
12.2734957059
 11
6.4471220839
 21
12.2734957059
  0
LINE
  5
24E
100
AcDbEntity
  8
LAYER_FEATURE
100
AcDbLine
 62
7
  6
CONTINUOUS
 10
6.4471220839
 20
12.3258530049
 11
5.6946220839
 21
12.3258530049
  0
LINE
  5
24F
100
AcDbEntity
  8
LAYER_FEATURE
100
AcDbLine
 62
7
  6
CONTINUOUS
 10
6.4471220839
 20
12.3552581796
 11
5.6946220839
 21
12.3552581796
  0
LINE
  5
250
100
AcDbEntity
  8
LAYER_FEATURE
100
AcDbLine
 62
7
  6
CONTINUOUS
 10
5.6946220839
 20
12.3849903264
 11
6.4471220839
 21
12.3849903264
  0
LINE
  5
251
100
AcDbEntity
  8
LAYER_FEATURE
100
AcDbLine
 62
7
  6
CONTINUOUS
 10
5.6946220839
 20
12.4073768183
 11
6.4471220839
 21
12.4073768183
  0
LINE
  5
252
100
AcDbEntity
  8
LAYER_FEATURE
100
AcDbLine
 62
7
  6
CONTINUOUS
 10
6.4471220839
 20
12.4547282678
 11
5.6946220839
 21
12.4547282678
  0
LINE
  5
253
100
AcDbEntity
  8
LAYER_FEATURE
100
AcDbLine
 62
7
  6
CONTINUOUS
 10
6.4471220839
 20
12.4845791911
 11
5.6946220839
 21
12.4845791911
  0
LINE
  5
254
100
AcDbEntity
  8
LAYER_FEATURE
100
AcDbLine
 62
7
  6
CONTINUOUS
 10
5.6802923017
 20
11.1512977814
 11
5.6946220839
 21
11.218714106
  0
LINE
  5
255
100
AcDbEntity
  8
LAYER_FEATURE
100
AcDbLine
 62
7
  6
CONTINUOUS
 10
5.6946220839
 20
12.520561569
 11
6.4471220839
 21
12.520561569
  0
LINE
  5
256
100
AcDbEntity
  8
LAYER_FEATURE
100
AcDbLine
 62
7
  6
CONTINUOUS
 10
5.6946220839
 20
12.5431727814
 11
6.4471220839
 21
12.5431727814
  0
LINE
  5
257
100
AcDbEntity
  8
LAYER_FEATURE
100
AcDbLine
 62
7
  6
CONTINUOUS
 10
6.4471220839
 20
12.5850477814
 11
5.6946220839
 21
12.5850477814
  0
LINE
  5
258
100
AcDbEntity
  8
LAYER_FEATURE
100
AcDbLine
 62
7
  6
CONTINUOUS
 10
5.6802923017
 20
14.0487977814
 11
5.6946220839
 21
13.9813814568
  0
LINE
  5
259
100
AcDbEntity
  8
LAYER_FEATURE
100
AcDbLine
 62
7
  6
CONTINUOUS
 10
6.4471220839
 20
13.9813814568
 11
6.461451866
 21
14.0487977814
  0
LINE
  5
25A
100
AcDbEntity
  8
LAYER_FEATURE
100
AcDbLine
 62
7
  6
CONTINUOUS
 10
6.4471220839
 20
12.6150477814
 11
5.6946220839
 21
12.6150477814
  0
LINE
  5
25B
100
AcDbEntity
  8
LAYER_FEATURE
100
AcDbLine
 62
7
  6
CONTINUOUS
 10
5.6946220839
 20
12.6569227814
 11
6.4471220839
 21
12.6569227814
  0
LINE
  5
25C
100
AcDbEntity
  8
LAYER_FEATURE
100
AcDbLine
 62
7
  6
CONTINUOUS
 10
6.4471220839
 20
11.218714106
 11
6.461451866
 21
11.1512977814
  0
LINE
  5
25D
100
AcDbEntity
  8
LAYER_FEATURE
100
AcDbLine
 62
7
  6
CONTINUOUS
 10
6.4471220839
 20
11.218714106
 11
6.4471220839
 21
13.9813814568
  0
LINE
  5
25E
100
AcDbEntity
  8
LAYER_FEATURE
100
AcDbLine
 62
7
  6
CONTINUOUS
 10
6.461451866
 20
11.1512977814
 11
6.461451866
 21
14.0487977814
  0
LINE
  5
25F
100
AcDbEntity
  8
LAYER_FEATURE
100
AcDbLine
 62
7
  6
CONTINUOUS
 10
6.4921220839
 20
11.1512977814
 11
6.4921220839
 21
14.0487977814
  0
LINE
  5
260
100
AcDbEntity
  8
02___PRT_ALL_AXES
100
AcDbLine
 62
7
  6
CONTINUOUS
 10
5.6946220839
 20
13.9679227814
 11
6.4471220839
 21
13.9679227814
  0
LINE
  5
261
100
AcDbEntity
  8
LAYER_FEATURE
100
AcDbLine
 62
7
  6
CONTINUOUS
 10
5.6496220839
 20
14.0487977814
 11
5.6802923017
 21
14.0487977814
  0
LINE
  5
262
100
AcDbEntity
  8
LAYER_FEATURE
100
AcDbLine
 62
7
  6
CONTINUOUS
 10
6.461451866
 20
14.0487977814
 11
6.4921220839
 21
14.0487977814
  0
LINE
  5
263
100
AcDbEntity
  8
LAYER_FEATURE
100
AcDbLine
 62
7
  6
CONTINUOUS
 10
15.0830921126
 20
11.0620549929
 11
15.1113412539
 21
11.0620549929
  0
LINE
  5
264
100
AcDbEntity
  8
LAYER_FEATURE
100
AcDbLine
 62
7
  6
CONTINUOUS
 10
15.8308368587
 20
11.0620549929
 11
15.859086
 21
11.0620549929
  0
LINE
  5
265
100
AcDbEntity
  8
02___PRT_ALL_AXES
100
AcDbLine
 62
7
  6
CONTINUOUS
 10
15.1245398573
 20
11.1429299929
 11
15.6450642294
 21
11.1429299929
  0
LINE
  5
266
100
AcDbEntity
  8
LAYER_FEATURE
100
AcDbLine
 62
7
  6
CONTINUOUS
 10
14.6923207738
 20
13.2060590874
 11
14.6986355062
 21
13.2312988898
  0
LINE
  5
267
100
AcDbEntity
  8
LAYER_FEATURE
100
AcDbLine
 62
7
  6
CONTINUOUS
 10
14.7233243223
 20
13.319258367
 11
14.7286880236
 21
13.336615311
  0
LINE
  5
268
100
AcDbEntity
  8
LAYER_FEATURE
100
AcDbLine
 62
7
  6
CONTINUOUS
 10
14.6472435854
 20
12.9723496589
 11
14.6514855652
 21
13.0003021184
  0
LINE
  5
269
100
AcDbEntity
  8
LAYER_FEATURE
100
AcDbLine
 62
7
  6
CONTINUOUS
 10
14.667511101
 20
13.0920929235
 11
14.6728158175
 21
13.1188218766
  0
LINE
  5
26A
100
AcDbEntity
  8
02___PRT_ALL_AXES
100
AcDbLine
 62
7
  6
CONTINUOUS
 10
15.7326871329
 20
13.7189799214
 11
15.7246335272
 21
13.7136262456
  0
LINE
  5
26B
100
AcDbEntity
  8
02___PRT_ALL_AXES
100
AcDbLine
 62
7
  6
CONTINUOUS
 10
15.7326871329
 20
11.3026300644
 11
15.7246335272
 21
11.3079837402
  0
LINE
  5
26C
100
AcDbEntity
  8
LAYER_FEATURE
100
AcDbLine
 62
7
  6
CONTINUOUS
 10
14.6458681798
 20
13.030071733
 11
14.6375708437
 21
13.0500752394
  0
LINE
  5
26D
100
AcDbEntity
  8
LAYER_FEATURE
100
AcDbLine
 62
7
  6
CONTINUOUS
 10
14.6683806196
 20
13.1498798321
 11
14.6609001217
 21
13.1719054285
  0
LINE
  5
26E
100
AcDbEntity
  8
LAYER_FEATURE
100
AcDbLine
 62
7
  6
CONTINUOUS
 10
14.6954265748
 20
13.2633365184
 11
14.6888372597
 21
13.2871653045
  0
LINE
  5
26F
100
AcDbEntity
  8
LAYER_FEATURE
100
AcDbLine
 62
7
  6
CONTINUOUS
 10
14.7267372506
 20
13.3693142082
 11
14.7211046058
 21
13.394709363
  0
LINE
  5
270
100
AcDbEntity
  8
LAYER_FEATURE
100
AcDbLine
 62
7
  6
CONTINUOUS
 10
14.6238829405
 20
12.9598790163
 11
14.6352632302
 21
12.9601905845
  0
LINE
  5
271
100
AcDbEntity
  8
LAYER_FEATURE
100
AcDbLine
 62
7
  6
CONTINUOUS
 10
14.6206071964
 20
12.9540630436
 11
15.2937436718
 21
12.9540630436
  0
LINE
  5
272
100
AcDbEntity
  8
LAYER_FEATURE
100
AcDbLine
 62
7
  6
CONTINUOUS
 10
15.2961590034
 20
12.9723496589
 11
14.6472435854
 21
12.9723496589
  0
LINE
  5
273
100
AcDbEntity
  8
LAYER_FEATURE
100
AcDbLine
 62
7
  6
CONTINUOUS
 10
15.2999212605
 20
13.0003021184
 11
14.6514855652
 21
13.0003021184
  0
LINE
  5
274
100
AcDbEntity
  8
LAYER_FEATURE
100
AcDbLine
 62
7
  6
CONTINUOUS
 10
14.6366913698
 20
13.0600494522
 11
15.3088221108
 21
13.0600494522
  0
LINE
  5
275
100
AcDbEntity
  8
LAYER_FEATURE
100
AcDbLine
 62
7
  6
CONTINUOUS
 10
14.6402980373
 20
13.0807076637
 11
15.3122535419
 21
13.0807076637
  0
LINE
  5
276
100
AcDbEntity
  8
0
100
AcDbLine
 62
7
  6
CONTINUOUS
 10
14.6434666534
 20
13.0856933859
 11
15.3131027317
 21
13.0856933859
  0
LINE
  5
277
100
AcDbEntity
  8
LAYER_FEATURE
100
AcDbLine
 62
7
  6
CONTINUOUS
 10
15.3141927286
 20
13.0920929235
 11
14.667511101
 21
13.0920929235
  0
LINE
  5
278
100
AcDbEntity
  8
LAYER_FEATURE
100
AcDbLine
 62
7
  6
CONTINUOUS
 10
15.3187676193
 20
13.1188218766
 11
14.6728158175
 21
13.1188218766
  0
LINE
  5
279
100
AcDbEntity
  8
LAYER_FEATURE
100
AcDbLine
 62
7
  6
CONTINUOUS
 10
14.6604117537
 20
13.1820549442
 11
15.3309715878
 21
13.1820549442
  0
LINE
  5
27A
100
AcDbEntity
  8
LAYER_FEATURE
100
AcDbLine
 62
7
  6
CONTINUOUS
 10
14.6648014909
 20
13.201688335
 11
15.3350677973
 21
13.201688335
  0
LINE
  5
27B
100
AcDbEntity
  8
0
100
AcDbLine
 62
7
  6
CONTINUOUS
 10
14.6677935739
 20
13.2058845009
 11
15.3359432637
 21
13.2058845009
  0
LINE
  5
27C
100
AcDbEntity
  8
LAYER_FEATURE
100
AcDbLine
 62
7
  6
CONTINUOUS
 10
15.3359796885
 20
13.2060590874
 11
14.6923207738
 21
13.2060590874
  0
LINE
  5
27D
100
AcDbEntity
  8
LAYER_FEATURE
100
AcDbLine
 62
7
  6
CONTINUOUS
 10
15.3414710072
 20
13.2312988898
 11
14.6986355062
 21
13.2312988898
  0
LINE
  5
27E
100
AcDbEntity
  8
LAYER_FEATURE
100
AcDbLine
 62
7
  6
CONTINUOUS
 10
14.6887448513
 20
13.2973892527
 11
15.3571934981
 21
13.2973892527
  0
LINE
  5
27F
100
AcDbEntity
  8
LAYER_FEATURE
100
AcDbLine
 62
7
  6
CONTINUOUS
 10
14.693874031
 20
13.3158026973
 11
15.3618035456
 21
13.3158026973
  0
LINE
  5
280
100
AcDbEntity
  8
0
100
AcDbLine
 62
7
  6
CONTINUOUS
 10
14.6966598442
 20
13.319258367
 11
15.3626890867
 21
13.319258367
  0
LINE
  5
281
100
AcDbEntity
  8
LAYER_FEATURE
100
AcDbLine
 62
7
  6
CONTINUOUS
 10
15.3674246952
 20
13.336615311
 11
14.7286880236
 21
13.336615311
  0
LINE
  5
282
100
AcDbEntity
  8
LAYER_FEATURE
100
AcDbLine
 62
7
  6
CONTINUOUS
 10
14.7214090753
 20
13.4049061333
 11
15.3869925231
 21
13.4049061333
  0
LINE
  5
283
100
AcDbEntity
  8
02___PRT_ALL_AXES
100
AcDbLine
 62
7
  6
CONTINUOUS
 10
15.1245398573
 20
13.8786799929
 11
15.6451918611
 21
13.8786799929
  0
LINE
  5
284
100
AcDbEntity
  8
LAYER_FEATURE
100
AcDbLine
 62
7
  6
CONTINUOUS
 10
15.0830921126
 20
13.9595549929
 11
15.1113412539
 21
13.9595549929
  0
LINE
  5
285
100
AcDbEntity
  8
LAYER_FEATURE
100
AcDbLine
 62
7
  6
CONTINUOUS
 10
15.8308368587
 20
13.9595549929
 11
15.859086
 21
13.9595549929
  0
CIRCLE
  5
286
100
AcDbEntity
  8
LAYER_FEATURE
100
AcDbCircle
 62
7
  6
CONTINUOUS
 10
15.5603552569
 20
5.4606247044
 40
1.44875
  0
CIRCLE
  5
287
100
AcDbEntity
  8
LAYER_FEATURE
100
AcDbCircle
 62
7
  6
CONTINUOUS
 10
15.5603552569
 20
5.4606247044
 40
1.3813336754
  0
CIRCLE
  5
288
100
AcDbEntity
  8
02___PRT_ALL_AXES
100
AcDbCircle
 62
7
  6
CONTINUOUS
 10
15.5603552569
 20
5.4606247044
 40
1.248
  0
CIRCLE
  5
289
100
AcDbEntity
  8
LAYER_CHAMFER_FEAT
100
AcDbCircle
 62
7
  6
CONTINUOUS
 10
15.5603552569
 20
5.4606247044
 40
1.2145
  0
CIRCLE
  5
28A
100
AcDbEntity
  8
LAYER_CHAMFER_FEAT
100
AcDbCircle
 62
7
  6
CONTINUOUS
 10
15.5603552569
 20
5.4606247044
 40
1.19875
  0
ARC
  5
28B
100
AcDbEntity
  8
02___PRT_ALL_AXES
100
AcDbCircle
 62
7
  6
CONTINUOUS
 10
15.5603552569
 20
5.4606247044
 40
0.625
100
AcDbArc
 50
61.4843384185
 51
139.5156615815
  0
ARC
  5
28C
100
AcDbEntity
  8
02___PRT_ALL_AXES
100
AcDbCircle
 62
7
  6
CONTINUOUS
 10
15.5603552569
 20
5.4606247044
 40
0.625
100
AcDbArc
 50
22.4843384185
 51
50.5156615815
  0
ARC
  5
28D
100
AcDbEntity
  8
02___PRT_ALL_AXES
100
AcDbCircle
 62
7
  6
CONTINUOUS
 10
15.5603552569
 20
5.4606247044
 40
0.625
100
AcDbArc
 50
231.4843384185
 51
259.5156615815
  0
ARC
  5
28E
100
AcDbEntity
  8
02___PRT_ALL_AXES
100
AcDbCircle
 62
7
  6
CONTINUOUS
 10
15.5603552569
 20
5.4606247044
 40
0.625
100
AcDbArc
 50
150.4843384185
 51
220.5156615815
  0
ARC
  5
28F
100
AcDbEntity
  8
02___PRT_ALL_AXES
100
AcDbCircle
 62
7
  6
CONTINUOUS
 10
15.5603552569
 20
5.4606247044
 40
0.625
100
AcDbArc
 50
270.4843384185
 51
11.5156615815
  0
ARC
  5
290
100
AcDbEntity
  8
02___PRT_ALL_AXES
100
AcDbCircle
 62
7
  6
CONTINUOUS
 10
15.5603552569
 20
5.4606247044
 40
0.6031478713
100
AcDbArc
 50
50.0634202313
 51
61.9365797687
  0
ARC
  5
291
100
AcDbEntity
  8
02___PRT_ALL_AXES
100
AcDbCircle
 62
7
  6
CONTINUOUS
 10
15.5603552569
 20
5.4606247044
 40
0.6031478713
100
AcDbArc
 50
220.0634202313
 51
231.9365797687
  0
ARC
  5
292
100
AcDbEntity
  8
02___PRT_ALL_AXES
100
AcDbCircle
 62
7
  6
CONTINUOUS
 10
15.5603552569
 20
5.4606247044
 40
0.5812957425
100
AcDbArc
 50
22.6434126524
 51
139.3565873476
  0
ARC
  5
293
100
AcDbEntity
  8
02___PRT_ALL_AXES
100
AcDbCircle
 62
7
  6
CONTINUOUS
 10
15.5603552569
 20
5.4606247044
 40
0.5812957425
100
AcDbArc
 50
150.6434126524
 51
259.3565873476
  0
ARC
  5
294
100
AcDbEntity
  8
02___PRT_ALL_AXES
100
AcDbCircle
 62
7
  6
CONTINUOUS
 10
15.5603552569
 20
5.4606247044
 40
0.5812957425
100
AcDbArc
 50
270.6434126524
 51
11.3565873476
  0
ARC
  5
295
100
AcDbEntity
  8
02___PRT_ALL_AXES
100
AcDbCircle
 62
7
  6
CONTINUOUS
 10
15.8979679724
 20
5.9611561389
 40
0.0625
100
AcDbArc
 50
322.4804512298
 51
149.5195487702
  0
ARC
  5
296
100
AcDbEntity
  8
02___PRT_ALL_AXES
100
AcDbCircle
 62
7
  6
CONTINUOUS
 10
15.1409552658
 20
5.0263233
 40
0.0625
100
AcDbArc
 50
132.4804512297
 51
319.5195487703
  0
ARC
  5
297
100
AcDbEntity
  8
02___PRT_ALL_AXES
100
AcDbCircle
 62
7
  6
CONTINUOUS
 10
16.1377242533
 20
5.6371441212
 40
0.0625
100
AcDbArc
 50
263.1497787953
 51
130.8502212047
  0
ARC
  5
298
100
AcDbEntity
  8
02___PRT_ALL_AXES
100
AcDbCircle
 62
7
  6
CONTINUOUS
 10
15.5077349773
 20
4.8591721555
 40
0.0625
100
AcDbArc
 50
151.1497787952
 51
18.8502212048
  0
ARC
  5
299
100
AcDbEntity
  8
02___PRT_ALL_AXES
100
AcDbCircle
 62
7
  6
CONTINUOUS
 10
15.0657922102
 20
5.8069214779
 40
0.0625
100
AcDbArc
 50
31.1497787952
 51
258.8502212048
  0
ARC
  5
29A
100
AcDbEntity
  8
02___PRT_ALL_AXES
100
AcDbCircle
 62
7
  6
CONTINUOUS
 10
12.6471667705
 20
-25.7913761794
 40
37.8182319124
100
AcDbArc
 50
85.3419798202
 51
85.5310329762
  0
ARC
  5
29B
100
AcDbEntity
  8
02___PRT_ALL_AXES
100
AcDbCircle
 62
7
  6
CONTINUOUS
 10
17.8087232325
 20
-19.7796214726
 40
32.9569734217
100
AcDbArc
 50
93.6158469248
 51
93.8972672535
  0
ARC
  5
29C
100
AcDbEntity
  8
02___PRT_ALL_AXES
100
AcDbCircle
 62
7
  6
CONTINUOUS
 10
14.0657728906
 20
34.0011347938
 40
21.0025926499
100
AcDbArc
 50
274.0273142735
 51
274.6640109423
  0
ARC
  5
29D
100
AcDbEntity
  8
LAYER_FEATURE
100
AcDbCircle
 62
7
  6
CONTINUOUS
 10
17.3843729149
 20
12.5909822877
 40
2.7874321297
100
AcDbArc
 50
169.8811559092
 51
170.3122102587
  0
ARC
  5
29E
100
AcDbEntity
  8
LAYER_FEATURE
100
AcDbCircle
 62
7
  6
CONTINUOUS
 10
17.0634462233
 20
12.6550792425
 40
2.4601378116
100
AcDbArc
 50
167.1625183846
 51
167.6310645386
  0
ARC
  5
29F
100
AcDbEntity
  8
LAYER_FEATURE
100
AcDbCircle
 62
7
  6
CONTINUOUS
 10
16.7230694032
 20
12.7406365733
 40
2.1091348768
100
AcDbArc
 50
164.1748616484
 51
164.6941185808
  0
ARC
  5
2A0
100
AcDbEntity
  8
LAYER_CHAMFER_FEAT
100
AcDbCircle
 62
7
  6
CONTINUOUS
 10
16.0108739436
 20
11.7312350902
 40
0.4792940647
100
AcDbArc
 50
221.100545533
 51
222.0298759462
  0
ARC
  5
2A1
100
AcDbEntity
  8
LAYER_CHAMFER_FEAT
100
AcDbCircle
 62
7
  6
CONTINUOUS
 10
16.0089343625
 20
13.2920916609
 40
0.4767039482
100
AcDbArc
 50
137.9683738071
 51
138.9635408185
  0
ARC
  5
2A2
100
AcDbEntity
  8
02___PRT_ALL_AXES
100
AcDbCircle
 62
7
  6
CONTINUOUS
 10
15.6633616955
 20
11.9807413842
 40
0.0949363607
100
AcDbArc
 50
265.6524473321
 51
275.3430997865
  0
ARC
  5
2A3
100
AcDbEntity
  8
LAYER_FEATURE
100
AcDbCircle
 62
7
  6
CONTINUOUS
 10
14.669441877
 20
13.2208330945
 40
0.0272344489
100
AcDbArc
 50
326.6763040144
 51
327.1477189327
  0
SPLINE
  5
2A4
100
AcDbEntity
  8
02___PRT_ALL_AXES
100
AcDbSpline
 62
7
  6
CONTINUOUS
 70
0
 71
3
 72
39
 73
35
 74
0
 42
0.0000001
 43
0.0000001
 44
0.0000000001
 40
0.0
 40
0.0
 40
0.0
 40
0.0
 40
0.0471879257
 40
0.0932796168
 40
0.1382376395
 40
0.1820289815
 40
0.2246235009
 40
0.2659952331
 40
0.3061223783
 40
0.3449878512
 40
0.3825797222
 40
0.4188917739
 40
0.4539241205
 40
0.4876839122
 40
0.5201861335
 40
0.5514544978
 40
0.5815224343
 40
0.6104341507
 40
0.638245738
 40
0.6650262538
 40
0.690858689
 40
0.7158406727
 40
0.7400847404
 40
0.7637179644
 40
0.7868807523
 40
0.8097246914
 40
0.8324094419
 40
0.8550988545
 40
0.8779566562
 40
0.9011421476
 40
0.9248063569
 40
0.9490889842
 40
0.9741163009
 40
1.0
 40
1.0
 40
1.0
 40
1.0
 10
16.2351729446
 20
11.7350357525
 30
0.0
 10
16.2315844283
 20
11.7234233093
 30
0.0
 10
16.2242537341
 20
11.700540535
 30
0.0
 10
16.2126522657
 20
11.6668745001
 30
0.0
 10
16.2005862647
 20
11.6343031315
 30
0.0
 10
16.1880715017
 20
11.6028688542
 30
0.0
 10
16.1751241001
 20
11.5726122028
 30
0.0
 10
16.161760833
 20
11.5435723282
 30
0.0
 10
16.1479989337
 20
11.5157867234
 30
0.0
 10
16.1338561338
 20
11.4892912506
 30
0.0
 10
16.1193506018
 20
11.4641200735
 30
0.0
 10
16.1045009174
 20
11.4403056218
 30
0.0
 10
16.0893260286
 20
11.4178785555
 30
0.0
 10
16.0738452081
 20
11.3968677405
 30
0.0
 10
16.0580780094
 20
11.377300234
 30
0.0
 10
16.0420442232
 20
11.3592012826
 30
0.0
 10
16.0257638388
 20
11.3425943364
 30
0.0
 10
16.0092570172
 20
11.3275010827
 30
0.0
 10
15.9925440856
 20
11.3139414972
 30
0.0
 10
15.9756455672
 20
11.3019339089
 30
0.0
 10
15.9585822629
 20
11.2914950591
 30
0.0
 10
15.9413753876
 20
11.2826401392
 30
0.0
 10
15.9240467612
 20
11.2753827597
 30
0.0
 10
15.9066190224
 20
11.2697348105
 30
0.0
 10
15.8891157998
 20
11.2657061854
 30
0.0
 10
15.8715617539
 20
11.263304392
 30
0.0
 10
15.8539824178
 20
11.262534124
 30
0.0
 10
15.8364038204
 20
11.2633969287
 30
0.0
 10
15.8188519819
 20
11.2658910762
 30
0.0
 10
15.801352377
 20
11.2700117118
 30
0.0
 10
15.7839296748
 20
11.2757511386
 30
0.0
 10
15.7666071934
 20
11.2830995002
 30
0.0
 10
15.7494085008
 20
11.2920441744
 30
0.0
 10
15.7382392245
 20
11.2989392808
 30
0.0
 10
15.7326871334
 20
11.3026300698
 30
0.0
  0
SPLINE
  5
2A5
100
AcDbEntity
  8
02___PRT_ALL_AXES
100
AcDbSpline
 62
7
  6
CONTINUOUS
 70
0
 71
3
 72
33
 73
29
 74
0
 42
0.0000001
 43
0.0000001
 44
0.0000000001
 40
0.0
 40
0.0
 40
0.0
 40
0.0
 40
0.0264982366
 40
0.0548840202
 40
0.0850824987
 40
0.1169907315
 40
0.1504808726
 40
0.1854053707
 40
0.2588743619
 40
0.3359467931
 40
0.4150132917
 40
0.4943891004
 40
0.5723779875
 40
0.6473355941
 40
0.6832006006
 40
0.7177492338
 40
0.7508214468
 40
0.7822747069
 40
0.8119875492
 40
0.8398639506
 40
0.865838911
 40
0.8898857646
 40
0.9120258975
 40
0.9323414834
 40
0.9509914339
 40
0.9682283159
 40
0.9844111834
 40
1.0
 40
1.0
 40
1.0
 40
1.0
 10
15.4245123666
 20
12.3906729112
 30
0.0
 10
15.4239555333
 20
12.3897201018
 30
0.0
 10
15.4228783164
 20
12.3877015358
 30
0.0
 10
15.421414275
 20
12.3844724748
 30
0.0
 10
15.4200542321
 20
12.3809556599
 30
0.0
 10
15.4188067936
 20
12.377173174
 30
0.0
 10
15.4176796929
 20
12.373148453
 30
0.0
 10
15.4163242283
 20
12.3673954547
 30
0.0
 10
15.4149937143
 20
12.3597790664
 30
0.0
 10
15.4139896517
 20
12.3502628111
 30
0.0
 10
15.4135784873
 20
12.3404564303
 30
0.0
 10
15.4137707026
 20
12.3306052258
 30
0.0
 10
15.4145614643
 20
12.3209556332
 30
0.0
 10
15.4157183845
 20
12.3131705393
 30
0.0
 10
15.4169399528
 20
12.3072393757
 30
0.0
 10
15.4179750036
 20
12.3030542978
 30
0.0
 10
15.4191356515
 20
12.2990932842
 30
0.0
 10
15.4204146396
 20
12.2953810462
 30
0.0
 10
15.4218039371
 20
12.2919406905
 30
0.0
 10
15.42329493
 20
12.288793493
 30
0.0
 10
15.4248785256
 20
12.2859587659
 30
0.0
 10
15.4265453439
 20
12.2834537432
 30
0.0
 10
15.428285951
 20
12.2812935712
 30
0.0
 10
15.4300911906
 20
12.2794914762
 30
0.0
 10
15.4319522121
 20
12.2780593387
 30
0.0
 10
15.4338606117
 20
12.2770085719
 30
0.0
 10
15.4358049733
 20
12.2763510219
 30
0.0
 10
15.4371280065
 20
12.2761806494
 30
0.0
 10
15.4377770506
 20
12.2761648015
 30
0.0
  0
SPLINE
  5
2A6
100
AcDbEntity
  8
02___PRT_ALL_AXES
100
AcDbSpline
 62
7
  6
CONTINUOUS
 70
0
 71
3
 72
22
 73
18
 74
0
 42
0.0000001
 43
0.0000001
 44
0.0000000001
 40
0.0
 40
0.0
 40
0.0
 40
0.0
 40
0.1761132572
 40
0.2596599601
 40
0.3397839432
 40
0.416216264
 40
0.4887311164
 40
0.5571493218
 40
0.6213489097
 40
0.6812768487
 40
0.7369644443
 40
0.7885471506
 40
0.8362890035
 40
0.8806102107
 40
0.9221122669
 40
0.9615881604
 40
1.0
 40
1.0
 40
1.0
 40
1.0
 10
15.6722021293
 20
11.8862175284
 30
0.0
 10
15.6726705064
 20
11.8835997945
 30
0.0
 10
15.6734823005
 20
11.8797595992
 30
0.0
 10
15.6748230482
 20
11.8748061401
 30
0.0
 10
15.6759093759
 20
11.8713460167
 30
0.0
 10
15.6770885191
 20
11.8680929712
 30
0.0
 10
15.6783545799
 20
11.8650632439
 30
0.0
 10
15.6797012382
 20
11.8622719457
 30
0.0
 10
15.6811218635
 20
11.859732901
 30
0.0
 10
15.6826096033
 20
11.8574586034
 30
0.0
 10
15.6841575135
 20
11.8554601928
 30
0.0
 10
15.6857586884
 20
11.853747517
 30
0.0
 10
15.6874064117
 20
11.8523293307
 30
0.0
 10
15.6890939939
 20
11.8512136824
 30
0.0
 10
15.6908146738
 20
11.8504083706
 30
0.0
 10
15.6925592298
 20
11.8499209813
 30
0.0
 10
15.6937380182
 20
11.8498116178
 30
0.0
 10
15.694318036
 20
11.8498116199
 30
0.0
  0
SPLINE
  5
2A7
100
AcDbEntity
  8
02___PRT_ALL_AXES
100
AcDbSpline
 62
7
  6
CONTINUOUS
 70
0
 71
3
 72
14
 73
10
 74
0
 42
0.0000001
 43
0.0000001
 44
0.0000000001
 40
0.0
 40
0.0
 40
0.0
 40
0.0
 40
0.2923362662
 40
0.42550925
 40
0.5509150329
 40
0.6696032459
 40
0.782905771
 40
0.8924290403
 40
1.0
 40
1.0
 40
1.0
 40
1.0
 10
15.8232987102
 20
12.0396978396
 30
0.0
 10
15.8240835318
 20
12.0387007837
 30
0.0
 10
15.8253245144
 20
12.0373185149
 30
0.0
 10
15.8271539343
 20
12.0357738306
 30
0.0
 10
15.8285086148
 20
12.0348480588
 30
0.0
 10
15.829884147
 20
12.0341228554
 30
0.0
 10
15.831276549
 20
12.0336016234
 30
0.0
 10
15.8326805139
 20
12.0332874322
 30
0.0
 10
15.8336242384
 20
12.0332172173
 30
0.0
 10
15.8340911494
 20
12.0332172198
 30
0.0
  0
SPLINE
  5
2A8
100
AcDbEntity
  8
LAYER_CHAMFER_FEAT
100
AcDbSpline
 62
7
  6
CONTINUOUS
 70
0
 71
3
 72
15
 73
11
 74
0
 42
0.0000001
 43
0.0000001
 44
0.0000000001
 40
0.0
 40
0.0
 40
0.0
 40
0.0
 40
0.1375062331
 40
0.2714666843
 40
0.401848549
 40
0.5286397098
 40
0.6518353011
 40
0.771443381
 40
0.8874860429
 40
1.0
 40
1.0
 40
1.0
 40
1.0
 10
15.5604911453
 20
11.5594544612
 30
0.0
 10
15.5640615288
 20
11.5521787845
 30
0.0
 10
15.5712790995
 20
11.5378970664
 30
0.0
 10
15.5824884628
 20
11.5170300904
 30
0.0
 10
15.5939311394
 20
11.4970140412
 30
0.0
 10
15.6055971841
 20
11.4778662986
 30
0.0
 10
15.6174767963
 20
11.4596030409
 30
0.0
 10
15.6295599616
 20
11.4422397914
 30
0.0
 10
15.6418362268
 20
11.425791658
 30
0.0
 10
15.6502717997
 20
11.4152843549
 30
0.0
 10
15.6545212455
 20
11.4101933021
 30
0.0
  0
SPLINE
  5
2A9
100
AcDbEntity
  8
02___PRT_ALL_AXES
100
AcDbSpline
 62
7
  6
CONTINUOUS
 70
0
 71
3
 72
60
 73
56
 74
0
 42
0.0000001
 43
0.0000001
 44
0.0000000001
 40
0.0
 40
0.0
 40
0.0
 40
0.0
 40
0.0092160213
 40
0.018105103
 40
0.0267145939
 40
0.0350983551
 40
0.0433161064
 40
0.0514322647
 40
0.0595143008
 40
0.0676307432
 40
0.0758490536
 40
0.0842336329
 40
0.0928441783
 40
0.101734525
 40
0.1109519939
 40
0.1205371863
 40
0.1305241174
 40
0.1409405758
 40
0.1518086071
 40
0.1631450481
 40
0.1749620605
 40
0.1872676354
 40
0.2000660515
 40
0.2133582846
 40
0.2271423667
 40
0.2414136985
 40
0.2561653217
 40
0.2713881552
 40
0.2870712005
 40
0.3032017222
 40
0.3197654061
 40
0.3367465002
 40
0.3541279401
 40
0.3718914628
 40
0.3900177096
 40
0.4084863212
 40
0.4272760257
 40
0.4463647209
 40
0.4853455409
 40
0.525239751
 40
0.565848086
 40
0.6069647
 40
0.648379157
 40
0.6898783657
 40
0.7312484837
 40
0.7722768135
 40
0.8127537114
 40
0.8524745311
 40
0.8912416294
 40
0.9102089837
 40
0.9288680771
 40
0.9471971518
 40
0.9651752794
 40
0.9827825601
 40
1.0
 40
1.0
 40
1.0
 40
1.0
 10
15.7326871331
 20
13.7189799191
 30
0.0
 10
15.7386838055
 20
13.7229662463
 30
0.0
 10
15.7507548309
 20
13.7303733014
 30
0.0
 10
15.7693806278
 20
13.7398451156
 30
0.0
 10
15.7881489158
 20
13.7474464522
 30
0.0
 10
15.8070295719
 20
13.7531612744
 30
0.0
 10
15.8259924371
 20
13.7569773569
 30
0.0
 10
15.8450053582
 20
13.7588857415
 30
0.0
 10
15.8640350782
 20
13.7588817676
 30
0.0
 10
15.8830478627
 20
13.7569654416
 30
0.0
 10
15.9020104386
 20
13.7531414575
 30
0.0
 10
15.9208907401
 20
13.7474187371
 30
0.0
 10
15.9396582987
 20
13.7398097212
 30
0.0
 10
15.9582842337
 20
13.7303296672
 30
0.0
 10
15.9767409749
 20
13.7189961438
 30
0.0
 10
15.9950018881
 20
13.7058287773
 30
0.0
 10
16.0130409389
 20
13.6908492029
 30
0.0
 10
16.0308324573
 20
13.6740811369
 30
0.0
 10
16.0483510098
 20
13.6555504951
 30
0.0
 10
16.0655713587
 20
13.6352855061
 30
0.0
 10
16.0824684792
 20
13.6133167975
 30
0.0
 10
16.0990176099
 20
13.5896774469
 30
0.0
 10
16.1151943184
 20
13.5644030008
 30
0.0
 10
16.1309745717
 20
13.5375314658
 30
0.0
 10
16.1463348043
 20
13.5091032794
 30
0.0
 10
16.1612519831
 20
13.4791612645
 30
0.0
 10
16.1757036656
 20
13.4477505732
 30
0.0
 10
16.1896680535
 20
13.4149186212
 30
0.0
 10
16.2031240412
 20
13.3807150161
 30
0.0
 10
16.2160512593
 20
13.3451914806
 30
0.0
 10
16.2284301153
 20
13.3084017712
 30
0.0
 10
16.24024183
 20
13.2704015943
 30
0.0
 10
16.251468472
 20
13.2312485176
 30
0.0
 10
16.2620929864
 20
13.1910018833
 30
0.0
 10
16.2720992338
 20
13.1497227017
 30
0.0
 10
16.2814719796
 20
13.1074736106
 30
0.0
 10
16.2901970617
 20
13.0643185675
 30
0.0
 10
16.301024155
 20
13.0052474403
 30
0.0
 10
16.31281465
 20
12.9296021288
 30
0.0
 10
16.3240979908
 20
12.8369142598
 30
0.0
 10
16.3325439084
 20
12.7422495568
 30
0.0
 10
16.3381008185
 20
12.6461823648
 30
0.0
 10
16.3407347543
 20
12.5492945898
 30
0.0
 10
16.3404296192
 20
12.4521735367
 30
0.0
 10
16.3371872784
 20
12.3554078461
 30
0.0
 10
16.3310275475
 20
12.2595840684
 30
0.0
 10
16.3219880763
 20
12.1652825939
 30
0.0
 10
16.310124075
 20
12.0730755368
 30
0.0
 10
16.2978566443
 20
11.9979083086
 30
0.0
 10
16.2866558601
 20
11.9392772237
 30
0.0
 10
16.2776603121
 20
11.8964902092
 30
0.0
 10
16.2680229028
 20
11.8546359443
 30
0.0
 10
16.2577581721
 20
11.8137776735
 30
0.0
 10
16.2468818221
 20
11.7739777009
 30
0.0
 10
16.2391447616
 20
11.747888557
 30
0.0
 10
16.2351729446
 20
11.7350357525
 30
0.0
  0
SPLINE
  5
2AA
100
AcDbEntity
  8
02___PRT_ALL_AXES
100
AcDbSpline
 62
7
  6
CONTINUOUS
 70
0
 71
3
 72
24
 73
20
 74
0
 42
0.0000001
 43
0.0000001
 44
0.0000000001
 40
0.0
 40
0.0
 40
0.0
 40
0.0
 40
0.0167012561
 40
0.0336272056
 40
0.0509916209
 40
0.068988744
 40
0.1074847742
 40
0.1501896076
 40
0.1977129569
 40
0.2503376692
 40
0.3081005099
 40
0.3708540753
 40
0.438310787
 40
0.5100740772
 40
0.5856612454
 40
0.6645211418
 40
0.7460485579
 40
0.8295974991
 40
1.0
 40
1.0
 40
1.0
 40
1.0
 10
15.5924021645
 20
13.1489014395
 30
0.0
 10
15.5920012703
 20
13.1489014366
 30
0.0
 10
15.5911931729
 20
13.1488499262
 30
0.0
 10
15.5899881726
 20
13.1486189261
 30
0.0
 10
15.588790093
 20
13.1482351215
 30
0.0
 10
15.5871707188
 20
13.1475055777
 30
0.0
 10
15.5851697193
 20
13.1461852613
 30
0.0
 10
15.58290972
 20
13.1440617569
 30
0.0
 10
15.5807494312
 20
13.1413874954
 30
0.0
 10
15.5787057498
 20
13.1381877243
 30
0.0
 10
15.5767952501
 20
13.1344914078
 30
0.0
 10
15.5750352455
 20
13.1303326759
 30
0.0
 10
15.5734422172
 20
13.1257505191
 30
0.0
 10
15.5720314641
 20
13.1207884447
 30
0.0
 10
15.5708166704
 20
13.1154939265
 30
0.0
 10
15.5698097161
 20
13.1099179443
 30
0.0
 10
15.5690203759
 20
13.1041141055
 30
0.0
 10
15.5682638925
 20
13.0960954162
 30
0.0
 10
15.568051631
 20
13.0899951842
 30
0.0
 10
15.5680642863
 20
13.0859048902
 30
0.0
  0
SPLINE
  5
2AB
100
AcDbEntity
  8
02___PRT_ALL_AXES
100
AcDbSpline
 62
7
  6
CONTINUOUS
 70
0
 71
3
 72
20
 73
16
 74
0
 42
0.0000001
 43
0.0000001
 44
0.0000000001
 40
0.0
 40
0.0
 40
0.0
 40
0.0
 40
0.0426723891
 40
0.0860852177
 40
0.1309332325
 40
0.1778304262
 40
0.227290993
 40
0.2797237337
 40
0.3354379716
 40
0.3946544157
 40
0.4575160419
 40
0.5241003726
 40
0.6684352403
 40
0.8273678702
 40
1.0
 40
1.0
 40
1.0
 40
1.0
 10
15.7492763167
 20
13.1352998857
 30
0.0
 10
15.7488200075
 20
13.1352998831
 30
0.0
 10
15.7478981351
 20
13.1352328901
 30
0.0
 10
15.7465261207
 20
13.1349329229
 30
0.0
 10
15.7451648237
 20
13.1344351864
 30
0.0
 10
15.7438191814
 20
13.1337424251
 30
0.0
 10
15.7424931118
 20
13.1328577578
 30
0.0
 10
15.7411903186
 20
13.131784626
 30
0.0
 10
15.7399143469
 20
13.1305267237
 30
0.0
 10
15.7386687863
 20
13.1290880795
 30
0.0
 10
15.7374571088
 20
13.1274732087
 30
0.0
 10
15.735848227
 20
13.12502543
 30
0.0
 10
15.7339608253
 20
13.1215413412
 30
0.0
 10
15.7319441932
 20
13.1168635592
 30
0.0
 10
15.7307875529
 20
13.1135083818
 30
0.0
 10
15.7302405422
 20
13.1117452796
 30
0.0
  0
SPLINE
  5
2AC
100
AcDbEntity
  8
LAYER_FEATURE
100
AcDbSpline
 62
7
  6
CONTINUOUS
 70
0
 71
3
 72
54
 73
50
 74
0
 42
0.0000001
 43
0.0000001
 44
0.0000000001
 40
0.0
 40
0.0
 40
0.0
 40
0.0
 40
0.033050083
 40
0.0673809185
 40
0.1028689289
 40
0.1393805316
 40
0.1767738169
 40
0.214899975
 40
0.25360464
 40
0.2927291642
 40
0.332111844
 40
0.3715891171
 40
0.410996745
 40
0.4501709878
 40
0.4889497822
 40
0.5271739364
 40
0.5646883543
 40
0.6013432993
 40
0.6369957232
 40
0.6544041331
 40
0.6715120654
 40
0.6883041813
 40
0.7047658546
 40
0.7208832311
 40
0.736643294
 40
0.752033935
 40
0.7670440316
 40
0.7816635337
 40
0.7958835599
 40
0.8096965037
 40
0.823096154
 40
0.8360778312
 40
0.8486385411
 40
0.8607771508
 40
0.8724945867
 40
0.88379406
 40
0.8946813196
 40
0.905164933
 40
0.915256592
 40
0.9249714402
 40
0.9343284073
 40
0.9433505317
 40
0.9520652404
 40
0.9605045434
 40
0.9687050901
 40
0.9767080295
 40
0.9845586187
 40
0.9923055502
 40
1.0
 40
1.0
 40
1.0
 40
1.0
 10
15.3889074544
 20
13.4113624344
 30
0.0
 10
15.3805476457
 20
13.3843100836
 30
0.0
 10
15.3646419824
 20
13.3288000978
 30
0.0
 10
15.3435385205
 20
13.2432161883
 30
0.0
 10
15.3248118664
 20
13.154048705
 30
0.0
 10
15.3085546548
 20
13.0617347456
 30
0.0
 10
15.294846769
 20
12.9667247997
 30
0.0
 10
15.2837557597
 20
12.869483553
 30
0.0
 10
15.2753362546
 20
12.7704866515
 30
0.0
 10
15.2696297476
 20
12.6702185555
 30
0.0
 10
15.2666643695
 20
12.5691700482
 30
0.0
 10
15.266454734
 20
12.4678358062
 30
0.0
 10
15.2690018683
 20
12.3667119258
 30
0.0
 10
15.2742932183
 20
12.266293462
 30
0.0
 10
15.2823027119
 20
12.1670719338
 30
0.0
 10
15.2929908793
 20
12.0695329779
 30
0.0
 10
15.3063050563
 20
11.9741535256
 30
0.0
 10
15.3221796496
 20
11.8814008228
 30
0.0
 10
15.3375968846
 20
11.806085692
 30
0.0
 10
15.3511822667
 20
11.7475233578
 30
0.0
 10
15.3618783191
 20
11.7048851116
 30
0.0
 10
15.3731487112
 20
11.6632347256
 30
0.0
 10
15.3849797103
 20
11.6226230765
 30
0.0
 10
15.3973567849
 20
11.583099904
 30
0.0
 10
15.4102647711
 20
11.5447135618
 30
0.0
 10
15.4236878546
 20
11.5075110063
 30
0.0
 10
15.4376096037
 20
11.4715377236
 30
0.0
 10
15.4520129904
 20
11.4368376757
 30
0.0
 10
15.4668804141
 20
11.4034532421
 30
0.0
 10
15.482193732
 20
11.3714251688
 30
0.0
 10
15.4979342885
 20
11.3407925184
 30
0.0
 10
15.5140829474
 20
11.311592623
 30
0.0
 10
15.530620127
 20
11.283861042
 30
0.0
 10
15.5475258378
 20
11.2576315234
 30
0.0
 10
15.5647797225
 20
11.2329359723
 30
0.0
 10
15.5823611005
 20
11.2098044285
 30
0.0
 10
15.6002490077
 20
11.1882650509
 30
0.0
 10
15.6184222408
 20
11.1683441197
 30
0.0
 10
15.6368593935
 20
11.150066056
 30
0.0
 10
15.6555388783
 20
11.133453457
 30
0.0
 10
15.6744389255
 20
11.1185271477
 30
0.0
 10
15.6935375449
 20
11.1053062426
 30
0.0
 10
15.7128124461
 20
11.0938082011
 30
0.0
 10
15.7322408783
 20
11.0840488519
 30
0.0
 10
15.7517995165
 20
11.0760423464
 30
0.0
 10
15.7714639971
 20
11.0698010063
 30
0.0
 10
15.7912097142
 20
11.0653350522
 30
0.0
 10
15.8110083525
 20
11.0626522341
 30
0.0
 10
15.8242448873
 20
11.0620549956
 30
0.0
 10
15.8308368587
 20
11.0620550011
 30
0.0
  0
SPLINE
  5
2AD
100
AcDbEntity
  8
02___PRT_ALL_AXES
100
AcDbSpline
 62
7
  6
CONTINUOUS
 70
0
 71
3
 72
33
 73
29
 74
0
 42
0.0000001
 43
0.0000001
 44
0.0000000001
 40
0.0
 40
0.0
 40
0.0
 40
0.0
 40
0.0187276723
 40
0.0376987832
 40
0.0570394723
 40
0.0768670898
 40
0.0972881792
 40
0.1183973258
 40
0.140276802
 40
0.1629966928
 40
0.1866154613
 40
0.2111807377
 40
0.2367302097
 40
0.2632925167
 40
0.2908881445
 40
0.3195302712
 40
0.3492255198
 40
0.379974612
 40
0.411772952
 40
0.4446111755
 40
0.4784756106
 40
0.5133486712
 40
0.5860273694
 40
0.6624467719
 40
0.7423563178
 40
0.8254685071
 40
0.9114645199
 40
1.0
 40
1.0
 40
1.0
 40
1.0
 10
15.6561649198
 20
11.886078197
 30
0.0
 10
15.6532233109
 20
11.8863016233
 30
0.0
 10
15.6473193099
 20
11.8870269577
 30
0.0
 10
15.6385263008
 20
11.8889297882
 30
0.0
 10
15.6297687325
 20
11.8916486271
 30
0.0
 10
15.621059637
 20
11.8951785378
 30
0.0
 10
15.6124102255
 20
11.8995136561
 30
0.0
 10
15.6038316418
 20
11.9046472264
 30
0.0
 10
15.595334613
 20
11.910571691
 30
0.0
 10
15.5869296599
 20
11.9172786894
 30
0.0
 10
15.5786271519
 20
11.9247590702
 30
0.0
 10
15.570437359
 20
11.9330028605
 30
0.0
 10
15.5623704733
 20
11.9419992321
 30
0.0
 10
15.5544365925
 20
11.9517364546
 30
0.0
 10
15.5466457129
 20
11.9622018869
 30
0.0
 10
15.5390077192
 20
11.9733819791
 30
0.0
 10
15.5315323604
 20
11.9852622707
 30
0.0
 10
15.5242292247
 20
11.9978273869
 30
0.0
 10
15.5171076978
 20
12.0110610525
 30
0.0
 10
15.5101769999
 20
12.0249461
 30
0.0
 10
15.5034460075
 20
12.0394645761
 30
0.0
 10
15.4946280567
 20
12.0599241369
 30
0.0
 10
15.4841977677
 20
12.0869758197
 30
0.0
 10
15.4727776405
 20
12.1212066006
 30
0.0
 10
15.462346187
 20
12.1574640882
 30
0.0
 10
15.4529578795
 20
12.1955599329
 30
0.0
 10
15.4446618438
 20
12.2352963422
 30
0.0
 10
15.4399500465
 20
12.2623885518
 30
0.0
 10
15.4377770506
 20
12.2761648015
 30
0.0
  0
SPLINE
  5
2AE
100
AcDbEntity
  8
LAYER_FEATURE
100
AcDbSpline
 62
7
  6
CONTINUOUS
 70
0
 71
3
 72
19
 73
15
 74
0
 42
0.0000001
 43
0.0000001
 44
0.0000000001
 40
0.0
 40
0.0
 40
0.0
 40
0.0
 40
0.0571238984
 40
0.1143877452
 40
0.1719302137
 40
0.2298875164
 40
0.2883922094
 40
0.3475722836
 40
0.4684073138
 40
0.5933333371
 40
0.7231407859
 40
0.7901026497
 40
0.8585272134
 40
1.0
 40
1.0
 40
1.0
 40
1.0
 10
15.1113412539
 20
13.9595549848
 30
0.0
 10
15.1152821253
 20
13.9595549809
 30
0.0
 10
15.1231751654
 20
13.9593424355
 30
0.0
 10
15.135003127
 20
13.9583864365
 30
0.0
 10
15.1468205931
 20
13.9567937062
 30
0.0
 10
15.158621627
 20
13.9545650137
 30
0.0
 10
15.1704012907
 20
13.9517014268
 30
0.0
 10
15.1861786889
 20
13.9470071878
 30
0.0
 10
15.2058714168
 20
13.9395051586
 30
0.0
 10
15.2291492998
 20
13.9280516464
 30
0.0
 10
15.2481633341
 20
13.9165524618
 30
0.0
 10
15.2632326447
 20
13.9061713157
 30
0.0
 10
15.2785382552
 20
13.8947394166
 30
0.0
 10
15.2896528051
 20
13.8854331961
 30
0.0
 10
15.2969271255
 20
13.8789262174
 30
0.0
  0
SPLINE
  5
2AF
100
AcDbEntity
  8
LAYER_FEATURE
100
AcDbSpline
 62
7
  6
CONTINUOUS
 70
0
 71
3
 72
19
 73
15
 74
0
 42
0.0000001
 43
0.0000001
 44
0.0000000001
 40
0.0
 40
0.0
 40
0.0
 40
0.0
 40
0.0571107812
 40
0.1143618887
 40
0.1718923679
 40
0.2298387788
 40
0.2883340337
 40
0.3475064029
 40
0.4683323284
 40
0.593259262
 40
0.7230790011
 40
0.7900516224
 40
0.8584899999
 40
1.0
 40
1.0
 40
1.0
 40
1.0
 10
15.1113412539
 20
11.062055001
 30
0.0
 10
15.1152879049
 20
11.0620549972
 30
0.0
 10
15.1231925537
 20
11.062268183
 30
0.0
 10
15.1350378781
 20
11.0632269788
 30
0.0
 10
15.1468726559
 20
11.0648244067
 30
0.0
 10
15.1586909339
 20
11.067059626
 30
0.0
 10
15.1704877347
 20
11.069931641
 30
0.0
 10
15.1862882786
 20
11.0746397043
 30
0.0
 10
15.2060097172
 20
11.082163941
 30
0.0
 10
15.2293205337
 20
11.0936509925
 30
0.0
 10
15.248360499
 20
11.1051834322
 30
0.0
 10
15.2634499895
 20
11.1155944999
 30
0.0
 10
15.2787765086
 20
11.1270597029
 30
0.0
 10
15.2899054094
 20
11.1363926116
 30
0.0
 10
15.2971888611
 20
11.1429180716
 30
0.0
  0
SPLINE
  5
2B0
100
AcDbEntity
  8
LAYER_FEATURE
100
AcDbSpline
 62
7
  6
CONTINUOUS
 70
0
 71
3
 72
54
 73
50
 74
0
 42
0.0000001
 43
0.0000001
 44
0.0000000001
 40
0.0
 40
0.0
 40
0.0
 40
0.0
 40
0.0076944498
 40
0.0154413813
 40
0.0232919705
 40
0.0312949099
 40
0.0394954566
 40
0.0479347596
 40
0.0566494683
 40
0.0656715927
 40
0.0750285598
 40
0.084743408
 40
0.094835067
 40
0.1053186804
 40
0.11620594
 40
0.1275054133
 40
0.1392228492
 40
0.1513614589
 40
0.1639221688
 40
0.176903846
 40
0.1903034963
 40
0.2041164401
 40
0.2183364663
 40
0.2329559684
 40
0.247966065
 40
0.263356706
 40
0.2791167689
 40
0.2952341454
 40
0.3116958187
 40
0.3284879346
 40
0.3455958669
 40
0.3630042768
 40
0.3986567007
 40
0.4353116457
 40
0.4728260636
 40
0.5110502178
 40
0.5498290122
 40
0.589003255
 40
0.6284108829
 40
0.667888156
 40
0.7072708358
 40
0.74639536
 40
0.785100025
 40
0.8232261831
 40
0.8606194684
 40
0.8971310711
 40
0.9326190815
 40
0.966949917
 40
1.0
 40
1.0
 40
1.0
 40
1.0
 10
15.859086
 20
13.9595549847
 30
0.0
 10
15.8656779715
 20
13.9595549902
 30
0.0
 10
15.8789145062
 20
13.9589577517
 30
0.0
 10
15.8987131446
 20
13.9562749337
 30
0.0
 10
15.9184588616
 20
13.9518089795
 30
0.0
 10
15.9381233423
 20
13.9455676395
 30
0.0
 10
15.9576819804
 20
13.9375611339
 30
0.0
 10
15.9771104127
 20
13.9278017847
 30
0.0
 10
15.9963853139
 20
13.9163037432
 30
0.0
 10
16.0154839333
 20
13.9030828381
 30
0.0
 10
16.0343839805
 20
13.8881565288
 30
0.0
 10
16.0530634652
 20
13.8715439298
 30
0.0
 10
16.0715006179
 20
13.8532658661
 30
0.0
 10
16.0896738511
 20
13.8333449349
 30
0.0
 10
16.1075617583
 20
13.8118055573
 30
0.0
 10
16.1251431362
 20
13.7886740135
 30
0.0
 10
16.142397021
 20
13.7639784625
 30
0.0
 10
16.1593027317
 20
13.7377489438
 30
0.0
 10
16.1758399114
 20
13.7100173628
 30
0.0
 10
16.1919885703
 20
13.6808174675
 30
0.0
 10
16.2077291267
 20
13.650184817
 30
0.0
 10
16.2230424446
 20
13.6181567437
 30
0.0
 10
16.2379098683
 20
13.5847723101
 30
0.0
 10
16.252313255
 20
13.5500722622
 30
0.0
 10
16.2662350042
 20
13.5140989796
 30
0.0
 10
16.2796580877
 20
13.476896424
 30
0.0
 10
16.2925660738
 20
13.4385100819
 30
0.0
 10
16.3049431485
 20
13.3989869093
 30
0.0
 10
16.3167741475
 20
13.3583752602
 30
0.0
 10
16.3280445396
 20
13.3167248742
 30
0.0
 10
16.338740592
 20
13.2740866281
 30
0.0
 10
16.3523259741
 20
13.2155242938
 30
0.0
 10
16.3677432091
 20
13.140209163
 30
0.0
 10
16.3836178025
 20
13.0474564602
 30
0.0
 10
16.3969319794
 20
12.9520770079
 30
0.0
 10
16.4076201469
 20
12.8545380521
 30
0.0
 10
16.4156296405
 20
12.7553165239
 30
0.0
 10
16.4209209904
 20
12.65489806
 30
0.0
 10
16.4234681248
 20
12.5537741796
 30
0.0
 10
16.4232584892
 20
12.4524399376
 30
0.0
 10
16.4202931111
 20
12.3513914303
 30
0.0
 10
16.4145866042
 20
12.2511233343
 30
0.0
 10
16.4061670991
 20
12.1521264328
 30
0.0
 10
16.3950760898
 20
12.0548851861
 30
0.0
 10
16.381368204
 20
11.9598752402
 30
0.0
 10
16.3651109924
 20
11.8675612808
 30
0.0
 10
16.3463843382
 20
11.7783937975
 30
0.0
 10
16.3252808764
 20
11.692809888
 30
0.0
 10
16.309375213
 20
11.6372999022
 30
0.0
 10
16.3010154043
 20
11.6102475514
 30
0.0
  0
SPLINE
  5
2B1
100
AcDbEntity
  8
LAYER_FEATURE
100
AcDbSpline
 62
7
  6
CONTINUOUS
 70
0
 71
3
 72
35
 73
31
 74
0
 42
0.0000001
 43
0.0000001
 44
0.0000000001
 40
0.0
 40
0.0
 40
0.0
 40
0.0
 40
0.0212775213
 40
0.0426488271
 40
0.0642061834
 40
0.0860389164
 40
0.1082321823
 40
0.1308659592
 40
0.1540143001
 40
0.17774488
 40
0.2021187628
 40
0.2271903427
 40
0.2795970076
 40
0.3070241629
 40
0.3353041691
 40
0.3644618612
 40
0.3945172524
 40
0.4254858761
 40
0.4573791784
 40
0.4902048556
 40
0.5239671195
 40
0.5586669929
 40
0.5943025893
 40
0.6308693191
 40
0.6683600741
 40
0.7067654615
 40
0.7460739618
 40
0.8273403708
 40
0.9120339744
 40
1.0
 40
1.0
 40
1.0
 40
1.0
 10
15.859086
 20
11.0620550011
 30
0.0
 10
15.8643778423
 20
11.0620550054
 30
0.0
 10
15.8749888141
 20
11.0624389821
 30
0.0
 10
15.8908767589
 20
11.0641650953
 30
0.0
 10
15.9067383517
 20
11.0670399386
 30
0.0
 10
15.9225591583
 20
11.071060567
 30
0.0
 10
15.9383263933
 20
11.0762230191
 30
0.0
 10
15.9540271685
 20
11.0825223565
 30
0.0
 10
15.9696490363
 20
11.0899527429
 30
0.0
 10
15.9851796169
 20
11.0985074754
 30
0.0
 10
16.0006073088
 20
11.1081794266
 30
0.0
 10
16.0213277722
 20
11.122767813
 30
0.0
 10
16.0414840555
 20
11.1394086107
 30
0.0
 10
16.0610485198
 20
11.1578611848
 30
0.0
 10
16.0757847111
 20
11.17298075
 30
0.0
 10
16.0903475433
 20
11.189156247
 30
0.0
 10
16.1047266097
 20
11.2063757325
 30
0.0
 10
16.118910569
 20
11.2246253823
 30
0.0
 10
16.132888482
 20
11.2438908926
 30
0.0
 10
16.1466494361
 20
11.2641571008
 30
0.0
 10
16.1601827068
 20
11.2854080636
 30
0.0
 10
16.1734777215
 20
11.3076270531
 30
0.0
 10
16.1865240528
 20
11.3307965918
 30
0.0
 10
16.1993114598
 20
11.354898451
 30
0.0
 10
16.2118298831
 20
11.3799136182
 30
0.0
 10
16.2240695757
 20
11.4058224705
 30
0.0
 10
16.2401829315
 20
11.4419322891
 30
0.0
 10
16.2595241447
 20
11.489194229
 30
0.0
 10
16.2812211181
 20
11.5485165686
 30
0.0
 10
16.2945560834
 20
11.5893451811
 30
0.0
 10
16.3010154043
 20
11.6102475514
 30
0.0
  0
SPLINE
  5
2B2
100
AcDbEntity
  8
LAYER_CHAMFER_FEAT
100
AcDbSpline
 62
7
  6
CONTINUOUS
 70
0
 71
3
 72
47
 73
43
 74
0
 42
0.0000001
 43
0.0000001
 44
0.0000000001
 40
0.0
 40
0.0
 40
0.0
 40
0.0
 40
0.0101615349
 40
0.0206688775
 40
0.0315257322
 40
0.0427341056
 40
0.0542944679
 40
0.0662058927
 40
0.0784661757
 40
0.0910719389
 40
0.1040187356
 40
0.1173011399
 40
0.1309128225
 40
0.1448466133
 40
0.1736466546
 40
0.2036310378
 40
0.2347180654
 40
0.2668175417
 40
0.2998319162
 40
0.33365735
 40
0.3681846398
 40
0.4033001106
 40
0.4388864277
 40
0.4748233951
 40
0.5109887131
 40
0.5472587295
 40
0.5835091737
 40
0.6196158914
 40
0.6554555754
 40
0.6909065085
 40
0.72584931
 40
0.7601677137
 40
0.7937493571
 40
0.826486634
 40
0.8582775723
 40
0.8890268276
 40
0.9186467366
 40
0.9470585653
 40
0.9607904389
 40
0.9741955197
 40
0.987267451
 40
1.0
 40
1.0
 40
1.0
 40
1.0
 10
15.6545212456
 20
13.6114166832
 30
0.0
 10
15.6499026747
 20
13.6058834009
 30
0.0
 10
15.6407408107
 20
13.5944327023
 30
0.0
 10
15.6274431681
 20
13.5764493459
 30
0.0
 10
15.6143752041
 20
13.5573910541
 30
0.0
 10
15.6015502021
 20
13.537277346
 30
0.0
 10
15.5889808362
 20
13.516128294
 30
0.0
 10
15.576679683
 20
13.4939651506
 30
0.0
 10
15.5646590525
 20
13.4708101573
 30
0.0
 10
15.55293099
 20
13.4466865913
 30
0.0
 10
15.5415072635
 20
13.4216187028
 30
0.0
 10
15.5303993883
 20
13.3956317258
 30
0.0
 10
15.5196184521
 20
13.3687517268
 30
0.0
 10
15.5055396411
 20
13.3313453221
 30
0.0
 10
15.488872838
 20
13.2825181447
 30
0.0
 10
15.4705566863
 20
13.2214469697
 30
0.0
 10
15.4537840086
 20
13.157512218
 30
0.0
 10
15.4386227432
 20
13.0909715521
 30
0.0
 10
15.4251341704
 20
13.0220923158
 30
0.0
 10
15.4133729654
 20
12.9511518147
 30
0.0
 10
15.4033867568
 20
12.8784357599
 30
0.0
 10
15.3952160547
 20
12.8042371802
 30
0.0
 10
15.3888939693
 20
12.7288551827
 30
0.0
 10
15.3844461557
 20
12.6525937252
 30
0.0
 10
15.3818906424
 20
12.5757603661
 30
0.0
 10
15.3812378011
 20
12.4986650044
 30
0.0
 10
15.382490278
 20
12.4216186105
 30
0.0
 10
15.3856429899
 20
12.344931955
 30
0.0
 10
15.3906831574
 20
12.2689143363
 30
0.0
 10
15.397590326
 20
12.1938723147
 30
0.0
 10
15.4063365025
 20
12.1201084559
 30
0.0
 10
15.4168862021
 20
12.0479200824
 30
0.0
 10
15.4291966876
 20
11.9775980593
 30
0.0
 10
15.4432180496
 20
11.9094255466
 30
0.0
 10
15.4588935396
 20
11.8436769467
 30
0.0
 10
15.4761597416
 20
11.7806163017
 30
0.0
 10
15.494946838
 20
11.7204977125
 30
0.0
 10
15.5119953264
 20
11.6725197995
 30
0.0
 10
15.5263676271
 20
11.6358313373
 30
0.0
 10
15.5373557815
 20
11.6095103562
 30
0.0
 10
15.5486637814
 20
11.5840992331
 30
0.0
 10
15.5565125461
 20
11.5675619939
 30
0.0
 10
15.5604911453
 20
11.5594544612
 30
0.0
  0
SPLINE
  5
2B3
100
AcDbEntity
  8
LAYER_FEATURE
100
AcDbSpline
 62
7
  6
CONTINUOUS
 70
0
 71
3
 72
35
 73
31
 74
0
 42
0.0000001
 43
0.0000001
 44
0.0000000001
 40
0.0
 40
0.0
 40
0.0
 40
0.0
 40
0.0879660256
 40
0.1726596292
 40
0.2539260382
 40
0.2932345385
 40
0.3316399259
 40
0.3691306809
 40
0.4056974107
 40
0.4413330071
 40
0.4760328805
 40
0.5097951444
 40
0.5426208216
 40
0.5745141239
 40
0.6054827476
 40
0.6355381388
 40
0.6646958309
 40
0.6929758371
 40
0.7204029924
 40
0.7728096573
 40
0.7978812372
 40
0.82225512
 40
0.8459856999
 40
0.8691340408
 40
0.8917678177
 40
0.9139610836
 40
0.9357938166
 40
0.9573511729
 40
0.9787224787
 40
1.0
 40
1.0
 40
1.0
 40
1.0
 10
15.3889074544
 20
13.4113624344
 30
0.0
 10
15.3953667754
 20
13.4322648047
 30
0.0
 10
15.4087017407
 20
13.4730934172
 30
0.0
 10
15.4303987141
 20
13.5324157569
 30
0.0
 10
15.4497399272
 20
13.5796776967
 30
0.0
 10
15.4658532831
 20
13.6157875154
 30
0.0
 10
15.4780929756
 20
13.6416963676
 30
0.0
 10
15.4906113989
 20
13.6667115348
 30
0.0
 10
15.5033988059
 20
13.690813394
 30
0.0
 10
15.5164451373
 20
13.7139829327
 30
0.0
 10
15.529740152
 20
13.7362019222
 30
0.0
 10
15.5432734227
 20
13.757452885
 30
0.0
 10
15.5570343768
 20
13.7777190932
 30
0.0
 10
15.5710122898
 20
13.7969846035
 30
0.0
 10
15.585196249
 20
13.8152342533
 30
0.0
 10
15.5995753154
 20
13.8324537388
 30
0.0
 10
15.6141381477
 20
13.8486292358
 30
0.0
 10
15.628874339
 20
13.863748801
 30
0.0
 10
15.6484388033
 20
13.8822013751
 30
0.0
 10
15.6685950866
 20
13.8988421728
 30
0.0
 10
15.6893155499
 20
13.9134305592
 30
0.0
 10
15.7047432418
 20
13.9231025104
 30
0.0
 10
15.7202738224
 20
13.9316572429
 30
0.0
 10
15.7358956903
 20
13.9390876293
 30
0.0
 10
15.7515964655
 20
13.9453869667
 30
0.0
 10
15.7673637004
 20
13.9505494188
 30
0.0
 10
15.7831845071
 20
13.9545700472
 30
0.0
 10
15.7990460999
 20
13.9574448905
 30
0.0
 10
15.8149340446
 20
13.9591710037
 30
0.0
 10
15.8255450165
 20
13.9595549804
 30
0.0
 10
15.8308368587
 20
13.9595549847
 30
0.0
  0
SPLINE
  5
2B4
100
AcDbEntity
  8
LAYER_CHAMFER_FEAT
100
AcDbSpline
 62
7
  6
CONTINUOUS
 70
0
 71
3
 72
19
 73
15
 74
0
 42
0.0000001
 43
0.0000001
 44
0.0000000001
 40
0.0
 40
0.0
 40
0.0
 40
0.0
 40
0.1469609938
 40
0.2860005777
 40
0.4176992047
 40
0.5428220807
 40
0.6032335763
 40
0.6623805345
 40
0.7204153477
 40
0.7775022261
 40
0.8338162641
 40
0.8895418293
 40
0.9448707407
 40
1.0
 40
1.0
 40
1.0
 40
1.0
 10
15.6548563171
 20
11.4103390788
 30
0.0
 10
15.6619376471
 20
11.402483962
 30
0.0
 10
15.6762414373
 20
11.3876553474
 30
0.0
 10
15.6987495422
 20
11.3676825554
 30
0.0
 10
15.7216452947
 20
11.3506673742
 30
0.0
 10
15.7412333167
 20
11.3388574138
 30
0.0
 10
15.7570042203
 20
11.3310091812
 30
0.0
 10
15.7687515244
 20
11.3259578384
 30
0.0
 10
15.7805469899
 20
11.3216771083
 30
0.0
 10
15.7923831561
 20
11.3181701002
 30
0.0
 10
15.804251978
 20
11.3154394933
 30
0.0
 10
15.8161456359
 20
11.3134874824
 30
0.0
 10
15.8280552941
 20
11.3123156476
 30
0.0
 10
15.8360066905
 20
11.3120549921
 30
0.0
 10
15.8399739844
 20
11.3120549929
 30
0.0
  0
SPLINE
  5
2B5
100
AcDbEntity
  8
LAYER_FEATURE
100
AcDbSpline
 62
7
  6
CONTINUOUS
 70
0
 71
3
 72
54
 73
50
 74
0
 42
0.0000001
 43
0.0000001
 44
0.0000000001
 40
0.0
 40
0.0
 40
0.0
 40
0.0
 40
0.0330500869
 40
0.0673809189
 40
0.1028689286
 40
0.1393805316
 40
0.1767738172
 40
0.214899975
 40
0.2536046397
 40
0.2927291642
 40
0.332111844
 40
0.3715891169
 40
0.4109967451
 40
0.4501709878
 40
0.4889497815
 40
0.5271739361
 40
0.5646883551
 40
0.6013432992
 40
0.6369957215
 40
0.6544041318
 40
0.6715120649
 40
0.6883041821
 40
0.7047658562
 40
0.7208832323
 40
0.736643294
 40
0.7520339335
 40
0.7670440292
 40
0.7816635318
 40
0.7958835594
 40
0.8096965048
 40
0.823096156
 40
0.8360778326
 40
0.8486385411
 40
0.8607771491
 40
0.8724945842
 40
0.8837940579
 40
0.894681319
 40
0.9051649339
 40
0.9152565937
 40
0.9249714414
 40
0.9343284073
 40
0.9433505306
 40
0.9520652387
 40
0.9605045419
 40
0.9687050894
 40
0.9767080294
 40
0.9845586188
 40
0.9923055502
 40
1.0
 40
1.0
 40
1.0
 40
1.0
 10
14.6411627083
 20
13.4113624344
 30
0.0
 10
14.6328028986
 20
13.3843100804
 30
0.0
 10
14.6168972353
 20
13.3288000942
 30
0.0
 10
14.5957937742
 20
13.2432161848
 30
0.0
 10
14.5770671191
 20
13.1540487051
 30
0.0
 10
14.5608099084
 20
13.0617347455
 30
0.0
 10
14.5471020249
 20
12.9667247991
 30
0.0
 10
14.536011014
 20
12.8694835529
 30
0.0
 10
14.527591506
 20
12.7704866519
 30
0.0
 10
14.5218850013
 20
12.6702185556
 30
0.0
 10
14.5189196268
 20
12.5691700481
 30
0.0
 10
14.5187099883
 20
12.4678358061
 30
0.0
 10
14.5212571185
 20
12.3667119256
 30
0.0
 10
14.5265484718
 20
12.2662934623
 30
0.0
 10
14.5345579703
 20
12.1670719348
 30
0.0
 10
14.5452461337
 20
12.0695329778
 30
0.0
 10
14.5585603054
 20
11.9741535241
 30
0.0
 10
14.574434903
 20
11.8814008231
 30
0.0
 10
14.5898521429
 20
11.8060856953
 30
0.0
 10
14.6034375231
 20
11.7475233609
 30
0.0
 10
14.6141335733
 20
11.7048851121
 30
0.0
 10
14.6254039631
 20
11.6632347229
 30
0.0
 10
14.6372349606
 20
11.6226230718
 30
0.0
 10
14.6496120361
 20
11.5830999002
 30
0.0
 10
14.6625200248
 20
11.5447135617
 30
0.0
 10
14.6759431108
 20
11.5075110104
 30
0.0
 10
14.6898648612
 20
11.47153773
 30
0.0
 10
14.7042682468
 20
11.4368376806
 30
0.0
 10
14.7191356683
 20
11.4034532428
 30
0.0
 10
14.7344489839
 20
11.3714251647
 30
0.0
 10
14.7501895389
 20
11.3407925116
 30
0.0
 10
14.7663381991
 20
11.311592618
 30
0.0
 10
14.7828753808
 20
11.2838610418
 30
0.0
 10
14.7997810935
 20
11.2576315284
 30
0.0
 10
14.8170349794
 20
11.2329359804
 30
0.0
 10
14.8346163565
 20
11.209804435
 30
0.0
 10
14.8525042617
 20
11.1882650518
 30
0.0
 10
14.8706774928
 20
11.1683441144
 30
0.0
 10
14.8891146448
 20
11.1500660477
 30
0.0
 10
14.9077941308
 20
11.1334534512
 30
0.0
 10
14.9266941794
 20
11.1185271474
 30
0.0
 10
14.9457927998
 20
11.1053062481
 30
0.0
 10
14.9650677016
 20
11.0938082101
 30
0.0
 10
14.9844961334
 20
11.0840488595
 30
0.0
 10
15.0040547701
 20
11.0760423475
 30
0.0
 10
15.02371925
 20
11.0698009995
 30
0.0
 10
15.0434649674
 20
11.0653350454
 30
0.0
 10
15.0632636064
 20
11.0626522225
 30
0.0
 10
15.0765001412
 20
11.0620550075
 30
0.0
 10
15.0830921126
 20
11.062055001
 30
0.0
  0
SPLINE
  5
2B6
100
AcDbEntity
  8
LAYER_CHAMFER_FEAT
100
AcDbSpline
 62
7
  6
CONTINUOUS
 70
0
 71
3
 72
19
 73
15
 74
0
 42
0.0000001
 43
0.0000001
 44
0.0000000001
 40
0.0
 40
0.0
 40
0.0
 40
0.0
 40
0.0551288732
 40
0.1104574109
 40
0.1661826247
 40
0.2224963482
 40
0.279582956
 40
0.3376175515
 40
0.3967643571
 40
0.4571757637
 40
0.5822986929
 40
0.7139976919
 40
0.8530379773
 40
1.0
 40
1.0
 40
1.0
 40
1.0
 10
15.8399739844
 20
13.7095549929
 30
0.0
 10
15.8360065564
 20
13.709554992
 30
0.0
 10
15.8280548898
 20
13.7092943226
 30
0.0
 10
15.8161448288
 20
13.708122404
 30
0.0
 10
15.8042507688
 20
13.706170265
 30
0.0
 10
15.7923815485
 20
13.7034394706
 30
0.0
 10
15.780544987
 20
13.6999322257
 30
0.0
 10
15.7687491294
 20
13.6956512085
 30
0.0
 10
15.7570014404
 20
13.6905995224
 30
0.0
 10
15.7412300117
 20
13.6827507606
 30
0.0
 10
15.721641354
 20
13.6709399958
 30
0.0
 10
15.6987448929
 20
13.6539236786
 30
0.0
 10
15.6762361177
 20
13.6339495621
 30
0.0
 10
15.6619319346
 20
13.6191199846
 30
0.0
 10
15.6548504135
 20
13.6112643591
 30
0.0
  0
SPLINE
  5
2B7
100
AcDbEntity
  8
LAYER_FEATURE
100
AcDbSpline
 62
7
  6
CONTINUOUS
 70
0
 71
3
 72
36
 73
32
 74
0
 42
0.0000001
 43
0.0000001
 44
0.0000000001
 40
0.0
 40
0.0
 40
0.0
 40
0.0
 40
0.0879647301
 40
0.1726570648
 40
0.2539222764
 40
0.2932301914
 40
0.3316350098
 40
0.3691252116
 40
0.4056913988
 40
0.4413264641
 40
0.4760258261
 40
0.5097875916
 40
0.542612777
 40
0.5745056085
 40
0.6054737773
 40
0.6355287187
 40
0.6646859772
 40
0.6929655693
 40
0.7203923177
 40
0.746996252
 40
0.7728130251
 40
0.7978842365
 40
0.8222577519
 40
0.8459879813
 40
0.8691359833
 40
0.8917694219
 40
0.9139623571
 40
0.9357947692
 40
0.9573518063
 40
0.9787227939
 40
1.0
 40
1.0
 40
1.0
 40
1.0
 10
14.6411627083
 20
13.4113624344
 30
0.0
 10
14.6476220299
 20
13.4322648066
 30
0.0
 10
14.660956994
 20
13.4730934181
 30
0.0
 10
14.6826539705
 20
13.5324157569
 30
0.0
 10
14.7019951786
 20
13.5796776963
 30
0.0
 10
14.7181085378
 20
13.6157875147
 30
0.0
 10
14.7303482308
 20
13.6416963666
 30
0.0
 10
14.7428666516
 20
13.6667115356
 30
0.0
 10
14.7556540589
 20
13.6908133943
 30
0.0
 10
14.7687003937
 20
13.7139829309
 30
0.0
 10
14.7819954057
 20
13.7362019225
 30
0.0
 10
14.7955286733
 20
13.7574528869
 30
0.0
 10
14.8092896344
 20
13.7777190913
 30
0.0
 10
14.8232675424
 20
13.7969845999
 30
0.0
 10
14.837451508
 20
13.8152342652
 30
0.0
 10
14.8518305394
 20
13.8324537063
 30
0.0
 10
14.8663935165
 20
13.8486293428
 30
0.0
 10
14.8811291914
 20
13.8637484102
 30
0.0
 10
14.8960262434
 20
13.8777989094
 30
0.0
 10
14.911073268
 20
13.8907696101
 30
0.0
 10
14.9262587336
 20
13.9026500971
 30
0.0
 10
14.9415710277
 20
13.9134307001
 30
0.0
 10
14.9569984409
 20
13.9231024692
 30
0.0
 10
14.9725290929
 20
13.9316572478
 30
0.0
 10
14.9881509366
 20
13.9390876359
 30
0.0
 10
15.0038517212
 20
13.9453869657
 30
0.0
 10
15.0196189565
 20
13.9505494093
 30
0.0
 10
15.0354397596
 20
13.9545700527
 30
0.0
 10
15.0513013531
 20
13.9574449
 30
0.0
 10
15.0671892996
 20
13.959170984
 30
0.0
 10
15.0778002703
 20
13.95955499
 30
0.0
 10
15.0830921126
 20
13.9595549848
 30
0.0
  0
SPLINE
  5
2B8
100
AcDbEntity
  8
02___PRT_ALL_AXES
100
AcDbSpline
 62
7
  6
CONTINUOUS
 70
0
 71
3
 72
11
 73
7
 74
0
 42
0.0000001
 43
0.0000001
 44
0.0000000001
 40
0.0
 40
0.0
 40
0.0
 40
0.0
 40
0.2614547493
 40
0.5137409167
 40
0.7590938597
 40
1.0
 40
1.0
 40
1.0
 40
1.0
 10
15.6124175524
 20
13.1219609567
 30
0.0
 10
15.6159411091
 20
13.123897739
 30
0.0
 10
15.62304464
 20
13.1273889155
 30
0.0
 10
15.6340077451
 20
13.1314598699
 30
0.0
 10
15.6450408099
 20
13.1342482359
 30
0.0
 10
15.652470797
 20
13.1352512122
 30
0.0
 10
15.6561649198
 20
13.1355317874
 30
0.0
  0
SPLINE
  5
2B9
100
AcDbEntity
  8
02___PRT_ALL_AXES
100
AcDbSpline
 62
7
  6
CONTINUOUS
 70
0
 71
3
 72
30
 73
26
 74
0
 42
0.0000001
 43
0.0000001
 44
0.0000000001
 40
0.0
 40
0.0
 40
0.0
 40
0.0
 40
0.0726691907
 40
0.14591019
 40
0.2192739659
 40
0.2923099995
 40
0.3645712693
 40
0.4356190381
 40
0.5050277784
 40
0.5723903093
 40
0.6373232635
 40
0.6687688182
 40
0.699477226
 40
0.7294100855
 40
0.7585317742
 40
0.7868097382
 40
0.8142148154
 40
0.840721602
 40
0.86630887
 40
0.8909600556
 40
0.9146638011
 40
0.9374146659
 40
0.959213723
 40
0.9800698532
 40
1.0
 40
1.0
 40
1.0
 40
1.0
 10
15.4245123666
 20
12.3906729112
 30
0.0
 10
15.4231771133
 20
12.4081791877
 30
0.0
 10
15.4210999753
 20
12.4433783017
 30
0.0
 10
15.4197462568
 20
12.4963475588
 30
0.0
 10
15.4201456679
 20
12.5494218433
 30
0.0
 10
15.422295353
 20
12.6022171293
 30
0.0
 10
15.4261796224
 20
12.6543524851
 30
0.0
 10
15.4317701638
 20
12.7054515218
 30
0.0
 10
15.439026225
 20
12.7551459019
 30
0.0
 10
15.4478949585
 20
12.8030767296
 30
0.0
 10
15.45666691
 20
12.8416657559
 30
0.0
 10
15.4644683422
 20
12.8713651011
 30
0.0
 10
15.4706165442
 20
12.8927494412
 30
0.0
 10
15.4771129747
 20
12.9134429222
 30
0.0
 10
15.4839459727
 20
12.9334082844
 30
0.0
 10
15.4911031664
 20
12.9526095039
 30
0.0
 10
15.4985716438
 20
12.9710119903
 30
0.0
 10
15.5063379476
 20
12.988582617
 30
0.0
 10
15.5143881176
 20
13.0052897953
 30
0.0
 10
15.5227077252
 20
13.0211035182
 30
0.0
 10
15.5312819264
 20
13.035995451
 30
0.0
 10
15.5400954577
 20
13.0499388601
 30
0.0
 10
15.5491329016
 20
13.0629090009
 30
0.0
 10
15.5583779574
 20
13.0748820796
 30
0.0
 10
15.5648134389
 20
13.0823526993
 30
0.0
 10
15.5680642863
 20
13.0859048902
 30
0.0
  0
SPLINE
  5
2BA
100
AcDbEntity
  8
02___PRT_ALL_AXES
100
AcDbSpline
 62
7
  6
CONTINUOUS
 70
0
 71
3
 72
10
 73
6
 74
0
 42
0.0000001
 43
0.0000001
 44
0.0000000001
 40
0.0
 40
0.0
 40
0.0
 40
0.0
 40
0.250731671
 40
0.5009614401
 40
1.0
 40
1.0
 40
1.0
 40
1.0
 10
15.8232987102
 20
12.0396978396
 30
0.0
 10
15.7960054543
 20
12.0406652904
 30
0.0
 10
15.7414792765
 20
12.0427629421
 30
0.0
 10
15.6326613152
 20
12.047548253
 30
0.0
 10
15.5511553436
 20
12.0517486847
 30
0.0
 10
15.4968845957
 20
12.0548039352
 30
0.0
  0
LINE
  5
2BB
100
AcDbEntity
  8
02___PRT_ALL_AXES
100
AcDbLine
 62
7
  6
CONTINUOUS
 10
15.6722021293
 20
11.8862175284
 11
15.6413677877
 21
11.8884952365
  0
LINE
  5
2BC
100
AcDbEntity
  8
02___PRT_ALL_AXES
100
AcDbLine
 62
7
  6
CONTINUOUS
 10
15.6124175524
 20
13.1219609567
 11
15.57173457
 21
13.1191396791
  0
SPLINE
  5
2BD
100
AcDbEntity
  8
02___PRT_ALL_AXES
100
AcDbSpline
 62
7
  6
CONTINUOUS
 70
0
 71
3
 72
23
 73
19
 74
0
 42
0.0000001
 43
0.0000001
 44
0.0000000001
 40
0.0
 40
0.0
 40
0.0
 40
0.0
 40
0.0174888405
 40
0.0351642968
 40
0.0717309766
 40
0.1110090463
 40
0.1539428288
 40
0.20116057
 40
0.2530211015
 40
0.3096706618
 40
0.3710915029
 40
0.4371387881
 40
0.5075676402
 40
0.5820530739
 40
0.6602052003
 40
0.741581049
 40
0.825695022
 40
1.0
 40
1.0
 40
1.0
 40
1.0
 10
15.694318036
 20
11.8498116199
 30
0.0
 10
15.6946744918
 20
11.8498116212
 30
0.0
 10
15.6953918948
 20
11.8498522797
 30
0.0
 10
15.6968357036
 20
11.8500977871
 30
0.0
 10
15.6986510131
 20
11.8507269264
 30
0.0
 10
15.7007532506
 20
11.851952182
 30
0.0
 10
15.7027943662
 20
11.8536387056
 30
0.0
 10
15.7047626566
 20
11.8557706216
 30
0.0
 10
15.7066471284
 20
11.8583313747
 30
0.0
 10
15.7084355878
 20
11.8613022266
 30
0.0
 10
15.7101156243
 20
11.8646614502
 30
0.0
 10
15.7116749757
 20
11.8683841927
 30
0.0
 10
15.7131019558
 20
11.8724425918
 30
0.0
 10
15.7143857093
 20
11.8768060237
 30
0.0
 10
15.7155163642
 20
11.8814413278
 30
0.0
 10
15.7164852724
 20
11.8863133018
 30
0.0
 10
15.7175639369
 20
11.8931557422
 30
0.0
 10
15.7180876165
 20
11.8984028813
 30
0.0
 10
15.7183197453
 20
11.9019479561
 30
0.0
  0
SPLINE
  5
2BE
100
AcDbEntity
  8
02___PRT_ALL_AXES
100
AcDbSpline
 62
7
  6
CONTINUOUS
 70
0
 71
3
 72
29
 73
25
 74
0
 42
0.0000001
 43
0.0000001
 44
0.0000000001
 40
0.0
 40
0.0
 40
0.0
 40
0.0
 40
0.0155183102
 40
0.0313974719
 40
0.0479690116
 40
0.0655143786
 40
0.0842562143
 40
0.1043592221
 40
0.125936256
 40
0.1490560133
 40
0.1737506654
 40
0.2000223659
 40
0.2278484704
 40
0.2571855742
 40
0.3201218929
 40
0.3881961438
 40
0.4605809332
 40
0.5363204067
 40
0.6143669827
 40
0.6936134354
 40
0.7729224331
 40
0.8511550796
 40
0.9271989018
 40
1.0
 40
1.0
 40
1.0
 40
1.0
 10
15.8340911494
 20
12.0332172198
 30
0.0
 10
15.8346211978
 20
12.0332172226
 30
0.0
 10
15.8356956892
 20
12.033308147
 30
0.0
 10
15.837289866
 20
12.0337142279
 30
0.0
 10
15.8388663709
 20
12.0343865089
 30
0.0
 10
15.8404178229
 20
12.0353197601
 30
0.0
 10
15.8419386689
 20
12.0365083717
 30
0.0
 10
15.843423539
 20
12.0379464815
 30
0.0
 10
15.8448671526
 20
12.0396277615
 30
0.0
 10
15.846264149
 20
12.0415451573
 30
0.0
 10
15.8476091313
 20
12.0436907552
 30
0.0
 10
15.8488967127
 20
12.0460557105
 30
0.0
 10
15.8501216972
 20
12.048630247
 30
0.0
 10
15.8517016831
 20
12.052417383
 30
0.0
 10
15.8534678835
 20
12.0576087456
 30
0.0
 10
15.8552185173
 20
12.0643370071
 30
0.0
 10
15.8566175267
 20
12.0715925118
 30
0.0
 10
15.8576409705
 20
12.0792535368
 30
0.0
 10
15.8582712429
 20
12.0871917142
 30
0.0
 10
15.8584975
 20
12.095273468
 30
0.0
 10
15.8583158286
 20
12.1033626723
 30
0.0
 10
15.8577293673
 20
12.11132319
 30
0.0
 10
15.8567482599
 20
12.1190206799
 30
0.0
 10
15.8558178859
 20
12.1240225732
 30
0.0
 10
15.8552837905
 20
12.1264511553
 30
0.0
  0
SPLINE
  5
2BF
100
AcDbEntity
  8
LAYER_FEATURE
100
AcDbSpline
 62
7
  6
CONTINUOUS
 70
0
 71
3
 72
23
 73
19
 74
0
 42
0.0000001
 43
0.0000001
 44
0.0000000001
 40
0.0
 40
0.0
 40
0.0
 40
0.0
 40
0.0796432477
 40
0.1571993418
 40
0.2325913126
 40
0.3057502584
 40
0.3766159763
 40
0.4451379908
 40
0.5112765793
 40
0.5750040136
 40
0.6363059736
 40
0.6951831914
 40
0.7516533467
 40
0.8057532416
 40
0.8575412611
 40
0.9071000973
 40
0.9545396584
 40
1.0
 40
1.0
 40
1.0
 40
1.0
 10
15.4668820741
 20
13.2831366376
 30
0.0
 10
15.4708830054
 20
13.2960836561
 30
0.0
 10
15.4790755011
 20
13.3215483782
 30
0.0
 10
15.4921207202
 20
13.3589156493
 30
0.0
 10
15.5057426911
 20
13.3948998351
 30
0.0
 10
15.5199191522
 20
13.4294421645
 30
0.0
 10
15.5346270859
 20
13.4624866051
 30
0.0
 10
15.5498426261
 20
13.4939795179
 30
0.0
 10
15.5655411573
 20
13.5238698627
 30
0.0
 10
15.5816973651
 20
13.5521092486
 30
0.0
 10
15.5982853084
 20
13.5786520116
 30
0.0
 10
15.6152785002
 20
13.6034552733
 30
0.0
 10
15.6326499733
 20
13.6264789681
 30
0.0
 10
15.6503724305
 20
13.6476858971
 30
0.0
 10
15.6684181032
 20
13.6670415633
 30
0.0
 10
15.6867596023
 20
13.6845146109
 30
0.0
 10
15.7053671947
 20
13.7000749623
 30
0.0
 10
15.7181919678
 20
13.7093441745
 30
0.0
 10
15.7246335274
 20
13.7136262434
 30
0.0
  0
SPLINE
  5
2C0
100
AcDbEntity
  8
LAYER_FEATURE
100
AcDbSpline
 62
7
  6
CONTINUOUS
 70
0
 71
3
 72
78
 73
74
 74
0
 42
0.0000001
 43
0.0000001
 44
0.0000000001
 40
0.0
 40
0.0
 40
0.0
 40
0.0
 40
0.0178417771
 40
0.036184308
 40
0.0549960808
 40
0.0742433104
 40
0.0938904899
 40
0.1139004766
 40
0.1342347105
 40
0.1548533965
 40
0.1757156792
 40
0.1967798107
 40
0.2180033134
 40
0.2393431404
 40
0.260755834
 40
0.2821976795
 40
0.3036248596
 40
0.3249936089
 40
0.3462603675
 40
0.3673819354
 40
0.3883156291
 40
0.4090194414
 40
0.4294522035
 40
0.4495737507
 40
0.4693450949
 40
0.4887286048
 40
0.507688199
 40
0.5261895461
 40
0.5442002824
 40
0.5616902516
 40
0.5786317732
 40
0.5949999412
 40
0.6107729631
 40
0.6259325542
 40
0.6404644026
 40
0.6543587197
 40
0.6676108899
 40
0.6802222479
 40
0.6922010055
 40
0.7035633435
 40
0.7143346582
 40
0.7245509236
 40
0.7342600663
 40
0.7435231463
 40
0.748011933
 40
0.7524184428
 40
0.7567541276
 40
0.7610311788
 40
0.7652624426
 40
0.7694612945
 40
0.7736415008
 40
0.7778170574
 40
0.7820020181
 40
0.7862103193
 40
0.7904556124
 40
0.7947511095
 40
0.7991094446
 40
0.8035425712
 40
0.812673927
 40
0.822228128
 40
0.8322707595
 40
0.8428539784
 40
0.8540175632
 40
0.8657902538
 40
0.8781911341
 40
0.8912309223
 40
0.9049131167
 40
0.9192349766
 40
0.9341883465
 40
0.9497603426
 40
0.9659339573
 40
0.9826884321
 40
1.0
 40
1.0
 40
1.0
 40
1.0
 10
15.4245227939
 20
13.3694557751
 30
0.0
 10
15.4189707423
 20
13.3514893296
 30
0.0
 10
15.4082353128
 20
13.314888207
 30
0.0
 10
15.3934156209
 20
13.2588439338
 30
0.0
 10
15.3796828129
 20
13.2009998749
 30
0.0
 10
15.3670701901
 20
13.1414954869
 30
0.0
 10
15.3556081318
 20
13.0804736658
 30
0.0
 10
15.3453243127
 20
13.0180811417
 30
0.0
 10
15.3362435429
 20
12.9544679477
 30
0.0
 10
15.3283877446
 20
12.8897870993
 30
0.0
 10
15.3217758855
 20
12.8241942028
 30
0.0
 10
15.3164239365
 20
12.7578470825
 30
0.0
 10
15.312344816
 20
12.6909053967
 30
0.0
 10
15.3095483709
 20
12.6235302477
 30
0.0
 10
15.3080413541
 20
12.5558837889
 30
0.0
 10
15.3078274094
 20
12.4881288325
 30
0.0
 10
15.3089070562
 20
12.4204284542
 30
0.0
 10
15.311277681
 20
12.3529455971
 30
0.0
 10
15.3149335581
 20
12.2858426759
 30
0.0
 10
15.3198658602
 20
12.2192811839
 30
0.0
 10
15.3260626838
 20
12.1534213005
 30
0.0
 10
15.3335090632
 20
12.0884214993
 30
0.0
 10
15.3421870157
 20
12.0244381625
 30
0.0
 10
15.3520755914
 20
11.9616252019
 30
0.0
 10
15.3631509247
 20
11.9001336837
 30
0.0
 10
15.3753862932
 20
11.8401114554
 30
0.0
 10
15.3887521726
 20
11.7817027784
 30
0.0
 10
15.4032163296
 20
11.7250479755
 30
0.0
 10
15.4187439048
 20
11.6702830853
 30
0.0
 10
15.4352975124
 20
11.6175395219
 30
0.0
 10
15.4528373337
 20
11.5669437377
 30
0.0
 10
15.4713212387
 20
11.5186169029
 30
0.0
 10
15.4907049308
 20
11.472674605
 30
0.0
 10
15.510942097
 20
11.4292265576
 30
0.0
 10
15.5319845874
 20
11.3883763249
 30
0.0
 10
15.5537826006
 20
11.3502210645
 30
0.0
 10
15.5762849368
 20
11.3148513332
 30
0.0
 10
15.5994392769
 20
11.2823509462
 30
0.0
 10
15.6231924582
 20
11.2527969428
 30
0.0
 10
15.6474908765
 20
11.2262596298
 30
0.0
 10
15.6722803666
 20
11.2028029906
 30
0.0
 10
15.6975075454
 20
11.1824847604
 30
0.0
 10
15.7231151473
 20
11.1653587019
 30
0.0
 10
15.7449569685
 20
11.153664548
 30
0.0
 10
15.7625130705
 20
11.1460238101
 30
0.0
 10
15.7755963578
 20
11.1411753689
 30
0.0
 10
15.7887237577
 20
11.1371534353
 30
0.0
 10
15.8018875068
 20
11.1339607142
 30
0.0
 10
15.8150792829
 20
11.1315994953
 30
0.0
 10
15.8282907818
 20
11.1300715318
 30
0.0
 10
15.8415135705
 20
11.1293779889
 30
0.0
 10
15.8547391689
 20
11.1295193282
 30
0.0
 10
15.8679590824
 20
11.1304955201
 30
0.0
 10
15.8811648399
 20
11.1323057684
 30
0.0
 10
15.8943480691
 20
11.1349487539
 30
0.0
 10
15.9075003719
 20
11.1384225238
 30
0.0
 10
15.9206139209
 20
11.1427247405
 30
0.0
 10
15.9382066913
 20
11.1496281717
 30
0.0
 10
15.9601160852
 20
11.1604054528
 30
0.0
 10
15.9858378647
 20
11.1764653283
 30
0.0
 10
16.0111976324
 20
11.1957337393
 30
0.0
 10
16.0361376725
 20
11.2181585887
 30
0.0
 10
16.0606045245
 20
11.2436839083
 30
0.0
 10
16.084543958
 20
11.2722477421
 30
0.0
 10
16.1079022529
 20
11.3037819513
 30
0.0
 10
16.1306260434
 20
11.3382117298
 30
0.0
 10
16.1526627042
 20
11.3754555067
 30
0.0
 10
16.1739606322
 20
11.4154249393
 30
0.0
 10
16.1944695346
 20
11.4580250414
 30
0.0
 10
16.2141406924
 20
11.5031543219
 30
0.0
 10
16.2329271645
 20
11.5507051491
 30
0.0
 10
16.2507838828
 20
11.6005633926
 30
0.0
 10
16.2618649398
 20
11.6347216794
 30
0.0
 10
16.2672519994
 20
11.6521542108
 30
0.0
  0
SPLINE
  5
2C1
100
AcDbEntity
  8
LAYER_FEATURE
100
AcDbSpline
 62
7
  6
CONTINUOUS
 70
0
 71
3
 72
54
 73
50
 74
0
 42
0.0000001
 43
0.0000001
 44
0.0000000001
 40
0.0
 40
0.0
 40
0.0
 40
0.0
 40
0.033050083
 40
0.0673809185
 40
0.1028689289
 40
0.1393805316
 40
0.1767738169
 40
0.214899975
 40
0.25360464
 40
0.2927291642
 40
0.332111844
 40
0.3715891171
 40
0.410996745
 40
0.4501709878
 40
0.4889497822
 40
0.5271739364
 40
0.5646883543
 40
0.6013432993
 40
0.6369957232
 40
0.6544041331
 40
0.6715120654
 40
0.6883041813
 40
0.7047658546
 40
0.7208832311
 40
0.736643294
 40
0.752033935
 40
0.7670440316
 40
0.7816635337
 40
0.7958835599
 40
0.8096965037
 40
0.823096154
 40
0.8360778312
 40
0.8486385411
 40
0.8607771508
 40
0.8724945867
 40
0.88379406
 40
0.8946813196
 40
0.905164933
 40
0.915256592
 40
0.9249714402
 40
0.9343284073
 40
0.9433505317
 40
0.9520652404
 40
0.9605045434
 40
0.9687050901
 40
0.9767080295
 40
0.9845586187
 40
0.9923055502
 40
1.0
 40
1.0
 40
1.0
 40
1.0
 10
15.4171565958
 20
13.4113624344
 30
0.0
 10
15.4087967871
 20
13.3843100836
 30
0.0
 10
15.3928911237
 20
13.3288000978
 30
0.0
 10
15.3717876619
 20
13.2432161883
 30
0.0
 10
15.3530610077
 20
13.154048705
 30
0.0
 10
15.3368037961
 20
13.0617347456
 30
0.0
 10
15.3230959103
 20
12.9667247997
 30
0.0
 10
15.312004901
 20
12.869483553
 30
0.0
 10
15.3035853959
 20
12.7704866515
 30
0.0
 10
15.297878889
 20
12.6702185555
 30
0.0
 10
15.2949135109
 20
12.5691700482
 30
0.0
 10
15.2947038753
 20
12.4678358062
 30
0.0
 10
15.2972510096
 20
12.3667119258
 30
0.0
 10
15.3025423596
 20
12.266293462
 30
0.0
 10
15.3105518532
 20
12.1670719338
 30
0.0
 10
15.3212400206
 20
12.0695329779
 30
0.0
 10
15.3345541976
 20
11.9741535256
 30
0.0
 10
15.350428791
 20
11.8814008228
 30
0.0
 10
15.365846026
 20
11.806085692
 30
0.0
 10
15.379431408
 20
11.7475233578
 30
0.0
 10
15.3901274605
 20
11.7048851116
 30
0.0
 10
15.4013978526
 20
11.6632347256
 30
0.0
 10
15.4132288516
 20
11.6226230765
 30
0.0
 10
15.4256059263
 20
11.583099904
 30
0.0
 10
15.4385139124
 20
11.5447135618
 30
0.0
 10
15.4519369959
 20
11.5075110063
 30
0.0
 10
15.465858745
 20
11.4715377236
 30
0.0
 10
15.4802621318
 20
11.4368376757
 30
0.0
 10
15.4951295555
 20
11.4034532421
 30
0.0
 10
15.5104428734
 20
11.3714251688
 30
0.0
 10
15.5261834298
 20
11.3407925184
 30
0.0
 10
15.5423320887
 20
11.311592623
 30
0.0
 10
15.5588692684
 20
11.283861042
 30
0.0
 10
15.5757749791
 20
11.2576315234
 30
0.0
 10
15.5930288639
 20
11.2329359723
 30
0.0
 10
15.6106102418
 20
11.2098044285
 30
0.0
 10
15.628498149
 20
11.1882650509
 30
0.0
 10
15.6466713822
 20
11.1683441197
 30
0.0
 10
15.6651085349
 20
11.150066056
 30
0.0
 10
15.6837880196
 20
11.133453457
 30
0.0
 10
15.7026880668
 20
11.1185271477
 30
0.0
 10
15.7217866862
 20
11.1053062426
 30
0.0
 10
15.7410615874
 20
11.0938082011
 30
0.0
 10
15.7604900197
 20
11.0840488519
 30
0.0
 10
15.7800486578
 20
11.0760423464
 30
0.0
 10
15.7997131385
 20
11.0698010063
 30
0.0
 10
15.8194588555
 20
11.0653350522
 30
0.0
 10
15.8392574939
 20
11.0626522341
 30
0.0
 10
15.8524940286
 20
11.0620549956
 30
0.0
 10
15.859086
 20
11.0620550011
 30
0.0
  0
SPLINE
  5
2C2
100
AcDbEntity
  8
02___PRT_ALL_AXES
100
AcDbSpline
 62
7
  6
CONTINUOUS
 70
0
 71
3
 72
14
 73
10
 74
0
 42
0.0000001
 43
0.0000001
 44
0.0000000001
 40
0.0
 40
0.0
 40
0.0
 40
0.0
 40
0.1179235004
 40
0.2360731774
 40
0.3554157795
 40
0.4768825775
 40
0.6013453452
 40
0.7295966886
 40
1.0
 40
1.0
 40
1.0
 40
1.0
 10
15.6561649198
 20
13.1355317874
 30
0.0
 10
15.6592795328
 20
13.1357683477
 30
0.0
 10
15.6655425325
 20
13.1359351526
 30
0.0
 10
15.6749466295
 20
13.1352517594
 30
0.0
 10
15.6843318504
 20
13.1336362361
 30
0.0
 10
15.69368119
 20
13.1310923466
 30
0.0
 10
15.7029808772
 20
13.1276250463
 30
0.0
 10
15.7155106731
 20
13.1216784943
 30
0.0
 10
15.7244662031
 20
13.1159830209
 30
0.0
 10
15.7302405422
 20
13.1117452796
 30
0.0
  0
SPLINE
  5
2C3
100
AcDbEntity
  8
LAYER_FEATURE
100
AcDbSpline
 62
7
  6
CONTINUOUS
 70
0
 71
3
 72
47
 73
43
 74
0
 42
0.0000001
 43
0.0000001
 44
0.0000000001
 40
0.0
 40
0.0
 40
0.0
 40
0.0
 40
0.0173869031
 40
0.0265241632
 40
0.035974874
 40
0.0457507008
 40
0.055860993
 40
0.0663129704
 40
0.0771119108
 40
0.0882613259
 40
0.0997631191
 40
0.1116177218
 40
0.123824222
 40
0.1363804861
 40
0.1492832618
 40
0.1625282654
 40
0.176110261
 40
0.1900231419
 40
0.2042599969
 40
0.2336729181
 40
0.2642812338
 40
0.2960060002
 40
0.3287599475
 40
0.3624486294
 40
0.3969713866
 40
0.4322222701
 40
0.4680908527
 40
0.5044630262
 40
0.5412217358
 40
0.5782477088
 40
0.6154201522
 40
0.6526174483
 40
0.6897178385
 40
0.7266001112
 40
0.7631442875
 40
0.7992323241
 40
0.8347488187
 40
0.8695817546
 40
0.9036232532
 40
0.9367703957
 40
0.9689260274
 40
1.0
 40
1.0
 40
1.0
 40
1.0
 10
15.7246335277
 20
11.3079837455
 30
0.0
 10
15.7146196042
 20
11.3146405669
 30
0.0
 10
15.6999488118
 20
11.3257343346
 30
0.0
 10
15.681303259
 20
11.3422150268
 30
0.0
 10
15.6672458438
 20
11.3559083794
 30
0.0
 10
15.6533638426
 20
11.3707133771
 30
0.0
 10
15.6396688008
 20
11.3866168837
 30
0.0
 10
15.6261739578
 20
11.4036032655
 30
0.0
 10
15.6128919034
 20
11.4216562992
 30
0.0
 10
15.5998352271
 20
11.4407586479
 30
0.0
 10
15.5870163152
 20
11.4608920144
 30
0.0
 10
15.5744473694
 20
11.4820370929
 30
0.0
 10
15.5621403745
 20
11.5041735962
 30
0.0
 10
15.5501070989
 20
11.5272802831
 30
0.0
 10
15.5383590779
 20
11.5513349738
 30
0.0
 10
15.5269075804
 20
11.5763145684
 30
0.0
 10
15.5157636245
 20
11.6021950319
 30
0.0
 10
15.5049378274
 20
11.6289515572
 30
0.0
 10
15.4907883092
 20
11.6661646215
 30
0.0
 10
15.474006812
 20
11.7147167614
 30
0.0
 10
15.4555102326
 20
11.7754252153
 30
0.0
 10
15.4385132682
 20
11.8389647395
 30
0.0
 10
15.4230815887
 20
11.9050906666
 30
0.0
 10
15.4092748473
 20
11.9735491946
 30
0.0
 10
15.3971464207
 20
12.0440770132
 30
0.0
 10
15.386743285
 20
12.1164027672
 30
0.0
 10
15.3781056903
 20
12.1902480168
 30
0.0
 10
15.3712671143
 20
12.2653283779
 30
0.0
 10
15.3662540259
 20
12.3413546292
 30
0.0
 10
15.3630858599
 20
12.4180338523
 30
0.0
 10
15.3617748807
 20
12.4950705768
 30
0.0
 10
15.3623261707
 20
12.5721679358
 30
0.0
 10
15.3647375965
 20
12.649028826
 30
0.0
 10
15.3689998078
 20
12.7253570674
 30
0.0
 10
15.3750963067
 20
12.8008585604
 30
0.0
 10
15.3830034587
 20
12.8752424399
 30
0.0
 10
15.3926906609
 20
12.9482222031
 30
0.0
 10
15.4041203783
 20
13.0195168806
 30
0.0
 10
15.4172483733
 20
13.0888519908
 30
0.0
 10
15.4320238963
 20
13.1559611314
 30
0.0
 10
15.4483895384
 20
13.2205853111
 30
0.0
 10
15.4605370596
 20
13.2626041631
 30
0.0
 10
15.4668820741
 20
13.2831366376
 30
0.0
  0
SPLINE
  5
2C4
100
AcDbEntity
  8
LAYER_CHAMFER_FEAT
100
AcDbSpline
 62
7
  6
CONTINUOUS
 70
0
 71
3
 72
39
 73
35
 74
0
 42
0.0000001
 43
0.0000001
 44
0.0000000001
 40
0.0
 40
0.0
 40
0.0
 40
0.0
 40
0.0439505371
 40
0.0865558924
 40
0.1278044862
 40
0.1676923344
 40
0.2062207586
 40
0.24339851
 40
0.2792420462
 40
0.3137765144
 40
0.3470366632
 40
0.3790678399
 40
0.4099270353
 40
0.4396839038
 40
0.4684216903
 40
0.4962379266
 40
0.5232447492
 40
0.5495686755
 40
0.575349661
 40
0.6007393101
 40
0.6258982117
 40
0.650992497
 40
0.6761898827
 40
0.7016555611
 40
0.7275483352
 40
0.7540173401
 40
0.781199568
 40
0.8092182829
 40
0.8381822571
 40
0.8681856907
 40
0.899308637
 40
0.9316177588
 40
0.9651672748
 40
1.0
 40
1.0
 40
1.0
 40
1.0
 10
16.1484702449
 20
13.4621555246
 30
0.0
 10
16.1442611238
 20
13.4707328116
 30
0.0
 10
16.1357375727
 20
13.4875113944
 30
0.0
 10
16.1224189149
 20
13.5118991799
 30
0.0
 10
16.1087793348
 20
13.5350906732
 30
0.0
 10
16.094835203
 20
13.5570579841
 30
0.0
 10
16.0806027932
 20
13.5777751606
 30
0.0
 10
16.0660988373
 20
13.5972175532
 30
0.0
 10
16.051340227
 20
13.6153620709
 30
0.0
 10
16.0363440838
 20
13.632187117
 30
0.0
 10
16.0211276922
 20
13.6476725895
 30
0.0
 10
16.0057084868
 20
13.6617998516
 30
0.0
 10
15.9901040476
 20
13.6745516968
 30
0.0
 10
15.9743321168
 20
13.6859123007
 30
0.0
 10
15.9584106592
 20
13.6958671861
 30
0.0
 10
15.942357956
 20
13.7044031973
 30
0.0
 10
15.9261927335
 20
13.7115085041
 30
0.0
 10
15.9099343203
 20
13.7171726895
 30
0.0
 10
15.8936027831
 20
13.7213869309
 30
0.0
 10
15.8772189866
 20
13.7241442647
 30
0.0
 10
15.8608045265
 20
13.7254399211
 30
0.0
 10
15.8443814976
 20
13.7252715929
 30
0.0
 10
15.8279721452
 20
13.7236395855
 30
0.0
 10
15.8115984759
 20
13.7205467967
 30
0.0
 10
15.7952819302
 20
13.7159985243
 30
0.0
 10
15.7790431941
 20
13.7100021714
 30
0.0
 10
15.762902155
 20
13.7025669543
 30
0.0
 10
15.7468779884
 20
13.6937036313
 30
0.0
 10
15.7309893052
 20
13.6834243487
 30
0.0
 10
15.7152542949
 20
13.6717425611
 30
0.0
 10
15.6996908895
 20
13.6586730713
 30
0.0
 10
15.6843167055
 20
13.6442319022
 30
0.0
 10
15.6691496407
 20
13.6284370145
 30
0.0
 10
15.6593735512
 20
13.6172299917
 30
0.0
 10
15.6545212456
 20
13.6114166832
 30
0.0
  0
SPLINE
  5
2C5
100
AcDbEntity
  8
LAYER_CHAMFER_FEAT
100
AcDbSpline
 62
7
  6
CONTINUOUS
 70
0
 71
3
 72
26
 73
22
 74
0
 42
0.0000001
 43
0.0000001
 44
0.0000000001
 40
0.0
 40
0.0
 40
0.0
 40
0.0
 40
0.0835128463
 40
0.1639116094
 40
0.2411719427
 40
0.3152898508
 40
0.3862843603
 40
0.4542005708
 40
0.5191131497
 40
0.5811302241
 40
0.6403975672
 40
0.6690620064
 40
0.697113238
 40
0.7514898348
 40
0.8038197076
 40
0.8544341929
 40
0.9037118422
 40
0.9279874371
 40
0.9520890838
 40
0.9760738842
 40
1.0
 40
1.0
 40
1.0
 40
1.0
 10
16.1301509896
 20
13.4498181258
 30
0.0
 10
16.1251338171
 20
13.4600420484
 30
0.0
 10
16.11495065
 20
13.4799463993
 30
0.0
 10
16.0989061433
 20
13.5086645098
 30
0.0
 10
16.0824063279
 20
13.5356339305
 30
0.0
 10
16.0654797615
 20
13.5608073691
 30
0.0
 10
16.0481552418
 20
13.5841412475
 30
0.0
 10
16.0304621375
 20
13.6055949398
 30
0.0
 10
16.0124298313
 20
13.6251312303
 30
0.0
 10
15.9940889677
 20
13.6427151188
 30
0.0
 10
15.9784006133
 20
13.6558594243
 30
0.0
 10
15.9657286956
 20
13.6653302445
 30
0.0
 10
15.9532529512
 20
13.6739301511
 30
0.0
 10
15.9375114433
 20
13.6834563173
 30
0.0
 10
15.9182380185
 20
13.6929450253
 30
0.0
 10
15.8988120949
 20
13.7003508646
 30
0.0
 10
15.8824394677
 20
13.7047939037
 30
0.0
 10
15.8693487987
 20
13.7072673477
 30
0.0
 10
15.8595645268
 20
13.7085869534
 30
0.0
 10
15.8497717451
 20
13.7093788726
 30
0.0
 10
15.8432367805
 20
13.7095549936
 30
0.0
 10
15.8399739844
 20
13.7095549929
 30
0.0
  0
SPLINE
  5
2C6
100
AcDbEntity
  8
02___PRT_ALL_AXES
100
AcDbSpline
 62
7
  6
CONTINUOUS
 70
0
 71
3
 72
47
 73
43
 74
0
 42
0.0000001
 43
0.0000001
 44
0.0000000001
 40
0.0
 40
0.0
 40
0.0
 40
0.0
 40
0.0173869031
 40
0.0265241632
 40
0.035974874
 40
0.0457507008
 40
0.055860993
 40
0.0663129704
 40
0.0771119108
 40
0.0882613259
 40
0.0997631191
 40
0.1116177218
 40
0.123824222
 40
0.1363804861
 40
0.1492832618
 40
0.1625282654
 40
0.176110261
 40
0.1900231419
 40
0.2042599969
 40
0.2336729181
 40
0.2642812338
 40
0.2960060002
 40
0.3287599475
 40
0.3624486294
 40
0.3969713866
 40
0.4322222701
 40
0.4680908527
 40
0.5044630262
 40
0.5412217358
 40
0.5782477088
 40
0.6154201522
 40
0.6526174483
 40
0.6897178385
 40
0.7266001112
 40
0.7631442875
 40
0.7992323241
 40
0.8347488187
 40
0.8695817546
 40
0.9036232532
 40
0.9367703957
 40
0.9689260274
 40
1.0
 40
1.0
 40
1.0
 40
1.0
 10
15.7326871334
 20
11.3026300698
 30
0.0
 10
15.7226286386
 20
11.3093165202
 30
0.0
 10
15.7078925475
 20
11.3204596655
 30
0.0
 10
15.6891640046
 20
11.3370137122
 30
0.0
 10
15.6750440208
 20
11.3507680129
 30
0.0
 10
15.6611002317
 20
11.3656389066
 30
0.0
 10
15.6473442342
 20
11.3816131987
 30
0.0
 10
15.6337893266
 20
11.3986751857
 30
0.0
 10
15.6204481547
 20
11.4168085723
 30
0.0
 10
15.607333364
 20
11.4359959442
 30
0.0
 10
15.594457396
 20
11.456218923
 30
0.0
 10
15.5818325067
 20
11.4774581167
 30
0.0
 10
15.5694707342
 20
11.4996931481
 30
0.0
 10
15.5573838993
 20
11.5229026813
 30
0.0
 10
15.5455835886
 20
11.5470644378
 30
0.0
 10
15.5340811213
 20
11.5721552149
 30
0.0
 10
15.5228875644
 20
11.5981508706
 30
0.0
 10
15.5120135824
 20
11.6250264874
 30
0.0
 10
15.4978010857
 20
11.6624051845
 30
0.0
 10
15.4809448952
 20
11.7111734266
 30
0.0
 10
15.4623659887
 20
11.7721520898
 30
0.0
 10
15.445293372
 20
11.8359744241
 30
0.0
 10
15.4297930071
 20
11.9023946732
 30
0.0
 10
15.4159248129
 20
11.9711579055
 30
0.0
 10
15.4037424035
 20
12.0419996386
 30
0.0
 10
15.3932929642
 20
12.1146473097
 30
0.0
 10
15.384616924
 20
12.1888212394
 30
0.0
 10
15.37774791
 20
12.2642357781
 30
0.0
 10
15.3727125088
 20
12.3406004172
 30
0.0
 10
15.3695302414
 20
12.4176209342
 30
0.0
 10
15.3682134271
 20
12.495000544
 30
0.0
 10
15.3687671709
 20
12.5724410581
 30
0.0
 10
15.3711893298
 20
12.6496440509
 30
0.0
 10
15.3754705119
 20
12.7263120241
 30
0.0
 10
15.381594146
 20
12.8021495691
 30
0.0
 10
15.3895364921
 20
12.8768645263
 30
0.0
 10
15.3992668114
 20
12.9501691175
 30
0.0
 10
15.4107474017
 20
13.0217811227
 30
0.0
 10
15.4239338285
 20
13.0914248388
 30
0.0
 10
15.4387751164
 20
13.1588326776
 30
0.0
 10
15.4552136008
 20
13.2237444952
 30
0.0
 10
15.4674151898
 20
13.2659503702
 30
0.0
 10
15.4737884455
 20
13.2865742333
 30
0.0
  0
SPLINE
  5
2C7
100
AcDbEntity
  8
LAYER_FEATURE
100
AcDbSpline
 62
7
  6
CONTINUOUS
 70
0
 71
3
 72
11
 73
7
 74
0
 42
0.0000001
 43
0.0000001
 44
0.0000000001
 40
0.0
 40
0.0
 40
0.0
 40
0.0
 40
0.2221057691
 40
0.4624484853
 40
0.7217073982
 40
1.0
 40
1.0
 40
1.0
 40
1.0
 10
14.6628810973
 20
13.0856634703
 30
0.0
 10
14.663311514
 20
13.0860657647
 30
0.0
 10
14.6641587098
 20
13.0869566397
 30
0.0
 10
14.6653396212
 20
13.0884663419
 30
0.0
 10
14.6664736854
 20
13.0901925775
 30
0.0
 10
14.6671703066
 20
13.0914381067
 30
0.0
 10
14.667511101
 20
13.0920929235
 30
0.0
  0
SPLINE
  5
2C8
100
AcDbEntity
  8
LAYER_FEATURE
100
AcDbSpline
 62
7
  6
CONTINUOUS
 70
0
 71
3
 72
16
 73
12
 74
0
 42
0.0000001
 43
0.0000001
 44
0.0000000001
 40
0.0
 40
0.0
 40
0.0
 40
0.0
 40
0.0390682438
 40
0.0791365604
 40
0.1655947211
 40
0.2650943232
 40
0.3804550253
 40
0.5125275613
 40
0.6608360249
 40
0.8239968482
 40
1.0
 40
1.0
 40
1.0
 40
1.0
 10
14.6434666534
 20
13.0856933717
 30
0.0
 10
14.6433849247
 20
13.0856933771
 30
0.0
 10
14.6432190151
 20
13.0856785489
 30
0.0
 10
14.6428830411
 20
13.0855881933
 30
0.0
 10
14.6424640467
 20
13.0853536065
 30
0.0
 10
14.642003957
 20
13.0849164178
 30
0.0
 10
14.6415747347
 20
13.0843274736
 30
0.0
 10
14.6411819483
 20
13.0835965166
 30
0.0
 10
14.6408314734
 20
13.0827358668
 30
0.0
 10
14.6405295879
 20
13.0817607381
 30
0.0
 10
14.6403697115
 20
13.0810688096
 30
0.0
 10
14.6402980373
 20
13.0807076637
 30
0.0
  0
SPLINE
  5
2C9
100
AcDbEntity
  8
LAYER_FEATURE
100
AcDbSpline
 62
7
  6
CONTINUOUS
 70
0
 71
3
 72
15
 73
11
 74
0
 42
0.0000001
 43
0.0000001
 44
0.0000000001
 40
0.0
 40
0.0
 40
0.0
 40
0.0
 40
0.0821284159
 40
0.1709215602
 40
0.2713726457
 40
0.386383084
 40
0.5171516275
 40
0.6636699445
 40
0.8251034249
 40
1.0
 40
1.0
 40
1.0
 40
1.0
 10
14.6677935739
 20
13.2058845014
 30
0.0
 10
14.6676439267
 20
13.2058844993
 30
0.0
 10
14.6673306702
 20
13.2058319631
 30
0.0
 10
14.6668844235
 20
13.205605984
 30
0.0
 10
14.6664597381
 20
13.2052434663
 30
0.0
 10
14.6660596184
 20
13.2047524424
 30
0.0
 10
14.6656875096
 20
13.2041400859
 30
0.0
 10
14.6653480457
 20
13.2034149657
 30
0.0
 10
14.665046073
 20
13.2025876413
 30
0.0
 10
14.6648788376
 20
13.2019974876
 30
0.0
 10
14.6648014909
 20
13.201688335
 30
0.0
  0
SPLINE
  5
2CA
100
AcDbEntity
  8
02___PRT_ALL_AXES
100
AcDbSpline
 62
7
  6
CONTINUOUS
 70
0
 71
3
 72
21
 73
17
 74
0
 42
0.0000001
 43
0.0000001
 44
0.0000000001
 40
0.0
 40
0.0
 40
0.0
 40
0.0
 40
0.1741564105
 40
0.3347248536
 40
0.409523931
 40
0.4805010563
 40
0.5475932129
 40
0.6107865774
 40
0.6701276858
 40
0.7257343235
 40
0.7778092732
 40
0.8266564177
 40
0.872695286
 40
0.9164702999
 40
0.95864883
 40
1.0
 40
1.0
 40
1.0
 40
1.0
 10
15.6124175524
 20
13.1219609567
 30
0.0
 10
15.6118798599
 20
13.1239567217
 30
0.0
 10
15.610727002
 20
13.1277619077
 30
0.0
 10
15.6089750343
 20
13.1323018365
 30
0.0
 10
15.6074374469
 20
13.1355978481
 30
0.0
 10
15.6062569272
 20
13.1378327467
 30
0.0
 10
15.6050260464
 20
13.1398813847
 30
0.0
 10
15.6037490088
 20
13.1417364713
 30
0.0
 10
15.6024301892
 20
13.1433914294
 30
0.0
 10
15.6010739441
 20
13.1448403548
 30
0.0
 10
15.5996845953
 20
13.1460779327
 30
0.0
 10
15.5982664486
 20
13.1470993583
 30
0.0
 10
15.596823962
 20
13.1479001931
 30
0.0
 10
15.5953617787
 20
13.1484762442
 30
0.0
 10
15.5938859314
 20
13.1488237269
 30
0.0
 10
15.5928929296
 20
13.148901443
 30
0.0
 10
15.5924021645
 20
13.1489014395
 30
0.0
  0
SPLINE
  5
2CB
100
AcDbEntity
  8
LAYER_FEATURE
100
AcDbSpline
 62
7
  6
CONTINUOUS
 70
0
 71
3
 72
15
 73
11
 74
0
 42
0.0000001
 43
0.0000001
 44
0.0000000001
 40
0.0
 40
0.0
 40
0.0
 40
0.0
 40
0.085851709
 40
0.1774225667
 40
0.2792248012
 40
0.3941414306
 40
0.5236377513
 40
0.6681055709
 40
0.8272097206
 40
1.0
 40
1.0
 40
1.0
 40
1.0
 10
14.6966598442
 20
13.319258362
 30
0.0
 10
14.696525376
 20
13.3192583532
 30
0.0
 10
14.6962460806
 20
13.3192165714
 30
0.0
 10
14.6958435496
 20
13.3190346482
 30
0.0
 10
14.6954566355
 20
13.3187403418
 30
0.0
 10
14.6950881869
 20
13.31833953
 30
0.0
 10
14.6947408086
 20
13.3178373572
 30
0.0
 10
14.694417846
 20
13.317239622
 30
0.0
 10
14.6941229687
 20
13.3165533771
 30
0.0
 10
14.6939539364
 20
13.3160612713
 30
0.0
 10
14.693874031
 20
13.3158026973
 30
0.0
  0
SPLINE
  5
2CC
100
AcDbEntity
  8
02___PRT_ALL_AXES
100
AcDbSpline
 62
7
  6
CONTINUOUS
 70
0
 71
3
 72
23
 73
19
 74
0
 42
0.0000001
 43
0.0000001
 44
0.0000000001
 40
0.0
 40
0.0
 40
0.0
 40
0.0
 40
0.0796432477
 40
0.1571993418
 40
0.2325913126
 40
0.3057502584
 40
0.3766159763
 40
0.4451379908
 40
0.5112765793
 40
0.5750040136
 40
0.6363059736
 40
0.6951831914
 40
0.7516533467
 40
0.8057532416
 40
0.8575412611
 40
0.9071000973
 40
0.9545396584
 40
1.0
 40
1.0
 40
1.0
 40
1.0
 10
15.4737884455
 20
13.2865742333
 30
0.0
 10
15.4778071847
 20
13.2995788781
 30
0.0
 10
15.4860361447
 20
13.325156942
 30
0.0
 10
15.4991394271
 20
13.3626905323
 30
0.0
 10
15.5128220285
 20
13.3988348813
 30
0.0
 10
15.5270615881
 20
13.4335309562
 30
0.0
 10
15.5418349858
 20
13.4667224754
 30
0.0
 10
15.5571182493
 20
13.498355561
 30
0.0
 10
15.5728866536
 20
13.5283789458
 30
0.0
 10
15.5891147716
 20
13.5567440232
 30
0.0
 10
15.6057765467
 20
13.5834049262
 30
0.0
 10
15.6228453741
 20
13.6083185855
 30
0.0
 10
15.6402941664
 20
13.6314447573
 30
0.0
 10
15.6580955051
 20
13.6527460769
 30
0.0
 10
15.6762214978
 20
13.6721878938
 30
0.0
 10
15.6946446337
 20
13.6897387128
 30
0.0
 10
15.7133350472
 20
13.7053683223
 30
0.0
 10
15.7262169025
 20
13.7146787911
 30
0.0
 10
15.7326871331
 20
13.7189799191
 30
0.0
  0
SPLINE
  5
2CD
100
AcDbEntity
  8
LAYER_CHAMFER_FEAT
100
AcDbSpline
 62
7
  6
CONTINUOUS
 70
0
 71
3
 72
75
 73
71
 74
0
 42
0.0000001
 43
0.0000001
 44
0.0000000001
 40
0.0
 40
0.0
 40
0.0
 40
0.0
 40
0.0113885627
 40
0.0222285462
 40
0.0325472125
 40
0.037522995
 40
0.0423828644
 40
0.0517774907
 40
0.0607899133
 40
0.0651749624
 40
0.0694907008
 40
0.0737471659
 40
0.0779549466
 40
0.0821251039
 40
0.086269078
 40
0.0903985821
 40
0.0945254817
 40
0.0986616703
 40
0.1028189435
 40
0.1070088735
 40
0.111242702
 40
0.1155312317
 40
0.119884753
 40
0.1288221863
 40
0.1381279575
 40
0.147861187
 40
0.1580702865
 40
0.1687935777
 40
0.1800601984
 40
0.1918911101
 40
0.2043000844
 40
0.2172946094
 40
0.2308766887
 40
0.2450435316
 40
0.2597881412
 40
0.2750998134
 40
0.2909645619
 40
0.3073654791
 40
0.3242830479
 40
0.3416954109
 40
0.3595786075
 40
0.3779067842
 40
0.3966523836
 40
0.415786316
 40
0.4352781181
 40
0.4550961001
 40
0.4752074848
 40
0.4955785392
 40
0.5161747013
 40
0.5369607021
 40
0.5789566164
 40
0.6212761895
 40
0.6636236319
 40
0.7057028193
 40
0.7265509361
 40
0.7472226305
 40
0.7676823986
 40
0.7878953982
 40
0.80782757
 40
0.8274457623
 40
0.8467178607
 40
0.865612924
 40
0.8841013285
 40
0.9021549217
 40
0.919747188
 40
0.9368534339
 40
0.9534509791
 40
0.969519417
 40
0.9850407698
 40
1.0
 40
1.0
 40
1.0
 40
1.0
 10
15.6545212455
 20
11.4101933021
 30
0.0
 10
15.6608538511
 20
11.4026065176
 30
0.0
 10
15.6736386931
 20
11.3881444646
 30
0.0
 10
15.693677683
 20
11.3682144534
 30
0.0
 10
15.7108674194
 20
11.353386446
 30
0.0
 10
15.7247683047
 20
11.3427667756
 30
0.0
 10
15.7384365096
 20
11.3331872607
 30
0.0
 10
15.7556988143
 20
11.3226623335
 30
0.0
 10
15.7735085866
 20
11.3139826623
 30
0.0
 10
15.7878076842
 20
11.3083280994
 30
0.0
 10
15.7984712781
 20
11.3047462425
 30
0.0
 10
15.8091648509
 20
11.3017877097
 30
0.0
 10
15.8198829593
 20
11.299454103
 30
0.0
 10
15.8306198194
 20
11.2977468764
 30
0.0
 10
15.8413696616
 20
11.2966671
 30
0.0
 10
15.852126645
 20
11.2962153976
 30
0.0
 10
15.862884912
 20
11.2963921272
 30
0.0
 10
15.8736386015
 20
11.2971970856
 30
0.0
 10
15.8843818522
 20
11.2986298701
 30
0.0
 10
15.8951088875
 20
11.3006894962
 30
0.0
 10
15.905813866
 20
11.3033747636
 30
0.0
 10
15.9164913718
 20
11.3066841255
 30
0.0
 10
15.9308067779
 20
11.3119712801
 30
0.0
 10
15.9486472689
 20
11.3201935837
 30
0.0
 10
15.9696504623
 20
11.3324331234
 30
0.0
 10
15.9903988473
 20
11.3471016447
 30
0.0
 10
16.0108512367
 20
11.3641647265
 30
0.0
 10
16.0309696051
 20
11.3835853533
 30
0.0
 10
16.0507155485
 20
11.4053226662
 30
0.0
 10
16.0700510778
 20
11.4293318809
 30
0.0
 10
16.0889384155
 20
11.4555639725
 30
0.0
 10
16.1073402101
 20
11.4839655641
 30
0.0
 10
16.1252196832
 20
11.5144788829
 30
0.0
 10
16.1425408026
 20
11.5470417937
 30
0.0
 10
16.1592684357
 20
11.5815878803
 30
0.0
 10
16.1753684869
 20
11.6180465619
 30
0.0
 10
16.1908080187
 20
11.6563432324
 30
0.0
 10
16.2055553575
 20
11.6963994167
 30
0.0
 10
16.2195801878
 20
11.7381329386
 30
0.0
 10
16.2328536355
 20
11.7814580975
 30
0.0
 10
16.2453483433
 20
11.8262858537
 30
0.0
 10
16.2570385371
 20
11.8725240201
 30
0.0
 10
16.2679000876
 20
11.9200774597
 30
0.0
 10
16.2779105652
 20
11.9688482877
 30
0.0
 10
16.2870492917
 20
12.0187360804
 30
0.0
 10
16.2952973825
 20
12.0696380809
 30
0.0
 10
16.3026377983
 20
12.1214494377
 30
0.0
 10
16.3090553435
 20
12.1740633389
 30
0.0
 10
16.3145368421
 20
12.2273715609
 30
0.0
 10
16.320602388
 20
12.2994711782
 30
0.0
 10
16.3257562333
 20
12.3905483007
 30
0.0
 10
16.328060223
 20
12.5004577238
 30
0.0
 10
16.3264848426
 20
12.6104522399
 30
0.0
 10
16.3219366731
 20
12.7017119993
 30
0.0
 10
16.316352858
 20
12.7740427602
 30
0.0
 10
16.3112262867
 20
12.8275835773
 30
0.0
 10
16.3051591788
 20
12.8804712163
 30
0.0
 10
16.2981639884
 20
12.9325968858
 30
0.0
 10
16.290255197
 20
12.9838531187
 30
0.0
 10
16.2814491441
 20
13.0341343261
 30
0.0
 10
16.2717640284
 20
13.0833369315
 30
0.0
 10
16.2612198586
 20
13.1313596111
 30
0.0
 10
16.2498384121
 20
13.1781035009
 30
0.0
 10
16.2376431849
 20
13.2234724082
 30
0.0
 10
16.2246593428
 20
13.2673730115
 30
0.0
 10
16.2109136468
 20
13.3097150758
 30
0.0
 10
16.1964344378
 20
13.3504115848
 30
0.0
 10
16.1812514044
 20
13.3893791698
 30
0.0
 10
16.1653960519
 20
13.4265373103
 30
0.0
 10
16.1541888401
 20
13.4505022528
 30
0.0
 10
16.1484702449
 20
13.4621555246
 30
0.0
  0
SPLINE
  5
2CE
100
AcDbEntity
  8
LAYER_FEATURE
100
AcDbSpline
 62
7
  6
CONTINUOUS
 70
0
 71
3
 72
78
 73
74
 74
0
 42
0.0000001
 43
0.0000001
 44
0.0000000001
 40
0.0
 40
0.0
 40
0.0
 40
0.0
 40
0.0173115679
 40
0.0340660427
 40
0.0502396574
 40
0.0658116535
 40
0.0807650234
 40
0.0950868833
 40
0.1087690777
 40
0.1218088659
 40
0.1342097462
 40
0.1459824368
 40
0.1571460216
 40
0.1677292405
 40
0.177771872
 40
0.187326073
 40
0.1964574288
 40
0.2008905554
 40
0.2052488905
 40
0.2095443876
 40
0.2137896807
 40
0.2179979819
 40
0.2221829426
 40
0.2263584992
 40
0.2305387055
 40
0.2347375574
 40
0.2389688212
 40
0.2432458724
 40
0.2475815572
 40
0.251988067
 40
0.2564768537
 40
0.2657399337
 40
0.2754490764
 40
0.2856653418
 40
0.2964366565
 40
0.3077989945
 40
0.3197777521
 40
0.3323891101
 40
0.3456412803
 40
0.3595355974
 40
0.3740674458
 40
0.3892270369
 40
0.4050000588
 40
0.4213682268
 40
0.4383097484
 40
0.4557997176
 40
0.4738104539
 40
0.492311801
 40
0.5112713952
 40
0.5306549051
 40
0.5504262493
 40
0.5705477965
 40
0.5909805586
 40
0.6116843709
 40
0.6326180646
 40
0.6537396325
 40
0.6750063911
 40
0.6963751404
 40
0.7178023205
 40
0.739244166
 40
0.7606568596
 40
0.7819966866
 40
0.8032201893
 40
0.8242843208
 40
0.8451466035
 40
0.8657652895
 40
0.8860995234
 40
0.9061095101
 40
0.9257566896
 40
0.9450039192
 40
0.963815692
 40
0.9821582229
 40
1.0
 40
1.0
 40
1.0
 40
1.0
 10
15.4245227939
 20
13.3694557751
 30
0.0
 10
15.4299098535
 20
13.3868883064
 30
0.0
 10
15.4409909105
 20
13.4210465932
 30
0.0
 10
15.4588476288
 20
13.4709048367
 30
0.0
 10
15.4776341009
 20
13.518455664
 30
0.0
 10
15.4973052587
 20
13.5635849444
 30
0.0
 10
15.5178141611
 20
13.6061850465
 30
0.0
 10
15.5391120891
 20
13.6461544792
 30
0.0
 10
15.5611487499
 20
13.683398256
 30
0.0
 10
15.5838725404
 20
13.7178280345
 30
0.0
 10
15.6072308353
 20
13.7493622438
 30
0.0
 10
15.6311702688
 20
13.7779260775
 30
0.0
 10
15.6556371208
 20
13.8034513972
 30
0.0
 10
15.6805771609
 20
13.8258762465
 30
0.0
 10
15.7059369286
 20
13.8451446575
 30
0.0
 10
15.7316587081
 20
13.8612045331
 30
0.0
 10
15.753568102
 20
13.8719818141
 30
0.0
 10
15.7711608724
 20
13.8788852454
 30
0.0
 10
15.7842744214
 20
13.883187462
 30
0.0
 10
15.7974267242
 20
13.886661232
 30
0.0
 10
15.8106099534
 20
13.8893042174
 30
0.0
 10
15.8238157109
 20
13.8911144657
 30
0.0
 10
15.8370356244
 20
13.8920906576
 30
0.0
 10
15.8502612228
 20
13.8922319969
 30
0.0
 10
15.8634840115
 20
13.891538454
 30
0.0
 10
15.8766955104
 20
13.8900104905
 30
0.0
 10
15.8898872865
 20
13.8876492716
 30
0.0
 10
15.9030510356
 20
13.8844565505
 30
0.0
 10
15.9161784355
 20
13.8804346169
 30
0.0
 10
15.9292617228
 20
13.8755861757
 30
0.0
 10
15.9468178248
 20
13.8679454378
 30
0.0
 10
15.968659646
 20
13.8562512839
 30
0.0
 10
15.9942672479
 20
13.8391252255
 30
0.0
 10
16.0194944267
 20
13.8188069952
 30
0.0
 10
16.0442839168
 20
13.795350356
 30
0.0
 10
16.0685823351
 20
13.768813043
 30
0.0
 10
16.0923355164
 20
13.7392590396
 30
0.0
 10
16.1154898566
 20
13.7067586526
 30
0.0
 10
16.1379921927
 20
13.6713889213
 30
0.0
 10
16.1597902059
 20
13.6332336609
 30
0.0
 10
16.1808326963
 20
13.5923834283
 30
0.0
 10
16.2010698625
 20
13.5489353808
 30
0.0
 10
16.2204535546
 20
13.5029930829
 30
0.0
 10
16.2389374596
 20
13.4546662481
 30
0.0
 10
16.2564772809
 20
13.4040704639
 30
0.0
 10
16.2730308885
 20
13.3513269005
 30
0.0
 10
16.2885584637
 20
13.2965620103
 30
0.0
 10
16.3030226207
 20
13.2399072074
 30
0.0
 10
16.3163885001
 20
13.1814985304
 30
0.0
 10
16.3286238686
 20
13.1214763021
 30
0.0
 10
16.3396992019
 20
13.0599847839
 30
0.0
 10
16.3495877776
 20
12.9971718234
 30
0.0
 10
16.3582657301
 20
12.9331884866
 30
0.0
 10
16.3657121095
 20
12.8681886853
 30
0.0
 10
16.3719089331
 20
12.8023288019
 30
0.0
 10
16.3768412352
 20
12.7357673099
 30
0.0
 10
16.3804971123
 20
12.6686643887
 30
0.0
 10
16.3828677371
 20
12.6011815316
 30
0.0
 10
16.3839473839
 20
12.5334811533
 30
0.0
 10
16.3837334392
 20
12.4657261969
 30
0.0
 10
16.3822264224
 20
12.3980797381
 30
0.0
 10
16.3794299773
 20
12.3307045891
 30
0.0
 10
16.3753508568
 20
12.2637629033
 30
0.0
 10
16.3699989078
 20
12.197415783
 30
0.0
 10
16.3633870487
 20
12.1318228865
 30
0.0
 10
16.3555312504
 20
12.0671420382
 30
0.0
 10
16.3464504806
 20
12.0035288441
 30
0.0
 10
16.3361666615
 20
11.9411363201
 30
0.0
 10
16.3247046032
 20
11.8801144989
 30
0.0
 10
16.3120919804
 20
11.8206101109
 30
0.0
 10
16.2983591724
 20
11.762766052
 30
0.0
 10
16.2835394805
 20
11.7067217789
 30
0.0
 10
16.272804051
 20
11.6701206562
 30
0.0
 10
16.2672519994
 20
11.6521542108
 30
0.0
  0
SPLINE
  5
2CF
100
AcDbEntity
  8
LAYER_FEATURE
100
AcDbSpline
 62
7
  6
CONTINUOUS
 70
0
 71
3
 72
35
 73
31
 74
0
 42
0.0000001
 43
0.0000001
 44
0.0000000001
 40
0.0
 40
0.0
 40
0.0
 40
0.0
 40
0.0879660256
 40
0.1726596292
 40
0.2539260382
 40
0.2932345385
 40
0.3316399259
 40
0.3691306809
 40
0.4056974107
 40
0.4413330071
 40
0.4760328805
 40
0.5097951444
 40
0.5426208216
 40
0.5745141239
 40
0.6054827476
 40
0.6355381388
 40
0.6646958309
 40
0.6929758371
 40
0.7204029924
 40
0.7728096573
 40
0.7978812372
 40
0.82225512
 40
0.8459856999
 40
0.8691340408
 40
0.8917678177
 40
0.9139610836
 40
0.9357938166
 40
0.9573511729
 40
0.9787224787
 40
1.0
 40
1.0
 40
1.0
 40
1.0
 10
15.4171565958
 20
13.4113624344
 30
0.0
 10
15.4236159167
 20
13.4322648047
 30
0.0
 10
15.436950882
 20
13.4730934172
 30
0.0
 10
15.4586478554
 20
13.5324157569
 30
0.0
 10
15.4779890686
 20
13.5796776967
 30
0.0
 10
15.4941024244
 20
13.6157875154
 30
0.0
 10
15.506342117
 20
13.6416963676
 30
0.0
 10
15.5188605403
 20
13.6667115348
 30
0.0
 10
15.5316479473
 20
13.690813394
 30
0.0
 10
15.5446942786
 20
13.7139829327
 30
0.0
 10
15.5579892933
 20
13.7362019222
 30
0.0
 10
15.571522564
 20
13.757452885
 30
0.0
 10
15.5852835181
 20
13.7777190932
 30
0.0
 10
15.5992614311
 20
13.7969846035
 30
0.0
 10
15.6134453904
 20
13.8152342533
 30
0.0
 10
15.6278244568
 20
13.8324537388
 30
0.0
 10
15.642387289
 20
13.8486292358
 30
0.0
 10
15.6571234803
 20
13.863748801
 30
0.0
 10
15.6766879446
 20
13.8822013751
 30
0.0
 10
15.6968442279
 20
13.8988421728
 30
0.0
 10
15.7175646913
 20
13.9134305592
 30
0.0
 10
15.7329923832
 20
13.9231025104
 30
0.0
 10
15.7485229638
 20
13.9316572429
 30
0.0
 10
15.7641448316
 20
13.9390876293
 30
0.0
 10
15.7798456068
 20
13.9453869667
 30
0.0
 10
15.7956128418
 20
13.9505494188
 30
0.0
 10
15.8114336484
 20
13.9545700472
 30
0.0
 10
15.8272952412
 20
13.9574448905
 30
0.0
 10
15.8431831859
 20
13.9591710037
 30
0.0
 10
15.8537941578
 20
13.9595549804
 30
0.0
 10
15.859086
 20
13.9595549847
 30
0.0
  0
SPLINE
  5
2D0
100
AcDbEntity
  8
LAYER_CHAMFER_FEAT
100
AcDbSpline
 62
7
  6
CONTINUOUS
 70
0
 71
3
 72
59
 73
55
 74
0
 42
0.0000001
 43
0.0000001
 44
0.0000000001
 40
0.0
 40
0.0
 40
0.0
 40
0.0
 40
0.0077261687
 40
0.0155162793
 40
0.0234323509
 40
0.0315327828
 40
0.0398710466
 40
0.0484948414
 40
0.0574456914
 40
0.0667589094
 40
0.0764638227
 40
0.0865841621
 40
0.0971385323
 40
0.1081409073
 40
0.1196011126
 40
0.1315252726
 40
0.1439162154
 40
0.1567738312
 40
0.170095387
 40
0.1838757998
 40
0.1981078754
 40
0.212782515
 40
0.2278888967
 40
0.2434146339
 40
0.2593459161
 40
0.2756676334
 40
0.2923634889
 40
0.3094161002
 40
0.3268070918
 40
0.3445171804
 40
0.3808119933
 40
0.4181326028
 40
0.4562995893
 40
0.4951256854
 40
0.5344176795
 40
0.5739782382
 40
0.6136076808
 40
0.6531057284
 40
0.6922732455
 40
0.7309139938
 40
0.7688364191
 40
0.8058554951
 40
0.823971448
 40
0.8417961617
 40
0.8593092342
 40
0.8764910626
 40
0.8933229215
 40
0.9097870447
 40
0.9258667179
 40
0.941546368
 40
0.9568116979
 40
0.9716497303
 40
0.9860491286
 40
1.0
 40
1.0
 40
1.0
 40
1.0
 10
15.8399739844
 20
11.3120549929
 30
0.0
 10
15.8459871877
 20
11.3120549942
 30
0.0
 10
15.8580717989
 20
11.3126564294
 30
0.0
 10
15.8761357553
 20
11.3153570037
 30
0.0
 10
15.894139782
 20
11.3198509191
 30
0.0
 10
15.9120523466
 20
11.3261282732
 30
0.0
 10
15.9298463986
 20
11.3341762351
 30
0.0
 10
15.9474954086
 20
11.3439796098
 30
0.0
 10
15.964974118
 20
11.3555211885
 30
0.0
 10
15.9822579134
 20
11.3687818863
 30
0.0
 10
15.9993226442
 20
11.3837407295
 30
0.0
 10
16.0161444307
 20
11.4003747665
 30
0.0
 10
16.0326995926
 20
11.4186589605
 30
0.0
 10
16.0489646352
 20
11.4385660961
 30
0.0
 10
16.0649162804
 20
11.460066716
 30
0.0
 10
16.0805315191
 20
11.4831290863
 30
0.0
 10
16.0957876743
 20
11.5077191912
 30
0.0
 10
16.1106624635
 20
11.533800749
 30
0.0
 10
16.1251340605
 20
11.5613352456
 30
0.0
 10
16.1391811513
 20
11.5902819802
 30
0.0
 10
16.1527829861
 20
11.6205981198
 30
0.0
 10
16.1659194265
 20
11.6522387616
 30
0.0
 10
16.1785709877
 20
11.685157
 30
0.0
 10
16.1907188776
 20
11.719303998
 30
0.0
 10
16.2023450329
 20
11.7546290631
 30
0.0
 10
16.2134321493
 20
11.7910797221
 30
0.0
 10
16.2239637221
 20
11.8286018149
 30
0.0
 10
16.2339240333
 20
11.8671395267
 30
0.0
 10
16.2432983355
 20
11.9066356697
 30
0.0
 10
16.2550931218
 20
11.9609390633
 30
0.0
 10
16.2682371221
 20
12.0308080449
 30
0.0
 10
16.2813472516
 20
12.1168299507
 30
0.0
 10
16.2918422167
 20
12.2051938102
 30
0.0
 10
16.2996591553
 20
12.2953739134
 30
0.0
 10
16.3047512212
 20
12.3868346799
 30
0.0
 10
16.3070878939
 20
12.4790324192
 30
0.0
 10
16.3066551689
 20
12.5714190488
 30
0.0
 10
16.3034556423
 20
12.6634453381
 30
0.0
 10
16.2975084905
 20
12.7545641699
 30
0.0
 10
16.2888493605
 20
12.8442342336
 30
0.0
 10
16.2775301185
 20
12.931921945
 30
0.0
 10
16.2658547937
 20
13.0034164335
 30
0.0
 10
16.2552083467
 20
13.0591959806
 30
0.0
 10
16.2466627795
 20
13.0999139177
 30
0.0
 10
16.2375121992
 20
13.1397545847
 30
0.0
 10
16.2277701645
 20
13.1786588347
 30
0.0
 10
16.2174512209
 20
13.2165687718
 30
0.0
 10
16.2065707403
 20
13.2534280396
 30
0.0
 10
16.1951449305
 20
13.2891818453
 30
0.0
 10
16.1831907991
 20
13.3237770909
 30
0.0
 10
16.1707261383
 20
13.3571623474
 30
0.0
 10
16.1577694199
 20
13.3892882418
 30
0.0
 10
16.1443400592
 20
13.4201066585
 30
0.0
 10
16.1349343274
 20
13.4400707082
 30
0.0
 10
16.1301509896
 20
13.4498181258
 30
0.0
  0
SPLINE
  5
2D1
100
AcDbEntity
  8
LAYER_FEATURE
100
AcDbSpline
 62
7
  6
CONTINUOUS
 70
0
 71
3
 72
54
 73
50
 74
0
 42
0.0000001
 43
0.0000001
 44
0.0000000001
 40
0.0
 40
0.0
 40
0.0
 40
0.0
 40
0.0330500869
 40
0.0673809189
 40
0.1028689286
 40
0.1393805316
 40
0.1767738172
 40
0.214899975
 40
0.2536046397
 40
0.2927291642
 40
0.332111844
 40
0.3715891169
 40
0.4109967451
 40
0.4501709878
 40
0.4889497815
 40
0.5271739361
 40
0.5646883551
 40
0.6013432992
 40
0.6369957215
 40
0.6544041318
 40
0.6715120649
 40
0.6883041821
 40
0.7047658562
 40
0.7208832323
 40
0.736643294
 40
0.7520339335
 40
0.7670440292
 40
0.7816635318
 40
0.7958835594
 40
0.8096965048
 40
0.823096156
 40
0.8360778326
 40
0.8486385411
 40
0.8607771491
 40
0.8724945842
 40
0.8837940579
 40
0.894681319
 40
0.9051649339
 40
0.9152565937
 40
0.9249714414
 40
0.9343284073
 40
0.9433505306
 40
0.9520652387
 40
0.9605045419
 40
0.9687050894
 40
0.9767080294
 40
0.9845586188
 40
0.9923055502
 40
1.0
 40
1.0
 40
1.0
 40
1.0
 10
14.6694118496
 20
13.4113624344
 30
0.0
 10
14.66105204
 20
13.3843100804
 30
0.0
 10
14.6451463766
 20
13.3288000942
 30
0.0
 10
14.6240429155
 20
13.2432161848
 30
0.0
 10
14.6053162605
 20
13.1540487051
 30
0.0
 10
14.5890590498
 20
13.0617347455
 30
0.0
 10
14.5753511662
 20
12.9667247991
 30
0.0
 10
14.5642601553
 20
12.8694835529
 30
0.0
 10
14.5558406474
 20
12.7704866519
 30
0.0
 10
14.5501341426
 20
12.6702185556
 30
0.0
 10
14.5471687681
 20
12.5691700481
 30
0.0
 10
14.5469591296
 20
12.4678358061
 30
0.0
 10
14.5495062598
 20
12.3667119256
 30
0.0
 10
14.5547976131
 20
12.2662934623
 30
0.0
 10
14.5628071116
 20
12.1670719348
 30
0.0
 10
14.5734952751
 20
12.0695329778
 30
0.0
 10
14.5868094467
 20
11.9741535241
 30
0.0
 10
14.6026840443
 20
11.8814008231
 30
0.0
 10
14.6181012843
 20
11.8060856953
 30
0.0
 10
14.6316866644
 20
11.7475233609
 30
0.0
 10
14.6423827146
 20
11.7048851121
 30
0.0
 10
14.6536531044
 20
11.6632347229
 30
0.0
 10
14.6654841019
 20
11.6226230718
 30
0.0
 10
14.6778611774
 20
11.5830999002
 30
0.0
 10
14.6907691662
 20
11.5447135617
 30
0.0
 10
14.7041922522
 20
11.5075110104
 30
0.0
 10
14.7181140026
 20
11.47153773
 30
0.0
 10
14.7325173881
 20
11.4368376806
 30
0.0
 10
14.7473848096
 20
11.4034532428
 30
0.0
 10
14.7626981252
 20
11.3714251647
 30
0.0
 10
14.7784386803
 20
11.3407925116
 30
0.0
 10
14.7945873404
 20
11.311592618
 30
0.0
 10
14.8111245222
 20
11.2838610418
 30
0.0
 10
14.8280302348
 20
11.2576315284
 30
0.0
 10
14.8452841208
 20
11.2329359804
 30
0.0
 10
14.8628654979
 20
11.209804435
 30
0.0
 10
14.8807534031
 20
11.1882650518
 30
0.0
 10
14.8989266341
 20
11.1683441144
 30
0.0
 10
14.9173637861
 20
11.1500660477
 30
0.0
 10
14.9360432722
 20
11.1334534512
 30
0.0
 10
14.9549433207
 20
11.1185271474
 30
0.0
 10
14.9740419412
 20
11.1053062481
 30
0.0
 10
14.9933168429
 20
11.0938082101
 30
0.0
 10
15.0127452747
 20
11.0840488595
 30
0.0
 10
15.0323039114
 20
11.0760423475
 30
0.0
 10
15.0519683913
 20
11.0698009995
 30
0.0
 10
15.0717141088
 20
11.0653350454
 30
0.0
 10
15.0915127477
 20
11.0626522225
 30
0.0
 10
15.1047492825
 20
11.0620550075
 30
0.0
 10
15.1113412539
 20
11.062055001
 30
0.0
  0
SPLINE
  5
2D2
100
AcDbEntity
  8
LAYER_FEATURE
100
AcDbSpline
 62
7
  6
CONTINUOUS
 70
0
 71
3
 72
38
 73
34
 74
0
 42
0.0000001
 43
0.0000001
 44
0.0000000001
 40
0.0
 40
0.0
 40
0.0
 40
0.0
 40
0.0914650225
 40
0.1357263749
 40
0.178968875
 40
0.2211674417
 40
0.2623000776
 40
0.3023476231
 40
0.3412940702
 40
0.3791268604
 40
0.415837182
 40
0.4514203434
 40
0.4858761809
 40
0.5192094961
 40
0.5514305575
 40
0.5825556604
 40
0.6126077507
 40
0.6416170926
 40
0.669621956
 40
0.6966693269
 40
0.7228155946
 40
0.7481271645
 40
0.7726809034
 40
0.7965643229
 40
0.8198754145
 40
0.8427220235
 40
0.865220686
 40
0.8874948918
 40
0.909672832
 40
0.9318847699
 40
0.9542602346
 40
0.9769252742
 40
1.0
 40
1.0
 40
1.0
 40
1.0
 10
14.7031752545
 20
13.3694557751
 30
0.0
 10
14.7102598355
 20
13.3923814874
 30
0.0
 10
14.7213990598
 20
13.426214231
 30
0.0
 10
14.7374555069
 20
13.4703377365
 30
0.0
 10
14.7497733724
 20
13.5020598086
 30
0.0
 10
14.7624851244
 20
13.5327394591
 30
0.0
 10
14.7755775456
 20
13.5623446812
 30
0.0
 10
14.7890368787
 20
13.5908444038
 30
0.0
 10
14.8028490446
 20
13.6182087883
 30
0.0
 10
14.8169996045
 20
13.644409181
 30
0.0
 10
14.8314738039
 20
13.6694181651
 30
0.0
 10
14.8462565841
 20
13.6932095852
 30
0.0
 10
14.8613325979
 20
13.7157585813
 30
0.0
 10
14.8766862518
 20
13.7370415949
 30
0.0
 10
14.8923017267
 20
13.7570363809
 30
0.0
 10
14.9081630088
 20
13.7757220137
 30
0.0
 10
14.9242539084
 20
13.7930788958
 30
0.0
 10
14.9405580736
 20
13.8090887576
 30
0.0
 10
14.9570590191
 20
13.8237346218
 30
0.0
 10
14.9737401211
 20
13.8370007774
 30
0.0
 10
14.9905846028
 20
13.8488727428
 30
0.0
 10
15.0075754818
 20
13.8593372525
 30
0.0
 10
15.0246954986
 20
13.868382247
 30
0.0
 10
15.04192703
 20
13.8759968693
 30
0.0
 10
15.0592519732
 20
13.8821715338
 30
0.0
 10
15.0766516503
 20
13.88689805
 30
0.0
 10
15.0941067541
 20
13.8901698384
 30
0.0
 10
15.1115973818
 20
13.8919821573
 30
0.0
 10
15.1291032168
 20
13.8923322837
 30
0.0
 10
15.1466036234
 20
13.8912197117
 30
0.0
 10
15.1640784513
 20
13.888645998
 30
0.0
 10
15.1815063287
 20
13.8846153761
 30
0.0
 10
15.1929623623
 20
13.8809980894
 30
0.0
 10
15.1986630237
 20
13.8789614642
 30
0.0
  0
SPLINE
  5
2D3
100
AcDbEntity
  8
LAYER_FEATURE
100
AcDbSpline
 62
7
  6
CONTINUOUS
 70
0
 71
3
 72
60
 73
56
 74
0
 42
0.0000001
 43
0.0000001
 44
0.0000000001
 40
0.0
 40
0.0
 40
0.0
 40
0.0
 40
0.0168584761
 40
0.0340821211
 40
0.0516539683
 40
0.0695564501
 40
0.0877710073
 40
0.1062784076
 40
0.1440900345
 40
0.1828261738
 40
0.2223121353
 40
0.2623668689
 40
0.3028046101
 40
0.3434364697
 40
0.3840719893
 40
0.4245206808
 40
0.4645935657
 40
0.5041047305
 40
0.5428729155
 40
0.5807231551
 40
0.5992522158
 40
0.6174899451
 40
0.6354170359
 40
0.653014923
 40
0.6702658531
 40
0.6871529579
 40
0.7036603339
 40
0.7197731291
 40
0.7354776377
 40
0.750761405
 40
0.7656133451
 40
0.7800238715
 40
0.7939850466
 40
0.8074907499
 40
0.8205368709
 40
0.8331215298
 40
0.8452453295
 40
0.8569116432
 40
0.8681269402
 40
0.8789011504
 40
0.8892480658
 40
0.899185769
 40
0.9087370703
 40
0.9133770453
 40
0.9179313641
 40
0.9267992055
 40
0.9353811668
 40
0.9437220572
 40
0.9518720482
 40
0.959885984
 40
0.9678222962
 40
0.9757415671
 40
0.9837048615
 40
0.9917720053
 40
1.0
 40
1.0
 40
1.0
 40
1.0
 10
14.7031752545
 20
13.3694557751
 30
0.0
 10
14.6989838133
 20
13.3558922663
 30
0.0
 10
14.6908083597
 20
13.3283784319
 30
0.0
 10
14.6792792936
 20
13.2864339329
 30
0.0
 10
14.6683648511
 20
13.2434176721
 30
0.0
 10
14.6580802174
 20
13.1993894054
 30
0.0
 10
14.6484395154
 20
13.154409635
 30
0.0
 10
14.6363761942
 20
13.0928130003
 30
0.0
 10
14.6230336977
 20
13.0138710212
 30
0.0
 10
14.6098925359
 20
12.9170316684
 30
0.0
 10
14.5995822535
 20
12.8179510742
 30
0.0
 10
14.5921601373
 20
12.7171763693
 30
0.0
 10
14.5876674415
 20
12.6152631053
 30
0.0
 10
14.5861291391
 20
12.5127735499
 30
0.0
 10
14.587553782
 20
12.4102731333
 30
0.0
 10
14.5919334514
 20
12.3083273477
 30
0.0
 10
14.5992438053
 20
12.2074986438
 30
0.0
 10
14.6094442051
 20
12.1083428782
 30
0.0
 10
14.6224779723
 20
12.0114075993
 30
0.0
 10
14.635732291
 20
11.9323719937
 30
0.0
 10
14.6477265479
 20
11.8706902967
 30
0.0
 10
14.6573172565
 20
11.8256400652
 30
0.0
 10
14.6675529546
 20
11.7815365756
 30
0.0
 10
14.6784195712
 20
11.7384405837
 30
0.0
 10
14.6899020535
 20
11.6964116036
 30
0.0
 10
14.7019845303
 20
11.6555076176
 30
0.0
 10
14.7146503007
 20
11.6157850477
 30
0.0
 10
14.7278818686
 20
11.5772986621
 30
0.0
 10
14.7416609689
 20
11.5401015007
 30
0.0
 10
14.7559685969
 20
11.5042447987
 30
0.0
 10
14.7707850414
 20
11.4697779139
 30
0.0
 10
14.7860899186
 20
11.4367482565
 30
0.0
 10
14.801862211
 20
11.4052012226
 30
0.0
 10
14.8180803081
 20
11.3751801318
 30
0.0
 10
14.8347220523
 20
11.3467261698
 30
0.0
 10
14.8517647881
 20
11.3198783386
 30
0.0
 10
14.8691854166
 20
11.2946734124
 30
0.0
 10
14.8869604464
 20
11.271145914
 30
0.0
 10
14.9050660787
 20
11.2493280831
 30
0.0
 10
14.923478172
 20
11.2292499488
 30
0.0
 10
14.9421726137
 20
11.210939126
 30
0.0
 10
14.9611242037
 20
11.1944216967
 30
0.0
 10
14.9772650575
 20
11.1820531973
 30
0.0
 10
14.9902760593
 20
11.1731095259
 30
0.0
 10
15.0031097566
 20
11.1649413692
 30
0.0
 10
15.0192782503
 20
11.1558511101
 30
0.0
 10
15.0390098888
 20
11.1467208327
 30
0.0
 10
15.0588714083
 20
11.1394811433
 30
0.0
 10
15.0788340182
 20
11.1341456934
 30
0.0
 10
15.0988682249
 20
11.1307249253
 30
0.0
 10
15.1189431299
 20
11.1292260272
 30
0.0
 10
15.1390268516
 20
11.1296521997
 30
0.0
 10
15.1590879132
 20
11.1320026767
 30
0.0
 10
15.1790930089
 20
11.1362718005
 30
0.0
 10
15.1922189639
 20
11.1403437555
 30
0.0
 10
15.1987429717
 20
11.1426770977
 30
0.0
  0
SPLINE
  5
2D4
100
AcDbEntity
  8
LAYER_FEATURE
100
AcDbSpline
 62
7
  6
CONTINUOUS
 70
0
 71
3
 72
13
 73
9
 74
0
 42
0.0000001
 43
0.0000001
 44
0.0000000001
 40
0.0
 40
0.0
 40
0.0
 40
0.0
 40
0.1180195981
 40
0.2427110207
 40
0.5029436048
 40
0.7616521468
 40
0.8844881291
 40
1.0
 40
1.0
 40
1.0
 40
1.0
 10
14.6887448513
 20
13.2973892527
 30
0.0
 10
14.6886463129
 20
13.2969953978
 30
0.0
 10
14.6884755369
 20
13.296177216
 30
0.0
 10
14.6882358603
 20
13.2944627716
 30
0.0
 10
14.6881314627
 20
13.2922457914
 30
0.0
 10
14.6882747017
 20
13.2900372018
 30
0.0
 10
14.6885455764
 20
13.2883478659
 30
0.0
 10
14.6887313513
 20
13.2875482986
 30
0.0
 10
14.6888372597
 20
13.2871653045
 30
0.0
  0
SPLINE
  5
2D5
100
AcDbEntity
  8
LAYER_FEATURE
100
AcDbSpline
 62
7
  6
CONTINUOUS
 70
0
 71
3
 72
12
 73
8
 74
0
 42
0.0000001
 43
0.0000001
 44
0.0000000001
 40
0.0
 40
0.0
 40
0.0
 40
0.0
 40
0.2612766746
 40
0.5197694289
 40
0.7682348118
 40
0.8866003885
 40
1.0
 40
1.0
 40
1.0
 40
1.0
 10
14.6986355062
 20
13.2312988898
 30
0.0
 10
14.6987608468
 20
13.2341106902
 30
0.0
 10
14.698809395
 20
13.2397153213
 30
0.0
 10
14.6982961326
 20
13.2479815998
 30
0.0
 10
14.697381101
 20
13.2546633709
 30
0.0
 10
14.696356626
 20
13.259735529
 30
0.0
 10
14.6957521598
 20
13.262159113
 30
0.0
 10
14.6954265748
 20
13.2633365184
 30
0.0
  0
SPLINE
  5
2D6
100
AcDbEntity
  8
LAYER_FEATURE
100
AcDbSpline
 62
7
  6
CONTINUOUS
 70
0
 71
3
 72
13
 73
9
 74
0
 42
0.0000001
 43
0.0000001
 44
0.0000000001
 40
0.0
 40
0.0
 40
0.0
 40
0.0
 40
0.2520380804
 40
0.5155016508
 40
0.6454641639
 40
0.770993853
 40
0.8898387373
 40
1.0
 40
1.0
 40
1.0
 40
1.0
 10
14.6604117537
 20
13.1820549442
 30
0.0
 10
14.6602439727
 20
13.1812095436
 30
0.0
 10
14.6600246334
 20
13.1794548985
 30
0.0
 10
14.6600030647
 20
13.1772429349
 30
0.0
 10
14.6601393366
 20
13.1754725966
 30
0.0
 10
14.6603155599
 20
13.1742037528
 30
0.0
 10
14.6605620573
 20
13.1730157516
 30
0.0
 10
14.6607789749
 20
13.1722621335
 30
0.0
 10
14.6609001217
 20
13.1719054285
 30
0.0
  0
SPLINE
  5
2D7
100
AcDbEntity
  8
LAYER_FEATURE
100
AcDbSpline
 62
7
  6
CONTINUOUS
 70
0
 71
3
 72
13
 73
9
 74
0
 42
0.0000001
 43
0.0000001
 44
0.0000000001
 40
0.0
 40
0.0
 40
0.0
 40
0.0
 40
0.2673994706
 40
0.5278492648
 40
0.6532217619
 40
0.7742105022
 40
0.89003736
 40
1.0
 40
1.0
 40
1.0
 40
1.0
 10
14.6728158175
 20
13.1188218766
 30
0.0
 10
14.6728313908
 20
13.1216299229
 30
0.0
 10
14.6726666484
 20
13.1271759685
 30
0.0
 10
14.6719695613
 20
13.1340071644
 30
0.0
 10
14.6711148439
 20
13.1392616726
 30
0.0
 10
14.6703466855
 20
13.1429880937
 30
0.0
 10
14.6694499919
 20
13.1465189565
 30
0.0
 10
14.6687519781
 20
13.1487864031
 30
0.0
 10
14.6683806196
 20
13.1498798321
 30
0.0
  0
SPLINE
  5
2D8
100
AcDbEntity
  8
LAYER_FEATURE
100
AcDbSpline
 62
7
  6
CONTINUOUS
 70
0
 71
3
 72
31
 73
27
 74
0
 42
0.0000001
 43
0.0000001
 44
0.0000000001
 40
0.0
 40
0.0
 40
0.0
 40
0.0
 40
0.021712897
 40
0.0435128858
 40
0.0654857789
 40
0.087714891
 40
0.1102799754
 40
0.1332563578
 40
0.1567142384
 40
0.1807182536
 40
0.2305771352
 40
0.2832528116
 40
0.3390551186
 40
0.3682081872
 40
0.3982220247
 40
0.4291139842
 40
0.4608975868
 40
0.4935827491
 40
0.5271761118
 40
0.5616813079
 40
0.597099128
 40
0.6706578506
 40
0.7478163507
 40
0.8284995564
 40
0.9126034073
 40
1.0
 40
1.0
 40
1.0
 40
1.0
 10
15.1245398573
 20
13.8786799879
 30
0.0
 10
15.1197745469
 20
13.8786799943
 30
0.0
 10
15.1102215651
 20
13.8783503073
 30
0.0
 10
15.095915371
 20
13.8768682753
 30
0.0
 10
15.0816306181
 20
13.8743997057
 30
0.0
 10
15.0673790998
 20
13.8709468887
 30
0.0
 10
15.0531712484
 20
13.8665128972
 30
0.0
 10
15.0390177343
 20
13.86110157
 30
0.0
 10
15.0249284852
 20
13.8547172504
 30
0.0
 10
15.0060052859
 20
13.8447904554
 30
0.0
 10
14.9825259163
 20
13.8298538702
 30
0.0
 10
14.9551522546
 20
13.8083699573
 30
0.0
 10
14.9330964157
 20
13.7876769649
 30
0.0
 10
14.9157233429
 20
13.7693723469
 30
0.0
 10
14.9026542205
 20
13.754538525
 30
0.0
 10
14.8897457812
 20
13.7388113934
 30
0.0
 10
14.8770067864
 20
13.7222017168
 30
0.0
 10
14.8644463256
 20
13.7047215453
 30
0.0
 10
14.852073304
 20
13.6863833785
 30
0.0
 10
14.8398964287
 20
13.6672002656
 30
0.0
 10
14.8237300316
 20
13.6401734269
 30
0.0
 10
14.8041056858
 20
13.6043250729
 30
0.0
 10
14.781765569
 20
13.5587003859
 30
0.0
 10
14.7604088116
 20
13.5100694311
 30
0.0
 10
14.7400966636
 20
13.4585722476
 30
0.0
 10
14.7275237033
 20
13.423086245
 30
0.0
 10
14.7214090753
 20
13.4049061333
 30
0.0
  0
SPLINE
  5
2D9
100
AcDbEntity
  8
LAYER_FEATURE
100
AcDbSpline
 62
7
  6
CONTINUOUS
 70
0
 71
3
 72
13
 73
9
 74
0
 42
0.0000001
 43
0.0000001
 44
0.0000000001
 40
0.0
 40
0.0
 40
0.0
 40
0.0
 40
0.2616606168
 40
0.5283057809
 40
0.6573498926
 40
0.7803461572
 40
0.8951639648
 40
1.0
 40
1.0
 40
1.0
 40
1.0
 10
14.6366913698
 20
13.0600494522
 30
0.0
 10
14.6365589894
 20
13.0591771338
 30
0.0
 10
14.6364078663
 20
13.0573971845
 30
0.0
 10
14.6364694248
 20
13.0551764751
 30
0.0
 10
14.6366742751
 20
13.0534385355
 30
0.0
 10
14.6368982645
 20
13.0522209324
 30
0.0
 10
14.6371889834
 20
13.0511016433
 30
0.0
 10
14.6374354026
 20
13.0504017653
 30
0.0
 10
14.6375708437
 20
13.0500752394
 30
0.0
  0
SPLINE
  5
2DA
100
AcDbEntity
  8
LAYER_FEATURE
100
AcDbSpline
 62
7
  6
CONTINUOUS
 70
0
 71
3
 72
13
 73
9
 74
0
 42
0.0000001
 43
0.0000001
 44
0.0000000001
 40
0.0
 40
0.0
 40
0.0
 40
0.0
 40
0.2737652379
 40
0.5362077337
 40
0.6609672303
 40
0.7803151513
 40
0.8935326453
 40
1.0
 40
1.0
 40
1.0
 40
1.0
 10
14.6514855652
 20
13.0003021184
 30
0.0
 10
14.651392906
 20
13.0030785352
 30
0.0
 10
14.6510199601
 20
13.0085121285
 30
0.0
 10
14.6500619735
 20
13.0151580019
 30
0.0
 10
14.6490042209
 20
13.0201896
 30
0.0
 10
14.6480961082
 20
13.0237014004
 30
0.0
 10
14.6470677206
 20
13.0269859025
 30
0.0
 10
14.6462821063
 20
13.0290738245
 30
0.0
 10
14.6458681798
 20
13.030071733
 30
0.0
  0
SPLINE
  5
2DB
100
AcDbEntity
  8
LAYER_FEATURE
100
AcDbSpline
 62
7
  6
CONTINUOUS
 70
0
 71
3
 72
15
 73
11
 74
0
 42
0.0000001
 43
0.0000001
 44
0.0000000001
 40
0.0
 40
0.0
 40
0.0
 40
0.0
 40
0.0926080389
 40
0.1898139436
 40
0.2950451094
 40
0.4107857958
 40
0.5386078361
 40
0.6793316059
 40
0.833196775
 40
1.0
 40
1.0
 40
1.0
 40
1.0
 10
14.6352632302
 20
12.9601905845
 30
0.0
 10
14.6358165929
 20
12.9602057344
 30
0.0
 10
14.63695094
 20
12.9603738672
 30
0.0
 10
14.6386051558
 20
12.9610203544
 30
0.0
 10
14.6402173927
 20
12.9620484581
 30
0.0
 10
14.6417767053
 20
12.9634435356
 30
0.0
 10
14.6432747893
 20
12.9651921141
 30
0.0
 10
14.6447021048
 20
12.9672799495
 30
0.0
 10
14.6460485008
 20
12.9696904472
 30
0.0
 10
14.6468538361
 20
12.9714319137
 30
0.0
 10
14.6472435854
 20
12.9723496589
 30
0.0
  0
SPLINE
  5
2DC
100
AcDbEntity
  8
LAYER_FEATURE
100
AcDbSpline
 62
7
  6
CONTINUOUS
 70
0
 71
3
 72
16
 73
12
 74
0
 42
0.0000001
 43
0.0000001
 44
0.0000000001
 40
0.0
 40
0.0
 40
0.0
 40
0.0
 40
0.0375329361
 40
0.0763595554
 40
0.1613466878
 40
0.2607493391
 40
0.377034311
 40
0.5105560142
 40
0.6602951674
 40
0.8243004662
 40
1.0
 40
1.0
 40
1.0
 40
1.0
 10
14.6238829405
 20
12.9598790163
 30
0.0
 10
14.6237943891
 20
12.9598765919
 30
0.0
 10
14.6236142857
 20
12.9598541028
 30
0.0
 10
14.6232497702
 20
12.9597376415
 30
0.0
 10
14.6227986756
 20
12.9594490268
 30
0.0
 10
14.6223108931
 20
12.9589272328
 30
0.0
 10
14.62186118
 20
12.9582326683
 30
0.0
 10
14.6214569571
 20
12.9573784172
 30
0.0
 10
14.6211056161
 20
12.9563813591
 30
0.0
 10
14.6208146969
 20
12.9552622626
 30
0.0
 10
14.620669415
 20
12.9544730324
 30
0.0
 10
14.6206071964
 20
12.9540630436
 30
0.0
  0
SPLINE
  5
2DD
100
AcDbEntity
  8
LAYER_FEATURE
100
AcDbSpline
 62
7
  6
CONTINUOUS
 70
0
 71
3
 72
52
 73
48
 74
0
 42
0.0000001
 43
0.0000001
 44
0.0000000001
 40
0.0
 40
0.0
 40
0.0
 40
0.0
 40
0.0388870989
 40
0.0783151969
 40
0.118168767
 40
0.1583297155
 40
0.1986784312
 40
0.2390943358
 40
0.2794565042
 40
0.3196442884
 40
0.3595379387
 40
0.3990192351
 40
0.437972126
 40
0.476283381
 40
0.5138432744
 40
0.5505462828
 40
0.5862918518
 40
0.6209851821
 40
0.654538142
 40
0.6868702234
 40
0.717909705
 40
0.7329258391
 40
0.7475966334
 40
0.7619162203
 40
0.7758795707
 40
0.7894825709
 40
0.8027220994
 40
0.8155961016
 40
0.8281036843
 40
0.840245232
 40
0.8520225177
 40
0.863438824
 40
0.8744990883
 40
0.8852100664
 40
0.8955804883
 40
0.9056212283
 40
0.9153454882
 40
0.9247689775
 40
0.9339100645
 40
0.9427899076
 40
0.9514325481
 40
0.9598649293
 40
0.9681168185
 40
0.9762206259
 40
0.9842111016
 40
0.9921248956
 40
1.0
 40
1.0
 40
1.0
 40
1.0
 10
14.6206071964
 20
12.9540630436
 30
0.0
 10
14.6171622153
 20
12.9282362851
 30
0.0
 10
14.610889075
 20
12.8761325846
 30
0.0
 10
14.6033596357
 20
12.7973074591
 30
0.0
 10
14.5976627565
 20
12.7174727343
 30
0.0
 10
14.5938186556
 20
12.6369101428
 30
0.0
 10
14.5918409509
 20
12.5559033111
 30
0.0
 10
14.5917366217
 20
12.4747376315
 30
0.0
 10
14.5935060563
 20
12.393698997
 30
0.0
 10
14.5971429786
 20
12.3130728664
 30
0.0
 10
14.602634521
 20
12.233143222
 30
0.0
 10
14.6099612489
 20
12.1541915634
 30
0.0
 10
14.6190972222
 20
12.076495897
 30
0.0
 10
14.6300101304
 20
12.0003297448
 30
0.0
 10
14.6426613398
 20
11.925961153
 30
0.0
 10
14.6570061388
 20
11.8536517419
 30
0.0
 10
14.6729937822
 20
11.7836557119
 30
0.0
 10
14.6905678282
 20
11.7162190467
 30
0.0
 10
14.7096662571
 20
11.6515781728
 30
0.0
 10
14.7302216888
 20
11.589960559
 30
0.0
 10
14.748703713
 20
11.540781782
 30
0.0
 10
14.7641919872
 20
11.503153634
 30
0.0
 10
14.7759977255
 20
11.4761319273
 30
0.0
 10
14.7881105169
 20
11.4500219811
 30
0.0
 10
14.800519839
 20
11.4248466629
 30
0.0
 10
14.8132147795
 20
11.4006281039
 30
0.0
 10
14.8261842146
 20
11.3773875499
 30
0.0
 10
14.8394168002
 20
11.3551453939
 30
0.0
 10
14.8529009992
 20
11.333921153
 30
0.0
 10
14.8666250612
 20
11.3137334312
 30
0.0
 10
14.8805770584
 20
11.2945999181
 30
0.0
 10
14.8947449114
 20
11.2765373946
 30
0.0
 10
14.9091164057
 20
11.2595617256
 30
0.0
 10
14.9236791714
 20
11.2436878246
 30
0.0
 10
14.9384207303
 20
11.2289296838
 30
0.0
 10
14.953328506
 20
11.2153003925
 30
0.0
 10
14.9683898212
 20
11.2028121379
 30
0.0
 10
14.983591869
 20
11.1914761874
 30
0.0
 10
14.9989217309
 20
11.1813029448
 30
0.0
 10
15.0143663437
 20
11.1723019695
 30
0.0
 10
15.0299124426
 20
11.1644819475
 30
0.0
 10
15.0455464938
 20
11.1578506564
 30
0.0
 10
15.0612546998
 20
11.1524149643
 30
0.0
 10
15.0770227978
 20
11.1481807594
 30
0.0
 10
15.0928365625
 20
11.1451527863
 30
0.0
 10
15.1086798737
 20
11.1433345479
 30
0.0
 10
15.1192633047
 20
11.142929991
 30
0.0
 10
15.1245398573
 20
11.142929993
 30
0.0
  0
SPLINE
  5
2DE
100
AcDbEntity
  8
LAYER_FEATURE
100
AcDbSpline
 62
7
  6
CONTINUOUS
 70
0
 71
3
 72
13
 73
9
 74
0
 42
0.0000001
 43
0.0000001
 44
0.0000000001
 40
0.0
 40
0.0
 40
0.0
 40
0.0
 40
0.1126459242
 40
0.233349967
 40
0.4902856267
 40
0.7522515083
 40
0.8790790098
 40
1.0
 40
1.0
 40
1.0
 40
1.0
 10
14.7214090753
 20
13.4049061333
 30
0.0
 10
14.7212949119
 20
13.4045367003
 30
0.0
 10
14.7210922764
 20
13.4037607018
 30
0.0
 10
14.7207860418
 20
13.4021047364
 30
0.0
 10
14.7205983291
 20
13.3999115115
 30
0.0
 10
14.7206580745
 20
13.3976906366
 30
0.0
 10
14.7208615119
 20
13.3959519307
 30
0.0
 10
14.7210147263
 20
13.3951145906
 30
0.0
 10
14.7211046058
 20
13.394709363
 30
0.0
  0
SPLINE
  5
2DF
100
AcDbEntity
  8
LAYER_FEATURE
100
AcDbSpline
 62
7
  6
CONTINUOUS
 70
0
 71
3
 72
11
 73
7
 74
0
 42
0.0000001
 43
0.0000001
 44
0.0000000001
 40
0.0
 40
0.0
 40
0.0
 40
0.0
 40
0.2553250409
 40
0.5118768144
 40
0.7624153647
 40
1.0
 40
1.0
 40
1.0
 40
1.0
 10
14.7286880236
 20
13.336615311
 30
0.0
 10
14.7289235955
 20
13.3394027522
 30
0.0
 10
14.7291881504
 20
13.3450104111
 30
0.0
 10
14.7289934542
 20
13.3533680073
 30
0.0
 10
14.7282187448
 20
13.3614968795
 30
0.0
 10
14.7273009005
 20
13.3667729552
 30
0.0
 10
14.7267372506
 20
13.3693142082
 30
0.0
  0
SPLINE
  5
2E0
100
AcDbEntity
  8
LAYER_FEATURE
100
AcDbSpline
 62
7
  6
CONTINUOUS
 70
0
 71
3
 72
36
 73
32
 74
0
 42
0.0000001
 43
0.0000001
 44
0.0000000001
 40
0.0
 40
0.0
 40
0.0
 40
0.0
 40
0.0879647301
 40
0.1726570648
 40
0.2539222764
 40
0.2932301914
 40
0.3316350098
 40
0.3691252116
 40
0.4056913988
 40
0.4413264641
 40
0.4760258261
 40
0.5097875916
 40
0.542612777
 40
0.5745056085
 40
0.6054737773
 40
0.6355287187
 40
0.6646859772
 40
0.6929655693
 40
0.7203923177
 40
0.746996252
 40
0.7728130251
 40
0.7978842365
 40
0.8222577519
 40
0.8459879813
 40
0.8691359833
 40
0.8917694219
 40
0.9139623571
 40
0.9357947692
 40
0.9573518063
 40
0.9787227939
 40
1.0
 40
1.0
 40
1.0
 40
1.0
 10
14.6694118496
 20
13.4113624344
 30
0.0
 10
14.6758711712
 20
13.4322648066
 30
0.0
 10
14.6892061353
 20
13.4730934181
 30
0.0
 10
14.7109031118
 20
13.5324157569
 30
0.0
 10
14.73024432
 20
13.5796776963
 30
0.0
 10
14.7463576791
 20
13.6157875147
 30
0.0
 10
14.7585973721
 20
13.6416963666
 30
0.0
 10
14.7711157929
 20
13.6667115356
 30
0.0
 10
14.7839032002
 20
13.6908133943
 30
0.0
 10
14.796949535
 20
13.7139829309
 30
0.0
 10
14.810244547
 20
13.7362019225
 30
0.0
 10
14.8237778147
 20
13.7574528869
 30
0.0
 10
14.8375387758
 20
13.7777190913
 30
0.0
 10
14.8515166837
 20
13.7969845999
 30
0.0
 10
14.8657006493
 20
13.8152342652
 30
0.0
 10
14.8800796807
 20
13.8324537063
 30
0.0
 10
14.8946426578
 20
13.8486293428
 30
0.0
 10
14.9093783328
 20
13.8637484102
 30
0.0
 10
14.9242753847
 20
13.8777989094
 30
0.0
 10
14.9393224094
 20
13.8907696101
 30
0.0
 10
14.954507875
 20
13.9026500971
 30
0.0
 10
14.969820169
 20
13.9134307001
 30
0.0
 10
14.9852475823
 20
13.9231024692
 30
0.0
 10
15.0007782343
 20
13.9316572478
 30
0.0
 10
15.016400078
 20
13.9390876359
 30
0.0
 10
15.0321008625
 20
13.9453869657
 30
0.0
 10
15.0478680978
 20
13.9505494093
 30
0.0
 10
15.0636889009
 20
13.9545700527
 30
0.0
 10
15.0795504944
 20
13.9574449
 30
0.0
 10
15.095438441
 20
13.959170984
 30
0.0
 10
15.1060494117
 20
13.95955499
 30
0.0
 10
15.1113412539
 20
13.9595549848
 30
0.0
  0
SPLINE
  5
2E1
100
AcDbEntity
  8
02___PRT_ALL_AXES
100
AcDbSpline
 62
7
  6
CONTINUOUS
 70
0
 71
3
 72
37
 73
33
 74
0
 42
0.0000001
 43
0.0000001
 44
0.0000000001
 40
0.0
 40
0.0
 40
0.0
 40
0.0
 40
0.0208349323
 40
0.0428602687
 40
0.0660778681
 40
0.0904755957
 40
0.1160298088
 40
0.1427067628
 40
0.1704640022
 40
0.1992514554
 40
0.2290123751
 40
0.2596841454
 40
0.2911989844
 40
0.32348457
 40
0.3564646051
 40
0.390059339
 40
0.4241860537
 40
0.4587595283
 40
0.4936924823
 40
0.5288960035
 40
0.5997493381
 40
0.6705954179
 40
0.7057899031
 40
0.7407102634
 40
0.7752676428
 40
0.809374833
 40
0.8429467043
 40
0.8759006521
 40
0.9081570409
 40
0.9396397766
 40
0.9702765208
 40
1.0
 40
1.0
 40
1.0
 40
1.0
 10
15.7735457245
 20
13.0680889102
 30
0.0
 10
15.7776474958
 20
13.0627409849
 30
0.0
 10
15.7857151298
 20
13.051452062
 30
0.0
 10
15.7971084554
 20
13.0333543756
 30
0.0
 10
15.8080961103
 20
13.0136769389
 30
0.0
 10
15.8186449166
 20
12.9924794024
 30
0.0
 10
15.8287237179
 20
12.9698248765
 30
0.0
 10
15.8383022431
 20
12.9457813628
 30
0.0
 10
15.8473516668
 20
12.9204211092
 30
0.0
 10
15.8558446396
 20
12.8938205045
 30
0.0
 10
15.863755441
 20
12.8660597929
 30
0.0
 10
15.8710600703
 20
12.8372228236
 30
0.0
 10
15.8777363409
 20
12.807396778
 30
0.0
 10
15.8837639573
 20
12.7766718948
 30
0.0
 10
15.8891245854
 20
12.7451411845
 30
0.0
 10
15.8938019117
 20
12.7129001442
 30
0.0
 10
15.8977817091
 20
12.6800464423
 30
0.0
 10
15.9010518426
 20
12.6466796868
 30
0.0
 10
15.9036024382
 20
12.6129008413
 30
0.0
 10
15.9060381984
 20
12.5673547465
 30
0.0
 10
15.9072365381
 20
12.5101230325
 30
0.0
 10
15.9059895972
 20
12.4528952711
 30
0.0
 10
15.9035149421
 20
12.4073606273
 30
0.0
 10
15.9009355978
 20
12.3735962009
 30
0.0
 10
15.897637069
 20
12.340247909
 30
0.0
 10
15.8936293139
 20
12.3074166589
 30
0.0
 10
15.8889245541
 20
12.2752019907
 30
0.0
 10
15.883537101
 20
12.2437014856
 30
0.0
 10
15.8774833605
 20
12.2130105616
 30
0.0
 10
15.8707817088
 20
12.1832220644
 30
0.0
 10
15.8634526408
 20
12.1544264418
 30
0.0
 10
15.8580778367
 20
12.1356513525
 30
0.0
 10
15.8552837905
 20
12.1264511553
 30
0.0
  0
SPLINE
  5
2E2
100
AcDbEntity
  8
02___PRT_ALL_AXES
100
AcDbSpline
 62
7
  6
CONTINUOUS
 70
0
 71
3
 72
17
 73
13
 74
0
 42
0.0000001
 43
0.0000001
 44
0.0000000001
 40
0.0
 40
0.0
 40
0.0
 40
0.0
 40
0.1526207256
 40
0.2972653202
 40
0.4338150144
 40
0.5622587317
 40
0.6827172778
 40
0.7400451516
 40
0.7954964448
 40
0.8491355958
 40
0.9010408507
 40
1.0
 40
1.0
 40
1.0
 40
1.0
 10
15.8232987102
 20
12.0396978396
 30
0.0
 10
15.8196529789
 20
12.0315360711
 30
0.0
 10
15.8121955243
 20
12.0157944403
 30
0.0
 10
15.8001604854
 20
11.9934037159
 30
0.0
 10
15.7876136584
 20
11.9729360059
 30
0.0
 10
15.7746006524
 20
11.954467673
 30
0.0
 10
15.7632231585
 20
11.9405762246
 30
0.0
 10
15.75391633
 20
11.9305710871
 30
0.0
 10
15.7469658591
 20
11.9237327903
 30
0.0
 10
15.7399356392
 20
11.9174420658
 30
0.0
 10
15.730615365
 20
11.9099143483
 30
0.0
 10
15.7233002396
 20
11.904912547
 30
0.0
 10
15.7183197453
 20
11.9019479561
 30
0.0
  0
SPLINE
  5
2E3
100
AcDbEntity
  8
02___PRT_ALL_AXES
100
AcDbSpline
 62
7
  6
CONTINUOUS
 70
0
 71
3
 72
25
 73
21
 74
0
 42
0.0000001
 43
0.0000001
 44
0.0000000001
 40
0.0
 40
0.0
 40
0.0
 40
0.0
 40
0.084304458
 40
0.1684052607
 40
0.251552671
 40
0.3330069909
 40
0.4120575446
 40
0.4880328443
 40
0.5603150087
 40
0.6283553421
 40
0.691693191
 40
0.7499800967
 40
0.8030127273
 40
0.85077943
 40
0.8935269308
 40
0.9318505382
 40
0.9496873001
 40
0.9668505605
 40
0.9835455006
 40
1.0
 40
1.0
 40
1.0
 40
1.0
 10
15.7735457245
 20
13.0680889102
 30
0.0
 10
15.7736087529
 20
13.07023008
 30
0.0
 10
15.7736485942
 20
13.0745102677
 30
0.0
 10
15.7734527381
 20
13.0809006156
 30
0.0
 10
15.7730035128
 20
13.087205729
 30
0.0
 10
15.7723056858
 20
13.0933591437
 30
0.0
 10
15.7713667201
 20
13.0992961526
 30
0.0
 10
15.7701966204
 20
13.1049544328
 30
0.0
 10
15.7688078399
 20
13.1102747654
 30
0.0
 10
15.767215072
 20
13.115201732
 30
0.0
 10
15.7654350153
 20
13.1196843945
 30
0.0
 10
15.7634858982
 20
13.1236769796
 30
0.0
 10
15.7613870986
 20
13.1271393738
 30
0.0
 10
15.7591573199
 20
13.1300376456
 30
0.0
 10
15.7568156401
 20
13.1323424713
 30
0.0
 10
15.7547326273
 20
13.1337802103
 30
0.0
 10
15.7530434396
 20
13.1345747801
 30
0.0
 10
15.7517945762
 20
13.1349923838
 30
0.0
 10
15.750537741
 20
13.135243783
 30
0.0
 10
15.7496944101
 20
13.1352998881
 30
0.0
 10
15.7492763167
 20
13.1352998857
 30
0.0
  0
SPLINE
  5
2E4
100
AcDbEntity
  8
02___PRT_ALL_AXES
100
AcDbSpline
 62
7
  6
CONTINUOUS
 70
0
 71
3
 72
12
 73
8
 74
0
 42
0.0000001
 43
0.0000001
 44
0.0000000001
 40
0.0
 40
0.0
 40
0.0
 40
0.0
 40
0.2506851877
 40
0.5009328107
 40
0.6258863121
 40
0.7507210377
 40
1.0
 40
1.0
 40
1.0
 40
1.0
 10
15.4653063025
 20
12.1479287434
 30
0.0
 10
15.4979168172
 20
12.1465974119
 30
0.0
 10
15.5630718723
 20
12.1437104185
 30
0.0
 10
15.6444524921
 20
12.1395427847
 30
0.0
 10
15.7094500882
 20
12.1358616432
 30
0.0
 10
15.7743077703
 20
12.1319490695
 30
0.0
 10
15.8229095305
 20
12.128733299
 30
0.0
 10
15.8552837905
 20
12.1264511553
 30
0.0
  0
ENDSEC
  0
SECTION
  2
OBJECTS
  0
DICTIONARY
  5
C
100
AcDbDictionary
280
0
281
1
  3
ACAD_GROUP
350
D
  3
ACAD_MLINESTYLE
350
17
  3
ACAD_LAYOUT
350
1A
  3
ACAD_PLOTSETTINGS
350
19
  3
ACAD_PLOTSTYLENAME
350
E
  0
DICTIONARY
  5
D
102
{ACAD_REACTORS
330
C
102
}
100
AcDbDictionary
280
0
281
1
  0
ACDBDICTIONARYWDFLT
  5
E
102
{ACAD_REACTORS
330
C
102
}
100
AcDbDictionary
281
1
  3
Normal
350
F
100
AcDbDictionaryWithDefault
340
F
  0
DICTIONARY
  5
17
102
{ACAD_REACTORS
330
C
102
}
100
AcDbDictionary
280
0
281
1
  3
Standard
350
18
  0
DICTIONARY
  5
19
102
{ACAD_REACTORS
330
C
102
}
100
AcDbDictionary
281
1
  0
DICTIONARY
  5
1A
102
{ACAD_REACTORS
330
C
102
}
100
AcDbDictionary
281
1
  3
Model
350
2E5
  3
Layout1
350
2E6
  0
ACDBPLACEHOLDER
  5
F
102
{ACAD_REACTORS
330
E
102
}
  0
MLINESTYLE
  5
18
102
{ACAD_REACTORS
330
17
102
}
100
AcDbMlineStyle
  2
STANDARD
 70
0
  3

 62
256
 51
90.0
 52
90.0
 71
2
 49
0.5
 62
256
  6
BYLAYER
 49
-0.5
 62
256
  6
BYLAYER
  0
LAYOUT
  5
2E5
102
{ACAD_REACTORS
330
1A
102
}
100
AcDbPlotSettings
  1

  2
none_device
  4
ANSI_C_(22.00_x_17.00_Inches)
  6

 40
0.0
 41
0.0
 42
0.0
 43
0.0
 44
558.8
 45
431.8
 46
0.0
 47
0.0
 48
0.0
 49
0.0
140
0.0
141
0.0
142
1.0
143
1.0
 70
1024
 72
0
 73
0
 74
0
  7

 75
0
147
1.0
148
0.0
149
0.0
100
AcDbLayout
  1
Model
 70
0
 71
0
 10
0.0
 20
0.0
 11
22.0
 21
17.0
 12
0.0
 22
0.0
 32
0.0
 14
0.0
 24
0.0
 34
0.0
 15
0.0
 25
0.0
 35
0.0
146
0.0
 13
0.0
 23
0.0
 33
0.0
 16
1.0
 26
0.0
 36
0.0
 17
0.0
 27
1.0
 37
0.0
 76
0
330
222
345
0
346
0
  0
LAYOUT
  5
2E6
102
{ACAD_REACTORS
330
1A
102
}
100
AcDbPlotSettings
  1

  2
none_device
  4
ANSI_C_(22.00_x_17.00_Inches)
  6

 40
0.0
 41
0.0
 42
0.0
 43
0.0
 44
558.8
 45
431.8
 46
0.0
 47
0.0
 48
0.0
 49
0.0
140
0.0
141
0.0
142
1.0
143
1.0
 70
0
 72
0
 73
0
 74
0
  7

 75
0
147
1.0
148
0.0
149
0.0
100
AcDbLayout
  1
Layout1
 70
0
 71
1
 10
0.0
 20
0.0
 11
22.0
 21
17.0
 12
0.0
 22
0.0
 32
0.0
 14
0.0
 24
0.0
 34
0.0
 15
0.0
 25
0.0
 35
0.0
146
0.0
 13
0.0
 23
0.0
 33
0.0
 16
1.0
 26
0.0
 36
0.0
 17
0.0
 27
1.0
 37
0.0
 76
0
330
223
345
0
346
0
  0
ENDSEC
  0
EOF