999
DXF file: _cgs_temp_output.dxf
999
Pro/ENGINEER 2016360 by Parametric Technology Corporation
  0
SECTION
  2
HEADER
  9
$ACADVER
  1
AC1021
  9
$DWGCODEPAGE
  3
ANSI_1252
  9
$EXTMAX
 10
22.0
 20
17.0
 30
0.0
  9
$EXTMIN
 10
0.0
 20
0.0
 30
0.0
  9
$LIMMIN
 10
0.0
 20
0.0
  9
$LIMMAX
 10
22.0
 20
17.0
  9
$VIEWCTR
 10
11.0
 20
8.5
  9
$VIEWSIZE
 40
17.0
  9
$CLAYER
  8
0
  9
$LTSCALE
 40
1.21
  9
$CELTYPE
  6
BYLAYER
  9
$DIMSCALE
 40
1.0
  9
$DIMASZ
 40
0.1875
  9
$DIMEXO
 40
0.0625
  9
$DIMDLI
 40
0.836
  9
$DIMEXE
 40
0.125
  9
$DIMCEN
 40
0.198
  9
$DIMLFAC
 40
1.0
  9
$DIMBLK
  1
_CLOSED
  9
$DIMALT
 70
0
  9
$DIMALTF
 40
25.4
  9
$DIMTXT
 40
0.15625
  9
$DIMTOL
 70
0
  9
$DIMLIM
 70
0
  9
$DIMTFAC
 40
1.0
  9
$DIMGAP
 40
0.09
  9
$DIMDSEP
 70
46
  9
$AUNITS
 70
0
  9
$PDMODE
 70
3
  9
$PDSIZE
 40
0.3125
  9
$HANDSEED
  5
2D9
  9
$TILEMODE
 70
1
  9
$MEASUREMENT
 70
0
  9
$INSUNITS
 70
1
  0
ENDSEC
  0
SECTION
  2
CLASSES
  0
CLASS
  1
ACDBDICTIONARYWDFLT
  2
AcDbDictionaryWithDefault
  3
AutoCAD 2000
 90
0
 91
1
280
0
281
0
  0
CLASS
  1
ACDBPLACEHOLDER
  2
AcDbPlaceHolder
  3
AutoCAD 2000
 90
0
 91
1
280
0
281
0
  0
CLASS
  1
LAYOUT
  2
AcDbLayout
  3
AutoCAD 2000
 90
0
 91
0
280
0
281
0
  0
ENDSEC
  0
SECTION
  2
TABLES
  0
TABLE
  2
VPORT
  5
8
100
AcDbSymbolTable
 70
2
  0
VPORT
  5
1F4
100
AcDbSymbolTableRecord
100
AcDbViewportTableRecord
  2
*ACTIVE
 70
0
 10
0.0
 20
0.0
 11
1.0
 21
1.0
 12
11.0
 22
8.5
 13
0.0
 23
0.0
 14
1.0
 24
1.0
 15
0.0
 25
0.0
 16
0.0
 26
0.0
 36
1.0
 17
0.0
 27
0.0
 37
0.0
 40
17.0
 41
1.2941176471
 42
50.0
 43
0.0
 44
0.0
 50
0.0
 51
0.0
 71
0
 72
100
 73
1
 74
1
 75
0
 76
0
 77
0
 78
0
  0
ENDTAB
  0
TABLE
  2
LTYPE
  5
5
100
AcDbSymbolTable
 70
6
  0
LTYPE
  5
14
100
AcDbSymbolTableRecord
100
AcDbLinetypeTableRecord
  2
BYBLOCK
 70
0
  3

 72
65
 73
0
 40
0.0
  0
LTYPE
  5
15
100
AcDbSymbolTableRecord
100
AcDbLinetypeTableRecord
  2
BYLAYER
 70
0
  3

 72
65
 73
0
 40
0.0
  0
LTYPE
  5
16
100
AcDbSymbolTableRecord
100
AcDbLinetypeTableRecord
  2
CONTINUOUS
 70
64
  3
Solid line
 72
65
 73
0
 40
0.0
  0
LTYPE
  5
1F5
100
AcDbSymbolTableRecord
100
AcDbLinetypeTableRecord
  2
CENTER
 70
64
  3
____ _ ____ _ ____ _ ____ _ ____ _ ____ _ ____
 72
65
 73
4
 40
0.6
 49
0.375
 74
0
 49
-0.075
 74
0
 49
0.075
 74
0
 49
-0.075
 74
0
  0
LTYPE
  5
1F6
100
AcDbSymbolTableRecord
100
AcDbLinetypeTableRecord
  2
HIDDEN
 70
64
  3
- - - - - - - - - - - - - - - - - - - -
 72
65
 73
2
 40
0.2
 49
0.1
 74
0
 49
-0.1
 74
0
  0
LTYPE
  5
1F7
100
AcDbSymbolTableRecord
100
AcDbLinetypeTableRecord
  2
PHANTOM
 70
64
  3
_____ _ _ _____ _ _ _____ _ _ _____
 72
65
 73
6
 40
0.8
 49
0.45
 74
0
 49
-0.05
 74
0
 49
0.1
 74
0
 49
-0.05
 74
0
 49
0.1
 74
0
 49
-0.05
 74
0
  0
LTYPE
  5
1F8
100
AcDbSymbolTableRecord
100
AcDbLinetypeTableRecord
  2
DOT
 70
64
  3
. . . . . . . . . . . . . . . . . . . .
 72
65
 73
2
 40
0.2
 49
0.1
 74
0
 49
-0.1
 74
0
  0
LTYPE
  5
1F9
100
AcDbSymbolTableRecord
100
AcDbLinetypeTableRecord
  2
DASHED
 70
64
  3
- - - - - - - - - - - - - - - - - - - -
 72
65
 73
2
 40
0.2
 49
0.1
 74
0
 49
-0.1
 74
0
  0
ENDTAB
  0
TABLE
  2
LAYER
  5
2
100
AcDbSymbolTable
 70
36
  0
LAYER
  5
10
100
AcDbSymbolTableRecord
100
AcDbLayerTableRecord
  2
0
 70
0
 62
7
  6
CONTINUOUS
370
-3
390
F
  0
LAYER
  5
1FA
100
AcDbSymbolTableRecord
100
AcDbLayerTableRecord
  2
DEFAULT_1
 70
0
 62
7
  6
CENTER
370
-3
390
F
  0
LAYER
  5
1FB
100
AcDbSymbolTableRecord
100
AcDbLayerTableRecord
  2
DEFAULT_2
 70
0
 62
8
  6
HIDDEN
370
-3
390
F
  0
LAYER
  5
1FC
100
AcDbSymbolTableRecord
100
AcDbLayerTableRecord
  2
DEFAULT_3
 70
0
 62
7
  6
PHANTOM
370
-3
390
F
  0
LAYER
  5
1FD
100
AcDbSymbolTableRecord
100
AcDbLayerTableRecord
  2
01_ALL_DTM_PLN
 70
0
 62
7
  6
CONTINUOUS
370
-3
390
F
  0
LAYER
  5
1FE
100
AcDbSymbolTableRecord
100
AcDbLayerTableRecord
  2
01__ASM_ALL_DTM_PLN
 70
0
 62
7
  6
CONTINUOUS
370
-3
390
F
  0
LAYER
  5
1FF
100
AcDbSymbolTableRecord
100
AcDbLayerTableRecord
  2
01__ASM_DEF_DTM_PLN
 70
0
 62
7
  6
CONTINUOUS
370
-3
390
F
  0
LAYER
  5
200
100
AcDbSymbolTableRecord
100
AcDbLayerTableRecord
  2
01___PRT_ALL_DTM_PLN
 70
0
 62
7
  6
CONTINUOUS
370
-3
390
F
  0
LAYER
  5
201
100
AcDbSymbolTableRecord
100
AcDbLayerTableRecord
  2
01___PRT_DEF_DTM_PLN
 70
0
 62
7
  6
CONTINUOUS
370
-3
390
F
  0
LAYER
  5
202
100
AcDbSymbolTableRecord
100
AcDbLayerTableRecord
  2
02_ALL_AXES
 70
0
 62
7
  6
CONTINUOUS
370
-3
390
F
  0
LAYER
  5
203
100
AcDbSymbolTableRecord
100
AcDbLayerTableRecord
  2
02__ASM_ALL_AXES
 70
0
 62
7
  6
CONTINUOUS
370
-3
390
F
  0
LAYER
  5
204
100
AcDbSymbolTableRecord
100
AcDbLayerTableRecord
  2
02___PRT_ALL_AXES
 70
0
 62
7
  6
CONTINUOUS
370
-3
390
F
  0
LAYER
  5
205
100
AcDbSymbolTableRecord
100
AcDbLayerTableRecord
  2
03_ALL_CURVES
 70
0
 62
7
  6
CONTINUOUS
370
-3
390
F
  0
LAYER
  5
206
100
AcDbSymbolTableRecord
100
AcDbLayerTableRecord
  2
03__ASM_ALL_CURVES
 70
0
 62
7
  6
CONTINUOUS
370
-3
390
F
  0
LAYER
  5
207
100
AcDbSymbolTableRecord
100
AcDbLayerTableRecord
  2
03___PRT_ALL_CURVES
 70
0
 62
7
  6
CONTINUOUS
370
-3
390
F
  0
LAYER
  5
208
100
AcDbSymbolTableRecord
100
AcDbLayerTableRecord
  2
04_ALL_DTM_PNT
 70
0
 62
7
  6
CONTINUOUS
370
-3
390
F
  0
LAYER
  5
209
100
AcDbSymbolTableRecord
100
AcDbLayerTableRecord
  2
04__ASM_ALL_DTM_PNT
 70
0
 62
7
  6
CONTINUOUS
370
-3
390
F
  0
LAYER
  5
20A
100
AcDbSymbolTableRecord
100
AcDbLayerTableRecord
  2
04___PRT_ALL_DTM_PNT
 70
0
 62
7
  6
CONTINUOUS
370
-3
390
F
  0
LAYER
  5
20B
100
AcDbSymbolTableRecord
100
AcDbLayerTableRecord
  2
05_ALL_DTM_CSYS
 70
0
 62
7
  6
CONTINUOUS
370
-3
390
F
  0
LAYER
  5
20C
100
AcDbSymbolTableRecord
100
AcDbLayerTableRecord
  2
05__ASM_ALL_DTM_CSYS
 70
0
 62
7
  6
CONTINUOUS
370
-3
390
F
  0
LAYER
  5
20D
100
AcDbSymbolTableRecord
100
AcDbLayerTableRecord
  2
05__ASM_DEF_DTM_CSYS
 70
0
 62
7
  6
CONTINUOUS
370
-3
390
F
  0
LAYER
  5
20E
100
AcDbSymbolTableRecord
100
AcDbLayerTableRecord
  2
05___PRT_ALL_DTM_CSYS
 70
0
 62
7
  6
CONTINUOUS
370
-3
390
F
  0
LAYER
  5
20F
100
AcDbSymbolTableRecord
100
AcDbLayerTableRecord
  2
05___PRT_DEF_DTM_CSYS
 70
0
 62
7
  6
CONTINUOUS
370
-3
390
F
  0
LAYER
  5
210
100
AcDbSymbolTableRecord
100
AcDbLayerTableRecord
  2
06_ALL_SURFS
 70
0
 62
7
  6
CONTINUOUS
370
-3
390
F
  0
LAYER
  5
211
100
AcDbSymbolTableRecord
100
AcDbLayerTableRecord
  2
06__ASM_ALL_SURFS
 70
0
 62
7
  6
CONTINUOUS
370
-3
390
F
  0
LAYER
  5
212
100
AcDbSymbolTableRecord
100
AcDbLayerTableRecord
  2
06___PRT_ALL_SURFS
 70
0
 62
7
  6
CONTINUOUS
370
-3
390
F
  0
LAYER
  5
213
100
AcDbSymbolTableRecord
100
AcDbLayerTableRecord
  2
07__ASM_ALL_SKELETONS
 70
0
 62
7
  6
CONTINUOUS
370
-3
390
F
  0
LAYER
  5
214
100
AcDbSymbolTableRecord
100
AcDbLayerTableRecord
  2
LAYER_AXIS
 70
0
 62
7
  6
CONTINUOUS
370
-3
390
F
  0
LAYER
  5
215
100
AcDbSymbolTableRecord
100
AcDbLayerTableRecord
  2
LAYER_CHAMFER_FEAT
 70
0
 62
7
  6
CONTINUOUS
370
-3
390
F
  0
LAYER
  5
216
100
AcDbSymbolTableRecord
100
AcDbLayerTableRecord
  2
LAYER_CUT_FEAT
 70
0
 62
7
  6
CONTINUOUS
370
-3
390
F
  0
LAYER
  5
217
100
AcDbSymbolTableRecord
100
AcDbLayerTableRecord
  2
LAYER_DATUM
 70
0
 62
7
  6
CONTINUOUS
370
-3
390
F
  0
LAYER
  5
218
100
AcDbSymbolTableRecord
100
AcDbLayerTableRecord
  2
LAYER_DIM
 70
0
 62
7
  6
CONTINUOUS
370
-3
390
F
  0
LAYER
  5
219
100
AcDbSymbolTableRecord
100
AcDbLayerTableRecord
  2
LAYER_FEATURE
 70
0
 62
7
  6
CONTINUOUS
370
-3
390
F
  0
LAYER
  5
21A
100
AcDbSymbolTableRecord
100
AcDbLayerTableRecord
  2
LAYER_GEOM_FEAT
 70
0
 62
7
  6
CONTINUOUS
370
-3
390
F
  0
LAYER
  5
21B
100
AcDbSymbolTableRecord
100
AcDbLayerTableRecord
  2
LAYER_NOGEOM_FEAT
 70
0
 62
7
  6
CONTINUOUS
370
-3
390
F
  0
LAYER
  5
21C
100
AcDbSymbolTableRecord
100
AcDbLayerTableRecord
  2
LAYER_PARAMETER_DIM
 70
0
 62
7
  6
CONTINUOUS
370
-3
390
F
  0
LAYER
  5
21D
100
AcDbSymbolTableRecord
100
AcDbLayerTableRecord
  2
LAYER_PROTRUSION_FEAT
 70
0
 62
7
  6
CONTINUOUS
370
-3
390
F
  0
LAYER
  5
21E
100
AcDbSymbolTableRecord
100
AcDbLayerTableRecord
  2
LAYER_QUILT
 70
0
 62
7
  6
CONTINUOUS
370
-3
390
F
  0
LAYER
  5
21F
100
AcDbSymbolTableRecord
100
AcDbLayerTableRecord
  2
LAYER_ROUND_FEAT
 70
0
 62
7
  6
CONTINUOUS
370
-3
390
F
  0
ENDTAB
  0
TABLE
  2
STYLE
  5
3
100
AcDbSymbolTable
 70
1
  0
STYLE
  5
11
100
AcDbSymbolTableRecord
100
AcDbTextStyleTableRecord
  2
STANDARD
 70
0
 40
0.0
 41
0.8
 50
0.0
 71
0
 42
0.2
  3
txt
  4

  0
STYLE
  5
220
100
AcDbSymbolTableRecord
100
AcDbTextStyleTableRecord
  2
TEXTSTYLE_1
 70
0
 40
0.0
 41
0.8
 50
0.0
 71
0
 42
0.2
  3
gdt
  4

  0
ENDTAB
  0
TABLE
  2
VIEW
  5
6
100
AcDbSymbolTable
 70
0
  0
ENDTAB
  0
TABLE
  2
UCS
  5
7
100
AcDbSymbolTable
 70
0
  0
ENDTAB
  0
TABLE
  2
APPID
  5
9
100
AcDbSymbolTable
 70
1
  0
APPID
  5
221
100
AcDbSymbolTableRecord
100
AcDbRegAppTableRecord
  2
ACAD
 70
0
  0
ENDTAB
  0
TABLE
  2
BLOCK_RECORD
  5
1
100
AcDbSymbolTable
 70
0
  0
BLOCK_RECORD
  5
222
100
AcDbSymbolTableRecord
100
AcDbBlockTableRecord
  2
*Model_Space
  0
BLOCK_RECORD
  5
223
100
AcDbSymbolTableRecord
100
AcDbBlockTableRecord
  2
*Paper_Space
  0
ENDTAB
  0
TABLE
  2
DIMSTYLE
  5
A
100
AcDbSymbolTable
 70
1
100
AcDbDimStyleTable
 71
0
  0
DIMSTYLE
105
224
100
AcDbSymbolTableRecord
100
AcDbDimStyleTableRecord
  2
STANDARD
 70
0
  3

  4

 40
1.0
 41
0.1875
 42
0.0625
 43
0.38
 44
0.125
 45
0.0
 46
0.0
 47
0.0001
 48
0.0001
140
0.15625
141
0.09
142
0.0
143
25.4
144
1.0
145
0.0
146
1.0
147
0.09
 71
0.0
 72
0.0
 73
1
 74
1
 75
0
 76
0
 77
0
 78
4
 79
1
170
0
171
3
172
0
173
0
174
0
175
0
176
0
177
0
178
0
270
2
179
4
271
4
272
4
273
2
274
2
275
0
280
0
281
0
282
0
283
1
284
4
285
0
286
0
287
3
288
0
340
11
278
46
  0
ENDTAB
  0
ENDSEC
  0
SECTION
  2
BLOCKS
  0
BLOCK
  5
20
100
AcDbEntity
  8
0
100
AcDbBlockBegin
  2
*Model_Space
 70
0
 10
0.0
 20
0.0
 30
0.0
  3
*Model_Space
  1

  0
ENDBLK
  5
21
100
AcDbEntity
  8
0
100
AcDbBlockEnd
  0
BLOCK
  5
1C
100
AcDbEntity
  8
0
100
AcDbBlockBegin
  2
*Paper_Space
 70
0
 10
0.0
 20
0.0
 30
0.0
  3
*Paper_Space
  1

  0
ENDBLK
  5
1D
100
AcDbEntity
  8
0
100
AcDbBlockEnd
  0
ENDSEC
  0
SECTION
  2
ENTITIES
  0
MTEXT
  5
225
100
AcDbEntity
  8
0
100
AcDbMText
 62
7
  6
CONTINUOUS
  7
STANDARD
 71
1
 72
1
 10
15.9560215477
 20
0.9479130325
 30
0.0
 11
1.0
 21
0.0
 31
0.0
 44
0.9
  1
SCALE: 1:0.250
 40
0.3
 41
3.36
  0
LINE
  5
226
100
AcDbEntity
  8
0
100
AcDbLine
 62
7
  6
CONTINUOUS
 10
0.0
 20
0.0
 11
0.0
 21
17.0
  0
LINE
  5
227
100
AcDbEntity
  8
0
100
AcDbLine
 62
7
  6
CONTINUOUS
 10
0.0
 20
0.0
 11
22.0
 21
0.0
  0
LINE
  5
228
100
AcDbEntity
  8
0
100
AcDbLine
 62
7
  6
CONTINUOUS
 10
0.0
 20
17.0
 11
22.0
 21
17.0
  0
LINE
  5
229
100
AcDbEntity
  8
0
100
AcDbLine
 62
7
  6
CONTINUOUS
 10
22.0
 20
0.0
 11
22.0
 21
17.0
  0
LINE
  5
22A
100
AcDbEntity
  8
LAYER_FEATURE
100
AcDbLine
 62
7
  6
CONTINUOUS
 10
6.8366172762
 20
4.0713698968
 11
6.8059470583
 21
4.0713698968
  0
LINE
  5
22B
100
AcDbEntity
  8
LAYER_FEATURE
100
AcDbLine
 62
7
  6
CONTINUOUS
 10
5.4241172762
 20
4.0713698968
 11
5.454787494
 21
4.0713698968
  0
LINE
  5
22C
100
AcDbEntity
  8
02___PRT_ALL_AXES
100
AcDbLine
 62
7
  6
CONTINUOUS
 10
5.4691172762
 20
4.1522448968
 11
6.7916172762
 21
4.1522448968
  0
LINE
  5
22D
100
AcDbEntity
  8
LAYER_FEATURE
100
AcDbLine
 62
7
  6
CONTINUOUS
 10
5.4241172762
 20
6.9688698968
 11
5.4241172762
 21
4.0713698968
  0
LINE
  5
22E
100
AcDbEntity
  8
LAYER_FEATURE
100
AcDbLine
 62
7
  6
CONTINUOUS
 10
5.454787494
 20
6.9688698968
 11
5.454787494
 21
4.0713698968
  0
LINE
  5
22F
100
AcDbEntity
  8
LAYER_FEATURE
100
AcDbLine
 62
7
  6
CONTINUOUS
 10
5.4691172762
 20
6.9014535722
 11
5.4691172762
 21
4.1387862213
  0
LINE
  5
230
100
AcDbEntity
  8
LAYER_FEATURE
100
AcDbLine
 62
7
  6
CONTINUOUS
 10
5.454787494
 20
4.0713698968
 11
5.4691172762
 21
4.1387862213
  0
LINE
  5
231
100
AcDbEntity
  8
LAYER_FEATURE
100
AcDbLine
 62
7
  6
CONTINUOUS
 10
5.454787494
 20
6.9688698968
 11
5.4691172762
 21
6.9014535722
  0
LINE
  5
232
100
AcDbEntity
  8
LAYER_FEATURE
100
AcDbLine
 62
7
  6
CONTINUOUS
 10
6.8059470583
 20
6.9688698968
 11
6.7916172762
 21
6.9014535722
  0
LINE
  5
233
100
AcDbEntity
  8
LAYER_FEATURE
100
AcDbLine
 62
7
  6
CONTINUOUS
 10
6.8059470583
 20
4.0713698968
 11
6.7916172762
 21
4.1387862213
  0
LINE
  5
234
100
AcDbEntity
  8
LAYER_FEATURE
100
AcDbLine
 62
7
  6
CONTINUOUS
 10
6.7916172762
 20
6.9014535722
 11
6.7916172762
 21
4.1387862213
  0
LINE
  5
235
100
AcDbEntity
  8
LAYER_FEATURE
100
AcDbLine
 62
7
  6
CONTINUOUS
 10
6.8059470583
 20
6.9688698968
 11
6.8059470583
 21
4.0713698968
  0
LINE
  5
236
100
AcDbEntity
  8
LAYER_FEATURE
100
AcDbLine
 62
7
  6
CONTINUOUS
 10
6.8366172762
 20
6.9688698968
 11
6.8366172762
 21
4.0713698968
  0
LINE
  5
237
100
AcDbEntity
  8
LAYER_FEATURE
100
AcDbLine
 62
7
  6
CONTINUOUS
 10
5.4691172762
 20
6.8093294847
 11
6.7916172762
 21
6.8093294847
  0
LINE
  5
238
100
AcDbEntity
  8
0
100
AcDbLine
 62
7
  6
CONTINUOUS
 10
5.4691172762
 20
6.8097352187
 11
6.7916172762
 21
6.8097352187
  0
LINE
  5
239
100
AcDbEntity
  8
LAYER_FEATURE
100
AcDbLine
 62
7
  6
CONTINUOUS
 10
5.4691172762
 20
6.8428578858
 11
6.7916172762
 21
6.8428578858
  0
LINE
  5
23A
100
AcDbEntity
  8
LAYER_FEATURE
100
AcDbLine
 62
7
  6
CONTINUOUS
 10
5.4691172762
 20
6.8484443141
 11
6.7916172762
 21
6.8484443141
  0
LINE
  5
23B
100
AcDbEntity
  8
0
100
AcDbLine
 62
7
  6
CONTINUOUS
 10
5.4691172762
 20
6.84862539
 11
6.7916172762
 21
6.84862539
  0
LINE
  5
23C
100
AcDbEntity
  8
LAYER_FEATURE
100
AcDbLine
 62
7
  6
CONTINUOUS
 10
5.4691172762
 20
6.8709834379
 11
6.7916172762
 21
6.8709834379
  0
LINE
  5
23D
100
AcDbEntity
  8
LAYER_FEATURE
100
AcDbLine
 62
7
  6
CONTINUOUS
 10
5.4691172762
 20
6.8743576586
 11
6.7916172762
 21
6.8743576586
  0
LINE
  5
23E
100
AcDbEntity
  8
0
100
AcDbLine
 62
7
  6
CONTINUOUS
 10
5.4691172762
 20
6.8744030403
 11
6.7916172762
 21
6.8744030403
  0
LINE
  5
23F
100
AcDbEntity
  8
LAYER_FEATURE
100
AcDbLine
 62
7
  6
CONTINUOUS
 10
5.4691172762
 20
6.8856835012
 11
6.7916172762
 21
6.8856835012
  0
LINE
  5
240
100
AcDbEntity
  8
LAYER_FEATURE
100
AcDbLine
 62
7
  6
CONTINUOUS
 10
5.4691172762
 20
6.8868119798
 11
6.7916172762
 21
6.8868119798
  0
LINE
  5
241
100
AcDbEntity
  8
LAYER_FEATURE
100
AcDbLine
 62
7
  6
CONTINUOUS
 10
6.8366172762
 20
6.9688698968
 11
6.8059470583
 21
6.9688698968
  0
LINE
  5
242
100
AcDbEntity
  8
LAYER_FEATURE
100
AcDbLine
 62
7
  6
CONTINUOUS
 10
5.4241172762
 20
6.9688698968
 11
5.454787494
 21
6.9688698968
  0
LINE
  5
243
100
AcDbEntity
  8
LAYER_FEATURE
100
AcDbLine
 62
7
  6
CONTINUOUS
 10
5.3646220839
 20
11.1512977814
 11
5.3952923017
 21
11.1512977814
  0
LINE
  5
244
100
AcDbEntity
  8
LAYER_FEATURE
100
AcDbLine
 62
7
  6
CONTINUOUS
 10
6.746451866
 20
11.1512977814
 11
6.7771220839
 21
11.1512977814
  0
LINE
  5
245
100
AcDbEntity
  8
02___PRT_ALL_AXES
100
AcDbLine
 62
7
  6
CONTINUOUS
 10
5.4096220839
 20
11.2321727814
 11
6.7321220839
 21
11.2321727814
  0
LINE
  5
246
100
AcDbEntity
  8
LAYER_FEATURE
100
AcDbLine
 62
7
  6
CONTINUOUS
 10
5.3646220839
 20
11.1512977814
 11
5.3646220839
 21
14.0487977814
  0
LINE
  5
247
100
AcDbEntity
  8
LAYER_FEATURE
100
AcDbLine
 62
7
  6
CONTINUOUS
 10
5.3952923017
 20
11.1512977814
 11
5.3952923017
 21
14.0487977814
  0
LINE
  5
248
100
AcDbEntity
  8
LAYER_FEATURE
100
AcDbLine
 62
7
  6
CONTINUOUS
 10
5.4096220839
 20
11.218714106
 11
5.4096220839
 21
13.9813814568
  0
LINE
  5
249
100
AcDbEntity
  8
LAYER_FEATURE
100
AcDbLine
 62
7
  6
CONTINUOUS
 10
5.4096220839
 20
12.1428600147
 11
6.7321220839
 21
12.1428600147
  0
LINE
  5
24A
100
AcDbEntity
  8
LAYER_FEATURE
100
AcDbLine
 62
7
  6
CONTINUOUS
 10
5.3952923017
 20
11.1512977814
 11
5.4096220839
 21
11.218714106
  0
LINE
  5
24B
100
AcDbEntity
  8
LAYER_FEATURE
100
AcDbLine
 62
7
  6
CONTINUOUS
 10
6.7321220839
 20
12.1997028129
 11
5.4096220839
 21
12.1997028129
  0
LINE
  5
24C
100
AcDbEntity
  8
LAYER_FEATURE
100
AcDbLine
 62
7
  6
CONTINUOUS
 10
6.7321220839
 20
12.228369997
 11
5.4096220839
 21
12.228369997
  0
LINE
  5
24D
100
AcDbEntity
  8
LAYER_FEATURE
100
AcDbLine
 62
7
  6
CONTINUOUS
 10
5.4096220839
 20
12.2515564214
 11
6.7321220839
 21
12.2515564214
  0
LINE
  5
24E
100
AcDbEntity
  8
LAYER_FEATURE
100
AcDbLine
 62
7
  6
CONTINUOUS
 10
5.4096220839
 20
12.2734957059
 11
6.7321220839
 21
12.2734957059
  0
LINE
  5
24F
100
AcDbEntity
  8
LAYER_FEATURE
100
AcDbLine
 62
7
  6
CONTINUOUS
 10
5.3952923017
 20
14.0487977814
 11
5.4096220839
 21
13.9813814568
  0
LINE
  5
250
100
AcDbEntity
  8
LAYER_FEATURE
100
AcDbLine
 62
7
  6
CONTINUOUS
 10
6.7321220839
 20
12.3258530049
 11
5.4096220839
 21
12.3258530049
  0
LINE
  5
251
100
AcDbEntity
  8
LAYER_FEATURE
100
AcDbLine
 62
7
  6
CONTINUOUS
 10
6.7321220839
 20
12.3552581796
 11
5.4096220839
 21
12.3552581796
  0
LINE
  5
252
100
AcDbEntity
  8
LAYER_FEATURE
100
AcDbLine
 62
7
  6
CONTINUOUS
 10
5.4096220839
 20
12.3849903264
 11
6.7321220839
 21
12.3849903264
  0
LINE
  5
253
100
AcDbEntity
  8
LAYER_FEATURE
100
AcDbLine
 62
7
  6
CONTINUOUS
 10
5.4096220839
 20
12.4073768183
 11
6.7321220839
 21
12.4073768183
  0
LINE
  5
254
100
AcDbEntity
  8
LAYER_FEATURE
100
AcDbLine
 62
7
  6
CONTINUOUS
 10
6.7321220839
 20
12.4547282678
 11
5.4096220839
 21
12.4547282678
  0
LINE
  5
255
100
AcDbEntity
  8
LAYER_FEATURE
100
AcDbLine
 62
7
  6
CONTINUOUS
 10
6.7321220839
 20
12.4845791911
 11
5.4096220839
 21
12.4845791911
  0
LINE
  5
256
100
AcDbEntity
  8
LAYER_FEATURE
100
AcDbLine
 62
7
  6
CONTINUOUS
 10
5.4096220839
 20
12.520561569
 11
6.7321220839
 21
12.520561569
  0
LINE
  5
257
100
AcDbEntity
  8
LAYER_FEATURE
100
AcDbLine
 62
7
  6
CONTINUOUS
 10
5.4096220839
 20
12.5431727814
 11
6.7321220839
 21
12.5431727814
  0
LINE
  5
258
100
AcDbEntity
  8
LAYER_FEATURE
100
AcDbLine
 62
7
  6
CONTINUOUS
 10
6.7321220839
 20
12.5850477814
 11
5.4096220839
 21
12.5850477814
  0
LINE
  5
259
100
AcDbEntity
  8
LAYER_FEATURE
100
AcDbLine
 62
7
  6
CONTINUOUS
 10
6.7321220839
 20
12.6150477814
 11
5.4096220839
 21
12.6150477814
  0
LINE
  5
25A
100
AcDbEntity
  8
LAYER_FEATURE
100
AcDbLine
 62
7
  6
CONTINUOUS
 10
5.4096220839
 20
12.6569227814
 11
6.7321220839
 21
12.6569227814
  0
LINE
  5
25B
100
AcDbEntity
  8
LAYER_FEATURE
100
AcDbLine
 62
7
  6
CONTINUOUS
 10
6.7321220839
 20
13.9813814568
 11
6.746451866
 21
14.0487977814
  0
LINE
  5
25C
100
AcDbEntity
  8
LAYER_FEATURE
100
AcDbLine
 62
7
  6
CONTINUOUS
 10
6.7321220839
 20
11.218714106
 11
6.746451866
 21
11.1512977814
  0
LINE
  5
25D
100
AcDbEntity
  8
LAYER_FEATURE
100
AcDbLine
 62
7
  6
CONTINUOUS
 10
6.7321220839
 20
11.2187141957
 11
6.7321220839
 21
13.9813813671
  0
LINE
  5
25E
100
AcDbEntity
  8
LAYER_FEATURE
100
AcDbLine
 62
7
  6
CONTINUOUS
 10
6.746451866
 20
11.1512977814
 11
6.746451866
 21
14.0487977814
  0
LINE
  5
25F
100
AcDbEntity
  8
LAYER_FEATURE
100
AcDbLine
 62
7
  6
CONTINUOUS
 10
6.7771220839
 20
11.1512977814
 11
6.7771220839
 21
14.0487977814
  0
LINE
  5
260
100
AcDbEntity
  8
02___PRT_ALL_AXES
100
AcDbLine
 62
7
  6
CONTINUOUS
 10
5.4096220839
 20
13.9679227814
 11
6.7321220839
 21
13.9679227814
  0
LINE
  5
261
100
AcDbEntity
  8
LAYER_FEATURE
100
AcDbLine
 62
7
  6
CONTINUOUS
 10
5.3646220839
 20
14.0487977814
 11
5.3952923017
 21
14.0487977814
  0
LINE
  5
262
100
AcDbEntity
  8
LAYER_FEATURE
100
AcDbLine
 62
7
  6
CONTINUOUS
 10
6.746451866
 20
14.0487977814
 11
6.7771220839
 21
14.0487977814
  0
LINE
  5
263
100
AcDbEntity
  8
LAYER_FEATURE
100
AcDbLine
 62
7
  6
CONTINUOUS
 10
14.8205947445
 20
11.0620549929
 11
14.8488438858
 21
11.0620549929
  0
LINE
  5
264
100
AcDbEntity
  8
LAYER_FEATURE
100
AcDbLine
 62
7
  6
CONTINUOUS
 10
16.0933442572
 20
11.0620549929
 11
16.1215933985
 21
11.0620549929
  0
LINE
  5
265
100
AcDbEntity
  8
02___PRT_ALL_AXES
100
AcDbLine
 62
7
  6
CONTINUOUS
 10
14.8620424892
 20
11.1429299929
 11
15.907791786
 21
11.1429299929
  0
LINE
  5
266
100
AcDbEntity
  8
LAYER_FEATURE
100
AcDbLine
 62
7
  6
CONTINUOUS
 10
14.3847462173
 20
12.9723496589
 11
14.3889881971
 21
13.0003021184
  0
LINE
  5
267
100
AcDbEntity
  8
LAYER_FEATURE
100
AcDbLine
 62
7
  6
CONTINUOUS
 10
14.4050137329
 20
13.0920929235
 11
14.4103184494
 21
13.1188218766
  0
LINE
  5
268
100
AcDbEntity
  8
LAYER_FEATURE
100
AcDbLine
 62
7
  6
CONTINUOUS
 10
14.4298234057
 20
13.2060590874
 11
14.4361381381
 21
13.2312988898
  0
LINE
  5
269
100
AcDbEntity
  8
LAYER_FEATURE
100
AcDbLine
 62
7
  6
CONTINUOUS
 10
14.4608269542
 20
13.319258367
 11
14.4661906555
 21
13.336615311
  0
LINE
  5
26A
100
AcDbEntity
  8
LAYER_FEATURE
100
AcDbLine
 62
7
  6
CONTINUOUS
 10
14.3833708117
 20
13.030071733
 11
14.3750734756
 21
13.0500752394
  0
LINE
  5
26B
100
AcDbEntity
  8
LAYER_FEATURE
100
AcDbLine
 62
7
  6
CONTINUOUS
 10
14.4058832515
 20
13.1498798321
 11
14.3984027536
 21
13.1719054285
  0
LINE
  5
26C
100
AcDbEntity
  8
LAYER_FEATURE
100
AcDbLine
 62
7
  6
CONTINUOUS
 10
14.4329292067
 20
13.2633365184
 11
14.4263398916
 21
13.2871653045
  0
LINE
  5
26D
100
AcDbEntity
  8
LAYER_FEATURE
100
AcDbLine
 62
7
  6
CONTINUOUS
 10
14.4642398826
 20
13.3693142082
 11
14.4586072377
 21
13.394709363
  0
LINE
  5
26E
100
AcDbEntity
  8
02___PRT_ALL_AXES
100
AcDbLine
 62
7
  6
CONTINUOUS
 10
15.9951945314
 20
13.7189799214
 11
15.9871409257
 21
13.7136262456
  0
LINE
  5
26F
100
AcDbEntity
  8
02___PRT_ALL_AXES
100
AcDbLine
 62
7
  6
CONTINUOUS
 10
15.9951945314
 20
11.3026300644
 11
15.9871409257
 21
11.3079837402
  0
LINE
  5
270
100
AcDbEntity
  8
LAYER_FEATURE
100
AcDbLine
 62
7
  6
CONTINUOUS
 10
14.3613855724
 20
12.9598790163
 11
14.3727658621
 21
12.9601905845
  0
LINE
  5
271
100
AcDbEntity
  8
LAYER_FEATURE
100
AcDbLine
 62
7
  6
CONTINUOUS
 10
14.3581098283
 20
12.9540630436
 11
15.556258983
 21
12.9540630436
  0
LINE
  5
272
100
AcDbEntity
  8
LAYER_FEATURE
100
AcDbLine
 62
7
  6
CONTINUOUS
 10
15.5586857721
 20
12.9723496589
 11
14.3847462173
 21
12.9723496589
  0
LINE
  5
273
100
AcDbEntity
  8
LAYER_FEATURE
100
AcDbLine
 62
7
  6
CONTINUOUS
 10
15.5623953007
 20
13.0003021184
 11
14.3889881971
 21
13.0003021184
  0
LINE
  5
274
100
AcDbEntity
  8
LAYER_FEATURE
100
AcDbLine
 62
7
  6
CONTINUOUS
 10
14.3741940017
 20
13.0600494522
 11
15.5712904269
 21
13.0600494522
  0
LINE
  5
275
100
AcDbEntity
  8
LAYER_FEATURE
100
AcDbLine
 62
7
  6
CONTINUOUS
 10
14.3778006692
 20
13.0807076637
 11
15.5747768766
 21
13.0807076637
  0
LINE
  5
276
100
AcDbEntity
  8
0
100
AcDbLine
 62
7
  6
CONTINUOUS
 10
14.3809692853
 20
13.0856933859
 11
15.5756184125
 21
13.0856933859
  0
LINE
  5
277
100
AcDbEntity
  8
LAYER_FEATURE
100
AcDbLine
 62
7
  6
CONTINUOUS
 10
15.5766985851
 20
13.0920929235
 11
14.4050137329
 21
13.0920929235
  0
LINE
  5
278
100
AcDbEntity
  8
LAYER_FEATURE
100
AcDbLine
 62
7
  6
CONTINUOUS
 10
15.5813090692
 20
13.1188218766
 11
14.4103184494
 21
13.1188218766
  0
LINE
  5
279
100
AcDbEntity
  8
LAYER_FEATURE
100
AcDbLine
 62
7
  6
CONTINUOUS
 10
14.3979143856
 20
13.1820549442
 11
15.593495255
 21
13.1820549442
  0
LINE
  5
27A
100
AcDbEntity
  8
LAYER_FEATURE
100
AcDbLine
 62
7
  6
CONTINUOUS
 10
14.4023041229
 20
13.201688335
 11
15.5975689163
 21
13.201688335
  0
LINE
  5
27B
100
AcDbEntity
  8
0
100
AcDbLine
 62
7
  6
CONTINUOUS
 10
14.4052962058
 20
13.2058845009
 11
15.5984395636
 21
13.2058845009
  0
LINE
  5
27C
100
AcDbEntity
  8
LAYER_FEATURE
100
AcDbLine
 62
7
  6
CONTINUOUS
 10
15.5984757879
 20
13.2060590874
 11
14.4298234057
 21
13.2060590874
  0
LINE
  5
27D
100
AcDbEntity
  8
LAYER_FEATURE
100
AcDbLine
 62
7
  6
CONTINUOUS
 10
15.6039935607
 20
13.2312988898
 11
14.4361381381
 21
13.2312988898
  0
LINE
  5
27E
100
AcDbEntity
  8
LAYER_FEATURE
100
AcDbLine
 62
7
  6
CONTINUOUS
 10
14.4262474832
 20
13.2973892527
 11
15.6197014813
 21
13.2973892527
  0
LINE
  5
27F
100
AcDbEntity
  8
LAYER_FEATURE
100
AcDbLine
 62
7
  6
CONTINUOUS
 10
14.431376663
 20
13.3158026973
 11
15.6242986223
 21
13.3158026973
  0
LINE
  5
280
100
AcDbEntity
  8
0
100
AcDbLine
 62
7
  6
CONTINUOUS
 10
14.4341624761
 20
13.319258367
 11
15.625209862
 21
13.319258367
  0
LINE
  5
281
100
AcDbEntity
  8
LAYER_FEATURE
100
AcDbLine
 62
7
  6
CONTINUOUS
 10
15.6299377682
 20
13.336615311
 11
14.4661906555
 21
13.336615311
  0
LINE
  5
282
100
AcDbEntity
  8
LAYER_FEATURE
100
AcDbLine
 62
7
  6
CONTINUOUS
 10
14.4589117072
 20
13.4049061333
 11
15.6495009341
 21
13.4049061333
  0
LINE
  5
283
100
AcDbEntity
  8
02___PRT_ALL_AXES
100
AcDbLine
 62
7
  6
CONTINUOUS
 10
14.8620424892
 20
13.8786799929
 11
15.9074982697
 21
13.8786799929
  0
LINE
  5
284
100
AcDbEntity
  8
LAYER_FEATURE
100
AcDbLine
 62
7
  6
CONTINUOUS
 10
14.8205947445
 20
13.9595549929
 11
14.8488438858
 21
13.9595549929
  0
LINE
  5
285
100
AcDbEntity
  8
LAYER_FEATURE
100
AcDbLine
 62
7
  6
CONTINUOUS
 10
16.0933442572
 20
13.9595549929
 11
16.1215933985
 21
13.9595549929
  0
CIRCLE
  5
286
100
AcDbEntity
  8
LAYER_FEATURE
100
AcDbCircle
 62
7
  6
CONTINUOUS
 10
15.5603552569
 20
5.4606247044
 40
1.44875
  0
CIRCLE
  5
287
100
AcDbEntity
  8
LAYER_FEATURE
100
AcDbCircle
 62
7
  6
CONTINUOUS
 10
15.5603552569
 20
5.4606247044
 40
1.3813336754
  0
CIRCLE
  5
288
100
AcDbEntity
  8
02___PRT_ALL_AXES
100
AcDbCircle
 62
7
  6
CONTINUOUS
 10
15.5603552569
 20
5.4606247044
 40
1.248
  0
CIRCLE
  5
289
100
AcDbEntity
  8
LAYER_CHAMFER_FEAT
100
AcDbCircle
 62
7
  6
CONTINUOUS
 10
15.5603552569
 20
5.4606247044
 40
1.2145
  0
CIRCLE
  5
28A
100
AcDbEntity
  8
LAYER_CHAMFER_FEAT
100
AcDbCircle
 62
7
  6
CONTINUOUS
 10
15.5603552569
 20
5.4606247044
 40
1.19875
  0
ARC
  5
28B
100
AcDbEntity
  8
02___PRT_ALL_AXES
100
AcDbCircle
 62
7
  6
CONTINUOUS
 10
15.5603552569
 20
5.4606247044
 40
0.796875
100
AcDbArc
 50
63.5004358716
 51
138.4995641284
  0
ARC
  5
28C
100
AcDbEntity
  8
02___PRT_ALL_AXES
100
AcDbCircle
 62
7
  6
CONTINUOUS
 10
15.5603552569
 20
5.4606247044
 40
0.796875
100
AcDbArc
 50
23.5004358716
 51
50.4995641284
  0
ARC
  5
28D
100
AcDbEntity
  8
02___PRT_ALL_AXES
100
AcDbCircle
 62
7
  6
CONTINUOUS
 10
15.5603552569
 20
5.4606247044
 40
0.796875
100
AcDbArc
 50
231.5004358716
 51
258.4995641284
  0
ARC
  5
28E
100
AcDbEntity
  8
02___PRT_ALL_AXES
100
AcDbCircle
 62
7
  6
CONTINUOUS
 10
15.5603552569
 20
5.4606247044
 40
0.796875
100
AcDbArc
 50
151.5004358716
 51
218.4995641284
  0
ARC
  5
28F
100
AcDbEntity
  8
02___PRT_ALL_AXES
100
AcDbCircle
 62
7
  6
CONTINUOUS
 10
15.5603552569
 20
5.4606247044
 40
0.796875
100
AcDbArc
 50
271.5004358716
 51
10.4995641284
  0
ARC
  5
290
100
AcDbEntity
  8
02___PRT_ALL_AXES
100
AcDbCircle
 62
7
  6
CONTINUOUS
 10
15.5603552569
 20
5.4606247044
 40
0.7662820198
100
AcDbArc
 50
49.9856802133
 51
64.0143197867
  0
ARC
  5
291
100
AcDbEntity
  8
02___PRT_ALL_AXES
100
AcDbCircle
 62
7
  6
CONTINUOUS
 10
15.5603552569
 20
5.4606247044
 40
0.7662820198
100
AcDbArc
 50
217.9856802133
 51
232.0143197867
  0
ARC
  5
292
100
AcDbEntity
  8
02___PRT_ALL_AXES
100
AcDbCircle
 62
7
  6
CONTINUOUS
 10
15.5603552569
 20
5.4606247044
 40
0.7356890395
100
AcDbArc
 50
23.7673448343
 51
138.2326551657
  0
ARC
  5
293
100
AcDbEntity
  8
02___PRT_ALL_AXES
100
AcDbCircle
 62
7
  6
CONTINUOUS
 10
15.5603552569
 20
5.4606247044
 40
0.7356890395
100
AcDbArc
 50
151.7673448343
 51
258.2326551657
  0
ARC
  5
294
100
AcDbEntity
  8
02___PRT_ALL_AXES
100
AcDbCircle
 62
7
  6
CONTINUOUS
 10
15.5603552569
 20
5.4606247044
 40
0.7356890395
100
AcDbArc
 50
271.7673448343
 51
10.2326551657
  0
ARC
  5
295
100
AcDbEntity
  8
02___PRT_ALL_AXES
100
AcDbCircle
 62
7
  6
CONTINUOUS
 10
15.9776849175
 20
6.1032560271
 40
0.09375
100
AcDbArc
 50
323.5123725022
 51
150.4876274978
  0
ARC
  5
296
100
AcDbEntity
  8
02___PRT_ALL_AXES
100
AcDbCircle
 62
7
  6
CONTINUOUS
 10
15.0185346859
 20
4.9188041334
 40
0.09375
100
AcDbArc
 50
131.5123725022
 51
318.4876274978
  0
ARC
  5
297
100
AcDbEntity
  8
02___PRT_ALL_AXES
100
AcDbCircle
 62
7
  6
CONTINUOUS
 10
16.2931237762
 20
5.6846545232
 40
0.09375
100
AcDbArc
 50
264.6255906631
 51
129.3744093369
  0
ARC
  5
298
100
AcDbEntity
  8
02___PRT_ALL_AXES
100
AcDbCircle
 62
7
  6
CONTINUOUS
 10
15.4935721691
 20
4.697290517
 40
0.09375
100
AcDbArc
 50
152.6255906631
 51
17.3744093369
  0
ARC
  5
299
100
AcDbEntity
  8
02___PRT_ALL_AXES
100
AcDbCircle
 62
7
  6
CONTINUOUS
 10
14.932680003
 20
5.9001276488
 40
0.09375
100
AcDbArc
 50
32.6255906631
 51
257.3744093369
  0
ARC
  5
29A
100
AcDbEntity
  8
02___PRT_ALL_AXES
100
AcDbCircle
 62
7
  6
CONTINUOUS
 10
16.631184299
 20
33.5024668797
 40
21.6163355592
100
AcDbArc
 50
267.5490341285
 51
267.8782185416
  0
ARC
  5
29B
100
AcDbEntity
  8
02___PRT_ALL_AXES
100
AcDbCircle
 62
7
  6
CONTINUOUS
 10
14.6156834106
 20
-6.2381143813
 40
18.3137256959
100
AcDbArc
 50
86.0439312145
 51
86.6673894335
  0
ARC
  5
29C
100
AcDbEntity
  8
LAYER_FEATURE
100
AcDbCircle
 62
7
  6
CONTINUOUS
 10
17.1218755465
 20
12.5909822878
 40
2.7874321294
100
AcDbArc
 50
169.8811559092
 51
170.3122102588
  0
ARC
  5
29D
100
AcDbEntity
  8
LAYER_FEATURE
100
AcDbCircle
 62
7
  6
CONTINUOUS
 10
16.8009488549
 20
12.6550792425
 40
2.4601378113
100
AcDbArc
 50
167.1625183846
 51
167.6310645386
  0
ARC
  5
29E
100
AcDbEntity
  8
LAYER_FEATURE
100
AcDbCircle
 62
7
  6
CONTINUOUS
 10
16.4605720354
 20
12.7406365732
 40
2.1091348771
100
AcDbArc
 50
164.1748616484
 51
164.6941185808
  0
ARC
  5
29F
100
AcDbEntity
  8
LAYER_CHAMFER_FEAT
100
AcDbCircle
 62
7
  6
CONTINUOUS
 10
16.2748141602
 20
11.732506622
 40
0.4812096742
100
AcDbArc
 50
220.9401484284
 51
222.0249548317
  0
ARC
  5
2A0
100
AcDbEntity
  8
LAYER_CHAMFER_FEAT
100
AcDbCircle
 62
7
  6
CONTINUOUS
 10
16.2728494636
 20
13.2908320405
 40
0.4785929162
100
AcDbArc
 50
137.9610123375
 51
139.1929190161
  0
ARC
  5
2A1
100
AcDbEntity
  8
LAYER_FEATURE
100
AcDbCircle
 62
7
  6
CONTINUOUS
 10
14.406944509
 20
13.2208330945
 40
0.0272344488
100
AcDbArc
 50
326.6763040134
 51
327.1477189331
  0
SPLINE
  5
2A2
100
AcDbEntity
  8
02___PRT_ALL_AXES
100
AcDbSpline
 62
7
  6
CONTINUOUS
 70
0
 71
3
 72
39
 73
35
 74
0
 42
0.0000001
 43
0.0000001
 44
0.0000000001
 40
0.0
 40
0.0
 40
0.0
 40
0.0
 40
0.0471879045
 40
0.0932796282
 40
0.1382376348
 40
0.1820289825
 40
0.2246235016
 40
0.2659952348
 40
0.3061223806
 40
0.3449878524
 40
0.3825797214
 40
0.4188917721
 40
0.453924119
 40
0.4876839121
 40
0.5201861355
 40
0.5514545017
 40
0.5815224389
 40
0.6104341536
 40
0.6382457377
 40
0.6650262519
 40
0.6908586874
 40
0.7158406725
 40
0.7400847419
 40
0.7637179672
 40
0.7868807556
 40
0.8097246944
 40
0.8324094447
 40
0.8550988574
 40
0.8779566589
 40
0.9011421493
 40
0.9248063569
 40
0.9490889824
 40
0.9741162986
 40
1.0
 40
1.0
 40
1.0
 40
1.0
 10
16.4976803431
 20
11.7350357525
 30
0.0
 10
16.4940918284
 20
11.7234233145
 30
0.0
 10
16.4867611324
 20
11.7005405377
 30
0.0
 10
16.475159666
 20
11.6668745035
 30
0.0
 10
16.4630936614
 20
11.6343031303
 30
0.0
 10
16.4505789006
 20
11.6028688552
 30
0.0
 10
16.4376314985
 20
11.5726122023
 30
0.0
 10
16.424268232
 20
11.5435723271
 30
0.0
 10
16.4105063331
 20
11.5157867221
 30
0.0
 10
16.3963635327
 20
11.4892912503
 30
0.0
 10
16.3818579995
 20
11.4641200752
 30
0.0
 10
16.3670083149
 20
11.4403056246
 30
0.0
 10
16.3518334263
 20
11.417878558
 30
0.0
 10
16.3363526063
 20
11.3968677415
 30
0.0
 10
16.3205854082
 20
11.3773002328
 30
0.0
 10
16.3045516226
 20
11.3592012793
 30
0.0
 10
16.2882712387
 20
11.3425943324
 30
0.0
 10
16.2717644165
 20
11.327501081
 30
0.0
 10
16.2550514832
 20
11.3139415003
 30
0.0
 10
16.2381529645
 20
11.3019339145
 30
0.0
 10
16.2210896607
 20
11.2914950643
 30
0.0
 10
16.203882786
 20
11.2826401415
 30
0.0
 10
16.1865541601
 20
11.2753827579
 30
0.0
 10
16.1691264215
 20
11.2697348049
 30
0.0
 10
16.1516231988
 20
11.2657061782
 30
0.0
 10
16.1340691524
 20
11.2633043884
 30
0.0
 10
16.116489816
 20
11.2625341276
 30
0.0
 10
16.0989112192
 20
11.2633969369
 30
0.0
 10
16.081359381
 20
11.2658910836
 30
0.0
 10
16.0638597761
 20
11.2700117154
 30
0.0
 10
16.0464370732
 20
11.2757511363
 30
0.0
 10
16.029114592
 20
11.2830994949
 30
0.0
 10
16.0119158943
 20
11.2920441611
 30
0.0
 10
16.0007466297
 20
11.2989392862
 30
0.0
 10
15.9951945315
 20
11.3026300656
 30
0.0
  0
SPLINE
  5
2A3
100
AcDbEntity
  8
02___PRT_ALL_AXES
100
AcDbSpline
 62
7
  6
CONTINUOUS
 70
0
 71
3
 72
15
 73
11
 74
0
 42
0.0000001
 43
0.0000001
 44
0.0000000001
 40
0.0
 40
0.0
 40
0.0
 40
0.0
 40
0.1524452277
 40
0.2953097684
 40
0.4290966546
 40
0.5545986904
 40
0.6728888389
 40
0.7853662881
 40
0.8937452513
 40
1.0
 40
1.0
 40
1.0
 40
1.0
 10
15.8308695455
 20
11.9009516712
 30
0.0
 10
15.8314993414
 20
11.9001044089
 30
0.0
 10
15.832775608
 20
11.8985036623
 30
0.0
 10
15.8348091474
 20
11.8963322162
 30
0.0
 10
15.8368924232
 20
11.8944774223
 30
0.0
 10
15.8390187524
 20
11.8929465998
 30
0.0
 10
15.8411815887
 20
11.891746405
 30
0.0
 10
15.843373922
 20
11.890883113
 30
0.0
 10
15.8455867107
 20
11.8903623365
 30
0.0
 10
15.8470755443
 20
11.8902458586
 30
0.0
 10
15.8478113681
 20
11.8902458654
 30
0.0
  0
SPLINE
  5
2A4
100
AcDbEntity
  8
LAYER_CHAMFER_FEAT
100
AcDbSpline
 62
7
  6
CONTINUOUS
 70
0
 71
3
 72
14
 73
10
 74
0
 42
0.0000001
 43
0.0000001
 44
0.0000000001
 40
0.0
 40
0.0
 40
0.0
 40
0.0
 40
0.2714512113
 40
0.4018358436
 40
0.5286296598
 40
0.6518278979
 40
0.7714385276
 40
0.8874836439
 40
1.0
 40
1.0
 40
1.0
 40
1.0
 10
15.8229985438
 20
11.5594544612
 30
0.0
 10
15.830046692
 20
11.5450918452
 30
0.0
 10
15.8409742855
 20
11.5240652024
 30
0.0
 10
15.8564384362
 20
11.4970141473
 30
0.0
 10
15.8681046103
 20
11.477866272
 30
0.0
 10
15.8799841879
 20
11.4596030489
 30
0.0
 10
15.8920673598
 20
11.442239788
 30
0.0
 10
15.9043436274
 20
11.425791661
 30
0.0
 10
15.9127791968
 20
11.415284355
 30
0.0
 10
15.9170286442
 20
11.4101933031
 30
0.0
  0
SPLINE
  5
2A5
100
AcDbEntity
  8
02___PRT_ALL_AXES
100
AcDbSpline
 62
7
  6
CONTINUOUS
 70
0
 71
3
 72
60
 73
56
 74
0
 42
0.0000001
 43
0.0000001
 44
0.0000000001
 40
0.0
 40
0.0
 40
0.0
 40
0.0
 40
0.0092160213
 40
0.018105103
 40
0.0267145941
 40
0.0350983554
 40
0.0433161068
 40
0.0514322652
 40
0.0595143013
 40
0.0676307436
 40
0.075849054
 40
0.0842336332
 40
0.0928441787
 40
0.1017345256
 40
0.1109519949
 40
0.1205371878
 40
0.1305241196
 40
0.1409405786
 40
0.1518086104
 40
0.1631450518
 40
0.1749620644
 40
0.1872676391
 40
0.2000660548
 40
0.2133582875
 40
0.2271423689
 40
0.2414136999
 40
0.2561653224
 40
0.2713881552
 40
0.2870712
 40
0.3032017213
 40
0.3197654052
 40
0.3367464995
 40
0.3541279398
 40
0.3718914629
 40
0.3900177101
 40
0.4084863221
 40
0.427276027
 40
0.4463647225
 40
0.4853455426
 40
0.5252397525
 40
0.565848087
 40
0.6069647005
 40
0.6483791574
 40
0.6898783662
 40
0.7312484843
 40
0.772276814
 40
0.8127537118
 40
0.8524745311
 40
0.8912416293
 40
0.9102089837
 40
0.9288680764
 40
0.947197153
 40
0.9651752761
 40
0.9827825657
 40
1.0
 40
1.0
 40
1.0
 40
1.0
 10
15.9951945321
 20
13.7189799137
 30
0.0
 10
16.0011912055
 20
13.7229662395
 30
0.0
 10
16.0132622295
 20
13.7303732967
 30
0.0
 10
16.0318880267
 20
13.7398451108
 30
0.0
 10
16.0506563144
 20
13.7474464487
 30
0.0
 10
16.0695369704
 20
13.7531612723
 30
0.0
 10
16.0884998355
 20
13.7569773566
 30
0.0
 10
16.1075127565
 20
13.7588857432
 30
0.0
 10
16.1265424766
 20
13.7588817713
 30
0.0
 10
16.1455552612
 20
13.7569654471
 30
0.0
 10
16.1645178373
 20
13.7531414644
 30
0.0
 10
16.1833981391
 20
13.7474187448
 30
0.0
 10
16.2021656979
 20
13.7398097288
 30
0.0
 10
16.220791633
 20
13.7303296736
 30
0.0
 10
16.239248374
 20
13.7189961481
 30
0.0
 10
16.2575092869
 20
13.705828779
 30
0.0
 10
16.2755483374
 20
13.6908492018
 30
0.0
 10
16.2933398553
 20
13.6740811332
 30
0.0
 10
16.3108584072
 20
13.6555504893
 30
0.0
 10
16.3280787556
 20
13.6352854988
 30
0.0
 10
16.3449758758
 20
13.6133167894
 30
0.0
 10
16.3615250064
 20
13.589677439
 30
0.0
 10
16.377701715
 20
13.5644029938
 30
0.0
 10
16.3934819685
 20
13.5375314604
 30
0.0
 10
16.4088422017
 20
13.5091032759
 30
0.0
 10
16.4237593811
 20
13.4791612632
 30
0.0
 10
16.4382110643
 20
13.447750574
 30
0.0
 10
16.452175453
 20
13.4149186239
 30
0.0
 10
16.4656314414
 20
13.3807150204
 30
0.0
 10
16.4785586602
 20
13.3451914858
 30
0.0
 10
16.4909375166
 20
13.3084017766
 30
0.0
 10
16.5027492312
 20
13.2704015993
 30
0.0
 10
16.5139758728
 20
13.2312485216
 30
0.0
 10
16.5246003867
 20
13.1910018861
 30
0.0
 10
16.5346066333
 20
13.1497227032
 30
0.0
 10
16.5439793783
 20
13.1074736108
 30
0.0
 10
16.5527044596
 20
13.0643185666
 30
0.0
 10
16.5635315518
 20
13.0052474386
 30
0.0
 10
16.5753220458
 20
12.9296021267
 30
0.0
 10
16.5866053862
 20
12.836914258
 30
0.0
 10
16.5950513047
 20
12.7422495559
 30
0.0
 10
16.6006082167
 20
12.6461823646
 30
0.0
 10
16.6032421544
 20
12.5492945899
 30
0.0
 10
16.6029370198
 20
12.4521735365
 30
0.0
 10
16.5996946785
 20
12.3554078457
 30
0.0
 10
16.5935349467
 20
12.259584068
 30
0.0
 10
16.5844954747
 20
12.1652825939
 30
0.0
 10
16.5726314728
 20
12.0730755374
 30
0.0
 10
16.560364042
 20
11.9979083093
 30
0.0
 10
16.5491632578
 20
11.9392772249
 30
0.0
 10
16.5401677102
 20
11.8964902091
 30
0.0
 10
16.5305303007
 20
11.8546359469
 30
0.0
 10
16.5202655705
 20
11.8137776709
 30
0.0
 10
16.5093892194
 20
11.7739776995
 30
0.0
 10
16.5016521588
 20
11.7478885529
 30
0.0
 10
16.4976803431
 20
11.7350357525
 30
0.0
  0
SPLINE
  5
2A6
100
AcDbEntity
  8
LAYER_FEATURE
100
AcDbSpline
 62
7
  6
CONTINUOUS
 70
0
 71
3
 72
30
 73
26
 74
0
 42
0.0000001
 43
0.0000001
 44
0.0000000001
 40
0.0
 40
0.0
 40
0.0
 40
0.0
 40
0.0274232769
 40
0.0554700189
 40
0.0841097496
 40
0.1133104402
 40
0.1430384599
 40
0.1732588171
 40
0.2039352455
 40
0.2350303411
 40
0.2983197099
 40
0.3628114693
 40
0.4281765809
 40
0.4940780259
 40
0.5601739526
 40
0.6261207697
 40
0.6915762191
 40
0.7562024643
 40
0.8196692288
 40
0.850868596
 40
0.8816593582
 40
0.9120038285
 40
0.9418654302
 40
0.971208817
 40
1.0
 40
1.0
 40
1.0
 40
1.0
 10
15.6514148529
 20
13.4113624344
 30
0.0
 10
15.6467836288
 20
13.3963757876
 30
0.0
 10
15.6377631699
 20
13.3659534082
 30
0.0
 10
15.6250865306
 20
13.3195398834
 30
0.0
 10
15.6131263123
 20
13.2718876581
 30
0.0
 10
15.6019009481
 20
13.2230699779
 30
0.0
 10
15.591427625
 20
13.1731614204
 30
0.0
 10
15.58172244
 20
13.1222384468
 30
0.0
 10
15.5728001937
 20
13.0703788427
 30
0.0
 10
15.5619027372
 20
12.9996768375
 30
0.0
 10
15.5503628203
 20
12.9095179114
 30
0.0
 10
15.5399040534
 20
12.7995175576
 30
0.0
 10
15.5328190439
 20
12.6877513587
 30
0.0
 10
15.5291514366
 20
12.574903473
 30
0.0
 10
15.5289238559
 20
12.4616635847
 30
0.0
 10
15.5321377051
 20
12.3487242437
 30
0.0
 10
15.5387731574
 20
12.236775709
 30
0.0
 10
15.5487893401
 20
12.1265032657
 30
0.0
 10
15.55996442
 20
12.0360587042
 30
0.0
 10
15.5705746502
 20
11.9650840253
 30
0.0
 10
15.5792876101
 20
11.9129901108
 30
0.0
 10
15.588787243
 20
11.8618119912
 30
0.0
 10
15.5990590779
 20
11.8116277809
 30
0.0
 10
15.6100872674
 20
11.7625146092
 30
0.0
 10
15.6180107294
 20
11.730217126
 30
0.0
 10
15.6220998178
 20
11.7142645181
 30
0.0
  0
SPLINE
  5
2A7
100
AcDbEntity
  8
LAYER_FEATURE
100
AcDbSpline
 62
7
  6
CONTINUOUS
 70
0
 71
3
 72
36
 73
32
 74
0
 42
0.0000001
 43
0.0000001
 44
0.0000000001
 40
0.0
 40
0.0
 40
0.0
 40
0.0
 40
0.0888603794
 40
0.1745566322
 40
0.2568727584
 40
0.2967052575
 40
0.3356244366
 40
0.3736116654
 40
0.410650597
 40
0.4467273739
 40
0.4818308226
 40
0.5159526807
 40
0.5490878583
 40
0.5812347488
 40
0.6123955498
 40
0.6425766135
 40
0.6717888502
 40
0.7000481845
 40
0.7273760432
 40
0.7537998524
 40
0.7793535716
 40
0.8040782373
 40
0.828022485
 40
0.8512429732
 40
0.873804696
 40
0.8957811102
 40
0.9172540071
 40
0.9383130285
 40
0.959054799
 40
0.9795816558
 40
1.0
 40
1.0
 40
1.0
 40
1.0
 10
15.6220998178
 20
11.7142645181
 30
0.0
 10
15.628382149
 20
11.6897554937
 30
0.0
 10
15.6414888209
 20
11.6418015664
 30
0.0
 10
15.6632031823
 20
11.5719443047
 30
0.0
 10
15.6828700102
 20
11.5161098912
 30
0.0
 10
15.6994322331
 20
11.4733407472
 30
0.0
 10
15.7120936476
 20
11.4426044612
 30
0.0
 10
15.7251184618
 20
11.4128867745
 30
0.0
 10
15.7384944174
 20
11.3842158535
 30
0.0
 10
15.752208771
 20
11.3566189689
 30
0.0
 10
15.7662485178
 20
11.3301223249
 30
0.0
 10
15.7806003587
 20
11.3047510813
 30
0.0
 10
15.7952507361
 20
11.2805293217
 30
0.0
 10
15.8101858285
 20
11.257480019
 30
0.0
 10
15.8253915807
 20
11.2356250214
 30
0.0
 10
15.8408537333
 20
11.214985051
 30
0.0
 10
15.8565578446
 20
11.1955796966
 30
0.0
 10
15.872489302
 20
11.1774273958
 30
0.0
 10
15.8886333314
 20
11.1605454253
 30
0.0
 10
15.9049750339
 20
11.1449499318
 30
0.0
 10
15.9214993885
 20
11.1306559468
 30
0.0
 10
15.9381912524
 20
11.117677406
 30
0.0
 10
15.9550353228
 20
11.1060271402
 30
0.0
 10
15.9720161268
 20
11.0957169263
 30
0.0
 10
15.9891179635
 20
11.086757497
 30
0.0
 10
16.006324822
 20
11.0791585326
 30
0.0
 10
16.0236203309
 20
11.0729285659
 30
0.0
 10
16.040987526
 20
11.068074908
 30
0.0
 10
16.0584094564
 20
11.0646035249
 30
0.0
 10
16.0758668529
 20
11.0625188628
 30
0.0
 10
16.0875305037
 20
11.0620550067
 30
0.0
 10
16.0933442572
 20
11.062055001
 30
0.0
  0
SPLINE
  5
2A8
100
AcDbEntity
  8
LAYER_FEATURE
100
AcDbSpline
 62
7
  6
CONTINUOUS
 70
0
 71
3
 72
19
 73
15
 74
0
 42
0.0000001
 43
0.0000001
 44
0.0000000001
 40
0.0
 40
0.0
 40
0.0
 40
0.0
 40
0.057122837
 40
0.1143856464
 40
0.1719271521
 40
0.2298835599
 40
0.2883875035
 40
0.347566935
 40
0.4684012285
 40
0.5933273272
 40
0.7231357741
 40
0.7900985279
 40
0.8585241944
 40
1.0
 40
1.0
 40
1.0
 40
1.0
 10
14.8488438858
 20
13.9595549924
 30
0.0
 10
14.8527852256
 20
13.9595549896
 30
0.0
 10
14.8606792048
 20
13.9593423609
 30
0.0
 10
14.8725085777
 20
13.9583861819
 30
0.0
 10
14.8843274399
 20
13.9567930249
 30
0.0
 10
14.8961298803
 20
13.9545638486
 30
0.0
 10
14.907910922
 20
13.9516995378
 30
0.0
 10
14.9236902073
 20
13.9470042213
 30
0.0
 10
14.943385255
 20
13.9395003725
 30
0.0
 10
14.9666658078
 20
13.9280441485
 30
0.0
 10
14.9856819481
 20
13.9165422731
 30
0.0
 10
15.0007528856
 20
13.9061586908
 30
0.0
 10
15.016060198
 20
13.8947241043
 30
0.0
 10
15.0271759172
 20
13.8854157295
 30
0.0
 10
15.0344509687
 20
13.8789072436
 30
0.0
  0
SPLINE
  5
2A9
100
AcDbEntity
  8
LAYER_FEATURE
100
AcDbSpline
 62
7
  6
CONTINUOUS
 70
0
 71
3
 72
19
 73
15
 74
0
 42
0.0000001
 43
0.0000001
 44
0.0000000001
 40
0.0
 40
0.0
 40
0.0
 40
0.0
 40
0.0571187441
 40
0.1143775787
 40
0.1719153434
 40
0.2298683528
 40
0.2883693514
 40
0.3475463785
 40
0.4683778308
 40
0.5933042132
 40
0.7231164948
 40
0.7900826082
 40
0.8585125821
 40
1.0
 40
1.0
 40
1.0
 40
1.0
 10
14.8488438858
 20
11.0620549934
 30
0.0
 10
14.8527870292
 20
11.0620549906
 30
0.0
 10
14.860684631
 20
11.0622678237
 30
0.0
 10
14.8725194222
 20
11.0632248729
 30
0.0
 10
14.8843436866
 20
11.064819496
 30
0.0
 10
14.8961515084
 20
11.0670507076
 30
0.0
 10
14.9079378979
 20
11.069917648
 30
0.0
 10
14.9237244062
 20
11.0746172761
 30
0.0
 10
14.9434284135
 20
11.0821280525
 30
0.0
 10
14.9667192439
 20
11.093594739
 30
0.0
 10
14.9857434779
 20
11.1051069872
 30
0.0
 10
15.0008207117
 20
11.115499906
 30
0.0
 10
15.0161345515
 20
11.1269448787
 30
0.0
 10
15.0272547477
 20
11.1362615811
 30
0.0
 10
15.0345326502
 20
11.1427758311
 30
0.0
  0
SPLINE
  5
2AA
100
AcDbEntity
  8
LAYER_FEATURE
100
AcDbSpline
 62
7
  6
CONTINUOUS
 70
0
 71
3
 72
54
 73
50
 74
0
 42
0.0000001
 43
0.0000001
 44
0.0000000001
 40
0.0
 40
0.0
 40
0.0
 40
0.0
 40
0.0076944498
 40
0.0154413812
 40
0.0232919706
 40
0.0312949106
 40
0.0394954581
 40
0.0479347613
 40
0.0566494694
 40
0.0656715927
 40
0.0750285586
 40
0.0847434063
 40
0.0948350661
 40
0.105318681
 40
0.1162059421
 40
0.1275054158
 40
0.1392228509
 40
0.1513614589
 40
0.1639221674
 40
0.176903844
 40
0.1903034952
 40
0.2041164406
 40
0.2183364682
 40
0.2329559708
 40
0.2479660665
 40
0.263356706
 40
0.2791167677
 40
0.2952341438
 40
0.3116958179
 40
0.3284879351
 40
0.3455958682
 40
0.3630042785
 40
0.3986567008
 40
0.4353116449
 40
0.4728260639
 40
0.5110502185
 40
0.5498290122
 40
0.5890032549
 40
0.6284108831
 40
0.667888156
 40
0.7072708358
 40
0.7463953603
 40
0.785100025
 40
0.8232261828
 40
0.8606194684
 40
0.8971310714
 40
0.9326190811
 40
0.9669499131
 40
1.0
 40
1.0
 40
1.0
 40
1.0
 10
16.1215933985
 20
13.9595549848
 30
0.0
 10
16.1281853699
 20
13.9595549783
 30
0.0
 10
16.1414219047
 20
13.9589577633
 30
0.0
 10
16.1612205437
 20
13.9562749404
 30
0.0
 10
16.1809662612
 20
13.9518089863
 30
0.0
 10
16.200630741
 20
13.9455676383
 30
0.0
 10
16.2201893778
 20
13.9375611263
 30
0.0
 10
16.2396178096
 20
13.9278017757
 30
0.0
 10
16.2588927113
 20
13.9163037377
 30
0.0
 10
16.2779913318
 20
13.9030828384
 30
0.0
 10
16.2968913803
 20
13.8881565346
 30
0.0
 10
16.3155708663
 20
13.8715439381
 30
0.0
 10
16.3340080183
 20
13.8532658714
 30
0.0
 10
16.3521812494
 20
13.833344934
 30
0.0
 10
16.3700691546
 20
13.8118055508
 30
0.0
 10
16.3876505317
 20
13.7886740054
 30
0.0
 10
16.4049044176
 20
13.7639784574
 30
0.0
 10
16.4218101303
 20
13.737748944
 30
0.0
 10
16.4383473121
 20
13.7100173678
 30
0.0
 10
16.4544959722
 20
13.6808174742
 30
0.0
 10
16.4702365273
 20
13.6501848211
 30
0.0
 10
16.4855498429
 20
13.618156743
 30
0.0
 10
16.5004172644
 20
13.5847723052
 30
0.0
 10
16.5148206499
 20
13.5500722559
 30
0.0
 10
16.5287424003
 20
13.5140989754
 30
0.0
 10
16.5421654863
 20
13.4768964241
 30
0.0
 10
16.555073475
 20
13.4385100856
 30
0.0
 10
16.5674505506
 20
13.398986914
 30
0.0
 10
16.5792815481
 20
13.358375263
 30
0.0
 10
16.5905519378
 20
13.3167248737
 30
0.0
 10
16.6012479881
 20
13.2740866249
 30
0.0
 10
16.6148333682
 20
13.2155242905
 30
0.0
 10
16.6302506082
 20
13.1402091627
 30
0.0
 10
16.6461252058
 20
13.0474564617
 30
0.0
 10
16.6594393774
 20
12.952077008
 30
0.0
 10
16.6701275408
 20
12.854538051
 30
0.0
 10
16.6781370393
 20
12.7553165235
 30
0.0
 10
16.6834283926
 20
12.6548980602
 30
0.0
 10
16.6859755228
 20
12.5537741797
 30
0.0
 10
16.6857658844
 20
12.4524399377
 30
0.0
 10
16.6828005099
 20
12.3513914302
 30
0.0
 10
16.6770940051
 20
12.2511233339
 30
0.0
 10
16.6686744972
 20
12.1521264329
 30
0.0
 10
16.6575834862
 20
12.0548851867
 30
0.0
 10
16.6438756027
 20
11.9598752403
 30
0.0
 10
16.627618392
 20
11.8675612807
 30
0.0
 10
16.6088917369
 20
11.778393801
 30
0.0
 10
16.5877882759
 20
11.6928098916
 30
0.0
 10
16.5718826125
 20
11.6372999054
 30
0.0
 10
16.5635228028
 20
11.6102475514
 30
0.0
  0
SPLINE
  5
2AB
100
AcDbEntity
  8
LAYER_FEATURE
100
AcDbSpline
 62
7
  6
CONTINUOUS
 70
0
 71
3
 72
34
 73
30
 74
0
 42
0.0000001
 43
0.0000001
 44
0.0000000001
 40
0.0
 40
0.0
 40
0.0
 40
0.0
 40
0.0212776181
 40
0.0426490197
 40
0.0642064742
 40
0.0860393092
 40
0.1082326742
 40
0.1308665511
 40
0.1540150014
 40
0.1777456904
 40
0.2021196778
 40
0.2271913747
 40
0.2795982768
 40
0.3070255563
 40
0.3353056961
 40
0.3644635192
 40
0.3945190427
 40
0.4254878113
 40
0.4573812604
 40
0.4902070815
 40
0.5239695009
 40
0.5586695349
 40
0.5943052903
 40
0.6308721857
 40
0.6683631136
 40
0.746072806
 40
0.8273395915
 40
0.9120335663
 40
1.0
 40
1.0
 40
1.0
 40
1.0
 10
16.1215933985
 20
11.062055001
 30
0.0
 10
16.1268852408
 20
11.0620549959
 30
0.0
 10
16.1374962115
 20
11.0624390018
 30
0.0
 10
16.153384158
 20
11.0641650858
 30
0.0
 10
16.1692457516
 20
11.0670399332
 30
0.0
 10
16.1850665544
 20
11.0710605763
 30
0.0
 10
16.200833791
 20
11.0762230207
 30
0.0
 10
16.2165345706
 20
11.0825223477
 30
0.0
 10
16.2321564334
 20
11.0899527468
 30
0.0
 10
16.2476870114
 20
11.0985074824
 30
0.0
 10
16.2631147122
 20
11.1081794188
 30
0.0
 10
16.283835167
 20
11.1227678161
 30
0.0
 10
16.3039914539
 20
11.1394086088
 30
0.0
 10
16.323555921
 20
11.1578611817
 30
0.0
 10
16.3382921065
 20
11.1729807535
 30
0.0
 10
16.3528549404
 20
11.1891562485
 30
0.0
 10
16.3672340119
 20
11.2063757293
 30
0.0
 10
16.3814179663
 20
11.2246253835
 30
0.0
 10
16.3953958773
 20
11.2438908951
 30
0.0
 10
16.4091568379
 20
11.2641570989
 30
0.0
 10
16.4226901046
 20
11.2854080627
 30
0.0
 10
16.4359851212
 20
11.3076270574
 30
0.0
 10
16.4490314376
 20
11.3307965819
 30
0.0
 10
16.4618189162
 20
11.3548984874
 30
0.0
 10
16.4787119493
 20
11.3886558082
 30
0.0
 10
16.4990724817
 20
11.4330926217
 30
0.0
 10
16.5220314179
 20
11.48919368
 30
0.0
 10
16.5437285544
 20
11.5485167339
 30
0.0
 10
16.5570634813
 20
11.5893451792
 30
0.0
 10
16.5635228028
 20
11.6102475514
 30
0.0
  0
SPLINE
  5
2AC
100
AcDbEntity
  8
LAYER_CHAMFER_FEAT
100
AcDbSpline
 62
7
  6
CONTINUOUS
 70
0
 71
3
 72
45
 73
41
 74
0
 42
0.0000001
 43
0.0000001
 44
0.0000000001
 40
0.0
 40
0.0
 40
0.0
 40
0.0
 40
0.0101615736
 40
0.0206689568
 40
0.0315258481
 40
0.0427342587
 40
0.0542946649
 40
0.0662061355
 40
0.0784664603
 40
0.0910722656
 40
0.1040191108
 40
0.117301566
 40
0.1309132955
 40
0.1448471332
 40
0.1736472825
 40
0.2036317691
 40
0.2347189122
 40
0.2668185002
 40
0.2998329962
 40
0.3336585488
 40
0.3681859647
 40
0.4033015599
 40
0.4388880059
 40
0.4748251015
 40
0.5109905498
 40
0.5472606962
 40
0.5835112705
 40
0.619618118
 40
0.6554579304
 40
0.6909089912
 40
0.7258519176
 40
0.760170445
 40
0.7937522084
 40
0.8264896033
 40
0.8582806552
 40
0.8890300213
 40
0.9186500365
 40
0.9470619681
 40
0.9741973549
 40
1.0
 40
1.0
 40
1.0
 40
1.0
 10
15.9170286427
 20
13.6114166909
 30
0.0
 10
15.9124100723
 20
13.6058834061
 30
0.0
 10
15.9032482078
 20
13.5944327031
 30
0.0
 10
15.8899505731
 20
13.5764493386
 30
0.0
 10
15.8768826032
 20
13.5573910533
 30
0.0
 10
15.8640575946
 20
13.5372773518
 30
0.0
 10
15.8514882336
 20
13.5161282947
 30
0.0
 10
15.839187088
 20
13.4939651447
 30
0.0
 10
15.8271664522
 20
13.4708101561
 30
0.0
 10
15.8154383825
 20
13.4466865961
 30
0.0
 10
15.8040146604
 20
13.4216187038
 30
0.0
 10
15.7929067931
 20
13.395631721
 30
0.0
 10
15.7821258524
 20
13.3687517253
 30
0.0
 10
15.7680470297
 20
13.3313453251
 30
0.0
 10
15.7513802499
 20
13.2825181418
 30
0.0
 10
15.7330640723
 20
13.2214469717
 30
0.0
 10
15.7162914189
 20
13.1575122163
 30
0.0
 10
15.7011301307
 20
13.0909715532
 30
0.0
 10
15.6876415791
 20
13.0220923149
 30
0.0
 10
15.6758803543
 20
12.9511518153
 30
0.0
 10
15.6658941641
 20
12.8784357595
 30
0.0
 10
15.6577234449
 20
12.8042371805
 30
0.0
 10
15.6514013752
 20
12.7288551826
 30
0.0
 10
15.6469535472
 20
12.6525937253
 30
0.0
 10
15.6443980471
 20
12.5757603661
 30
0.0
 10
15.6437451937
 20
12.4986650043
 30
0.0
 10
15.6449976816
 20
12.4216186106
 30
0.0
 10
15.6481503837
 20
12.3449319548
 30
0.0
 10
15.6531905599
 20
12.2689143364
 30
0.0
 10
15.6600977208
 20
12.1938723144
 30
0.0
 10
15.6688439041
 20
12.1201084559
 30
0.0
 10
15.6793935978
 20
12.0479200828
 30
0.0
 10
15.6917040884
 20
11.9775980573
 30
0.0
 10
15.7057254457
 20
11.9094255545
 30
0.0
 10
15.7214009415
 20
11.843676918
 30
0.0
 10
15.7386671322
 20
11.7806164043
 30
0.0
 10
15.7574542616
 20
11.7204973504
 30
0.0
 10
15.7776868172
 20
11.6635601452
 30
0.0
 10
15.7992827158
 20
11.6100343311
 30
0.0
 10
15.8149358994
 20
11.575884403
 30
0.0
 10
15.8229985438
 20
11.5594544612
 30
0.0
  0
SPLINE
  5
2AD
100
AcDbEntity
  8
LAYER_FEATURE
100
AcDbSpline
 62
7
  6
CONTINUOUS
 70
0
 71
3
 72
34
 73
30
 74
0
 42
0.0000001
 43
0.0000001
 44
0.0000000001
 40
0.0
 40
0.0
 40
0.0
 40
0.0
 40
0.0879664337
 40
0.1726604085
 40
0.253927194
 40
0.3316368864
 40
0.3691278143
 40
0.4056947097
 40
0.4413304651
 40
0.4760304991
 40
0.5097929185
 40
0.5426187396
 40
0.5745121887
 40
0.6054809573
 40
0.6355364808
 40
0.6646943039
 40
0.6929744437
 40
0.7204017232
 40
0.7728086253
 40
0.7978803222
 40
0.8222543096
 40
0.8459849986
 40
0.8691334489
 40
0.8917673258
 40
0.9139606908
 40
0.9357935258
 40
0.9573509803
 40
0.9787223819
 40
1.0
 40
1.0
 40
1.0
 40
1.0
 10
15.6514148529
 20
13.4113624344
 30
0.0
 10
15.6578741745
 20
13.4322648066
 30
0.0
 10
15.6712091014
 20
13.4730932519
 30
0.0
 10
15.6929062378
 20
13.5324163058
 30
0.0
 10
15.715865174
 20
13.5885173641
 30
0.0
 10
15.7362257065
 20
13.6329541776
 30
0.0
 10
15.7531187395
 20
13.6667114985
 30
0.0
 10
15.7659062181
 20
13.6908134039
 30
0.0
 10
15.7789525345
 20
13.7139829284
 30
0.0
 10
15.7922475512
 20
13.7362019231
 30
0.0
 10
15.8057808179
 20
13.7574528869
 30
0.0
 10
15.8195417784
 20
13.7777190907
 30
0.0
 10
15.8335196894
 20
13.7969846023
 30
0.0
 10
15.8477036438
 20
13.8152342565
 30
0.0
 10
15.8620827153
 20
13.8324537373
 30
0.0
 10
15.8766455492
 20
13.8486292323
 30
0.0
 10
15.8913817348
 20
13.8637488041
 30
0.0
 10
15.9109462018
 20
13.882201377
 30
0.0
 10
15.9311024887
 20
13.8988421697
 30
0.0
 10
15.9518229436
 20
13.913430567
 30
0.0
 10
15.9672506444
 20
13.9231025034
 30
0.0
 10
15.9827812224
 20
13.931657239
 30
0.0
 10
15.9984030851
 20
13.9390876382
 30
0.0
 10
16.0141038648
 20
13.9453869651
 30
0.0
 10
16.0298711013
 20
13.9505494095
 30
0.0
 10
16.0456919041
 20
13.9545700526
 30
0.0
 10
16.0615534977
 20
13.9574449
 30
0.0
 10
16.0774414442
 20
13.959170984
 30
0.0
 10
16.0880524149
 20
13.95955499
 30
0.0
 10
16.0933442572
 20
13.9595549848
 30
0.0
  0
SPLINE
  5
2AE
100
AcDbEntity
  8
LAYER_CHAMFER_FEAT
100
AcDbSpline
 62
7
  6
CONTINUOUS
 70
0
 71
3
 72
19
 73
15
 74
0
 42
0.0000001
 43
0.0000001
 44
0.0000000001
 40
0.0
 40
0.0
 40
0.0
 40
0.0
 40
0.1469640919
 40
0.286005783
 40
0.4177055265
 40
0.5428285665
 40
0.6032397907
 40
0.6623862961
 40
0.7204204472
 40
0.7775065155
 40
0.8338196082
 40
0.8895441133
 40
0.9448719031
 40
1.0
 40
1.0
 40
1.0
 40
1.0
 10
15.9173459565
 20
11.4103587772
 30
0.0
 10
15.9244278613
 20
11.4025021299
 30
0.0
 10
15.9387328332
 20
11.3876706184
 30
0.0
 10
15.9612429545
 20
11.367693842
 30
0.0
 10
15.9841408404
 20
11.3506752467
 30
0.0
 10
16.0037307714
 20
11.3388628604
 30
0.0
 10
16.019503258
 20
11.3310130423
 30
0.0
 10
16.0312517157
 20
11.3259606576
 30
0.0
 10
16.0430483652
 20
11.3216790753
 30
0.0
 10
16.054885718
 20
11.318171347
 30
0.0
 10
16.0667557385
 20
11.3154401744
 30
0.0
 10
16.0786506075
 20
11.313487789
 30
0.0
 10
16.0905614757
 20
11.3123156838
 30
0.0
 10
16.0985136855
 20
11.3120550033
 30
0.0
 10
16.1024813829
 20
11.312054997
 30
0.0
  0
SPLINE
  5
2AF
100
AcDbEntity
  8
LAYER_FEATURE
100
AcDbSpline
 62
7
  6
CONTINUOUS
 70
0
 71
3
 72
54
 73
50
 74
0
 42
0.0000001
 43
0.0000001
 44
0.0000000001
 40
0.0
 40
0.0
 40
0.0
 40
0.0
 40
0.0330500911
 40
0.0673809192
 40
0.1028689283
 40
0.1393805319
 40
0.1767738175
 40
0.2148999748
 40
0.2536046396
 40
0.2927291645
 40
0.332111844
 40
0.371589117
 40
0.4109967453
 40
0.4501709875
 40
0.4889497816
 40
0.527173937
 40
0.5646883547
 40
0.6013432983
 40
0.6369957225
 40
0.6544041335
 40
0.6715120662
 40
0.6883041819
 40
0.7047658546
 40
0.7208832305
 40
0.7366432932
 40
0.7520339344
 40
0.7670440314
 40
0.7816635338
 40
0.7958835598
 40
0.8096965034
 40
0.8230961537
 40
0.8360778311
 40
0.8486385414
 40
0.8607771512
 40
0.8724945865
 40
0.883794059
 40
0.8946813184
 40
0.905164932
 40
0.9152565919
 40
0.924971441
 40
0.9343284085
 40
0.9433505323
 40
0.9520652399
 40
0.9605045421
 40
0.9687050889
 40
0.9767080287
 40
0.9845586184
 40
0.9923055501
 40
1.0
 40
1.0
 40
1.0
 40
1.0
 10
14.3786653402
 20
13.4113624344
 30
0.0
 10
14.3703055295
 20
13.384310077
 30
0.0
 10
14.3543998662
 20
13.3288000905
 30
0.0
 10
14.3332964058
 20
13.2432161813
 30
0.0
 10
14.3145697495
 20
13.1540487052
 30
0.0
 10
14.2983125415
 20
13.0617347451
 30
0.0
 10
14.2846046584
 20
12.9667247986
 30
0.0
 10
14.2735136448
 20
12.8694835531
 30
0.0
 10
14.2650941355
 20
12.7704866521
 30
0.0
 10
14.2593876367
 20
12.6702185554
 30
0.0
 10
14.2564222599
 20
12.5691700479
 30
0.0
 10
14.2562126167
 20
12.467835806
 30
0.0
 10
14.2587597499
 20
12.3667119258
 30
0.0
 10
14.2640511084
 20
12.2662934628
 30
0.0
 10
14.2720606019
 20
12.1670719345
 30
0.0
 10
14.2827487601
 20
12.0695329768
 30
0.0
 10
14.2960629403
 20
11.9741535252
 30
0.0
 10
14.3119375393
 20
11.8814008246
 30
0.0
 10
14.3273547732
 20
11.8060856937
 30
0.0
 10
14.3409401511
 20
11.7475233568
 30
0.0
 10
14.3516362027
 20
11.7048851093
 30
0.0
 10
14.3629065958
 20
11.6632347239
 30
0.0
 10
14.3747375961
 20
11.6226230764
 30
0.0
 10
14.3871146717
 20
11.5830999054
 30
0.0
 10
14.4000226582
 20
11.544713564
 30
0.0
 10
14.4134457414
 20
11.507511008
 30
0.0
 10
14.4273674895
 20
11.4715377241
 30
0.0
 10
14.4417708756
 20
11.4368376754
 30
0.0
 10
14.4566382999
 20
11.4034532422
 30
0.0
 10
14.4719516182
 20
11.3714251695
 30
0.0
 10
14.4876921747
 20
11.3407925191
 30
0.0
 10
14.5038408333
 20
11.311592623
 30
0.0
 10
14.5203780123
 20
11.2838610409
 30
0.0
 10
14.5372837224
 20
11.2576315219
 30
0.0
 10
14.5545376083
 20
11.2329359729
 30
0.0
 10
14.5721189875
 20
11.209804432
 30
0.0
 10
14.5900068948
 20
11.1882650553
 30
0.0
 10
14.6081801275
 20
11.1683441228
 30
0.0
 10
14.6266172793
 20
11.1500660558
 30
0.0
 10
14.6452967631
 20
11.133453453
 30
0.0
 10
14.6641968094
 20
11.1185271414
 30
0.0
 10
14.6832954295
 20
11.105306239
 30
0.0
 10
14.7025703327
 20
11.0938082048
 30
0.0
 10
14.7219987657
 20
11.0840488609
 30
0.0
 10
14.7415574031
 20
11.0760423549
 30
0.0
 10
14.761221883
 20
11.0698010093
 30
0.0
 10
14.7809675994
 20
11.06533505
 30
0.0
 10
14.8007662378
 20
11.0626522192
 30
0.0
 10
14.814002773
 20
11.0620549981
 30
0.0
 10
14.8205947445
 20
11.0620549934
 30
0.0
  0
SPLINE
  5
2B0
100
AcDbEntity
  8
LAYER_CHAMFER_FEAT
100
AcDbSpline
 62
7
  6
CONTINUOUS
 70
0
 71
3
 72
19
 73
15
 74
0
 42
0.0000001
 43
0.0000001
 44
0.0000000001
 40
0.0
 40
0.0
 40
0.0
 40
0.0
 40
0.0551318683
 40
0.1104633072
 40
0.1661912463
 40
0.2225074078
 40
0.2795961255
 40
0.3376323981
 40
0.3967803934
 40
0.4571924937
 40
0.5823150228
 40
0.7140111177
 40
0.8530459541
 40
1.0
 40
1.0
 40
1.0
 40
1.0
 10
16.1024813829
 20
13.7095549888
 30
0.0
 10
16.0985149955
 20
13.709554995
 30
0.0
 10
16.0905654239
 20
13.7092944534
 30
0.0
 10
16.0786584881
 20
13.7081231701
 30
0.0
 10
16.0667675478
 20
13.7061720283
 30
0.0
 10
16.0549014149
 20
13.7034426966
 30
0.0
 10
16.043067927
 20
13.6999372697
 30
0.0
 10
16.0312751041
 20
13.6956584987
 30
0.0
 10
16.0195304047
 20
13.6906094663
 30
0.0
 10
16.0037630474
 20
13.6827648094
 30
0.0
 10
15.9841793267
 20
13.6709602758
 30
0.0
 10
15.9612883555
 20
13.6539527823
 30
0.0
 10
15.9387847829
 20
13.6339889391
 30
0.0
 10
15.9244836408
 20
13.6191668375
 30
0.0
 10
15.917403609
 20
13.6113151507
 30
0.0
  0
SPLINE
  5
2B1
100
AcDbEntity
  8
LAYER_FEATURE
100
AcDbSpline
 62
7
  6
CONTINUOUS
 70
0
 71
3
 72
34
 73
30
 74
0
 42
0.0000001
 43
0.0000001
 44
0.0000000001
 40
0.0
 40
0.0
 40
0.0
 40
0.0
 40
0.0879664416
 40
0.1726604024
 40
0.2539271956
 40
0.3316368857
 40
0.369127816
 40
0.4056947085
 40
0.4413304631
 40
0.4760305009
 40
0.5097929191
 40
0.5426187364
 40
0.5745121897
 40
0.6054809599
 40
0.635536477
 40
0.6646943035
 40
0.6929744473
 40
0.72040172
 40
0.7728086288
 40
0.7978803212
 40
0.8222543067
 40
0.8459850007
 40
0.86913345
 40
0.8917673231
 40
0.9139606913
 40
0.9357935273
 40
0.9573509792
 40
0.9787223813
 40
1.0
 40
1.0
 40
1.0
 40
1.0
 10
14.3786653402
 20
13.4113624344
 30
0.0
 10
14.3851246624
 20
13.4322648085
 30
0.0
 10
14.398459588
 20
13.4730932527
 30
0.0
 10
14.4201567277
 20
13.5324163057
 30
0.0
 10
14.4431156582
 20
13.588517364
 30
0.0
 10
14.4634761966
 20
13.6329541769
 30
0.0
 10
14.4803692245
 20
13.6667114996
 30
0.0
 10
14.4931567064
 20
13.690813403
 30
0.0
 10
14.5062030238
 20
13.7139829269
 30
0.0
 10
14.5194980365
 20
13.7362019244
 30
0.0
 10
14.5330313041
 20
13.7574528874
 30
0.0
 10
14.5467922691
 20
13.7777190878
 30
0.0
 10
14.5607701757
 20
13.7969846032
 30
0.0
 10
14.5749541276
 20
13.8152342593
 30
0.0
 10
14.589333207
 20
13.832453733
 30
0.0
 10
14.6038960369
 20
13.8486292316
 30
0.0
 10
14.6186322169
 20
13.8637488095
 30
0.0
 10
14.6381966977
 20
13.882201369
 30
0.0
 10
14.6583529693
 20
13.8988421781
 30
0.0
 10
14.6790734322
 20
13.9134305649
 30
0.0
 10
14.6945011352
 20
13.9231024964
 30
0.0
 10
14.7100317065
 20
13.9316572451
 30
0.0
 10
14.7256535711
 20
13.9390876419
 30
0.0
 10
14.7413543559
 20
13.945386954
 30
0.0
 10
14.7571215873
 20
13.9505494127
 30
0.0
 10
14.7729423895
 20
13.9545700633
 30
0.0
 10
14.7888039871
 20
13.9574448863
 30
0.0
 10
14.804691931
 20
13.9591709839
 30
0.0
 10
14.8153029021
 20
13.9595549962
 30
0.0
 10
14.8205947445
 20
13.9595549924
 30
0.0
  0
SPLINE
  5
2B2
100
AcDbEntity
  8
02___PRT_ALL_AXES
100
AcDbSpline
 62
7
  6
CONTINUOUS
 70
0
 71
3
 72
30
 73
26
 74
0
 42
0.0000001
 43
0.0000001
 44
0.0000000001
 40
0.0
 40
0.0
 40
0.0
 40
0.0
 40
0.0154974391
 40
0.031363125
 40
0.0479347383
 40
0.0654980117
 40
0.0842778919
 40
0.104439693
 40
0.1260956206
 40
0.1493129437
 40
0.1741217555
 40
0.2005216263
 40
0.2284869691
 40
0.2579712722
 40
0.288910443
 40
0.321225476
 40
0.3895949307
 40
0.4622353843
 40
0.5381607583
 40
0.6162937715
 40
0.6954989985
 40
0.7746136274
 40
0.852477068
 40
0.9279606998
 40
1.0
 40
1.0
 40
1.0
 40
1.0
 10
15.8478113681
 20
11.8902458654
 30
0.0
 10
15.8486153196
 20
11.8902458729
 30
0.0
 10
15.8502455315
 20
11.8903853912
 30
0.0
 10
15.852663528
 20
11.891008376
 30
0.0
 10
15.8550540189
 20
11.8920394991
 30
0.0
 10
15.85740561
 20
11.8934705665
 30
0.0
 10
15.8597097593
 20
11.8952928079
 30
0.0
 10
15.861958192
 20
11.8974970716
 30
0.0
 10
15.8641427615
 20
11.9000734693
 30
0.0
 10
15.8662551615
 20
11.9030109921
 30
0.0
 10
15.8682870341
 20
11.9062972604
 30
0.0
 10
15.8702300766
 20
11.9099184259
 30
0.0
 10
15.8720761775
 20
11.9138591643
 30
0.0
 10
15.8738174919
 20
11.9181027055
 30
0.0
 10
15.8754466398
 20
11.9226309443
 30
0.0
 10
15.8774982706
 20
11.9291451921
 30
0.0
 10
15.8797142557
 20
11.9378675532
 30
0.0
 10
15.8817831768
 20
11.9489361993
 30
0.0
 10
15.8832731432
 20
11.9606079613
 30
0.0
 10
15.8841580107
 20
11.9726819945
 30
0.0
 10
15.8844221872
 20
11.9849508449
 30
0.0
 10
15.8840610267
 20
11.9972031974
 30
0.0
 10
15.8830808488
 20
12.0092283436
 30
0.0
 10
15.8814990491
 20
12.0208188505
 30
0.0
 10
15.8800207078
 20
12.0283336702
 30
0.0
 10
15.8791762221
 20
12.0319741456
 30
0.0
  0
SPLINE
  5
2B3
100
AcDbEntity
  8
LAYER_FEATURE
100
AcDbSpline
 62
7
  6
CONTINUOUS
 70
0
 71
3
 72
23
 73
19
 74
0
 42
0.0000001
 43
0.0000001
 44
0.0000000001
 40
0.0
 40
0.0
 40
0.0
 40
0.0
 40
0.0796432264
 40
0.1571993552
 40
0.2325913089
 40
0.3057502619
 40
0.3766159774
 40
0.4451379927
 40
0.5112765809
 40
0.5750040151
 40
0.6363059748
 40
0.6951831924
 40
0.7516533475
 40
0.8057532421
 40
0.8575412614
 40
0.9071000975
 40
0.9545396585
 40
1.0
 40
1.0
 40
1.0
 40
1.0
 10
15.7293894726
 20
13.2831366376
 30
0.0
 10
15.7333904028
 20
13.2960836525
 30
0.0
 10
15.7415828997
 20
13.3215483764
 30
0.0
 10
15.7546281171
 20
13.3589156471
 30
0.0
 10
15.7682500908
 20
13.394899836
 30
0.0
 10
15.7824265504
 20
13.4294421634
 30
0.0
 10
15.797134485
 20
13.4624866044
 30
0.0
 10
15.8123500248
 20
13.4939795166
 30
0.0
 10
15.8280485563
 20
13.5238698611
 30
0.0
 10
15.8442047641
 20
13.5521092465
 30
0.0
 10
15.8607927075
 20
13.578652009
 30
0.0
 10
15.8777858994
 20
13.6034552702
 30
0.0
 10
15.8951573724
 20
13.6264789646
 30
0.0
 10
15.9128798297
 20
13.6476858931
 30
0.0
 10
15.9309255024
 20
13.6670415588
 30
0.0
 10
15.9492670014
 20
13.6845146063
 30
0.0
 10
15.9678745943
 20
13.7000749565
 30
0.0
 10
15.9806993659
 20
13.7093441705
 30
0.0
 10
15.9871409265
 20
13.7136262379
 30
0.0
  0
SPLINE
  5
2B4
100
AcDbEntity
  8
LAYER_FEATURE
100
AcDbSpline
 62
7
  6
CONTINUOUS
 70
0
 71
3
 72
78
 73
74
 74
0
 42
0.0000001
 43
0.0000001
 44
0.0000000001
 40
0.0
 40
0.0
 40
0.0
 40
0.0
 40
0.017841777
 40
0.0361843074
 40
0.0549960814
 40
0.0742433106
 40
0.0938904899
 40
0.1139004765
 40
0.1342347105
 40
0.1548533968
 40
0.1757156795
 40
0.1967798107
 40
0.2180033133
 40
0.2393431405
 40
0.2607558341
 40
0.2821976796
 40
0.3036248599
 40
0.3249936091
 40
0.3462603674
 40
0.3673819351
 40
0.3883156293
 40
0.4090194422
 40
0.4294522038
 40
0.4495737502
 40
0.4693450942
 40
0.4887286054
 40
0.5076882004
 40
0.5261895463
 40
0.5442002812
 40
0.5616902509
 40
0.5786317745
 40
0.5949999428
 40
0.6107729628
 40
0.6259325526
 40
0.6404644023
 40
0.6543587215
 40
0.6676108913
 40
0.6802222471
 40
0.6922010041
 40
0.7035633437
 40
0.7143346599
 40
0.7245509244
 40
0.7342600655
 40
0.7435231457
 40
0.7480119333
 40
0.7524184432
 40
0.7567541271
 40
0.7610311793
 40
0.7652624425
 40
0.7694612945
 40
0.7736415009
 40
0.7778170576
 40
0.782002018
 40
0.7862103195
 40
0.7904556125
 40
0.7947511093
 40
0.7991094453
 40
0.8035425706
 40
0.8126739273
 40
0.8222281289
 40
0.8322707596
 40
0.8428539777
 40
0.8540175626
 40
0.8657902543
 40
0.8781911347
 40
0.8912309222
 40
0.9049131163
 40
0.9192349763
 40
0.934188347
 40
0.9497603425
 40
0.965933958
 40
0.9826884321
 40
1.0
 40
1.0
 40
1.0
 40
1.0
 10
15.6870301924
 20
13.3694557751
 30
0.0
 10
15.6814781408
 20
13.3514893297
 30
0.0
 10
15.6707427113
 20
13.3148882078
 30
0.0
 10
15.6559230197
 20
13.2588439339
 30
0.0
 10
15.6421902117
 20
13.2009998747
 30
0.0
 10
15.6295775898
 20
13.141495486
 30
0.0
 10
15.6181155297
 20
13.0804736661
 30
0.0
 10
15.60783171
 20
13.0180811423
 30
0.0
 10
15.5987509414
 20
12.9544679477
 30
0.0
 10
15.5908951446
 20
12.8897870987
 30
0.0
 10
15.5842832859
 20
12.8241942023
 30
0.0
 10
15.5789313329
 20
12.7578470827
 30
0.0
 10
15.5748522127
 20
12.6909053971
 30
0.0
 10
15.5720557699
 20
12.6235302478
 30
0.0
 10
15.5705487556
 20
12.5558837888
 30
0.0
 10
15.5703348093
 20
12.4881288323
 30
0.0
 10
15.5714144514
 20
12.4204284539
 30
0.0
 10
15.5737850777
 20
12.352945597
 30
0.0
 10
15.577440958
 20
12.2858426765
 30
0.0
 10
15.5823732628
 20
12.2192811848
 30
0.0
 10
15.5885700822
 20
12.1534213002
 30
0.0
 10
15.5960164576
 20
12.0884214977
 30
0.0
 10
15.6046944128
 20
12.0244381621
 30
0.0
 10
15.6145829928
 20
11.9616252039
 30
0.0
 10
15.6256583275
 20
11.9001336857
 30
0.0
 10
15.6378936899
 20
11.8401114542
 30
0.0
 10
15.6512595666
 20
11.7817027755
 30
0.0
 10
15.6657237276
 20
11.7250479756
 30
0.0
 10
15.6812513078
 20
11.6702830891
 30
0.0
 10
15.6978049141
 20
11.6175395243
 30
0.0
 10
15.7153447289
 20
11.5669437347
 30
0.0
 10
15.7338286327
 20
11.5186168988
 30
0.0
 10
15.7532123302
 20
11.4726746065
 30
0.0
 10
15.773449501
 20
11.4292265635
 30
0.0
 10
15.7944919874
 20
11.3883763266
 30
0.0
 10
15.8162899948
 20
11.3502210591
 30
0.0
 10
15.8387923315
 20
11.3148513285
 30
0.0
 10
15.8619466782
 20
11.2823509504
 30
0.0
 10
15.8856998613
 20
11.2527969504
 30
0.0
 10
15.9099982748
 20
11.2262596298
 30
0.0
 10
15.9347877608
 20
11.2028029824
 30
0.0
 10
15.9600149421
 20
11.1824847563
 30
0.0
 10
15.985622549
 20
11.1653587097
 30
0.0
 10
16.00746437
 20
11.153664558
 30
0.0
 10
16.0250204677
 20
11.1460238081
 30
0.0
 10
16.0381037538
 20
11.1411753612
 30
0.0
 10
16.051231161
 20
11.137153453
 30
0.0
 10
16.064394901
 20
11.1339606956
 30
0.0
 10
16.0775866837
 20
11.1315995075
 30
0.0
 10
16.0907981797
 20
11.1300715307
 30
0.0
 10
16.1040209693
 20
11.1293779795
 30
0.0
 10
16.1172465664
 20
11.1295193462
 30
0.0
 10
16.1304664826
 20
11.130495503
 30
0.0
 10
16.1436722371
 20
11.1323057776
 30
0.0
 10
16.1568554669
 20
11.1349487554
 30
0.0
 10
16.1700077737
 20
11.1384225147
 30
0.0
 10
16.1831213141
 20
11.1427247541
 30
0.0
 10
16.2007140969
 20
11.1496281547
 30
0.0
 10
16.2226234809
 20
11.1604054604
 30
0.0
 10
16.2483452612
 20
11.1764653331
 30
0.0
 10
16.2737050307
 20
11.1957337406
 30
0.0
 10
16.2986450727
 20
11.2181585852
 30
0.0
 10
16.3231119252
 20
11.2436839054
 30
0.0
 10
16.3470513541
 20
11.2722477448
 30
0.0
 10
16.3704096501
 20
11.3037819538
 30
0.0
 10
16.3931334422
 20
11.33821173
 30
0.0
 10
16.415170104
 20
11.3754555052
 30
0.0
 10
16.4364680314
 20
11.4154249387
 30
0.0
 10
16.4569769316
 20
11.4580250422
 30
0.0
 10
16.4766480909
 20
11.503154323
 30
0.0
 10
16.495434563
 20
11.5507051497
 30
0.0
 10
16.5132912817
 20
11.6005633932
 30
0.0
 10
16.5243723383
 20
11.6347216794
 30
0.0
 10
16.5297593979
 20
11.6521542108
 30
0.0
  0
SPLINE
  5
2B5
100
AcDbEntity
  8
LAYER_FEATURE
100
AcDbSpline
 62
7
  6
CONTINUOUS
 70
0
 71
3
 72
54
 73
50
 74
0
 42
0.0000001
 43
0.0000001
 44
0.0000000001
 40
0.0
 40
0.0
 40
0.0
 40
0.0
 40
0.0330500869
 40
0.0673809189
 40
0.1028689286
 40
0.1393805316
 40
0.1767738172
 40
0.214899975
 40
0.2536046397
 40
0.2927291642
 40
0.332111844
 40
0.3715891169
 40
0.4109967451
 40
0.4501709878
 40
0.4889497815
 40
0.5271739361
 40
0.5646883551
 40
0.6013432992
 40
0.6369957215
 40
0.6544041318
 40
0.6715120649
 40
0.6883041821
 40
0.7047658562
 40
0.7208832323
 40
0.736643294
 40
0.7520339335
 40
0.7670440292
 40
0.7816635318
 40
0.7958835594
 40
0.8096965048
 40
0.823096156
 40
0.8360778326
 40
0.8486385411
 40
0.8607771491
 40
0.8724945842
 40
0.8837940579
 40
0.894681319
 40
0.9051649339
 40
0.9152565937
 40
0.9249714414
 40
0.9343284073
 40
0.9433505306
 40
0.9520652387
 40
0.9605045419
 40
0.9687050894
 40
0.9767080294
 40
0.9845586188
 40
0.9923055502
 40
1.0
 40
1.0
 40
1.0
 40
1.0
 10
15.6796639943
 20
13.4113624344
 30
0.0
 10
15.6713041846
 20
13.3843100804
 30
0.0
 10
15.6553985212
 20
13.3288000942
 30
0.0
 10
15.6342950602
 20
13.2432161848
 30
0.0
 10
15.6155684051
 20
13.1540487051
 30
0.0
 10
15.5993111944
 20
13.0617347455
 30
0.0
 10
15.5856033108
 20
12.9667247991
 30
0.0
 10
15.5745122999
 20
12.8694835529
 30
0.0
 10
15.566092792
 20
12.7704866519
 30
0.0
 10
15.5603862872
 20
12.6702185556
 30
0.0
 10
15.5574209127
 20
12.5691700481
 30
0.0
 10
15.5572112742
 20
12.4678358061
 30
0.0
 10
15.5597584045
 20
12.3667119256
 30
0.0
 10
15.5650497577
 20
12.2662934623
 30
0.0
 10
15.5730592562
 20
12.1670719348
 30
0.0
 10
15.5837474197
 20
12.0695329778
 30
0.0
 10
15.5970615913
 20
11.9741535241
 30
0.0
 10
15.6129361889
 20
11.8814008231
 30
0.0
 10
15.6283534289
 20
11.8060856953
 30
0.0
 10
15.641938809
 20
11.7475233609
 30
0.0
 10
15.6526348592
 20
11.7048851121
 30
0.0
 10
15.663905249
 20
11.6632347229
 30
0.0
 10
15.6757362465
 20
11.6226230718
 30
0.0
 10
15.6881133221
 20
11.5830999002
 30
0.0
 10
15.7010213108
 20
11.5447135617
 30
0.0
 10
15.7144443968
 20
11.5075110104
 30
0.0
 10
15.7283661472
 20
11.47153773
 30
0.0
 10
15.7427695327
 20
11.4368376806
 30
0.0
 10
15.7576369542
 20
11.4034532428
 30
0.0
 10
15.7729502698
 20
11.3714251647
 30
0.0
 10
15.7886908249
 20
11.3407925116
 30
0.0
 10
15.804839485
 20
11.311592618
 30
0.0
 10
15.8213766668
 20
11.2838610418
 30
0.0
 10
15.8382823794
 20
11.2576315284
 30
0.0
 10
15.8555362654
 20
11.2329359804
 30
0.0
 10
15.8731176425
 20
11.209804435
 30
0.0
 10
15.8910055477
 20
11.1882650518
 30
0.0
 10
15.9091787788
 20
11.1683441144
 30
0.0
 10
15.9276159307
 20
11.1500660477
 30
0.0
 10
15.9462954168
 20
11.1334534512
 30
0.0
 10
15.9651954653
 20
11.1185271474
 30
0.0
 10
15.9842940858
 20
11.1053062481
 30
0.0
 10
16.0035689875
 20
11.0938082101
 30
0.0
 10
16.0229974193
 20
11.0840488595
 30
0.0
 10
16.0425560561
 20
11.0760423475
 30
0.0
 10
16.0622205359
 20
11.0698009995
 30
0.0
 10
16.0819662534
 20
11.0653350454
 30
0.0
 10
16.1017648924
 20
11.0626522225
 30
0.0
 10
16.1150014272
 20
11.0620550075
 30
0.0
 10
16.1215933985
 20
11.062055001
 30
0.0
  0
SPLINE
  5
2B6
100
AcDbEntity
  8
LAYER_FEATURE
100
AcDbSpline
 62
7
  6
CONTINUOUS
 70
0
 71
3
 72
47
 73
43
 74
0
 42
0.0000001
 43
0.0000001
 44
0.0000000001
 40
0.0
 40
0.0
 40
0.0
 40
0.0
 40
0.0173869052
 40
0.0265241624
 40
0.0359748735
 40
0.0457507038
 40
0.0558609955
 40
0.0663129696
 40
0.0771119097
 40
0.0882613286
 40
0.0997631221
 40
0.1116177212
 40
0.1238242207
 40
0.1363804883
 40
0.1492832649
 40
0.1625282651
 40
0.1761102595
 40
0.1900231436
 40
0.20426
 40
0.2336729167
 40
0.2642812365
 40
0.296005999
 40
0.3287599498
 40
0.3624486286
 40
0.3969713883
 40
0.4322222696
 40
0.4680908539
 40
0.5044630261
 40
0.5412217366
 40
0.578247709
 40
0.6154201526
 40
0.6526174486
 40
0.6897178387
 40
0.7266001116
 40
0.7631442875
 40
0.7992323245
 40
0.8347488187
 40
0.8695817548
 40
0.9036232533
 40
0.9367703967
 40
0.9689260235
 40
1.0
 40
1.0
 40
1.0
 40
1.0
 10
15.9871409258
 20
11.3079837414
 30
0.0
 10
15.9771269892
 20
11.3146405457
 30
0.0
 10
15.9624562216
 20
11.3257343473
 30
0.0
 10
15.9438106528
 20
11.3422150193
 30
0.0
 10
15.9297532386
 20
11.3559083747
 30
0.0
 10
15.9158712458
 20
11.3707133833
 30
0.0
 10
15.902176203
 20
11.3866168885
 30
0.0
 10
15.8886813527
 20
11.403603261
 30
0.0
 10
15.8753992973
 20
11.4216562944
 30
0.0
 10
15.8623426297
 20
11.4407586522
 30
0.0
 10
15.8495237183
 20
11.4608920191
 30
0.0
 10
15.8369547648
 20
11.4820370898
 30
0.0
 10
15.824647768
 20
11.5041735917
 30
0.0
 10
15.8126145005
 20
11.5272802858
 30
0.0
 10
15.8008664816
 20
11.5513349782
 30
0.0
 10
15.7894149765
 20
11.5763145665
 30
0.0
 10
15.7782710179
 20
11.6021950279
 30
0.0
 10
15.767445228
 20
11.6289515588
 30
0.0
 10
15.7532957144
 20
11.6661646247
 30
0.0
 10
15.7365141988
 20
11.7147167592
 30
0.0
 10
15.7180176432
 20
11.7754252174
 30
0.0
 10
15.7010206552
 20
11.8389647379
 30
0.0
 10
15.6855889983
 20
11.9050906679
 30
0.0
 10
15.6717822355
 20
11.9735491936
 30
0.0
 10
15.659653829
 20
12.0440770139
 30
0.0
 10
15.6492506745
 20
12.1164027666
 30
0.0
 10
15.640613097
 20
12.190248017
 30
0.0
 10
15.6337745051
 20
12.2653283776
 30
0.0
 10
15.6287614312
 20
12.3413546293
 30
0.0
 10
15.6255932521
 20
12.4180338522
 30
0.0
 10
15.6242822845
 20
12.4950705767
 30
0.0
 10
15.6248335643
 20
12.5721679358
 30
0.0
 10
15.627244999
 20
12.6490288259
 30
0.0
 10
15.6315072028
 20
12.7253570675
 30
0.0
 10
15.637603708
 20
12.8008585602
 30
0.0
 10
15.6455108549
 20
12.8752424401
 30
0.0
 10
15.6551980612
 20
12.9482222029
 30
0.0
 10
15.6666277755
 20
13.0195168807
 30
0.0
 10
15.6797557728
 20
13.0888519914
 30
0.0
 10
15.6945312942
 20
13.1559611295
 30
0.0
 10
15.7108969364
 20
13.2205853092
 30
0.0
 10
15.7230444573
 20
13.2626041605
 30
0.0
 10
15.7293894726
 20
13.2831366376
 30
0.0
  0
SPLINE
  5
2B7
100
AcDbEntity
  8
LAYER_CHAMFER_FEAT
100
AcDbSpline
 62
7
  6
CONTINUOUS
 70
0
 71
3
 72
39
 73
35
 74
0
 42
0.0000001
 43
0.0000001
 44
0.0000000001
 40
0.0
 40
0.0
 40
0.0
 40
0.0
 40
0.0439505114
 40
0.0865559051
 40
0.1278044838
 40
0.1676923365
 40
0.2062207622
 40
0.2433985105
 40
0.2792420463
 40
0.3137765156
 40
0.347036667
 40
0.3790678456
 40
0.4099270395
 40
0.4396839048
 40
0.4684216915
 40
0.49623793
 40
0.523244755
 40
0.5495686819
 40
0.5753496656
 40
0.6007393139
 40
0.6258982158
 40
0.6509925013
 40
0.6761898869
 40
0.7016555666
 40
0.7275483438
 40
0.754017349
 40
0.781199574
 40
0.809218285
 40
0.8381822589
 40
0.8681856992
 40
0.8993086511
 40
0.9316177704
 40
0.9651672795
 40
1.0
 40
1.0
 40
1.0
 40
1.0
 10
16.4109776433
 20
13.4621555246
 30
0.0
 10
16.4067685248
 20
13.4707328065
 30
0.0
 10
16.3982449713
 20
13.487511391
 30
0.0
 10
16.3849263158
 20
13.5118991769
 30
0.0
 10
16.3712867315
 20
13.5350906744
 30
0.0
 10
16.3573426022
 20
13.5570579842
 30
0.0
 10
16.3431101927
 20
13.5777751616
 30
0.0
 10
16.328606235
 20
13.5972175521
 30
0.0
 10
16.3138476247
 20
13.6153620687
 30
0.0
 10
16.2988514817
 20
13.6321871157
 30
0.0
 10
16.283635091
 20
13.6476725905
 30
0.0
 10
16.2682158866
 20
13.6617998546
 30
0.0
 10
16.2526114468
 20
13.6745516979
 30
0.0
 10
16.2368395137
 20
13.6859122966
 30
0.0
 10
16.2209180567
 20
13.6958671822
 30
0.0
 10
16.2048653545
 20
13.7044031969
 30
0.0
 10
16.1887001328
 20
13.711508508
 30
0.0
 10
16.1724417199
 20
13.7171726954
 30
0.0
 10
16.1561101809
 20
13.7213869281
 30
0.0
 10
16.1397263846
 20
13.7241442575
 30
0.0
 10
16.1233119251
 20
13.7254399173
 30
0.0
 10
16.1068888962
 20
13.7252715956
 30
0.0
 10
16.0904795431
 20
13.7236395933
 30
0.0
 10
16.0741058734
 20
13.7205468002
 30
0.0
 10
16.05778933
 20
13.7159985167
 30
0.0
 10
16.0415505942
 20
13.7100021642
 30
0.0
 10
16.025409554
 20
13.7025669533
 30
0.0
 10
16.0093853854
 20
13.6937036373
 30
0.0
 10
15.9934967005
 20
13.6834243561
 30
0.0
 10
15.9777616939
 20
13.6717425592
 30
0.0
 10
15.9621982916
 20
13.6586730631
 30
0.0
 10
15.9468241056
 20
13.6442318976
 30
0.0
 10
15.9316570392
 20
13.6284370161
 30
0.0
 10
15.921880946
 20
13.6172299999
 30
0.0
 10
15.9170286427
 20
13.6114166909
 30
0.0
  0
SPLINE
  5
2B8
100
AcDbEntity
  8
LAYER_CHAMFER_FEAT
100
AcDbSpline
 62
7
  6
CONTINUOUS
 70
0
 71
3
 72
26
 73
22
 74
0
 42
0.0000001
 43
0.0000001
 44
0.0000000001
 40
0.0
 40
0.0
 40
0.0
 40
0.0
 40
0.083512823
 40
0.1639116226
 40
0.241171938
 40
0.3152898532
 40
0.3862843601
 40
0.4542005713
 40
0.5191131498
 40
0.581130224
 40
0.6403975669
 40
0.6690620085
 40
0.6971132375
 40
0.7514898341
 40
0.8038197066
 40
0.8544341917
 40
0.9037118409
 40
0.9279874376
 40
0.9520890831
 40
0.9760738842
 40
1.0
 40
1.0
 40
1.0
 40
1.0
 10
16.3926583881
 20
13.4498181258
 30
0.0
 10
16.387641217
 20
13.4600420455
 30
0.0
 10
16.3774580484
 20
13.4799463976
 30
0.0
 10
16.3614135438
 20
13.5086645084
 30
0.0
 10
16.344913725
 20
13.535633931
 30
0.0
 10
16.3279871606
 20
13.5608073686
 30
0.0
 10
16.3106626399
 20
13.584141247
 30
0.0
 10
16.292969536
 20
13.6055949392
 30
0.0
 10
16.2749372295
 20
13.6251312292
 30
0.0
 10
16.2565963665
 20
13.6427151181
 30
0.0
 10
16.2409080102
 20
13.6558594215
 30
0.0
 10
16.2282360955
 20
13.6653302456
 30
0.0
 10
16.2157603482
 20
13.6739301479
 30
0.0
 10
16.2000188419
 20
13.6834563157
 30
0.0
 10
16.1807454167
 20
13.6929450221
 30
0.0
 10
16.1613194936
 20
13.7003508638
 30
0.0
 10
16.1449468649
 20
13.7047938946
 30
0.0
 10
16.1318561984
 20
13.7072673542
 30
0.0
 10
16.1220719244
 20
13.7085869435
 30
0.0
 10
16.1122791442
 20
13.7093788835
 30
0.0
 10
16.1057441789
 20
13.7095549836
 30
0.0
 10
16.1024813829
 20
13.7095549888
 30
0.0
  0
SPLINE
  5
2B9
100
AcDbEntity
  8
02___PRT_ALL_AXES
100
AcDbSpline
 62
7
  6
CONTINUOUS
 70
0
 71
3
 72
47
 73
43
 74
0
 42
0.0000001
 43
0.0000001
 44
0.0000000001
 40
0.0
 40
0.0
 40
0.0
 40
0.0
 40
0.0173869052
 40
0.0265241624
 40
0.0359748735
 40
0.0457507038
 40
0.0558609955
 40
0.0663129696
 40
0.0771119097
 40
0.0882613286
 40
0.0997631221
 40
0.1116177212
 40
0.1238242207
 40
0.1363804883
 40
0.1492832649
 40
0.1625282651
 40
0.1761102595
 40
0.1900231436
 40
0.20426
 40
0.2336729167
 40
0.2642812365
 40
0.296005999
 40
0.3287599498
 40
0.3624486286
 40
0.3969713883
 40
0.4322222696
 40
0.4680908539
 40
0.5044630261
 40
0.5412217366
 40
0.578247709
 40
0.6154201526
 40
0.6526174486
 40
0.6897178387
 40
0.7266001116
 40
0.7631442875
 40
0.7992323245
 40
0.8347488187
 40
0.8695817548
 40
0.9036232533
 40
0.9367703967
 40
0.9689260235
 40
1.0
 40
1.0
 40
1.0
 40
1.0
 10
15.9951945315
 20
11.3026300656
 30
0.0
 10
15.9851360235
 20
11.3093164988
 30
0.0
 10
15.9703999573
 20
11.3204596783
 30
0.0
 10
15.9516713984
 20
11.3370137046
 30
0.0
 10
15.9375514156
 20
11.3507680082
 30
0.0
 10
15.923607635
 20
11.3656389129
 30
0.0
 10
15.9098516364
 20
11.3816132035
 30
0.0
 10
15.8962967215
 20
11.3986751812
 30
0.0
 10
15.8829555486
 20
11.4168085674
 30
0.0
 10
15.8698407667
 20
11.4359959486
 30
0.0
 10
15.8569647991
 20
11.4562189277
 30
0.0
 10
15.8443399021
 20
11.4774581136
 30
0.0
 10
15.8319781277
 20
11.4996931436
 30
0.0
 10
15.8198913009
 20
11.5229026841
 30
0.0
 10
15.8080909924
 20
11.5470644423
 30
0.0
 10
15.7965885173
 20
11.572155213
 30
0.0
 10
15.7853949577
 20
11.5981508666
 30
0.0
 10
15.774520983
 20
11.625026489
 30
0.0
 10
15.7603084909
 20
11.6624051877
 30
0.0
 10
15.7434522819
 20
11.7111734245
 30
0.0
 10
15.7248733994
 20
11.7721520919
 30
0.0
 10
15.707800759
 20
11.8359744225
 30
0.0
 10
15.6923004168
 20
11.9023946745
 30
0.0
 10
15.678432201
 20
11.9711579045
 30
0.0
 10
15.6662498118
 20
12.0419996393
 30
0.0
 10
15.6558003536
 20
12.114647309
 30
0.0
 10
15.6471243309
 20
12.1888212397
 30
0.0
 10
15.6402553008
 20
12.2642357778
 30
0.0
 10
15.6352199141
 20
12.3406004172
 30
0.0
 10
15.6320376336
 20
12.4176209341
 30
0.0
 10
15.630720831
 20
12.4950005439
 30
0.0
 10
15.6312745645
 20
12.5724410581
 30
0.0
 10
15.6336967323
 20
12.6496440508
 30
0.0
 10
15.6379779069
 20
12.7263120242
 30
0.0
 10
15.6441015472
 20
12.802149569
 30
0.0
 10
15.6520438883
 20
12.8768645264
 30
0.0
 10
15.6617742117
 20
12.9501691173
 30
0.0
 10
15.6732547989
 20
13.0217811228
 30
0.0
 10
15.686441228
 20
13.0914248394
 30
0.0
 10
15.7012825142
 20
13.1588326757
 30
0.0
 10
15.7177209988
 20
13.2237444932
 30
0.0
 10
15.7299225875
 20
13.2659503676
 30
0.0
 10
15.736295844
 20
13.2865742333
 30
0.0
  0
SPLINE
  5
2BA
100
AcDbEntity
  8
LAYER_FEATURE
100
AcDbSpline
 62
7
  6
CONTINUOUS
 70
0
 71
3
 72
11
 73
7
 74
0
 42
0.0000001
 43
0.0000001
 44
0.0000000001
 40
0.0
 40
0.0
 40
0.0
 40
0.0
 40
0.2221057691
 40
0.4624484853
 40
0.7217073982
 40
1.0
 40
1.0
 40
1.0
 40
1.0
 10
14.4003837292
 20
13.0856634703
 30
0.0
 10
14.400814146
 20
13.0860657647
 30
0.0
 10
14.4016613417
 20
13.0869566397
 30
0.0
 10
14.4028422531
 20
13.0884663419
 30
0.0
 10
14.4039763173
 20
13.0901925775
 30
0.0
 10
14.4046729385
 20
13.0914381067
 30
0.0
 10
14.4050137329
 20
13.0920929235
 30
0.0
  0
SPLINE
  5
2BB
100
AcDbEntity
  8
LAYER_FEATURE
100
AcDbSpline
 62
7
  6
CONTINUOUS
 70
0
 71
3
 72
16
 73
12
 74
0
 42
0.0000001
 43
0.0000001
 44
0.0000000001
 40
0.0
 40
0.0
 40
0.0
 40
0.0
 40
0.0390682438
 40
0.0791365604
 40
0.1655947211
 40
0.2650943232
 40
0.3804550253
 40
0.5125275613
 40
0.6608360249
 40
0.8239968482
 40
1.0
 40
1.0
 40
1.0
 40
1.0
 10
14.3809692853
 20
13.0856933717
 30
0.0
 10
14.3808875566
 20
13.0856933771
 30
0.0
 10
14.380721647
 20
13.0856785489
 30
0.0
 10
14.380385673
 20
13.0855881933
 30
0.0
 10
14.3799666786
 20
13.0853536065
 30
0.0
 10
14.379506589
 20
13.0849164178
 30
0.0
 10
14.3790773666
 20
13.0843274736
 30
0.0
 10
14.3786845802
 20
13.0835965166
 30
0.0
 10
14.3783341054
 20
13.0827358668
 30
0.0
 10
14.3780322198
 20
13.0817607381
 30
0.0
 10
14.3778723434
 20
13.0810688096
 30
0.0
 10
14.3778006692
 20
13.0807076637
 30
0.0
  0
SPLINE
  5
2BC
100
AcDbEntity
  8
LAYER_FEATURE
100
AcDbSpline
 62
7
  6
CONTINUOUS
 70
0
 71
3
 72
15
 73
11
 74
0
 42
0.0000001
 43
0.0000001
 44
0.0000000001
 40
0.0
 40
0.0
 40
0.0
 40
0.0
 40
0.0821284159
 40
0.1709215602
 40
0.2713726457
 40
0.386383084
 40
0.5171516275
 40
0.6636699445
 40
0.8251034249
 40
1.0
 40
1.0
 40
1.0
 40
1.0
 10
14.4052962058
 20
13.2058845014
 30
0.0
 10
14.4051465586
 20
13.2058844993
 30
0.0
 10
14.4048333021
 20
13.2058319631
 30
0.0
 10
14.4043870554
 20
13.205605984
 30
0.0
 10
14.40396237
 20
13.2052434663
 30
0.0
 10
14.4035622503
 20
13.2047524424
 30
0.0
 10
14.4031901415
 20
13.2041400859
 30
0.0
 10
14.4028506776
 20
13.2034149657
 30
0.0
 10
14.4025487049
 20
13.2025876413
 30
0.0
 10
14.4023814696
 20
13.2019974876
 30
0.0
 10
14.4023041229
 20
13.201688335
 30
0.0
  0
SPLINE
  5
2BD
100
AcDbEntity
  8
LAYER_FEATURE
100
AcDbSpline
 62
7
  6
CONTINUOUS
 70
0
 71
3
 72
15
 73
11
 74
0
 42
0.0000001
 43
0.0000001
 44
0.0000000001
 40
0.0
 40
0.0
 40
0.0
 40
0.0
 40
0.085851709
 40
0.1774225667
 40
0.2792248012
 40
0.3941414306
 40
0.5236377513
 40
0.6681055709
 40
0.8272097206
 40
1.0
 40
1.0
 40
1.0
 40
1.0
 10
14.4341624761
 20
13.319258362
 30
0.0
 10
14.4340280079
 20
13.3192583532
 30
0.0
 10
14.4337487125
 20
13.3192165714
 30
0.0
 10
14.4333461815
 20
13.3190346482
 30
0.0
 10
14.4329592674
 20
13.3187403418
 30
0.0
 10
14.4325908188
 20
13.31833953
 30
0.0
 10
14.4322434405
 20
13.3178373572
 30
0.0
 10
14.4319204779
 20
13.317239622
 30
0.0
 10
14.4316256006
 20
13.3165533771
 30
0.0
 10
14.4314565683
 20
13.3160612713
 30
0.0
 10
14.431376663
 20
13.3158026973
 30
0.0
  0
SPLINE
  5
2BE
100
AcDbEntity
  8
02___PRT_ALL_AXES
100
AcDbSpline
 62
7
  6
CONTINUOUS
 70
0
 71
3
 72
23
 73
19
 74
0
 42
0.0000001
 43
0.0000001
 44
0.0000000001
 40
0.0
 40
0.0
 40
0.0
 40
0.0
 40
0.0796432264
 40
0.1571993552
 40
0.2325913089
 40
0.3057502619
 40
0.3766159774
 40
0.4451379927
 40
0.5112765809
 40
0.5750040151
 40
0.6363059748
 40
0.6951831924
 40
0.7516533475
 40
0.8057532421
 40
0.8575412614
 40
0.9071000975
 40
0.9545396585
 40
1.0
 40
1.0
 40
1.0
 40
1.0
 10
15.736295844
 20
13.2865742333
 30
0.0
 10
15.7403145821
 20
13.2995788746
 30
0.0
 10
15.7485435433
 20
13.3251569402
 30
0.0
 10
15.761646824
 20
13.3626905301
 30
0.0
 10
15.7753294282
 20
13.3988348821
 30
0.0
 10
15.7895689862
 20
13.4335309551
 30
0.0
 10
15.8043423849
 20
13.4667224747
 30
0.0
 10
15.8196256481
 20
13.4983555597
 30
0.0
 10
15.8353940526
 20
13.5283789441
 30
0.0
 10
15.8516221707
 20
13.5567440211
 30
0.0
 10
15.8682839459
 20
13.5834049237
 30
0.0
 10
15.8853527732
 20
13.6083185825
 30
0.0
 10
15.9028015656
 20
13.6314447538
 30
0.0
 10
15.9206029042
 20
13.6527460729
 30
0.0
 10
15.938728897
 20
13.6721878893
 30
0.0
 10
15.9571520328
 20
13.6897387082
 30
0.0
 10
15.9758424468
 20
13.7053683164
 30
0.0
 10
15.9887243007
 20
13.7146787871
 30
0.0
 10
15.9951945321
 20
13.7189799137
 30
0.0
  0
SPLINE
  5
2BF
100
AcDbEntity
  8
LAYER_FEATURE
100
AcDbSpline
 62
7
  6
CONTINUOUS
 70
0
 71
3
 72
78
 73
74
 74
0
 42
0.0000001
 43
0.0000001
 44
0.0000000001
 40
0.0
 40
0.0
 40
0.0
 40
0.0
 40
0.0173115679
 40
0.034066042
 40
0.0502396575
 40
0.065811653
 40
0.0807650237
 40
0.0950868837
 40
0.1087690778
 40
0.1218088653
 40
0.1342097457
 40
0.1459824374
 40
0.1571460223
 40
0.1677292404
 40
0.1777718711
 40
0.1873260727
 40
0.1964574294
 40
0.2008905547
 40
0.2052488907
 40
0.2095443875
 40
0.2137896805
 40
0.217997982
 40
0.2221829424
 40
0.2263584991
 40
0.2305387055
 40
0.2347375575
 40
0.2389688207
 40
0.2432458729
 40
0.2475815568
 40
0.2519880667
 40
0.2564768543
 40
0.2657399345
 40
0.2754490756
 40
0.2856653401
 40
0.2964366563
 40
0.3077989959
 40
0.3197777529
 40
0.3323891087
 40
0.3456412785
 40
0.3595355977
 40
0.3740674474
 40
0.3892270372
 40
0.4050000572
 40
0.4213682255
 40
0.4383097491
 40
0.4557997188
 40
0.4738104537
 40
0.4923117996
 40
0.5112713946
 40
0.5306549058
 40
0.5504262498
 40
0.5705477962
 40
0.5909805578
 40
0.6116843707
 40
0.6326180649
 40
0.6537396326
 40
0.6750063909
 40
0.6963751401
 40
0.7178023204
 40
0.7392441659
 40
0.7606568595
 40
0.7819966867
 40
0.8032201893
 40
0.8242843205
 40
0.8451466032
 40
0.8657652895
 40
0.8860995235
 40
0.9061095101
 40
0.9257566894
 40
0.9450039186
 40
0.9638156926
 40
0.982158223
 40
1.0
 40
1.0
 40
1.0
 40
1.0
 10
15.6870301924
 20
13.3694557751
 30
0.0
 10
15.692417252
 20
13.3868883064
 30
0.0
 10
15.7034983085
 20
13.4210465926
 30
0.0
 10
15.7213550273
 20
13.4709048361
 30
0.0
 10
15.7401414994
 20
13.5184556629
 30
0.0
 10
15.7598126587
 20
13.5635849436
 30
0.0
 10
15.7803215589
 20
13.6061850471
 30
0.0
 10
15.8016194863
 20
13.6461544807
 30
0.0
 10
15.8236561481
 20
13.6833982558
 30
0.0
 10
15.8463799402
 20
13.717828032
 30
0.0
 10
15.8697382362
 20
13.7493622411
 30
0.0
 10
15.8936776651
 20
13.7779260804
 30
0.0
 10
15.9181445175
 20
13.8034514006
 30
0.0
 10
15.9430845596
 20
13.8258762452
 30
0.0
 10
15.9684443291
 20
13.8451446527
 30
0.0
 10
15.9941661094
 20
13.8612045255
 30
0.0
 10
16.0160754934
 20
13.8719818312
 30
0.0
 10
16.0336682761
 20
13.8788852317
 30
0.0
 10
16.0467818166
 20
13.8831874711
 30
0.0
 10
16.0599341234
 20
13.8866612304
 30
0.0
 10
16.0731173532
 20
13.8893042082
 30
0.0
 10
16.0863231077
 20
13.8911144828
 30
0.0
 10
16.0995430238
 20
13.8920906396
 30
0.0
 10
16.112768621
 20
13.8922320063
 30
0.0
 10
16.1259914106
 20
13.8915384551
 30
0.0
 10
16.1392029066
 20
13.8900104783
 30
0.0
 10
16.1523946893
 20
13.8876492902
 30
0.0
 10
16.1655584293
 20
13.8844565328
 30
0.0
 10
16.1786858364
 20
13.8804346246
 30
0.0
 10
16.1917691226
 20
13.8755861777
 30
0.0
 10
16.2093252203
 20
13.8679454278
 30
0.0
 10
16.2311670412
 20
13.8562512762
 30
0.0
 10
16.2567746482
 20
13.8391252295
 30
0.0
 10
16.2820018295
 20
13.8188070034
 30
0.0
 10
16.3067913155
 20
13.795350356
 30
0.0
 10
16.331089729
 20
13.7688130354
 30
0.0
 10
16.3548429121
 20
13.7392590354
 30
0.0
 10
16.3779972588
 20
13.7067586573
 30
0.0
 10
16.4004995955
 20
13.6713889267
 30
0.0
 10
16.4222976029
 20
13.6332336592
 30
0.0
 10
16.4433400893
 20
13.5923834223
 30
0.0
 10
16.4635772601
 20
13.5489353793
 30
0.0
 10
16.4829609575
 20
13.502993087
 30
0.0
 10
16.5014448614
 20
13.4546662511
 30
0.0
 10
16.5189846762
 20
13.4040704615
 30
0.0
 10
16.5355382825
 20
13.3513268967
 30
0.0
 10
16.5510658627
 20
13.2965620102
 30
0.0
 10
16.5655300237
 20
13.2399072103
 30
0.0
 10
16.5788959004
 20
13.1814985316
 30
0.0
 10
16.5911312628
 20
13.1214763001
 30
0.0
 10
16.6022065975
 20
13.059984782
 30
0.0
 10
16.6120951775
 20
12.9971718237
 30
0.0
 10
16.6207731327
 20
12.9331884881
 30
0.0
 10
16.6282195081
 20
12.8681886857
 30
0.0
 10
16.6344163275
 20
12.802328801
 30
0.0
 10
16.6393486322
 20
12.7357673093
 30
0.0
 10
16.6430045126
 20
12.6686643888
 30
0.0
 10
16.6453751389
 20
12.6011815319
 30
0.0
 10
16.646454781
 20
12.5334811535
 30
0.0
 10
16.6462408347
 20
12.465726197
 30
0.0
 10
16.6447338204
 20
12.398079738
 30
0.0
 10
16.6419373776
 20
12.3307045887
 30
0.0
 10
16.6378582574
 20
12.2637629031
 30
0.0
 10
16.6325063044
 20
12.1974157835
 30
0.0
 10
16.6258944456
 20
12.1318228871
 30
0.0
 10
16.6180386489
 20
12.0671420381
 30
0.0
 10
16.6089578803
 20
12.0035288436
 30
0.0
 10
16.5986740606
 20
11.9411363197
 30
0.0
 10
16.5872120004
 20
11.8801144998
 30
0.0
 10
16.5745993786
 20
11.8206101111
 30
0.0
 10
16.5608665706
 20
11.7627660519
 30
0.0
 10
16.546046879
 20
11.706721778
 30
0.0
 10
16.5353114495
 20
11.6701206561
 30
0.0
 10
16.5297593979
 20
11.6521542108
 30
0.0
  0
SPLINE
  5
2C0
100
AcDbEntity
  8
LAYER_FEATURE
100
AcDbSpline
 62
7
  6
CONTINUOUS
 70
0
 71
3
 72
34
 73
30
 74
0
 42
0.0000001
 43
0.0000001
 44
0.0000000001
 40
0.0
 40
0.0
 40
0.0
 40
0.0
 40
0.0879664337
 40
0.1726604085
 40
0.253927194
 40
0.3316368864
 40
0.3691278143
 40
0.4056947097
 40
0.4413304651
 40
0.4760304991
 40
0.5097929185
 40
0.5426187396
 40
0.5745121887
 40
0.6054809573
 40
0.6355364808
 40
0.6646943039
 40
0.6929744437
 40
0.7204017232
 40
0.7728086253
 40
0.7978803222
 40
0.8222543096
 40
0.8459849986
 40
0.8691334489
 40
0.8917673258
 40
0.9139606908
 40
0.9357935258
 40
0.9573509803
 40
0.9787223819
 40
1.0
 40
1.0
 40
1.0
 40
1.0
 10
15.6796639943
 20
13.4113624344
 30
0.0
 10
15.6861233158
 20
13.4322648066
 30
0.0
 10
15.6994582427
 20
13.4730932519
 30
0.0
 10
15.7211553792
 20
13.5324163058
 30
0.0
 10
15.7441143153
 20
13.5885173641
 30
0.0
 10
15.7644748478
 20
13.6329541776
 30
0.0
 10
15.7813678808
 20
13.6667114985
 30
0.0
 10
15.7941553595
 20
13.6908134039
 30
0.0
 10
15.8072016759
 20
13.7139829284
 30
0.0
 10
15.8204966925
 20
13.7362019231
 30
0.0
 10
15.8340299592
 20
13.7574528869
 30
0.0
 10
15.8477909198
 20
13.7777190907
 30
0.0
 10
15.8617688307
 20
13.7969846023
 30
0.0
 10
15.8759527851
 20
13.8152342565
 30
0.0
 10
15.8903318567
 20
13.8324537373
 30
0.0
 10
15.9048946906
 20
13.8486292323
 30
0.0
 10
15.9196308761
 20
13.8637488041
 30
0.0
 10
15.9391953432
 20
13.882201377
 30
0.0
 10
15.9593516301
 20
13.8988421697
 30
0.0
 10
15.9800720849
 20
13.913430567
 30
0.0
 10
15.9954997857
 20
13.9231025034
 30
0.0
 10
16.0110303637
 20
13.931657239
 30
0.0
 10
16.0266522265
 20
13.9390876382
 30
0.0
 10
16.0423530061
 20
13.9453869651
 30
0.0
 10
16.0581202427
 20
13.9505494095
 30
0.0
 10
16.0739410455
 20
13.9545700526
 30
0.0
 10
16.0898026391
 20
13.9574449
 30
0.0
 10
16.1056905856
 20
13.959170984
 30
0.0
 10
16.1163015563
 20
13.95955499
 30
0.0
 10
16.1215933985
 20
13.9595549848
 30
0.0
  0
SPLINE
  5
2C1
100
AcDbEntity
  8
LAYER_CHAMFER_FEAT
100
AcDbSpline
 62
7
  6
CONTINUOUS
 70
0
 71
3
 72
74
 73
70
 74
0
 42
0.0000001
 43
0.0000001
 44
0.0000000001
 40
0.0
 40
0.0
 40
0.0
 40
0.0
 40
0.0113885965
 40
0.0222286123
 40
0.0325473094
 40
0.0375231081
 40
0.0423829909
 40
0.0517776456
 40
0.0607900957
 40
0.0694879124
 40
0.0737443896
 40
0.0779521836
 40
0.0821223528
 40
0.0862663397
 40
0.0903958561
 40
0.094522768
 40
0.0986589692
 40
0.1028162545
 40
0.1070061974
 40
0.1112400383
 40
0.1155285809
 40
0.1198821156
 40
0.128819576
 40
0.1381253754
 40
0.1478586341
 40
0.1580677639
 40
0.1687910864
 40
0.18005774
 40
0.1918886862
 40
0.2042976971
 40
0.2172922609
 40
0.2308743814
 40
0.2450412675
 40
0.2597859222
 40
0.2750976413
 40
0.2909624381
 40
0.3073634048
 40
0.3242810242
 40
0.3416934388
 40
0.3595766882
 40
0.3779049191
 40
0.3966505741
 40
0.4157845635
 40
0.435276424
 40
0.4550944656
 40
0.4752059111
 40
0.495577027
 40
0.5161732512
 40
0.5369593145
 40
0.5789553545
 40
0.6212750542
 40
0.6636226237
 40
0.7057019374
 40
0.7265501168
 40
0.747221873
 40
0.7676817021
 40
0.787894762
 40
0.8078269934
 40
0.8274452444
 40
0.8467174006
 40
0.8656125208
 40
0.8841009809
 40
0.9021546284
 40
0.9197469476
 40
0.9368532449
 40
0.9534508399
 40
0.969519325
 40
0.9850407272
 40
1.0
 40
1.0
 40
1.0
 40
1.0
 10
15.9170286442
 20
11.4101933031
 30
0.0
 10
15.9233612517
 20
11.4026065206
 30
0.0
 10
15.9361460894
 20
11.388144467
 30
0.0
 10
15.9561850874
 20
11.3682144532
 30
0.0
 10
15.9733748047
 20
11.3533864582
 30
0.0
 10
15.9872757285
 20
11.3427667632
 30
0.0
 10
16.0009437604
 20
11.3331873108
 30
0.0
 10
16.018207374
 20
11.3226620047
 30
0.0
 10
16.0393819695
 20
11.3123414215
 30
0.0
 10
16.0573127805
 20
11.3057602202
 30
0.0
 10
16.0716721123
 20
11.3017878019
 30
0.0
 10
16.0823903919
 20
11.2994540673
 30
0.0
 10
16.0931272103
 20
11.297746898
 30
0.0
 10
16.1038770614
 20
11.296667082
 30
0.0
 10
16.1146340431
 20
11.2962154153
 30
0.0
 10
16.1253923114
 20
11.2963921122
 30
0.0
 10
16.1361459985
 20
11.2971971
 30
0.0
 10
16.1468892523
 20
11.2986298608
 30
0.0
 10
16.1576162846
 20
11.3006895032
 30
0.0
 10
16.1683212649
 20
11.3033747621
 30
0.0
 10
16.178998771
 20
11.3066841238
 30
0.0
 10
16.1933141753
 20
11.311971285
 30
0.0
 10
16.2111546671
 20
11.3201935887
 30
0.0
 10
16.2321578597
 20
11.3324331311
 30
0.0
 10
16.2529062444
 20
11.3471016527
 30
0.0
 10
16.2733586339
 20
11.3641647329
 30
0.0
 10
16.293477003
 20
11.3835853563
 30
0.0
 10
16.3132229474
 20
11.4053226651
 30
0.0
 10
16.3325584777
 20
11.4293318762
 30
0.0
 10
16.3514458161
 20
11.4555639654
 30
0.0
 10
16.3698476109
 20
11.4839655567
 30
0.0
 10
16.3877270835
 20
11.5144788768
 30
0.0
 10
16.4050482022
 20
11.5470417902
 30
0.0
 10
16.4217758342
 20
11.5815878799
 30
0.0
 10
16.4378758842
 20
11.6180465645
 30
0.0
 10
16.4533154147
 20
11.6563432374
 30
0.0
 10
16.4680627527
 20
11.696399423
 30
0.0
 10
16.482087583
 20
11.7381329446
 30
0.0
 10
16.4953610316
 20
11.7814581018
 30
0.0
 10
16.5078557408
 20
11.8262858557
 30
0.0
 10
16.5195459362
 20
11.8725240197
 30
0.0
 10
16.5304074881
 20
11.9200774574
 30
0.0
 10
16.5404179668
 20
11.9688482843
 30
0.0
 10
16.5495566937
 20
12.0187360768
 30
0.0
 10
16.5578047841
 20
12.0696380779
 30
0.0
 10
16.5651451986
 20
12.121449436
 30
0.0
 10
16.5715627421
 20
12.1740633384
 30
0.0
 10
16.5770442389
 20
12.2273715615
 30
0.0
 10
16.5831097829
 20
12.2994711793
 30
0.0
 10
16.5882636284
 20
12.3905483015
 30
0.0
 10
16.5905676206
 20
12.5004577242
 30
0.0
 10
16.5889922427
 20
12.6104522405
 30
0.0
 10
16.5844440742
 20
12.7017120002
 30
0.0
 10
16.5788602587
 20
12.7740427612
 30
0.0
 10
16.5737336866
 20
12.8275835779
 30
0.0
 10
16.5676665773
 20
12.8804712162
 30
0.0
 10
16.5606713858
 20
12.9325968847
 30
0.0
 10
16.5527625938
 20
12.983853117
 30
0.0
 10
16.5439565409
 20
13.0341343242
 30
0.0
 10
16.5342714256
 20
13.0833369298
 30
0.0
 10
16.5237272562
 20
13.1313596099
 30
0.0
 10
16.5123458102
 20
13.1781035003
 30
0.0
 10
16.5001505834
 20
13.2234724082
 30
0.0
 10
16.4871667416
 20
13.2673730119
 30
0.0
 10
16.4734210457
 20
13.3097150766
 30
0.0
 10
16.4589418367
 20
13.3504115849
 30
0.0
 10
16.4437588029
 20
13.3893791717
 30
0.0
 10
16.4279034496
 20
13.4265373115
 30
0.0
 10
16.4166962377
 20
13.4505022545
 30
0.0
 10
16.4109776433
 20
13.4621555246
 30
0.0
  0
SPLINE
  5
2C2
100
AcDbEntity
  8
LAYER_FEATURE
100
AcDbSpline
 62
7
  6
CONTINUOUS
 70
0
 71
3
 72
54
 73
50
 74
0
 42
0.0000001
 43
0.0000001
 44
0.0000000001
 40
0.0
 40
0.0
 40
0.0
 40
0.0
 40
0.0330500911
 40
0.0673809192
 40
0.1028689283
 40
0.1393805319
 40
0.1767738175
 40
0.2148999748
 40
0.2536046396
 40
0.2927291645
 40
0.332111844
 40
0.371589117
 40
0.4109967453
 40
0.4501709875
 40
0.4889497816
 40
0.527173937
 40
0.5646883547
 40
0.6013432983
 40
0.6369957225
 40
0.6544041335
 40
0.6715120662
 40
0.6883041819
 40
0.7047658546
 40
0.7208832305
 40
0.7366432932
 40
0.7520339344
 40
0.7670440314
 40
0.7816635338
 40
0.7958835598
 40
0.8096965034
 40
0.8230961537
 40
0.8360778311
 40
0.8486385414
 40
0.8607771512
 40
0.8724945865
 40
0.883794059
 40
0.8946813184
 40
0.905164932
 40
0.9152565919
 40
0.924971441
 40
0.9343284085
 40
0.9433505323
 40
0.9520652399
 40
0.9605045421
 40
0.9687050889
 40
0.9767080287
 40
0.9845586184
 40
0.9923055501
 40
1.0
 40
1.0
 40
1.0
 40
1.0
 10
14.4069144816
 20
13.4113624344
 30
0.0
 10
14.3985546708
 20
13.384310077
 30
0.0
 10
14.3826490075
 20
13.3288000905
 30
0.0
 10
14.3615455472
 20
13.2432161813
 30
0.0
 10
14.3428188908
 20
13.1540487052
 30
0.0
 10
14.3265616828
 20
13.0617347451
 30
0.0
 10
14.3128537997
 20
12.9667247986
 30
0.0
 10
14.3017627861
 20
12.8694835531
 30
0.0
 10
14.2933432768
 20
12.7704866521
 30
0.0
 10
14.287636778
 20
12.6702185554
 30
0.0
 10
14.2846714013
 20
12.5691700479
 30
0.0
 10
14.284461758
 20
12.467835806
 30
0.0
 10
14.2870088912
 20
12.3667119258
 30
0.0
 10
14.2923002497
 20
12.2662934628
 30
0.0
 10
14.3003097432
 20
12.1670719345
 30
0.0
 10
14.3109979015
 20
12.0695329768
 30
0.0
 10
14.3243120816
 20
11.9741535252
 30
0.0
 10
14.3401866807
 20
11.8814008246
 30
0.0
 10
14.3556039145
 20
11.8060856937
 30
0.0
 10
14.3691892924
 20
11.7475233568
 30
0.0
 10
14.379885344
 20
11.7048851093
 30
0.0
 10
14.3911557371
 20
11.6632347239
 30
0.0
 10
14.4029867374
 20
11.6226230764
 30
0.0
 10
14.4153638131
 20
11.5830999054
 30
0.0
 10
14.4282717995
 20
11.544713564
 30
0.0
 10
14.4416948827
 20
11.507511008
 30
0.0
 10
14.4556166308
 20
11.4715377241
 30
0.0
 10
14.4700200169
 20
11.4368376754
 30
0.0
 10
14.4848874412
 20
11.4034532422
 30
0.0
 10
14.5002007595
 20
11.3714251695
 30
0.0
 10
14.515941316
 20
11.3407925191
 30
0.0
 10
14.5320899746
 20
11.311592623
 30
0.0
 10
14.5486271537
 20
11.2838610409
 30
0.0
 10
14.5655328638
 20
11.2576315219
 30
0.0
 10
14.5827867496
 20
11.2329359729
 30
0.0
 10
14.6003681288
 20
11.209804432
 30
0.0
 10
14.6182560362
 20
11.1882650553
 30
0.0
 10
14.6364292688
 20
11.1683441228
 30
0.0
 10
14.6548664207
 20
11.1500660558
 30
0.0
 10
14.6735459044
 20
11.133453453
 30
0.0
 10
14.6924459507
 20
11.1185271414
 30
0.0
 10
14.7115445709
 20
11.105306239
 30
0.0
 10
14.7308194741
 20
11.0938082048
 30
0.0
 10
14.7502479071
 20
11.0840488609
 30
0.0
 10
14.7698065445
 20
11.0760423549
 30
0.0
 10
14.7894710243
 20
11.0698010093
 30
0.0
 10
14.8092167408
 20
11.06533505
 30
0.0
 10
14.8290153791
 20
11.0626522192
 30
0.0
 10
14.8422519144
 20
11.0620549981
 30
0.0
 10
14.8488438858
 20
11.0620549934
 30
0.0
  0
SPLINE
  5
2C3
100
AcDbEntity
  8
LAYER_FEATURE
100
AcDbSpline
 62
7
  6
CONTINUOUS
 70
0
 71
3
 72
38
 73
34
 74
0
 42
0.0000001
 43
0.0000001
 44
0.0000000001
 40
0.0
 40
0.0
 40
0.0
 40
0.0
 40
0.0914805874
 40
0.1357483027
 40
0.1789961879
 40
0.221199113
 40
0.2623350496
 40
0.302384827
 40
0.3413324226
 40
0.3791652753
 40
0.4158745809
 40
0.4514556764
 40
0.4859084351
 40
0.5192377078
 40
0.5514538287
 40
0.5825731823
 40
0.6126188353
 40
0.6416211877
 40
0.6696186695
 40
0.6966584564
 40
0.7227971667
 40
0.748101469
 40
0.7726485131
 40
0.7965261187
 40
0.8198326059
 40
0.8426761639
 40
0.8651736643
 40
0.8874489082
 40
0.9096303633
 40
0.9318485218
 40
0.9542330801
 40
0.9769101883
 40
1.0
 40
1.0
 40
1.0
 40
1.0
 10
14.4406778864
 20
13.3694557751
 30
0.0
 10
14.4477675428
 20
13.3923979113
 30
0.0
 10
14.4589150988
 20
13.426254473
 30
0.0
 10
14.4749844404
 20
13.4704082085
 30
0.0
 10
14.4873123318
 20
13.5021508647
 30
0.0
 10
14.5000346503
 20
13.5328494805
 30
0.0
 10
14.5131381459
 20
13.5624719808
 30
0.0
 10
14.5266090271
 20
13.5909872323
 30
0.0
 10
14.5404331845
 20
13.6183653366
 30
0.0
 10
14.5545961457
 20
13.6445775818
 30
0.0
 10
14.5690831264
 20
13.669596497
 30
0.0
 10
14.5838790259
 20
13.6933958836
 30
0.0
 10
14.5989684632
 20
13.7159508379
 30
0.0
 10
14.6143358096
 20
13.7372377588
 30
0.0
 10
14.6299652121
 20
13.7572343608
 30
0.0
 10
14.6458406237
 20
13.7759196837
 30
0.0
 10
14.6619458077
 20
13.7932741123
 30
0.0
 10
14.6782643805
 20
13.8092793491
 30
0.0
 10
14.69477982
 20
13.8239183916
 30
0.0
 10
14.7114754698
 20
13.8371755014
 30
0.0
 10
14.7283345125
 20
13.8490361853
 30
0.0
 10
14.745339919
 20
13.8594871789
 30
0.0
 10
14.7624743936
 20
13.8685164058
 30
0.0
 10
14.7797202684
 20
13.8761129973
 30
0.0
 10
14.7970593962
 20
13.8822673525
 30
0.0
 10
14.8144730397
 20
13.8869713045
 30
0.0
 10
14.8319418371
 20
13.8902182984
 30
0.0
 10
14.8494458324
 20
13.8920036054
 30
0.0
 10
14.8669646555
 20
13.8923245277
 30
0.0
 10
14.8844776178
 20
13.8911805906
 30
0.0
 10
14.901964527
 20
13.8885734328
 30
0.0
 10
14.9194039751
 20
13.8845073386
 30
0.0
 10
14.930866614
 20
13.8808655639
 30
0.0
 10
14.9365705121
 20
13.8788164297
 30
0.0
  0
SPLINE
  5
2C4
100
AcDbEntity
  8
LAYER_FEATURE
100
AcDbSpline
 62
7
  6
CONTINUOUS
 70
0
 71
3
 72
60
 73
56
 74
0
 42
0.0000001
 43
0.0000001
 44
0.0000000001
 40
0.0
 40
0.0
 40
0.0
 40
0.0
 40
0.0168578754
 40
0.0340808986
 40
0.051652073
 40
0.0695538575
 40
0.0877676866
 40
0.1062743351
 40
0.1440844006
 40
0.1828189296
 40
0.2223032655
 40
0.2623563928
 40
0.3027925829
 40
0.3434229827
 40
0.3840571688
 40
0.4245046864
 40
0.4645765899
 40
0.5040869974
 40
0.542854677
 40
0.5807046865
 40
0.5992337413
 40
0.6174715407
 40
0.6353987798
 40
0.6529968953
 40
0.6702481352
 40
0.6871356321
 40
0.7036434825
 40
0.719756834
 40
0.7354619794
 40
0.7507464624
 40
0.7655991943
 40
0.7800105864
 40
0.7939726972
 40
0.8074794021
 40
0.8205265847
 40
0.8331123583
 40
0.8452373167
 40
0.8569048221
 40
0.8681213306
 40
0.8788967568
 40
0.8892448751
 40
0.8991837483
 40
0.9087361642
 40
0.9133766686
 40
0.9179314911
 40
0.9268002574
 40
0.9353830048
 40
0.9437245115
 40
0.9518749184
 40
0.9598890419
 40
0.9678252901
 40
0.9757442285
 40
0.983706913
 40
0.9917731676
 40
1.0
 40
1.0
 40
1.0
 40
1.0
 10
14.4406778864
 20
13.3694557751
 30
0.0
 10
14.4364867591
 20
13.355893282
 30
0.0
 10
14.4283118983
 20
13.3283815213
 30
0.0
 10
14.4167836116
 20
13.2864402347
 30
0.0
 10
14.4058698575
 20
13.2434273275
 30
0.0
 10
14.3955858155
 20
13.1994025601
 30
0.0
 10
14.3859456066
 20
13.1544264063
 30
0.0
 10
14.3738828133
 20
13.0928347891
 30
0.0
 10
14.3605407059
 20
13.0138992851
 30
0.0
 10
14.3473995772
 20
12.9170678784
 30
0.0
 10
14.3370888917
 20
12.8179953598
 30
0.0
 10
14.3296659235
 20
12.717228736
 30
0.0
 10
14.325171927
 20
12.6153234321
 30
0.0
 10
14.3236318797
 20
12.5128415883
 30
0.0
 10
14.3250543448
 20
12.4103485096
 30
0.0
 10
14.3294314202
 20
12.3084095652
 30
0.0
 10
14.3367387728
 20
12.2075870849
 30
0.0
 10
14.3469357862
 20
12.1084368079
 30
0.0
 10
14.3599658119
 20
12.0115061723
 30
0.0
 10
14.3732166973
 20
11.9324738183
 30
0.0
 10
14.3852080453
 20
11.8707942117
 30
0.0
 10
14.3947965378
 20
11.825745175
 30
0.0
 10
14.405029957
 20
11.7816425957
 30
0.0
 10
14.4158942365
 20
11.7385472186
 30
0.0
 10
14.4273743282
 20
11.6965185475
 30
0.0
 10
14.4394543673
 20
11.6556145556
 30
0.0
 10
14.4521176589
 20
11.6158916571
 30
0.0
 10
14.4653467136
 20
11.5774046136
 30
0.0
 10
14.4791232726
 20
11.5402064592
 30
0.0
 10
14.4934283383
 20
11.5043484243
 30
0.0
 10
14.5082422059
 20
11.4698798622
 30
0.0
 10
14.5235444975
 20
11.4368481777
 30
0.0
 10
14.5393142014
 20
11.4052987621
 30
0.0
 10
14.5555297132
 20
11.3752749306
 30
0.0
 10
14.5721688817
 20
11.3468178656
 30
0.0
 10
14.5892090572
 20
11.3199665666
 30
0.0
 10
14.6066271478
 20
11.2947578077
 30
0.0
 10
14.624399669
 20
11.2712261133
 30
0.0
 10
14.6425028286
 20
11.2494037255
 30
0.0
 10
14.6609124915
 20
11.2293206763
 30
0.0
 10
14.679604552
 20
11.211004585
 30
0.0
 10
14.6985538134
 20
11.1944815313
 30
0.0
 10
14.7146927773
 20
11.1821080006
 30
0.0
 10
14.7277023109
 20
11.1731600991
 30
0.0
 10
14.7405345686
 20
11.1649877262
 30
0.0
 10
14.7567012615
 20
11.155891971
 30
0.0
 10
14.7764308552
 20
11.1467546744
 30
0.0
 10
14.7962904208
 20
11.1395076211
 30
0.0
 10
14.8162511821
 20
11.1341644725
 30
0.0
 10
14.8362836583
 20
11.1307356831
 30
0.0
 10
14.856356963
 20
11.1292284578
 30
0.0
 10
14.8764392246
 20
11.1296460155
 30
0.0
 10
14.8964989721
 20
11.1319876095
 30
0.0
 10
14.9165029063
 20
11.1362475913
 30
0.0
 10
14.9296283817
 20
11.1403134465
 30
0.0
 10
14.9361521645
 20
11.1426437026
 30
0.0
  0
SPLINE
  5
2C5
100
AcDbEntity
  8
LAYER_FEATURE
100
AcDbSpline
 62
7
  6
CONTINUOUS
 70
0
 71
3
 72
13
 73
9
 74
0
 42
0.0000001
 43
0.0000001
 44
0.0000000001
 40
0.0
 40
0.0
 40
0.0
 40
0.0
 40
0.1180195981
 40
0.2427110207
 40
0.5029436048
 40
0.7616521468
 40
0.8844881291
 40
1.0
 40
1.0
 40
1.0
 40
1.0
 10
14.4262474832
 20
13.2973892527
 30
0.0
 10
14.4261489448
 20
13.2969953978
 30
0.0
 10
14.4259781688
 20
13.296177216
 30
0.0
 10
14.4257384922
 20
13.2944627716
 30
0.0
 10
14.4256340947
 20
13.2922457914
 30
0.0
 10
14.4257773336
 20
13.2900372018
 30
0.0
 10
14.4260482083
 20
13.2883478659
 30
0.0
 10
14.4262339832
 20
13.2875482986
 30
0.0
 10
14.4263398916
 20
13.2871653045
 30
0.0
  0
SPLINE
  5
2C6
100
AcDbEntity
  8
LAYER_FEATURE
100
AcDbSpline
 62
7
  6
CONTINUOUS
 70
0
 71
3
 72
12
 73
8
 74
0
 42
0.0000001
 43
0.0000001
 44
0.0000000001
 40
0.0
 40
0.0
 40
0.0
 40
0.0
 40
0.2612766746
 40
0.5197694289
 40
0.7682348118
 40
0.8866003885
 40
1.0
 40
1.0
 40
1.0
 40
1.0
 10
14.4361381381
 20
13.2312988898
 30
0.0
 10
14.4362634788
 20
13.2341106902
 30
0.0
 10
14.4363120269
 20
13.2397153213
 30
0.0
 10
14.4357987645
 20
13.2479815998
 30
0.0
 10
14.4348837329
 20
13.2546633709
 30
0.0
 10
14.4338592579
 20
13.259735529
 30
0.0
 10
14.4332547917
 20
13.262159113
 30
0.0
 10
14.4329292067
 20
13.2633365184
 30
0.0
  0
SPLINE
  5
2C7
100
AcDbEntity
  8
LAYER_CHAMFER_FEAT
100
AcDbSpline
 62
7
  6
CONTINUOUS
 70
0
 71
3
 72
58
 73
54
 74
0
 42
0.0000001
 43
0.0000001
 44
0.0000000001
 40
0.0
 40
0.0
 40
0.0
 40
0.0
 40
0.0077261803
 40
0.0155163025
 40
0.0234323859
 40
0.0315328296
 40
0.0398711055
 40
0.0484949127
 40
0.0574457756
 40
0.0667590074
 40
0.0764639356
 40
0.0865842911
 40
0.0971386783
 40
0.108141071
 40
0.1196012942
 40
0.1315254721
 40
0.1439164328
 40
0.1567740669
 40
0.1700956414
 40
0.1838760739
 40
0.1981081702
 40
0.2127828319
 40
0.227889237
 40
0.2434149986
 40
0.2593463059
 40
0.2756680486
 40
0.2923639296
 40
0.3094165664
 40
0.3268075834
 40
0.3445176978
 40
0.3808125638
 40
0.4181332296
 40
0.4563002743
 40
0.4951264293
 40
0.5344184822
 40
0.5739790999
 40
0.6136086023
 40
0.6531067095
 40
0.6922742851
 40
0.7309150911
 40
0.7688375731
 40
0.8058567052
 40
0.8417959245
 40
0.8593090233
 40
0.8764908775
 40
0.8933227614
 40
0.9097869091
 40
0.9258666064
 40
0.9415462794
 40
0.9568116341
 40
0.9716496842
 40
0.9860491132
 40
1.0
 40
1.0
 40
1.0
 40
1.0
 10
16.1024813829
 20
11.312054997
 30
0.0
 10
16.1084945862
 20
11.3120549876
 30
0.0
 10
16.1205791973
 20
11.3126564415
 30
0.0
 10
16.1386431534
 20
11.3153570091
 30
0.0
 10
16.1566471799
 20
11.3198509251
 30
0.0
 10
16.1745597446
 20
11.3261282761
 30
0.0
 10
16.1923537969
 20
11.3341762348
 30
0.0
 10
16.2100028074
 20
11.3439796061
 30
0.0
 10
16.2274815173
 20
11.3555211822
 30
0.0
 10
16.2447653133
 20
11.3687818787
 30
0.0
 10
16.2618300443
 20
11.383740723
 30
0.0
 10
16.27865183
 20
11.4003747636
 30
0.0
 10
16.2952069908
 20
11.4186589619
 30
0.0
 10
16.3114720322
 20
11.4385661015
 30
0.0
 10
16.3274236766
 20
11.4600667236
 30
0.0
 10
16.3430389153
 20
11.4831290938
 30
0.0
 10
16.3582950709
 20
11.5077191968
 30
0.0
 10
16.3731698611
 20
11.5338007514
 30
0.0
 10
16.3876414593
 20
11.5613352445
 30
0.0
 10
16.4016885513
 20
11.5902819759
 30
0.0
 10
16.4152903872
 20
11.6205981136
 30
0.0
 10
16.428426828
 20
11.6522387553
 30
0.0
 10
16.4410783884
 20
11.6851569955
 30
0.0
 10
16.4532262769
 20
11.7193039964
 30
0.0
 10
16.4648524306
 20
11.7546290646
 30
0.0
 10
16.4759395454
 20
11.791079726
 30
0.0
 10
16.4864711171
 20
11.82860182
 30
0.0
 10
16.4964314282
 20
11.8671395315
 30
0.0
 10
16.5058057313
 20
11.906635673
 30
0.0
 10
16.5176005198
 20
11.9609390638
 30
0.0
 10
16.5307445239
 20
12.0308080429
 30
0.0
 10
16.5438546538
 20
12.1168299485
 30
0.0
 10
16.5543496157
 20
12.2051938097
 30
0.0
 10
16.562166551
 20
12.295373914
 30
0.0
 10
16.5672586157
 20
12.3868346808
 30
0.0
 10
16.5695952916
 20
12.4790324185
 30
0.0
 10
16.5691625706
 20
12.571419052
 30
0.0
 10
16.565963043
 20
12.6634453274
 30
0.0
 10
16.5600158897
 20
12.7545642106
 30
0.0
 10
16.5513567545
 20
12.8442340836
 30
0.0
 10
16.540037524
 20
12.9319224829
 30
0.0
 10
16.5261259933
 20
13.017107773
 30
0.0
 10
16.5123260155
 20
13.0861728613
 30
0.0
 10
16.5000196487
 20
13.1397545282
 30
0.0
 10
16.4902775507
 20
13.1786588508
 30
0.0
 10
16.4799586229
 20
13.2165687683
 30
0.0
 10
16.4690781378
 20
13.2534280405
 30
0.0
 10
16.4576523287
 20
13.289181844
 30
0.0
 10
16.4456981972
 20
13.3237770909
 30
0.0
 10
16.4332335363
 20
13.3571623444
 30
0.0
 10
16.4202768181
 20
13.3892882442
 30
0.0
 10
16.406847456
 20
13.4201066595
 30
0.0
 10
16.397441724
 20
13.4400707121
 30
0.0
 10
16.3926583881
 20
13.4498181258
 30
0.0
  0
SPLINE
  5
2C8
100
AcDbEntity
  8
LAYER_FEATURE
100
AcDbSpline
 62
7
  6
CONTINUOUS
 70
0
 71
3
 72
13
 73
9
 74
0
 42
0.0000001
 43
0.0000001
 44
0.0000000001
 40
0.0
 40
0.0
 40
0.0
 40
0.0
 40
0.2520380804
 40
0.5155016508
 40
0.6454641639
 40
0.770993853
 40
0.8898387373
 40
1.0
 40
1.0
 40
1.0
 40
1.0
 10
14.3979143856
 20
13.1820549442
 30
0.0
 10
14.3977466046
 20
13.1812095436
 30
0.0
 10
14.3975272653
 20
13.1794548985
 30
0.0
 10
14.3975056967
 20
13.1772429349
 30
0.0
 10
14.3976419685
 20
13.1754725966
 30
0.0
 10
14.3978181919
 20
13.1742037528
 30
0.0
 10
14.3980646893
 20
13.1730157516
 30
0.0
 10
14.3982816068
 20
13.1722621335
 30
0.0
 10
14.3984027536
 20
13.1719054285
 30
0.0
  0
SPLINE
  5
2C9
100
AcDbEntity
  8
LAYER_FEATURE
100
AcDbSpline
 62
7
  6
CONTINUOUS
 70
0
 71
3
 72
13
 73
9
 74
0
 42
0.0000001
 43
0.0000001
 44
0.0000000001
 40
0.0
 40
0.0
 40
0.0
 40
0.0
 40
0.2673994706
 40
0.5278492648
 40
0.6532217619
 40
0.7742105022
 40
0.89003736
 40
1.0
 40
1.0
 40
1.0
 40
1.0
 10
14.4103184494
 20
13.1188218766
 30
0.0
 10
14.4103340227
 20
13.1216299229
 30
0.0
 10
14.4101692804
 20
13.1271759685
 30
0.0
 10
14.4094721932
 20
13.1340071644
 30
0.0
 10
14.4086174758
 20
13.1392616726
 30
0.0
 10
14.4078493174
 20
13.1429880937
 30
0.0
 10
14.4069526238
 20
13.1465189565
 30
0.0
 10
14.40625461
 20
13.1487864031
 30
0.0
 10
14.4058832515
 20
13.1498798321
 30
0.0
  0
SPLINE
  5
2CA
100
AcDbEntity
  8
LAYER_FEATURE
100
AcDbSpline
 62
7
  6
CONTINUOUS
 70
0
 71
3
 72
13
 73
9
 74
0
 42
0.0000001
 43
0.0000001
 44
0.0000000001
 40
0.0
 40
0.0
 40
0.0
 40
0.0
 40
0.2616606168
 40
0.5283057809
 40
0.6573498926
 40
0.7803461572
 40
0.8951639648
 40
1.0
 40
1.0
 40
1.0
 40
1.0
 10
14.3741940017
 20
13.0600494522
 30
0.0
 10
14.3740616214
 20
13.0591771338
 30
0.0
 10
14.3739104982
 20
13.0573971845
 30
0.0
 10
14.3739720567
 20
13.0551764751
 30
0.0
 10
14.374176907
 20
13.0534385355
 30
0.0
 10
14.3744008964
 20
13.0522209324
 30
0.0
 10
14.3746916153
 20
13.0511016433
 30
0.0
 10
14.3749380345
 20
13.0504017653
 30
0.0
 10
14.3750734756
 20
13.0500752394
 30
0.0
  0
SPLINE
  5
2CB
100
AcDbEntity
  8
LAYER_FEATURE
100
AcDbSpline
 62
7
  6
CONTINUOUS
 70
0
 71
3
 72
13
 73
9
 74
0
 42
0.0000001
 43
0.0000001
 44
0.0000000001
 40
0.0
 40
0.0
 40
0.0
 40
0.0
 40
0.2737652379
 40
0.5362077337
 40
0.6609672303
 40
0.7803151513
 40
0.8935326453
 40
1.0
 40
1.0
 40
1.0
 40
1.0
 10
14.3889881971
 20
13.0003021184
 30
0.0
 10
14.3888955379
 20
13.0030785352
 30
0.0
 10
14.388522592
 20
13.0085121285
 30
0.0
 10
14.3875646054
 20
13.0151580019
 30
0.0
 10
14.3865068528
 20
13.0201896
 30
0.0
 10
14.3855987401
 20
13.0237014004
 30
0.0
 10
14.3845703525
 20
13.0269859025
 30
0.0
 10
14.3837847382
 20
13.0290738245
 30
0.0
 10
14.3833708117
 20
13.030071733
 30
0.0
  0
SPLINE
  5
2CC
100
AcDbEntity
  8
LAYER_FEATURE
100
AcDbSpline
 62
7
  6
CONTINUOUS
 70
0
 71
3
 72
15
 73
11
 74
0
 42
0.0000001
 43
0.0000001
 44
0.0000000001
 40
0.0
 40
0.0
 40
0.0
 40
0.0
 40
0.0926080389
 40
0.1898139436
 40
0.2950451094
 40
0.4107857958
 40
0.5386078361
 40
0.6793316059
 40
0.833196775
 40
1.0
 40
1.0
 40
1.0
 40
1.0
 10
14.3727658621
 20
12.9601905845
 30
0.0
 10
14.3733192248
 20
12.9602057344
 30
0.0
 10
14.3744535719
 20
12.9603738672
 30
0.0
 10
14.3761077877
 20
12.9610203544
 30
0.0
 10
14.3777200246
 20
12.9620484581
 30
0.0
 10
14.3792793372
 20
12.9634435356
 30
0.0
 10
14.3807774212
 20
12.9651921141
 30
0.0
 10
14.3822047367
 20
12.9672799495
 30
0.0
 10
14.3835511327
 20
12.9696904472
 30
0.0
 10
14.384356468
 20
12.9714319137
 30
0.0
 10
14.3847462173
 20
12.9723496589
 30
0.0
  0
SPLINE
  5
2CD
100
AcDbEntity
  8
LAYER_FEATURE
100
AcDbSpline
 62
7
  6
CONTINUOUS
 70
0
 71
3
 72
16
 73
12
 74
0
 42
0.0000001
 43
0.0000001
 44
0.0000000001
 40
0.0
 40
0.0
 40
0.0
 40
0.0
 40
0.0375329361
 40
0.0763595554
 40
0.1613466878
 40
0.2607493391
 40
0.377034311
 40
0.5105560142
 40
0.6602951674
 40
0.8243004662
 40
1.0
 40
1.0
 40
1.0
 40
1.0
 10
14.3613855724
 20
12.9598790163
 30
0.0
 10
14.361297021
 20
12.9598765919
 30
0.0
 10
14.3611169176
 20
12.9598541028
 30
0.0
 10
14.3607524021
 20
12.9597376415
 30
0.0
 10
14.3603013075
 20
12.9594490268
 30
0.0
 10
14.359813525
 20
12.9589272328
 30
0.0
 10
14.359363812
 20
12.9582326683
 30
0.0
 10
14.358959589
 20
12.9573784172
 30
0.0
 10
14.3586082481
 20
12.9563813591
 30
0.0
 10
14.3583173288
 20
12.9552622626
 30
0.0
 10
14.3581720469
 20
12.9544730324
 30
0.0
 10
14.3581098283
 20
12.9540630436
 30
0.0
  0
SPLINE
  5
2CE
100
AcDbEntity
  8
LAYER_FEATURE
100
AcDbSpline
 62
7
  6
CONTINUOUS
 70
0
 71
3
 72
52
 73
48
 74
0
 42
0.0000001
 43
0.0000001
 44
0.0000000001
 40
0.0
 40
0.0
 40
0.0
 40
0.0
 40
0.0388871012
 40
0.0783151961
 40
0.1181687669
 40
0.1583297156
 40
0.1986784311
 40
0.2390943357
 40
0.2794565042
 40
0.3196442882
 40
0.3595379389
 40
0.3990192348
 40
0.4379721263
 40
0.4762833806
 40
0.5138432747
 40
0.5505462826
 40
0.5862918516
 40
0.6209851823
 40
0.6545381411
 40
0.6868702242
 40
0.7179097035
 40
0.7329258384
 40
0.7475966347
 40
0.7619162206
 40
0.7758795688
 40
0.7894825708
 40
0.8027221012
 40
0.8155961009
 40
0.8281036825
 40
0.8402452326
 40
0.8520225194
 40
0.8634388225
 40
0.8744990869
 40
0.8852100677
 40
0.8955804894
 40
0.9056212265
 40
0.9153454875
 40
0.924768979
 40
0.9339100647
 40
0.942789906
 40
0.951432548
 40
0.9598649304
 40
0.9681168181
 40
0.976220625
 40
0.9842111016
 40
0.9921248958
 40
1.0
 40
1.0
 40
1.0
 40
1.0
 10
14.3581098283
 20
12.9540630436
 30
0.0
 10
14.354664847
 20
12.9282362835
 30
0.0
 10
14.3483917067
 20
12.8761325837
 30
0.0
 10
14.3408622681
 20
12.7973074581
 30
0.0
 10
14.3351653879
 20
12.7174727349
 30
0.0
 10
14.3313212886
 20
12.6369101428
 30
0.0
 10
14.3293435814
 20
12.5559033111
 30
0.0
 10
14.3292392556
 20
12.4747376315
 30
0.0
 10
14.331008686
 20
12.3936989971
 30
0.0
 10
14.3346456132
 20
12.3130728665
 30
0.0
 10
14.34013715
 20
12.2331432219
 30
0.0
 10
14.3474638836
 20
12.1541915635
 30
0.0
 10
14.3565998513
 20
12.0764958968
 30
0.0
 10
14.3675127644
 20
12.0003297449
 30
0.0
 10
14.3801639703
 20
11.9259611529
 30
0.0
 10
14.3945087709
 20
11.853651742
 30
0.0
 10
14.4104964154
 20
11.7836557124
 30
0.0
 10
14.4280704577
 20
11.7162190466
 30
0.0
 10
14.4471688932
 20
11.6515781741
 30
0.0
 10
14.4677243157
 20
11.5899605584
 30
0.0
 10
14.4862063484
 20
11.5407817843
 30
0.0
 10
14.5016946205
 20
11.5031536352
 30
0.0
 10
14.513500354
 20
11.476131925
 30
0.0
 10
14.5256131476
 20
11.4500219806
 30
0.0
 10
14.5380224752
 20
11.4248466662
 30
0.0
 10
14.5507174115
 20
11.400628104
 30
0.0
 10
14.5636868417
 20
11.3773875462
 30
0.0
 10
14.5769194336
 20
11.3551453953
 30
0.0
 10
14.5904036349
 20
11.3339211568
 30
0.0
 10
14.6041276917
 20
11.3137334298
 30
0.0
 10
14.6180796851
 20
11.2945999134
 30
0.0
 10
14.6322475475
 20
11.2765373989
 30
0.0
 10
14.6466190402
 20
11.2595617293
 30
0.0
 10
14.6611818001
 20
11.2436878206
 30
0.0
 10
14.6759233586
 20
11.2289296795
 30
0.0
 10
14.6908311433
 20
11.2153003999
 30
0.0
 10
14.7058924542
 20
11.2028121403
 30
0.0
 10
14.7210944963
 20
11.1914761798
 30
0.0
 10
14.7364243623
 20
11.1813029436
 30
0.0
 10
14.7518689799
 20
11.1723019792
 30
0.0
 10
14.7674150739
 20
11.1644819471
 30
0.0
 10
14.783049122
 20
11.1578506451
 30
0.0
 10
14.7987573334
 20
11.1524149693
 30
0.0
 10
14.8145254313
 20
11.1481807687
 30
0.0
 10
14.8303391933
 20
11.1451527827
 30
0.0
 10
14.846182505
 20
11.1433345312
 30
0.0
 10
14.8567659367
 20
11.1429300061
 30
0.0
 10
14.8620424892
 20
11.1429299996
 30
0.0
  0
SPLINE
  5
2CF
100
AcDbEntity
  8
LAYER_FEATURE
100
AcDbSpline
 62
7
  6
CONTINUOUS
 70
0
 71
3
 72
13
 73
9
 74
0
 42
0.0000001
 43
0.0000001
 44
0.0000000001
 40
0.0
 40
0.0
 40
0.0
 40
0.0
 40
0.1126459242
 40
0.233349967
 40
0.4902856267
 40
0.7522515083
 40
0.8790790098
 40
1.0
 40
1.0
 40
1.0
 40
1.0
 10
14.4589117072
 20
13.4049061333
 30
0.0
 10
14.4587975438
 20
13.4045367003
 30
0.0
 10
14.4585949083
 20
13.4037607018
 30
0.0
 10
14.4582886737
 20
13.4021047364
 30
0.0
 10
14.458100961
 20
13.3999115115
 30
0.0
 10
14.4581607064
 20
13.3976906366
 30
0.0
 10
14.4583641438
 20
13.3959519307
 30
0.0
 10
14.4585173582
 20
13.3951145906
 30
0.0
 10
14.4586072377
 20
13.394709363
 30
0.0
  0
SPLINE
  5
2D0
100
AcDbEntity
  8
LAYER_FEATURE
100
AcDbSpline
 62
7
  6
CONTINUOUS
 70
0
 71
3
 72
11
 73
7
 74
0
 42
0.0000001
 43
0.0000001
 44
0.0000000001
 40
0.0
 40
0.0
 40
0.0
 40
0.0
 40
0.2553250409
 40
0.5118768144
 40
0.7624153647
 40
1.0
 40
1.0
 40
1.0
 40
1.0
 10
14.4661906555
 20
13.336615311
 30
0.0
 10
14.4664262275
 20
13.3394027522
 30
0.0
 10
14.4666907823
 20
13.3450104111
 30
0.0
 10
14.4664960861
 20
13.3533680073
 30
0.0
 10
14.4657213767
 20
13.3614968795
 30
0.0
 10
14.4648035324
 20
13.3667729552
 30
0.0
 10
14.4642398826
 20
13.3693142082
 30
0.0
  0
SPLINE
  5
2D1
100
AcDbEntity
  8
LAYER_FEATURE
100
AcDbSpline
 62
7
  6
CONTINUOUS
 70
0
 71
3
 72
27
 73
23
 74
0
 42
0.0000001
 43
0.0000001
 44
0.0000000001
 40
0.0
 40
0.0
 40
0.0
 40
0.0
 40
0.0217135946
 40
0.0435142838
 40
0.0654878808
 40
0.0877177082
 40
0.1102835181
 40
0.1332606354
 40
0.1567192716
 40
0.1807240585
 40
0.2305845401
 40
0.2832619054
 40
0.3390660078
 40
0.3982246456
 40
0.4608936642
 40
0.5271670877
 40
0.5970861908
 40
0.6706472739
 40
0.7478082519
 40
0.8284940523
 40
0.9126005977
 40
1.0
 40
1.0
 40
1.0
 40
1.0
 10
14.8620424892
 20
13.8786799918
 30
0.0
 10
14.8572771788
 20
13.8786799965
 30
0.0
 10
14.8477241967
 20
13.8783503079
 30
0.0
 10
14.833418004
 20
13.8768682678
 30
0.0
 10
14.8191332486
 20
13.8743997132
 30
0.0
 10
14.8048817318
 20
13.8709468872
 30
0.0
 10
14.7906738825
 20
13.8665128917
 30
0.0
 10
14.7765203629
 20
13.8611015757
 30
0.0
 10
14.7624311204
 20
13.8547172501
 30
0.0
 10
14.7435079049
 20
13.8447904424
 30
0.0
 10
14.7200286671
 20
13.8298539584
 30
0.0
 10
14.692654415
 20
13.8083696047
 30
0.0
 10
14.6657927666
 20
13.7831673217
 30
0.0
 10
14.6395154465
 20
13.7543236353
 30
0.0
 10
14.6138901008
 20
13.7219210499
 30
0.0
 10
14.5889854551
 20
13.6860514698
 30
0.0
 10
14.5648693236
 20
13.6468160472
 30
0.0
 10
14.5416084891
 20
13.6043255521
 30
0.0
 10
14.5192681515
 20
13.5587002481
 30
0.0
 10
14.4979114583
 20
13.5100694703
 30
0.0
 10
14.4775992909
 20
13.4585722357
 30
0.0
 10
14.4650263355
 20
13.4230862456
 30
0.0
 10
14.4589117072
 20
13.4049061333
 30
0.0
  0
SPLINE
  5
2D2
100
AcDbEntity
  8
LAYER_FEATURE
100
AcDbSpline
 62
7
  6
CONTINUOUS
 70
0
 71
3
 72
34
 73
30
 74
0
 42
0.0000001
 43
0.0000001
 44
0.0000000001
 40
0.0
 40
0.0
 40
0.0
 40
0.0
 40
0.0879664416
 40
0.1726604024
 40
0.2539271956
 40
0.3316368857
 40
0.369127816
 40
0.4056947085
 40
0.4413304631
 40
0.4760305009
 40
0.5097929191
 40
0.5426187364
 40
0.5745121897
 40
0.6054809599
 40
0.635536477
 40
0.6646943035
 40
0.6929744473
 40
0.72040172
 40
0.7728086288
 40
0.7978803212
 40
0.8222543067
 40
0.8459850007
 40
0.86913345
 40
0.8917673231
 40
0.9139606913
 40
0.9357935273
 40
0.9573509792
 40
0.9787223813
 40
1.0
 40
1.0
 40
1.0
 40
1.0
 10
14.4069144816
 20
13.4113624344
 30
0.0
 10
14.4133738037
 20
13.4322648085
 30
0.0
 10
14.4267087293
 20
13.4730932527
 30
0.0
 10
14.4484058691
 20
13.5324163057
 30
0.0
 10
14.4713647995
 20
13.588517364
 30
0.0
 10
14.4917253379
 20
13.6329541769
 30
0.0
 10
14.5086183658
 20
13.6667114996
 30
0.0
 10
14.5214058477
 20
13.690813403
 30
0.0
 10
14.5344521651
 20
13.7139829269
 30
0.0
 10
14.5477471778
 20
13.7362019244
 30
0.0
 10
14.5612804455
 20
13.7574528874
 30
0.0
 10
14.5750414105
 20
13.7777190878
 30
0.0
 10
14.589019317
 20
13.7969846032
 30
0.0
 10
14.6032032689
 20
13.8152342593
 30
0.0
 10
14.6175823484
 20
13.832453733
 30
0.0
 10
14.6321451782
 20
13.8486292316
 30
0.0
 10
14.6468813582
 20
13.8637488095
 30
0.0
 10
14.666445839
 20
13.882201369
 30
0.0
 10
14.6866021107
 20
13.8988421781
 30
0.0
 10
14.7073225735
 20
13.9134305649
 30
0.0
 10
14.7227502765
 20
13.9231024964
 30
0.0
 10
14.7382808478
 20
13.9316572451
 30
0.0
 10
14.7539027124
 20
13.9390876419
 30
0.0
 10
14.7696034972
 20
13.945386954
 30
0.0
 10
14.7853707286
 20
13.9505494127
 30
0.0
 10
14.8011915308
 20
13.9545700633
 30
0.0
 10
14.8170531284
 20
13.9574448863
 30
0.0
 10
14.8329410724
 20
13.9591709839
 30
0.0
 10
14.8435520435
 20
13.9595549962
 30
0.0
 10
14.8488438858
 20
13.9595549924
 30
0.0
  0
SPLINE
  5
2D3
100
AcDbEntity
  8
02___PRT_ALL_AXES
100
AcDbSpline
 62
7
  6
CONTINUOUS
 70
0
 71
3
 72
39
 73
35
 74
0
 42
0.0000001
 43
0.0000001
 44
0.0000000001
 40
0.0
 40
0.0
 40
0.0
 40
0.0
 40
0.0211170759
 40
0.0433978131
 40
0.0668399629
 40
0.0914287162
 40
0.1171389067
 40
0.1439362338
 40
0.1717784753
 40
0.2006164637
 40
0.2303949253
 40
0.2610532007
 40
0.2925258771
 40
0.3247433517
 40
0.3576323461
 40
0.3911163858
 40
0.425116246
 40
0.4595503739
 40
0.4943352939
 40
0.5293859994
 40
0.5646163395
 40
0.5999393959
 40
0.6352678565
 40
0.6705143851
 40
0.7055919941
 40
0.7404144181
 40
0.7748964899
 40
0.8089545229
 40
0.8425067026
 40
0.8754734934
 40
0.9077780502
 40
0.9393467241
 40
0.970109259
 40
1.0
 40
1.0
 40
1.0
 40
1.0
 10
15.7764991801
 20
13.2148328064
 30
0.0
 10
15.7815720554
 20
13.2079255015
 30
0.0
 10
15.7915464558
 20
13.1933951103
 30
0.0
 10
15.8056381631
 20
13.1702031553
 30
0.0
 10
15.8192219385
 20
13.1450965242
 30
0.0
 10
15.8322583156
 20
13.1181483224
 30
0.0
 10
15.8447101974
 20
13.0894357097
 30
0.0
 10
15.8565416147
 20
13.0590415245
 30
0.0
 10
15.8677183439
 20
13.0270535393
 30
0.0
 10
15.8782079316
 20
12.9935643309
 30
0.0
 10
15.8879798608
 20
12.9586709465
 30
0.0
 10
15.8970056576
 20
12.9224746161
 30
0.0
 10
15.9052589932
 20
12.8850804399
 30
0.0
 10
15.9127157759
 20
12.8465970718
 30
0.0
 10
15.9193542339
 20
12.8071363921
 30
0.0
 10
15.9251549749
 20
12.7668131684
 30
0.0
 10
15.930101049
 20
12.7257447127
 30
0.0
 10
15.9341779995
 20
12.6840505339
 30
0.0
 10
15.9373739067
 20
12.6418519848
 30
0.0
 10
15.9396794326
 20
12.5992719046
 30
0.0
 10
15.9410878395
 20
12.5564342551
 30
0.0
 10
15.9415950106
 20
12.5134637549
 30
0.0
 10
15.9411994621
 20
12.4704855136
 30
0.0
 10
15.9399023465
 20
12.4276246638
 30
0.0
 10
15.9377074568
 20
12.3850059928
 30
0.0
 10
15.9346212124
 20
12.3427535749
 30
0.0
 10
15.9306526349
 20
12.3009904067
 30
0.0
 10
15.9258133231
 20
12.2598380443
 30
0.0
 10
15.9201174181
 20
12.2194162484
 30
0.0
 10
15.9135815583
 20
12.1798426167
 30
0.0
 10
15.9062248541
 20
12.1412322662
 30
0.0
 10
15.8980687528
 20
12.10369738
 30
0.0
 10
15.8891372001
 20
12.0673474014
 30
0.0
 10
15.8825842981
 20
12.0436162029
 30
0.0
 10
15.8791762221
 20
12.0319741456
 30
0.0
  0
SPLINE
  5
2D4
100
AcDbEntity
  8
02___PRT_ALL_AXES
100
AcDbSpline
 62
7
  6
CONTINUOUS
 70
0
 71
3
 72
15
 73
11
 74
0
 42
0.0000001
 43
0.0000001
 44
0.0000000001
 40
0.0
 40
0.0
 40
0.0
 40
0.0
 40
0.142886352
 40
0.2807006056
 40
0.4133818503
 40
0.5408999904
 40
0.6632578991
 40
0.7804965897
 40
0.8926998619
 40
1.0
 40
1.0
 40
1.0
 40
1.0
 10
15.8308695455
 20
11.9009516712
 30
0.0
 10
15.8276573878
 20
11.8940141209
 30
0.0
 10
15.821132834
 20
11.8804829949
 30
0.0
 10
15.810848053
 20
11.8608967267
 30
0.0
 10
15.8002569699
 20
11.8424154951
 30
0.0
 10
15.7893774404
 20
11.8250707335
 30
0.0
 10
15.7782275829
 20
11.8088916489
 30
0.0
 10
15.7668256468
 20
11.7939053296
 30
0.0
 10
15.7551909802
 20
11.7801377123
 30
0.0
 10
15.7471145805
 20
11.7715999217
 30
0.0
 10
15.7430406173
 20
11.7675548392
 30
0.0
  0
SPLINE
  5
2D5
100
AcDbEntity
  8
02___PRT_ALL_AXES
100
AcDbSpline
 62
7
  6
CONTINUOUS
 70
0
 71
3
 72
19
 73
15
 74
0
 42
0.0000001
 43
0.0000001
 44
0.0000000001
 40
0.0
 40
0.0
 40
0.0
 40
0.0
 40
0.1428118984
 40
0.2848998367
 40
0.4238837528
 40
0.5574744264
 40
0.6215847016
 40
0.683569267
 40
0.7432029263
 40
0.8002823806
 40
0.8546301066
 40
0.9060990093
 40
0.9545781539
 40
1.0
 40
1.0
 40
1.0
 40
1.0
 10
15.7764991801
 20
13.2148328064
 30
0.0
 10
15.7766685841
 20
13.2192305055
 30
0.0
 10
15.7767639431
 20
13.2280147846
 30
0.0
 10
15.7761923506
 20
13.2410712574
 30
0.0
 10
15.7749181022
 20
13.2537928855
 30
0.0
 10
15.7732704601
 20
13.264044303
 30
0.0
 10
15.7716069327
 20
13.2718734791
 30
0.0
 10
15.7702209222
 20
13.2774279616
 30
0.0
 10
15.7686865343
 20
13.2827181746
 30
0.0
 10
15.7670113157
 20
13.2877181112
 30
0.0
 10
15.7652035752
 20
13.2924031795
 30
0.0
 10
15.7632721347
 20
13.2967505462
 30
0.0
 10
15.761226563
 20
13.3007387523
 30
0.0
 10
15.7597444767
 20
13.3032272043
 30
0.0
 10
15.7589836711
 20
13.3044021305
 30
0.0
  0
LINE
  5
2D6
100
AcDbEntity
  8
02___PRT_ALL_AXES
100
AcDbLine
 62
7
  6
CONTINUOUS
 10
15.7764991801
 20
13.2148328064
 11
15.7308300455
 21
13.2111535385
  0
ENDSEC
  0
SECTION
  2
OBJECTS
  0
DICTIONARY
  5
C
100
AcDbDictionary
280
0
281
1
  3
ACAD_GROUP
350
D
  3
ACAD_MLINESTYLE
350
17
  3
ACAD_LAYOUT
350
1A
  3
ACAD_PLOTSETTINGS
350
19
  3
ACAD_PLOTSTYLENAME
350
E
  0
DICTIONARY
  5
D
102
{ACAD_REACTORS
330
C
102
}
100
AcDbDictionary
280
0
281
1
  0
ACDBDICTIONARYWDFLT
  5
E
102
{ACAD_REACTORS
330
C
102
}
100
AcDbDictionary
281
1
  3
Normal
350
F
100
AcDbDictionaryWithDefault
340
F
  0
DICTIONARY
  5
17
102
{ACAD_REACTORS
330
C
102
}
100
AcDbDictionary
280
0
281
1
  3
Standard
350
18
  0
DICTIONARY
  5
19
102
{ACAD_REACTORS
330
C
102
}
100
AcDbDictionary
281
1
  0
DICTIONARY
  5
1A
102
{ACAD_REACTORS
330
C
102
}
100
AcDbDictionary
281
1
  3
Model
350
2D7
  3
Layout1
350
2D8
  0
ACDBPLACEHOLDER
  5
F
102
{ACAD_REACTORS
330
E
102
}
  0
MLINESTYLE
  5
18
102
{ACAD_REACTORS
330
17
102
}
100
AcDbMlineStyle
  2
STANDARD
 70
0
  3

 62
256
 51
90.0
 52
90.0
 71
2
 49
0.5
 62
256
  6
BYLAYER
 49
-0.5
 62
256
  6
BYLAYER
  0
LAYOUT
  5
2D7
102
{ACAD_REACTORS
330
1A
102
}
100
AcDbPlotSettings
  1

  2
none_device
  4
ANSI_C_(22.00_x_17.00_Inches)
  6

 40
0.0
 41
0.0
 42
0.0
 43
0.0
 44
558.8
 45
431.8
 46
0.0
 47
0.0
 48
0.0
 49
0.0
140
0.0
141
0.0
142
1.0
143
1.0
 70
1024
 72
0
 73
0
 74
0
  7

 75
0
147
1.0
148
0.0
149
0.0
100
AcDbLayout
  1
Model
 70
0
 71
0
 10
0.0
 20
0.0
 11
22.0
 21
17.0
 12
0.0
 22
0.0
 32
0.0
 14
0.0
 24
0.0
 34
0.0
 15
0.0
 25
0.0
 35
0.0
146
0.0
 13
0.0
 23
0.0
 33
0.0
 16
1.0
 26
0.0
 36
0.0
 17
0.0
 27
1.0
 37
0.0
 76
0
330
222
345
0
346
0
  0
LAYOUT
  5
2D8
102
{ACAD_REACTORS
330
1A
102
}
100
AcDbPlotSettings
  1

  2
none_device
  4
ANSI_C_(22.00_x_17.00_Inches)
  6

 40
0.0
 41
0.0
 42
0.0
 43
0.0
 44
558.8
 45
431.8
 46
0.0
 47
0.0
 48
0.0
 49
0.0
140
0.0
141
0.0
142
1.0
143
1.0
 70
0
 72
0
 73
0
 74
0
  7

 75
0
147
1.0
148
0.0
149
0.0
100
AcDbLayout
  1
Layout1
 70
0
 71
1
 10
0.0
 20
0.0
 11
22.0
 21
17.0
 12
0.0
 22
0.0
 32
0.0
 14
0.0
 24
0.0
 34
0.0
 15
0.0
 25
0.0
 35
0.0
146
0.0
 13
0.0
 23
0.0
 33
0.0
 16
1.0
 26
0.0
 36
0.0
 17
0.0
 27
1.0
 37
0.0
 76
0
330
223
345
0
346
0
  0
ENDSEC
  0
EOF