999
DXF file: _cgs_temp_output.dxf
999
Pro/ENGINEER 2016360 by Parametric Technology Corporation
  0
SECTION
  2
HEADER
  9
$ACADVER
  1
AC1021
  9
$DWGCODEPAGE
  3
ANSI_1252
  9
$EXTMAX
 10
22.0
 20
17.0
 30
0.0
  9
$EXTMIN
 10
0.0
 20
0.0
 30
0.0
  9
$LIMMIN
 10
0.0
 20
0.0
  9
$LIMMAX
 10
22.0
 20
17.0
  9
$VIEWCTR
 10
11.0
 20
8.5
  9
$VIEWSIZE
 40
17.0
  9
$CLAYER
  8
0
  9
$LTSCALE
 40
1.21
  9
$CELTYPE
  6
BYLAYER
  9
$DIMSCALE
 40
1.0
  9
$DIMASZ
 40
0.1875
  9
$DIMEXO
 40
0.0625
  9
$DIMDLI
 40
0.836
  9
$DIMEXE
 40
0.125
  9
$DIMCEN
 40
0.198
  9
$DIMLFAC
 40
1.0
  9
$DIMBLK
  1
_CLOSED
  9
$DIMALT
 70
0
  9
$DIMALTF
 40
25.4
  9
$DIMTXT
 40
0.15625
  9
$DIMTOL
 70
0
  9
$DIMLIM
 70
0
  9
$DIMTFAC
 40
1.0
  9
$DIMGAP
 40
0.09
  9
$DIMDSEP
 70
46
  9
$AUNITS
 70
0
  9
$PDMODE
 70
3
  9
$PDSIZE
 40
0.3125
  9
$HANDSEED
  5
2FA
  9
$TILEMODE
 70
1
  9
$MEASUREMENT
 70
0
  9
$INSUNITS
 70
1
  0
ENDSEC
  0
SECTION
  2
CLASSES
  0
CLASS
  1
ACDBDICTIONARYWDFLT
  2
AcDbDictionaryWithDefault
  3
AutoCAD 2000
 90
0
 91
1
280
0
281
0
  0
CLASS
  1
ACDBPLACEHOLDER
  2
AcDbPlaceHolder
  3
AutoCAD 2000
 90
0
 91
1
280
0
281
0
  0
CLASS
  1
LAYOUT
  2
AcDbLayout
  3
AutoCAD 2000
 90
0
 91
0
280
0
281
0
  0
ENDSEC
  0
SECTION
  2
TABLES
  0
TABLE
  2
VPORT
  5
8
100
AcDbSymbolTable
 70
2
  0
VPORT
  5
1F4
100
AcDbSymbolTableRecord
100
AcDbViewportTableRecord
  2
*ACTIVE
 70
0
 10
0.0
 20
0.0
 11
1.0
 21
1.0
 12
11.0
 22
8.5
 13
0.0
 23
0.0
 14
1.0
 24
1.0
 15
0.0
 25
0.0
 16
0.0
 26
0.0
 36
1.0
 17
0.0
 27
0.0
 37
0.0
 40
17.0
 41
1.2941176471
 42
50.0
 43
0.0
 44
0.0
 50
0.0
 51
0.0
 71
0
 72
100
 73
1
 74
1
 75
0
 76
0
 77
0
 78
0
  0
ENDTAB
  0
TABLE
  2
LTYPE
  5
5
100
AcDbSymbolTable
 70
6
  0
LTYPE
  5
14
100
AcDbSymbolTableRecord
100
AcDbLinetypeTableRecord
  2
BYBLOCK
 70
0
  3

 72
65
 73
0
 40
0.0
  0
LTYPE
  5
15
100
AcDbSymbolTableRecord
100
AcDbLinetypeTableRecord
  2
BYLAYER
 70
0
  3

 72
65
 73
0
 40
0.0
  0
LTYPE
  5
16
100
AcDbSymbolTableRecord
100
AcDbLinetypeTableRecord
  2
CONTINUOUS
 70
64
  3
Solid line
 72
65
 73
0
 40
0.0
  0
LTYPE
  5
1F5
100
AcDbSymbolTableRecord
100
AcDbLinetypeTableRecord
  2
CENTER
 70
64
  3
____ _ ____ _ ____ _ ____ _ ____ _ ____ _ ____
 72
65
 73
4
 40
0.6
 49
0.375
 74
0
 49
-0.075
 74
0
 49
0.075
 74
0
 49
-0.075
 74
0
  0
LTYPE
  5
1F6
100
AcDbSymbolTableRecord
100
AcDbLinetypeTableRecord
  2
HIDDEN
 70
64
  3
- - - - - - - - - - - - - - - - - - - -
 72
65
 73
2
 40
0.2
 49
0.1
 74
0
 49
-0.1
 74
0
  0
LTYPE
  5
1F7
100
AcDbSymbolTableRecord
100
AcDbLinetypeTableRecord
  2
PHANTOM
 70
64
  3
_____ _ _ _____ _ _ _____ _ _ _____
 72
65
 73
6
 40
0.8
 49
0.45
 74
0
 49
-0.05
 74
0
 49
0.1
 74
0
 49
-0.05
 74
0
 49
0.1
 74
0
 49
-0.05
 74
0
  0
LTYPE
  5
1F8
100
AcDbSymbolTableRecord
100
AcDbLinetypeTableRecord
  2
DOT
 70
64
  3
. . . . . . . . . . . . . . . . . . . .
 72
65
 73
2
 40
0.2
 49
0.1
 74
0
 49
-0.1
 74
0
  0
LTYPE
  5
1F9
100
AcDbSymbolTableRecord
100
AcDbLinetypeTableRecord
  2
DASHED
 70
64
  3
- - - - - - - - - - - - - - - - - - - -
 72
65
 73
2
 40
0.2
 49
0.1
 74
0
 49
-0.1
 74
0
  0
ENDTAB
  0
TABLE
  2
LAYER
  5
2
100
AcDbSymbolTable
 70
36
  0
LAYER
  5
10
100
AcDbSymbolTableRecord
100
AcDbLayerTableRecord
  2
0
 70
0
 62
7
  6
CONTINUOUS
370
-3
390
F
  0
LAYER
  5
1FA
100
AcDbSymbolTableRecord
100
AcDbLayerTableRecord
  2
DEFAULT_1
 70
0
 62
7
  6
CENTER
370
-3
390
F
  0
LAYER
  5
1FB
100
AcDbSymbolTableRecord
100
AcDbLayerTableRecord
  2
DEFAULT_2
 70
0
 62
8
  6
HIDDEN
370
-3
390
F
  0
LAYER
  5
1FC
100
AcDbSymbolTableRecord
100
AcDbLayerTableRecord
  2
DEFAULT_3
 70
0
 62
7
  6
PHANTOM
370
-3
390
F
  0
LAYER
  5
1FD
100
AcDbSymbolTableRecord
100
AcDbLayerTableRecord
  2
01_ALL_DTM_PLN
 70
0
 62
7
  6
CONTINUOUS
370
-3
390
F
  0
LAYER
  5
1FE
100
AcDbSymbolTableRecord
100
AcDbLayerTableRecord
  2
01__ASM_ALL_DTM_PLN
 70
0
 62
7
  6
CONTINUOUS
370
-3
390
F
  0
LAYER
  5
1FF
100
AcDbSymbolTableRecord
100
AcDbLayerTableRecord
  2
01__ASM_DEF_DTM_PLN
 70
0
 62
7
  6
CONTINUOUS
370
-3
390
F
  0
LAYER
  5
200
100
AcDbSymbolTableRecord
100
AcDbLayerTableRecord
  2
01___PRT_ALL_DTM_PLN
 70
0
 62
7
  6
CONTINUOUS
370
-3
390
F
  0
LAYER
  5
201
100
AcDbSymbolTableRecord
100
AcDbLayerTableRecord
  2
01___PRT_DEF_DTM_PLN
 70
0
 62
7
  6
CONTINUOUS
370
-3
390
F
  0
LAYER
  5
202
100
AcDbSymbolTableRecord
100
AcDbLayerTableRecord
  2
02_ALL_AXES
 70
0
 62
7
  6
CONTINUOUS
370
-3
390
F
  0
LAYER
  5
203
100
AcDbSymbolTableRecord
100
AcDbLayerTableRecord
  2
02__ASM_ALL_AXES
 70
0
 62
7
  6
CONTINUOUS
370
-3
390
F
  0
LAYER
  5
204
100
AcDbSymbolTableRecord
100
AcDbLayerTableRecord
  2
02___PRT_ALL_AXES
 70
0
 62
7
  6
CONTINUOUS
370
-3
390
F
  0
LAYER
  5
205
100
AcDbSymbolTableRecord
100
AcDbLayerTableRecord
  2
03_ALL_CURVES
 70
0
 62
7
  6
CONTINUOUS
370
-3
390
F
  0
LAYER
  5
206
100
AcDbSymbolTableRecord
100
AcDbLayerTableRecord
  2
03__ASM_ALL_CURVES
 70
0
 62
7
  6
CONTINUOUS
370
-3
390
F
  0
LAYER
  5
207
100
AcDbSymbolTableRecord
100
AcDbLayerTableRecord
  2
03___PRT_ALL_CURVES
 70
0
 62
7
  6
CONTINUOUS
370
-3
390
F
  0
LAYER
  5
208
100
AcDbSymbolTableRecord
100
AcDbLayerTableRecord
  2
04_ALL_DTM_PNT
 70
0
 62
7
  6
CONTINUOUS
370
-3
390
F
  0
LAYER
  5
209
100
AcDbSymbolTableRecord
100
AcDbLayerTableRecord
  2
04__ASM_ALL_DTM_PNT
 70
0
 62
7
  6
CONTINUOUS
370
-3
390
F
  0
LAYER
  5
20A
100
AcDbSymbolTableRecord
100
AcDbLayerTableRecord
  2
04___PRT_ALL_DTM_PNT
 70
0
 62
7
  6
CONTINUOUS
370
-3
390
F
  0
LAYER
  5
20B
100
AcDbSymbolTableRecord
100
AcDbLayerTableRecord
  2
05_ALL_DTM_CSYS
 70
0
 62
7
  6
CONTINUOUS
370
-3
390
F
  0
LAYER
  5
20C
100
AcDbSymbolTableRecord
100
AcDbLayerTableRecord
  2
05__ASM_ALL_DTM_CSYS
 70
0
 62
7
  6
CONTINUOUS
370
-3
390
F
  0
LAYER
  5
20D
100
AcDbSymbolTableRecord
100
AcDbLayerTableRecord
  2
05__ASM_DEF_DTM_CSYS
 70
0
 62
7
  6
CONTINUOUS
370
-3
390
F
  0
LAYER
  5
20E
100
AcDbSymbolTableRecord
100
AcDbLayerTableRecord
  2
05___PRT_ALL_DTM_CSYS
 70
0
 62
7
  6
CONTINUOUS
370
-3
390
F
  0
LAYER
  5
20F
100
AcDbSymbolTableRecord
100
AcDbLayerTableRecord
  2
05___PRT_DEF_DTM_CSYS
 70
0
 62
7
  6
CONTINUOUS
370
-3
390
F
  0
LAYER
  5
210
100
AcDbSymbolTableRecord
100
AcDbLayerTableRecord
  2
06_ALL_SURFS
 70
0
 62
7
  6
CONTINUOUS
370
-3
390
F
  0
LAYER
  5
211
100
AcDbSymbolTableRecord
100
AcDbLayerTableRecord
  2
06__ASM_ALL_SURFS
 70
0
 62
7
  6
CONTINUOUS
370
-3
390
F
  0
LAYER
  5
212
100
AcDbSymbolTableRecord
100
AcDbLayerTableRecord
  2
06___PRT_ALL_SURFS
 70
0
 62
7
  6
CONTINUOUS
370
-3
390
F
  0
LAYER
  5
213
100
AcDbSymbolTableRecord
100
AcDbLayerTableRecord
  2
07__ASM_ALL_SKELETONS
 70
0
 62
7
  6
CONTINUOUS
370
-3
390
F
  0
LAYER
  5
214
100
AcDbSymbolTableRecord
100
AcDbLayerTableRecord
  2
LAYER_AXIS
 70
0
 62
7
  6
CONTINUOUS
370
-3
390
F
  0
LAYER
  5
215
100
AcDbSymbolTableRecord
100
AcDbLayerTableRecord
  2
LAYER_CHAMFER_FEAT
 70
0
 62
7
  6
CONTINUOUS
370
-3
390
F
  0
LAYER
  5
216
100
AcDbSymbolTableRecord
100
AcDbLayerTableRecord
  2
LAYER_CUT_FEAT
 70
0
 62
7
  6
CONTINUOUS
370
-3
390
F
  0
LAYER
  5
217
100
AcDbSymbolTableRecord
100
AcDbLayerTableRecord
  2
LAYER_DATUM
 70
0
 62
7
  6
CONTINUOUS
370
-3
390
F
  0
LAYER
  5
218
100
AcDbSymbolTableRecord
100
AcDbLayerTableRecord
  2
LAYER_DIM
 70
0
 62
7
  6
CONTINUOUS
370
-3
390
F
  0
LAYER
  5
219
100
AcDbSymbolTableRecord
100
AcDbLayerTableRecord
  2
LAYER_FEATURE
 70
0
 62
7
  6
CONTINUOUS
370
-3
390
F
  0
LAYER
  5
21A
100
AcDbSymbolTableRecord
100
AcDbLayerTableRecord
  2
LAYER_GEOM_FEAT
 70
0
 62
7
  6
CONTINUOUS
370
-3
390
F
  0
LAYER
  5
21B
100
AcDbSymbolTableRecord
100
AcDbLayerTableRecord
  2
LAYER_NOGEOM_FEAT
 70
0
 62
7
  6
CONTINUOUS
370
-3
390
F
  0
LAYER
  5
21C
100
AcDbSymbolTableRecord
100
AcDbLayerTableRecord
  2
LAYER_PARAMETER_DIM
 70
0
 62
7
  6
CONTINUOUS
370
-3
390
F
  0
LAYER
  5
21D
100
AcDbSymbolTableRecord
100
AcDbLayerTableRecord
  2
LAYER_PROTRUSION_FEAT
 70
0
 62
7
  6
CONTINUOUS
370
-3
390
F
  0
LAYER
  5
21E
100
AcDbSymbolTableRecord
100
AcDbLayerTableRecord
  2
LAYER_QUILT
 70
0
 62
7
  6
CONTINUOUS
370
-3
390
F
  0
LAYER
  5
21F
100
AcDbSymbolTableRecord
100
AcDbLayerTableRecord
  2
LAYER_ROUND_FEAT
 70
0
 62
7
  6
CONTINUOUS
370
-3
390
F
  0
ENDTAB
  0
TABLE
  2
STYLE
  5
3
100
AcDbSymbolTable
 70
1
  0
STYLE
  5
11
100
AcDbSymbolTableRecord
100
AcDbTextStyleTableRecord
  2
STANDARD
 70
0
 40
0.0
 41
0.8
 50
0.0
 71
0
 42
0.2
  3
txt
  4

  0
STYLE
  5
220
100
AcDbSymbolTableRecord
100
AcDbTextStyleTableRecord
  2
TEXTSTYLE_1
 70
0
 40
0.0
 41
0.8
 50
0.0
 71
0
 42
0.2
  3
gdt
  4

  0
ENDTAB
  0
TABLE
  2
VIEW
  5
6
100
AcDbSymbolTable
 70
0
  0
ENDTAB
  0
TABLE
  2
UCS
  5
7
100
AcDbSymbolTable
 70
0
  0
ENDTAB
  0
TABLE
  2
APPID
  5
9
100
AcDbSymbolTable
 70
1
  0
APPID
  5
221
100
AcDbSymbolTableRecord
100
AcDbRegAppTableRecord
  2
ACAD
 70
0
  0
ENDTAB
  0
TABLE
  2
BLOCK_RECORD
  5
1
100
AcDbSymbolTable
 70
0
  0
BLOCK_RECORD
  5
222
100
AcDbSymbolTableRecord
100
AcDbBlockTableRecord
  2
*Model_Space
  0
BLOCK_RECORD
  5
223
100
AcDbSymbolTableRecord
100
AcDbBlockTableRecord
  2
*Paper_Space
  0
ENDTAB
  0
TABLE
  2
DIMSTYLE
  5
A
100
AcDbSymbolTable
 70
1
100
AcDbDimStyleTable
 71
0
  0
DIMSTYLE
105
224
100
AcDbSymbolTableRecord
100
AcDbDimStyleTableRecord
  2
STANDARD
 70
0
  3

  4

 40
1.0
 41
0.1875
 42
0.0625
 43
0.38
 44
0.125
 45
0.0
 46
0.0
 47
0.0001
 48
0.0001
140
0.15625
141
0.09
142
0.0
143
25.4
144
1.0
145
0.0
146
1.0
147
0.09
 71
0.0
 72
0.0
 73
1
 74
1
 75
0
 76
0
 77
0
 78
4
 79
1
170
0
171
3
172
0
173
0
174
0
175
0
176
0
177
0
178
0
270
2
179
4
271
4
272
4
273
2
274
2
275
0
280
0
281
0
282
0
283
1
284
4
285
0
286
0
287
3
288
0
340
11
278
46
  0
ENDTAB
  0
ENDSEC
  0
SECTION
  2
BLOCKS
  0
BLOCK
  5
20
100
AcDbEntity
  8
0
100
AcDbBlockBegin
  2
*Model_Space
 70
0
 10
0.0
 20
0.0
 30
0.0
  3
*Model_Space
  1

  0
ENDBLK
  5
21
100
AcDbEntity
  8
0
100
AcDbBlockEnd
  0
BLOCK
  5
1C
100
AcDbEntity
  8
0
100
AcDbBlockBegin
  2
*Paper_Space
 70
0
 10
0.0
 20
0.0
 30
0.0
  3
*Paper_Space
  1

  0
ENDBLK
  5
1D
100
AcDbEntity
  8
0
100
AcDbBlockEnd
  0
ENDSEC
  0
SECTION
  2
ENTITIES
  0
MTEXT
  5
225
100
AcDbEntity
  8
0
100
AcDbMText
 62
7
  6
CONTINUOUS
  7
STANDARD
 71
1
 72
1
 10
15.9560215477
 20
0.9479130325
 30
0.0
 11
1.0
 21
0.0
 31
0.0
 44
0.9
  1
SCALE: 1:0.333
 40
0.3
 41
3.36
  0
LINE
  5
226
100
AcDbEntity
  8
0
100
AcDbLine
 62
7
  6
CONTINUOUS
 10
0.0
 20
0.0
 11
0.0
 21
17.0
  0
LINE
  5
227
100
AcDbEntity
  8
0
100
AcDbLine
 62
7
  6
CONTINUOUS
 10
0.0
 20
0.0
 11
22.0
 21
0.0
  0
LINE
  5
228
100
AcDbEntity
  8
0
100
AcDbLine
 62
7
  6
CONTINUOUS
 10
0.0
 20
17.0
 11
22.0
 21
17.0
  0
LINE
  5
229
100
AcDbEntity
  8
0
100
AcDbLine
 62
7
  6
CONTINUOUS
 10
22.0
 20
0.0
 11
22.0
 21
17.0
  0
LINE
  5
22A
100
AcDbEntity
  8
LAYER_FEATURE
100
AcDbLine
 62
7
  6
CONTINUOUS
 10
6.4098672762
 20
3.7934532301
 11
6.3689736524
 21
3.7934532301
  0
LINE
  5
22B
100
AcDbEntity
  8
LAYER_FEATURE
100
AcDbLine
 62
7
  6
CONTINUOUS
 10
5.7105339428
 20
3.7934532301
 11
5.7514275666
 21
3.7934532301
  0
LINE
  5
22C
100
AcDbEntity
  8
02___PRT_ALL_AXES
100
AcDbLine
 62
7
  6
CONTINUOUS
 10
5.7702006095
 20
3.9009532301
 11
6.3502006095
 21
3.9009532301
  0
LINE
  5
22D
100
AcDbEntity
  8
02___PRT_ALL_AXES
100
AcDbLine
 62
7
  6
CONTINUOUS
 10
6.5292006095
 20
4.0701198968
 11
6.4098672762
 21
4.0701198968
  0
LINE
  5
22E
100
AcDbEntity
  8
LAYER_FEATURE
100
AcDbLine
 62
7
  6
CONTINUOUS
 10
5.7105339428
 20
7.2467865634
 11
5.7105339428
 21
3.7934532301
  0
LINE
  5
22F
100
AcDbEntity
  8
LAYER_FEATURE
100
AcDbLine
 62
7
  6
CONTINUOUS
 10
5.7514275666
 20
7.2467865634
 11
5.7514275666
 21
3.7934532301
  0
LINE
  5
230
100
AcDbEntity
  8
LAYER_FEATURE
100
AcDbLine
 62
7
  6
CONTINUOUS
 10
5.7702006095
 20
7.1584663407
 11
5.7702006095
 21
3.8817734528
  0
LINE
  5
231
100
AcDbEntity
  8
LAYER_FEATURE
100
AcDbLine
 62
7
  6
CONTINUOUS
 10
6.3689736524
 20
7.2467865634
 11
6.3502006095
 21
7.1584663407
  0
LINE
  5
232
100
AcDbEntity
  8
LAYER_FEATURE
100
AcDbLine
 62
7
  6
CONTINUOUS
 10
6.3689736524
 20
3.7934532301
 11
6.3502006095
 21
3.8817734528
  0
LINE
  5
233
100
AcDbEntity
  8
LAYER_FEATURE
100
AcDbLine
 62
7
  6
CONTINUOUS
 10
5.7514275666
 20
3.7934532301
 11
5.7702006095
 21
3.8817734528
  0
LINE
  5
234
100
AcDbEntity
  8
LAYER_FEATURE
100
AcDbLine
 62
7
  6
CONTINUOUS
 10
5.7514275666
 20
7.2467865634
 11
5.7702006095
 21
7.1584663407
  0
LINE
  5
235
100
AcDbEntity
  8
LAYER_FEATURE
100
AcDbLine
 62
7
  6
CONTINUOUS
 10
6.3502006095
 20
7.1584663407
 11
6.3502006095
 21
3.8817734528
  0
LINE
  5
236
100
AcDbEntity
  8
LAYER_FEATURE
100
AcDbLine
 62
7
  6
CONTINUOUS
 10
6.3689736524
 20
7.2467865634
 11
6.3689736524
 21
3.7934532301
  0
LINE
  5
237
100
AcDbEntity
  8
LAYER_FEATURE
100
AcDbLine
 62
7
  6
CONTINUOUS
 10
6.4098672762
 20
7.2467865634
 11
6.4098672762
 21
3.7934532301
  0
LINE
  5
238
100
AcDbEntity
  8
02___PRT_ALL_AXES
100
AcDbLine
 62
7
  6
CONTINUOUS
 10
6.5292006095
 20
6.9701198968
 11
6.5292006095
 21
4.0701198968
  0
LINE
  5
239
100
AcDbEntity
  8
02___PRT_ALL_AXES
100
AcDbLine
 62
7
  6
CONTINUOUS
 10
6.5502006095
 20
6.9491198968
 11
6.5502006095
 21
4.0911198968
  0
LINE
  5
23A
100
AcDbEntity
  8
02___PRT_ALL_AXES
100
AcDbLine
 62
7
  6
CONTINUOUS
 10
6.5502006095
 20
4.0911198968
 11
6.5292006095
 21
4.0701198968
  0
LINE
  5
23B
100
AcDbEntity
  8
02___PRT_ALL_AXES
100
AcDbLine
 62
7
  6
CONTINUOUS
 10
6.5502006095
 20
6.9491198968
 11
6.5292006095
 21
6.9701198968
  0
LINE
  5
23C
100
AcDbEntity
  8
02___PRT_ALL_AXES
100
AcDbLine
 62
7
  6
CONTINUOUS
 10
6.5292006095
 20
6.9701198968
 11
6.4098672762
 21
6.9701198968
  0
LINE
  5
23D
100
AcDbEntity
  8
LAYER_FEATURE
100
AcDbLine
 62
7
  6
CONTINUOUS
 10
5.7702006095
 20
7.0217010739
 11
6.3502006095
 21
7.0217010739
  0
LINE
  5
23E
100
AcDbEntity
  8
0
100
AcDbLine
 62
7
  6
CONTINUOUS
 10
5.7702006095
 20
7.0223910553
 11
6.3502006095
 21
7.0223910553
  0
LINE
  5
23F
100
AcDbEntity
  8
LAYER_FEATURE
100
AcDbLine
 62
7
  6
CONTINUOUS
 10
5.7702006095
 20
7.0717933983
 11
6.3502006095
 21
7.0717933983
  0
LINE
  5
240
100
AcDbEntity
  8
LAYER_FEATURE
100
AcDbLine
 62
7
  6
CONTINUOUS
 10
5.7702006095
 20
7.0800839243
 11
6.3502006095
 21
7.0800839243
  0
LINE
  5
241
100
AcDbEntity
  8
0
100
AcDbLine
 62
7
  6
CONTINUOUS
 10
5.7702006095
 20
7.0803921976
 11
6.3502006095
 21
7.0803921976
  0
LINE
  5
242
100
AcDbEntity
  8
LAYER_FEATURE
100
AcDbLine
 62
7
  6
CONTINUOUS
 10
5.7702006095
 20
7.1138329326
 11
6.3502006095
 21
7.1138329326
  0
LINE
  5
243
100
AcDbEntity
  8
LAYER_FEATURE
100
AcDbLine
 62
7
  6
CONTINUOUS
 10
5.7702006095
 20
7.1188493219
 11
6.3502006095
 21
7.1188493219
  0
LINE
  5
244
100
AcDbEntity
  8
0
100
AcDbLine
 62
7
  6
CONTINUOUS
 10
5.7702006095
 20
7.1189266333
 11
6.3502006095
 21
7.1189266333
  0
LINE
  5
245
100
AcDbEntity
  8
LAYER_FEATURE
100
AcDbLine
 62
7
  6
CONTINUOUS
 10
5.7702006095
 20
7.1358306008
 11
6.3502006095
 21
7.1358306008
  0
LINE
  5
246
100
AcDbEntity
  8
LAYER_FEATURE
100
AcDbLine
 62
7
  6
CONTINUOUS
 10
5.7702006095
 20
7.1375097694
 11
6.3502006095
 21
7.1375097694
  0
LINE
  5
247
100
AcDbEntity
  8
LAYER_FEATURE
100
AcDbLine
 62
7
  6
CONTINUOUS
 10
6.4098672762
 20
7.2467865634
 11
6.3689736524
 21
7.2467865634
  0
LINE
  5
248
100
AcDbEntity
  8
LAYER_FEATURE
100
AcDbLine
 62
7
  6
CONTINUOUS
 10
5.7105339428
 20
7.2467865634
 11
5.7514275666
 21
7.2467865634
  0
LINE
  5
249
100
AcDbEntity
  8
LAYER_FEATURE
100
AcDbLine
 62
7
  6
CONTINUOUS
 10
5.6510387505
 20
10.8733811147
 11
5.6919323743
 21
10.8733811147
  0
LINE
  5
24A
100
AcDbEntity
  8
LAYER_FEATURE
100
AcDbLine
 62
7
  6
CONTINUOUS
 10
6.3094784601
 20
10.8733811147
 11
6.3503720839
 21
10.8733811147
  0
LINE
  5
24B
100
AcDbEntity
  8
02___PRT_ALL_AXES
100
AcDbLine
 62
7
  6
CONTINUOUS
 10
5.7107054172
 20
10.9808811147
 11
6.2907054172
 21
10.9808811147
  0
LINE
  5
24C
100
AcDbEntity
  8
02___PRT_ALL_AXES
100
AcDbLine
 62
7
  6
CONTINUOUS
 10
6.3503720839
 20
11.1500477814
 11
6.4697054172
 21
11.1500477814
  0
LINE
  5
24D
100
AcDbEntity
  8
LAYER_FEATURE
100
AcDbLine
 62
7
  6
CONTINUOUS
 10
5.7107054172
 20
11.9942799522
 11
6.2907054172
 21
11.9942799522
  0
LINE
  5
24E
100
AcDbEntity
  8
LAYER_FEATURE
100
AcDbLine
 62
7
  6
CONTINUOUS
 10
6.2907054172
 20
12.0720559501
 11
5.7107054172
 21
12.0720559501
  0
LINE
  5
24F
100
AcDbEntity
  8
LAYER_FEATURE
100
AcDbLine
 62
7
  6
CONTINUOUS
 10
6.2907054172
 20
12.1098112833
 11
5.7107054172
 21
12.1098112833
  0
LINE
  5
250
100
AcDbEntity
  8
LAYER_FEATURE
100
AcDbLine
 62
7
  6
CONTINUOUS
 10
5.7107054172
 20
12.1374355906
 11
6.2907054172
 21
12.1374355906
  0
LINE
  5
251
100
AcDbEntity
  8
LAYER_FEATURE
100
AcDbLine
 62
7
  6
CONTINUOUS
 10
5.6510387505
 20
10.8733811147
 11
5.6510387505
 21
14.326714448
  0
LINE
  5
252
100
AcDbEntity
  8
LAYER_FEATURE
100
AcDbLine
 62
7
  6
CONTINUOUS
 10
5.6919323743
 20
10.8733811147
 11
5.6919323743
 21
14.326714448
  0
LINE
  5
253
100
AcDbEntity
  8
LAYER_FEATURE
100
AcDbLine
 62
7
  6
CONTINUOUS
 10
5.7107054172
 20
10.9617014438
 11
5.7107054172
 21
14.2383941189
  0
LINE
  5
254
100
AcDbEntity
  8
LAYER_FEATURE
100
AcDbLine
 62
7
  6
CONTINUOUS
 10
5.7107054172
 20
12.166212643
 11
6.2907054172
 21
12.166212643
  0
LINE
  5
255
100
AcDbEntity
  8
LAYER_FEATURE
100
AcDbLine
 62
7
  6
CONTINUOUS
 10
6.2907054172
 20
12.2375406208
 11
5.7107054172
 21
12.2375406208
  0
LINE
  5
256
100
AcDbEntity
  8
LAYER_FEATURE
100
AcDbLine
 62
7
  6
CONTINUOUS
 10
6.2907054172
 20
12.2765377373
 11
5.7107054172
 21
12.2765377373
  0
LINE
  5
257
100
AcDbEntity
  8
LAYER_FEATURE
100
AcDbLine
 62
7
  6
CONTINUOUS
 10
5.7107054172
 20
12.3140767097
 11
6.2907054172
 21
12.3140767097
  0
LINE
  5
258
100
AcDbEntity
  8
LAYER_FEATURE
100
AcDbLine
 62
7
  6
CONTINUOUS
 10
5.7107054172
 20
12.3436010624
 11
6.2907054172
 21
12.3436010624
  0
LINE
  5
259
100
AcDbEntity
  8
LAYER_FEATURE
100
AcDbLine
 62
7
  6
CONTINUOUS
 10
6.2907054172
 20
14.2383942253
 11
6.3094784601
 21
14.326714448
  0
LINE
  5
25A
100
AcDbEntity
  8
LAYER_FEATURE
100
AcDbLine
 62
7
  6
CONTINUOUS
 10
6.2907054172
 20
12.4075840294
 11
5.7107054172
 21
12.4075840294
  0
LINE
  5
25B
100
AcDbEntity
  8
LAYER_FEATURE
100
AcDbLine
 62
7
  6
CONTINUOUS
 10
6.2907054172
 20
12.4473325178
 11
5.7107054172
 21
12.4473325178
  0
LINE
  5
25C
100
AcDbEntity
  8
LAYER_FEATURE
100
AcDbLine
 62
7
  6
CONTINUOUS
 10
5.7107054172
 20
12.4943140809
 11
6.2907054172
 21
12.4943140809
  0
LINE
  5
25D
100
AcDbEntity
  8
LAYER_FEATURE
100
AcDbLine
 62
7
  6
CONTINUOUS
 10
6.2907054172
 20
10.9617013374
 11
6.3094784601
 21
10.8733811147
  0
LINE
  5
25E
100
AcDbEntity
  8
LAYER_FEATURE
100
AcDbLine
 62
7
  6
CONTINUOUS
 10
5.6919323743
 20
10.8733811147
 11
5.7107054172
 21
10.9617013374
  0
LINE
  5
25F
100
AcDbEntity
  8
LAYER_FEATURE
100
AcDbLine
 62
7
  6
CONTINUOUS
 10
5.7107054172
 20
12.524214448
 11
6.2907054172
 21
12.524214448
  0
LINE
  5
260
100
AcDbEntity
  8
LAYER_FEATURE
100
AcDbLine
 62
7
  6
CONTINUOUS
 10
6.2907054172
 20
12.5800477814
 11
5.7107054172
 21
12.5800477814
  0
LINE
  5
261
100
AcDbEntity
  8
LAYER_FEATURE
100
AcDbLine
 62
7
  6
CONTINUOUS
 10
5.6919323743
 20
14.326714448
 11
5.7107054172
 21
14.2383942253
  0
LINE
  5
262
100
AcDbEntity
  8
LAYER_FEATURE
100
AcDbLine
 62
7
  6
CONTINUOUS
 10
6.2907054172
 20
12.6200477814
 11
5.7107054172
 21
12.6200477814
  0
LINE
  5
263
100
AcDbEntity
  8
LAYER_FEATURE
100
AcDbLine
 62
7
  6
CONTINUOUS
 10
5.7107054172
 20
12.6758811147
 11
6.2907054172
 21
12.6758811147
  0
LINE
  5
264
100
AcDbEntity
  8
LAYER_FEATURE
100
AcDbLine
 62
7
  6
CONTINUOUS
 10
6.2907054172
 20
10.9617013374
 11
6.2907054172
 21
14.2383942253
  0
LINE
  5
265
100
AcDbEntity
  8
LAYER_FEATURE
100
AcDbLine
 62
7
  6
CONTINUOUS
 10
6.3094784601
 20
10.8733811147
 11
6.3094784601
 21
14.326714448
  0
LINE
  5
266
100
AcDbEntity
  8
LAYER_FEATURE
100
AcDbLine
 62
7
  6
CONTINUOUS
 10
6.3503720839
 20
10.8733811147
 11
6.3503720839
 21
14.326714448
  0
LINE
  5
267
100
AcDbEntity
  8
02___PRT_ALL_AXES
100
AcDbLine
 62
7
  6
CONTINUOUS
 10
6.4697054172
 20
11.1500477814
 11
6.4697054172
 21
14.0500477814
  0
LINE
  5
268
100
AcDbEntity
  8
02___PRT_ALL_AXES
100
AcDbLine
 62
7
  6
CONTINUOUS
 10
6.4907054172
 20
11.1710478063
 11
6.4907054172
 21
14.0290477565
  0
LINE
  5
269
100
AcDbEntity
  8
02___PRT_ALL_AXES
100
AcDbLine
 62
7
  6
CONTINUOUS
 10
6.4697054172
 20
11.1500477814
 11
6.4907054172
 21
11.1710477814
  0
LINE
  5
26A
100
AcDbEntity
  8
02___PRT_ALL_AXES
100
AcDbLine
 62
7
  6
CONTINUOUS
 10
6.4697054172
 20
14.0500477814
 11
6.4907054172
 21
14.0290477814
  0
LINE
  5
26B
100
AcDbEntity
  8
02___PRT_ALL_AXES
100
AcDbLine
 62
7
  6
CONTINUOUS
 10
6.3503720839
 20
14.0500477814
 11
6.4697054172
 21
14.0500477814
  0
LINE
  5
26C
100
AcDbEntity
  8
02___PRT_ALL_AXES
100
AcDbLine
 62
7
  6
CONTINUOUS
 10
5.7107054172
 20
14.219214448
 11
6.2907054172
 21
14.219214448
  0
LINE
  5
26D
100
AcDbEntity
  8
LAYER_FEATURE
100
AcDbLine
 62
7
  6
CONTINUOUS
 10
5.6510387505
 20
14.326714448
 11
5.6919323743
 21
14.326714448
  0
LINE
  5
26E
100
AcDbEntity
  8
LAYER_FEATURE
100
AcDbLine
 62
7
  6
CONTINUOUS
 10
6.3094784601
 20
14.326714448
 11
6.3503720839
 21
14.326714448
  0
LINE
  5
26F
100
AcDbEntity
  8
LAYER_FEATURE
100
AcDbLine
 62
7
  6
CONTINUOUS
 10
15.1423490839
 20
10.7841383262
 11
15.1800146057
 21
10.7841383262
  0
LINE
  5
270
100
AcDbEntity
  8
LAYER_FEATURE
100
AcDbLine
 62
7
  6
CONTINUOUS
 10
15.7488122172
 20
10.7841383262
 11
15.786477739
 21
10.7841383262
  0
LINE
  5
271
100
AcDbEntity
  8
02___PRT_ALL_AXES
100
AcDbLine
 62
7
  6
CONTINUOUS
 10
15.1973057232
 20
10.8916383262
 11
15.5156466817
 21
10.8916383262
  0
LINE
  5
272
100
AcDbEntity
  8
02___PRT_ALL_AXES
100
AcDbLine
 62
7
  6
CONTINUOUS
 10
15.7806443527
 20
11.0608049929
 11
15.8963910176
 21
11.0608049929
  0
LINE
  5
273
100
AcDbEntity
  8
02___PRT_ALL_AXES
100
AcDbLine
 62
7
  6
CONTINUOUS
 10
15.7043476051
 20
13.9549081333
 11
15.6930969644
 21
13.9509884384
  0
LINE
  5
274
100
AcDbEntity
  8
02___PRT_ALL_AXES
100
AcDbLine
 62
7
  6
CONTINUOUS
 10
15.7043476051
 20
11.0667018525
 11
15.6930969644
 21
11.0706215474
  0
LINE
  5
275
100
AcDbEntity
  8
LAYER_FEATURE
100
AcDbLine
 62
7
  6
CONTINUOUS
 10
14.6524898356
 20
13.1582441502
 11
14.6592145961
 21
13.1943244902
  0
LINE
  5
276
100
AcDbEntity
  8
LAYER_FEATURE
100
AcDbLine
 62
7
  6
CONTINUOUS
 10
14.6841445316
 20
13.3108171338
 11
14.6924001479
 21
13.3447371237
  0
LINE
  5
277
100
AcDbEntity
  8
LAYER_FEATURE
100
AcDbLine
 62
7
  6
CONTINUOUS
 10
14.724759126
 20
13.4614408565
 11
14.7319351803
 21
13.4846625769
  0
LINE
  5
278
100
AcDbEntity
  8
LAYER_FEATURE
100
AcDbLine
 62
7
  6
CONTINUOUS
 10
14.6276865154
 20
12.9975292436
 11
14.6327958525
 21
13.0353162024
  0
LINE
  5
279
100
AcDbEntity
  8
LAYER_FEATURE
100
AcDbLine
 62
7
  6
CONTINUOUS
 10
14.6247332829
 20
13.0742621043
 11
14.6133762793
 21
13.0996585879
  0
LINE
  5
27A
100
AcDbEntity
  8
LAYER_FEATURE
100
AcDbLine
 62
7
  6
CONTINUOUS
 10
14.6529008034
 20
13.235343636
 11
14.6427225228
 21
13.2638457659
  0
LINE
  5
27B
100
AcDbEntity
  8
LAYER_FEATURE
100
AcDbLine
 62
7
  6
CONTINUOUS
 10
14.6879145316
 20
13.3873136738
 11
14.6790429719
 21
13.4185630192
  0
LINE
  5
27C
100
AcDbEntity
  8
LAYER_FEATURE
100
AcDbLine
 62
7
  6
CONTINUOUS
 10
14.7293341496
 20
13.5282611065
 11
14.7218808758
 21
13.5618646886
  0
LINE
  5
27D
100
AcDbEntity
  8
LAYER_FEATURE
100
AcDbLine
 62
7
  6
CONTINUOUS
 10
14.5926246068
 20
12.9696885792
 11
15.1006480414
 21
12.9696885792
  0
LINE
  5
27E
100
AcDbEntity
  8
LAYER_FEATURE
100
AcDbLine
 62
7
  6
CONTINUOUS
 10
15.1038040958
 20
12.9975292436
 11
14.6276865154
 21
12.9975292436
  0
LINE
  5
27F
100
AcDbEntity
  8
LAYER_FEATURE
100
AcDbLine
 62
7
  6
CONTINUOUS
 10
15.1082434981
 20
13.0353162024
 11
14.6327958525
 21
13.0353162024
  0
LINE
  5
280
100
AcDbEntity
  8
LAYER_FEATURE
100
AcDbLine
 62
7
  6
CONTINUOUS
 10
14.5969177549
 20
12.9779368109
 11
14.6119599403
 21
12.9797947074
  0
LINE
  5
281
100
AcDbEntity
  8
LAYER_FEATURE
100
AcDbLine
 62
7
  6
CONTINUOUS
 10
14.6119975097
 20
13.1129641313
 11
15.1186766833
 21
13.1129641313
  0
LINE
  5
282
100
AcDbEntity
  8
LAYER_FEATURE
100
AcDbLine
 62
7
  6
CONTINUOUS
 10
14.6164345074
 20
13.1406594443
 11
15.1228914062
 21
13.1406594443
  0
LINE
  5
283
100
AcDbEntity
  8
0
100
AcDbLine
 62
7
  6
CONTINUOUS
 10
14.620753401
 20
13.1476467406
 11
15.1239547456
 21
13.1476467406
  0
LINE
  5
284
100
AcDbEntity
  8
LAYER_FEATURE
100
AcDbLine
 62
7
  6
CONTINUOUS
 10
15.1255674786
 20
13.1582441502
 11
14.6524898356
 21
13.1582441502
  0
LINE
  5
285
100
AcDbEntity
  8
LAYER_FEATURE
100
AcDbLine
 62
7
  6
CONTINUOUS
 10
15.131478907
 20
13.1943244902
 11
14.6592145961
 21
13.1943244902
  0
LINE
  5
286
100
AcDbEntity
  8
LAYER_FEATURE
100
AcDbLine
 62
7
  6
CONTINUOUS
 10
14.6419325579
 20
13.2774640667
 11
15.1464552483
 21
13.2774640667
  0
LINE
  5
287
100
AcDbEntity
  8
LAYER_FEATURE
100
AcDbLine
 62
7
  6
CONTINUOUS
 10
14.6475492007
 20
13.3037095243
 11
15.1515728219
 21
13.3037095243
  0
LINE
  5
288
100
AcDbEntity
  8
0
100
AcDbLine
 62
7
  6
CONTINUOUS
 10
14.6516094958
 20
13.3094884411
 11
15.1527785054
 21
13.3094884411
  0
LINE
  5
289
100
AcDbEntity
  8
LAYER_FEATURE
100
AcDbLine
 62
7
  6
CONTINUOUS
 10
15.153055717
 20
13.3108171338
 11
14.6841445316
 21
13.3108171338
  0
LINE
  5
28A
100
AcDbEntity
  8
LAYER_FEATURE
100
AcDbLine
 62
7
  6
CONTINUOUS
 10
15.1601326089
 20
13.3447371237
 11
14.6924001479
 21
13.3447371237
  0
LINE
  5
28B
100
AcDbEntity
  8
LAYER_FEATURE
100
AcDbLine
 62
7
  6
CONTINUOUS
 10
14.678851746
 20
13.4323228195
 11
15.1803134661
 21
13.4323228195
  0
LINE
  5
28C
100
AcDbEntity
  8
LAYER_FEATURE
100
AcDbLine
 62
7
  6
CONTINUOUS
 10
14.6855774012
 20
13.4567883697
 11
15.1864387377
 21
13.4567883697
  0
LINE
  5
28D
100
AcDbEntity
  8
0
100
AcDbLine
 62
7
  6
CONTINUOUS
 10
14.6893280372
 20
13.4614408565
 11
15.1876035488
 21
13.4614408565
  0
LINE
  5
28E
100
AcDbEntity
  8
LAYER_FEATURE
100
AcDbLine
 62
7
  6
CONTINUOUS
 10
15.1936735446
 20
13.4846625769
 11
14.7319351803
 21
13.4846625769
  0
LINE
  5
28F
100
AcDbEntity
  8
LAYER_FEATURE
100
AcDbLine
 62
7
  6
CONTINUOUS
 10
14.7222907936
 20
13.5755929509
 11
15.2195780139
 21
13.5755929509
  0
LINE
  5
290
100
AcDbEntity
  8
02___PRT_ALL_AXES
100
AcDbLine
 62
7
  6
CONTINUOUS
 10
16.1351239975
 20
11.196777028
 11
16.1510087662
 21
11.2158077778
  0
LINE
  5
291
100
AcDbEntity
  8
02___PRT_ALL_AXES
100
AcDbLine
 62
7
  6
CONTINUOUS
 10
15.7806443527
 20
13.9608049929
 11
15.8963910176
 21
13.9608049929
  0
LINE
  5
292
100
AcDbEntity
  8
02___PRT_ALL_AXES
100
AcDbLine
 62
7
  6
CONTINUOUS
 10
16.1351239975
 20
13.8248329578
 11
16.1510087662
 21
13.805802208
  0
LINE
  5
293
100
AcDbEntity
  8
02___PRT_ALL_AXES
100
AcDbLine
 62
7
  6
CONTINUOUS
 10
15.1973057232
 20
14.1299716596
 11
15.5155731247
 21
14.1299716596
  0
LINE
  5
294
100
AcDbEntity
  8
LAYER_FEATURE
100
AcDbLine
 62
7
  6
CONTINUOUS
 10
15.1423490839
 20
14.2374716596
 11
15.1800146057
 21
14.2374716596
  0
LINE
  5
295
100
AcDbEntity
  8
LAYER_FEATURE
100
AcDbLine
 62
7
  6
CONTINUOUS
 10
15.7488122172
 20
14.2374716596
 11
15.786477739
 21
14.2374716596
  0
CIRCLE
  5
296
100
AcDbEntity
  8
LAYER_FEATURE
100
AcDbCircle
 62
7
  6
CONTINUOUS
 10
15.5603552569
 20
5.4606247044
 40
1.7266666667
  0
CIRCLE
  5
297
100
AcDbEntity
  8
LAYER_FEATURE
100
AcDbCircle
 62
7
  6
CONTINUOUS
 10
15.5603552569
 20
5.4606247044
 40
1.6383464439
  0
CIRCLE
  5
298
100
AcDbEntity
  8
02___PRT_ALL_AXES
100
AcDbCircle
 62
7
  6
CONTINUOUS
 10
15.5603552569
 20
5.4606247044
 40
1.4573333333
  0
CIRCLE
  5
299
100
AcDbEntity
  8
02___PRT_ALL_AXES
100
AcDbCircle
 62
7
  6
CONTINUOUS
 10
15.5603552569
 20
5.4606247044
 40
1.45
  0
CIRCLE
  5
29A
100
AcDbEntity
  8
02___PRT_ALL_AXES
100
AcDbCircle
 62
7
  6
CONTINUOUS
 10
15.5603552569
 20
5.4606247044
 40
1.429
  0
ARC
  5
29B
100
AcDbEntity
  8
02___PRT_ALL_AXES
100
AcDbCircle
 62
7
  6
CONTINUOUS
 10
15.5603552569
 20
5.4606247044
 40
0.8333333333
100
AcDbArc
 50
61.4843384185
 51
139.5156615815
  0
ARC
  5
29C
100
AcDbEntity
  8
02___PRT_ALL_AXES
100
AcDbCircle
 62
7
  6
CONTINUOUS
 10
15.5603552569
 20
5.4606247044
 40
0.8333333333
100
AcDbArc
 50
22.4843384185
 51
50.5156615815
  0
ARC
  5
29D
100
AcDbEntity
  8
02___PRT_ALL_AXES
100
AcDbCircle
 62
7
  6
CONTINUOUS
 10
15.5603552569
 20
5.4606247044
 40
0.8333333333
100
AcDbArc
 50
231.4843384185
 51
259.5156615815
  0
ARC
  5
29E
100
AcDbEntity
  8
02___PRT_ALL_AXES
100
AcDbCircle
 62
7
  6
CONTINUOUS
 10
15.5603552569
 20
5.4606247044
 40
0.8333333333
100
AcDbArc
 50
150.4843384185
 51
220.5156615815
  0
ARC
  5
29F
100
AcDbEntity
  8
02___PRT_ALL_AXES
100
AcDbCircle
 62
7
  6
CONTINUOUS
 10
15.5603552569
 20
5.4606247044
 40
0.8333333333
100
AcDbArc
 50
270.4843384185
 51
11.5156615815
  0
ARC
  5
2A0
100
AcDbEntity
  8
02___PRT_ALL_AXES
100
AcDbCircle
 62
7
  6
CONTINUOUS
 10
15.5603552569
 20
5.4606247044
 40
0.8041971617
100
AcDbArc
 50
50.0634202313
 51
61.9365797687
  0
ARC
  5
2A1
100
AcDbEntity
  8
02___PRT_ALL_AXES
100
AcDbCircle
 62
7
  6
CONTINUOUS
 10
15.5603552569
 20
5.4606247044
 40
0.8041971617
100
AcDbArc
 50
220.0634202313
 51
231.9365797687
  0
ARC
  5
2A2
100
AcDbEntity
  8
02___PRT_ALL_AXES
100
AcDbCircle
 62
7
  6
CONTINUOUS
 10
15.5603552569
 20
5.4606247044
 40
0.77506099
100
AcDbArc
 50
22.6434126524
 51
139.3565873476
  0
ARC
  5
2A3
100
AcDbEntity
  8
02___PRT_ALL_AXES
100
AcDbCircle
 62
7
  6
CONTINUOUS
 10
15.5603552569
 20
5.4606247044
 40
0.77506099
100
AcDbArc
 50
150.6434126524
 51
259.3565873476
  0
ARC
  5
2A4
100
AcDbEntity
  8
02___PRT_ALL_AXES
100
AcDbCircle
 62
7
  6
CONTINUOUS
 10
15.5603552569
 20
5.4606247044
 40
0.77506099
100
AcDbArc
 50
270.6434126524
 51
11.3565873476
  0
ARC
  5
2A5
100
AcDbEntity
  8
02___PRT_ALL_AXES
100
AcDbCircle
 62
7
  6
CONTINUOUS
 10
16.0105055442
 20
6.1279999504
 40
0.0833333333
100
AcDbArc
 50
322.4804512298
 51
149.5195487702
  0
ARC
  5
2A6
100
AcDbEntity
  8
02___PRT_ALL_AXES
100
AcDbCircle
 62
7
  6
CONTINUOUS
 10
15.0011552687
 20
4.8815561652
 40
0.0833333333
100
AcDbArc
 50
132.4804512298
 51
319.5195487702
  0
ARC
  5
2A7
100
AcDbEntity
  8
02___PRT_ALL_AXES
100
AcDbCircle
 62
7
  6
CONTINUOUS
 10
16.3301805855
 20
5.6959839267
 40
0.0833333333
100
AcDbArc
 50
263.1497787952
 51
130.8502212048
  0
ARC
  5
2A8
100
AcDbEntity
  8
02___PRT_ALL_AXES
100
AcDbCircle
 62
7
  6
CONTINUOUS
 10
15.490194884
 20
4.6586879725
 40
0.0833333333
100
AcDbArc
 50
151.1497787952
 51
18.8502212048
  0
ARC
  5
2A9
100
AcDbEntity
  8
02___PRT_ALL_AXES
100
AcDbCircle
 62
7
  6
CONTINUOUS
 10
14.9009378613
 20
5.9223537357
 40
0.0833333333
100
AcDbArc
 50
31.1497787952
 51
258.8502212048
  0
ARC
  5
2AA
100
AcDbEntity
  8
02___PRT_ALL_AXES
100
AcDbCircle
 62
7
  6
CONTINUOUS
 10
11.8941416063
 20
-38.558769919
 40
50.4243092321
100
AcDbArc
 50
85.3419798204
 51
85.5310330263
  0
ARC
  5
2AB
100
AcDbEntity
  8
02___PRT_ALL_AXES
100
AcDbCircle
 62
7
  6
CONTINUOUS
 10
18.7762156429
 20
-30.5430779092
 40
43.9426121363
100
AcDbArc
 50
93.6158468687
 51
93.8972673031
  0
ARC
  5
2AC
100
AcDbEntity
  8
02___PRT_ALL_AXES
100
AcDbCircle
 62
7
  6
CONTINUOUS
 10
13.7856164785
 20
41.1645775668
 40
28.0034563706
100
AcDbArc
 50
274.0273141719
 51
274.664010934
  0
ARC
  5
2AD
100
AcDbEntity
  8
LAYER_FEATURE
100
AcDbCircle
 62
7
  6
CONTINUOUS
 10
17.9818275447
 20
12.5872950558
 40
3.4105838857
100
AcDbArc
 50
170.6625300049
 51
171.1337291295
  0
ARC
  5
2AE
100
AcDbEntity
  8
LAYER_FEATURE
100
AcDbCircle
 62
7
  6
CONTINUOUS
 10
17.5654887782
 20
12.6655339648
 40
2.9869113517
100
AcDbArc
 50
167.6632311907
 51
168.1780800862
  0
ARC
  5
2AF
100
AcDbEntity
  8
LAYER_FEATURE
100
AcDbCircle
 62
7
  6
CONTINUOUS
 10
17.1142145511
 20
12.775991297
 40
2.5222535677
100
AcDbArc
 50
164.3407202818
 51
164.9171022548
  0
ARC
  5
2B0
100
AcDbEntity
  8
02___PRT_ALL_AXES
100
AcDbCircle
 62
7
  6
CONTINUOUS
 10
15.7078493463
 20
11.5852945406
 40
0.5769841751
100
AcDbArc
 50
317.7153917079
 51
320.180144713
  0
ARC
  5
2B1
100
AcDbEntity
  8
02___PRT_ALL_AXES
100
AcDbCircle
 62
7
  6
CONTINUOUS
 10
15.7079033134
 20
13.4363621865
 40
0.576912792
100
AcDbArc
 50
39.8197220196
 51
42.2889718719
  0
ARC
  5
2B2
100
AcDbEntity
  8
02___PRT_ALL_AXES
100
AcDbCircle
 62
7
  6
CONTINUOUS
 10
15.9157348407
 20
11.8040535141
 40
0.1265818138
100
AcDbArc
 50
265.6524473142
 51
275.3430998027
  0
ARC
  5
2B3
100
AcDbEntity
  8
LAYER_FEATURE
100
AcDbCircle
 62
7
  6
CONTINUOUS
 10
14.6541968292
 20
13.329590919
 40
0.0353457196
100
AcDbArc
 50
325.227015233
 51
327.9169906068
  0
SPLINE
  5
2B4
100
AcDbEntity
  8
02___PRT_ALL_AXES
100
AcDbSpline
 62
7
  6
CONTINUOUS
 70
0
 71
3
 72
35
 73
31
 74
0
 42
0.0000001
 43
0.0000001
 44
0.0000000001
 40
0.0
 40
0.0
 40
0.0
 40
0.0
 40
0.0264976163
 40
0.0548827356
 40
0.0850805072
 40
0.1169879931
 40
0.1504773503
 40
0.1854010307
 40
0.2215947181
 40
0.2588803637
 40
0.33595099
 40
0.4150156366
 40
0.4943895856
 40
0.572376645
 40
0.6103379064
 40
0.6473438519
 40
0.6832080181
 40
0.717755842
 40
0.7508272803
 40
0.7822798039
 40
0.8119919503
 40
0.8398676991
 40
0.8658420514
 40
0.889888342
 40
0.9120279567
 40
0.932343067
 40
0.9509925811
 40
0.9682290595
 40
0.9844115483
 40
1.0
 40
1.0
 40
1.0
 40
1.0
 10
15.5972690689
 20
12.3506288839
 30
0.0
 10
15.5965266245
 20
12.3493584714
 30
0.0
 10
15.5950903354
 20
12.3466670502
 30
0.0
 10
15.5931382793
 20
12.342361635
 30
0.0
 10
15.5913248923
 20
12.33767255
 30
0.0
 10
15.5896616268
 20
12.3326292289
 30
0.0
 10
15.5881588822
 20
12.3272629606
 30
0.0
 10
15.5868261673
 20
12.3216073622
 30
0.0
 10
15.5856718556
 20
12.3156978263
 30
0.0
 10
15.5843663534
 20
12.3074386104
 30
0.0
 10
15.5832388623
 20
12.2967484209
 30
0.0
 10
15.5826905243
 20
12.2836735866
 30
0.0
 10
15.5829469238
 20
12.2705389267
 30
0.0
 10
15.5838331069
 20
12.2597204372
 30
0.0
 10
15.5849489087
 20
12.2512988567
 30
0.0
 10
15.5859688097
 20
12.2452279526
 30
0.0
 10
15.5871725565
 20
12.2393841465
 30
0.0
 10
15.5885525748
 20
12.2338040723
 30
0.0
 10
15.5901001178
 20
12.2285227134
 30
0.0
 10
15.5918054321
 20
12.2235730647
 30
0.0
 10
15.5936578296
 20
12.2189859233
 30
0.0
 10
15.5956458199
 20
12.21478966
 30
0.0
 10
15.5977572808
 20
12.2110100237
 30
0.0
 10
15.5999797051
 20
12.2076699935
 30
0.0
 10
15.6023005146
 20
12.2047897641
 30
0.0
 10
15.6047075007
 20
12.2023869707
 30
0.0
 10
15.6071888628
 20
12.200477454
 30
0.0
 10
15.6097333956
 20
12.1990764316
 30
0.0
 10
15.6123258778
 20
12.1981996982
 30
0.0
 10
15.614089922
 20
12.1979725349
 30
0.0
 10
15.6149553142
 20
12.1979514043
 30
0.0
  0
SPLINE
  5
2B5
100
AcDbEntity
  8
02___PRT_ALL_AXES
100
AcDbSpline
 62
7
  6
CONTINUOUS
 70
0
 71
3
 72
22
 73
18
 74
0
 42
0.0000001
 43
0.0000001
 44
0.0000000001
 40
0.0
 40
0.0
 40
0.0
 40
0.0
 40
0.176113259
 40
0.2596599623
 40
0.339783946
 40
0.4162162671
 40
0.4887311197
 40
0.5571493251
 40
0.621348913
 40
0.6812768518
 40
0.7369644471
 40
0.7885471531
 40
0.8362890056
 40
0.8806102123
 40
0.922112268
 40
0.9615881609
 40
1.0
 40
1.0
 40
1.0
 40
1.0
 10
15.9275220859
 20
11.6780217069
 30
0.0
 10
15.9281465886
 20
11.674531395
 30
0.0
 10
15.9292289808
 20
11.6694111345
 30
0.0
 10
15.9310166444
 20
11.6628065224
 30
0.0
 10
15.9324650813
 20
11.6581930244
 30
0.0
 10
15.9340372722
 20
11.6538556304
 30
0.0
 10
15.9357253534
 20
11.649815994
 30
0.0
 10
15.9375208978
 20
11.6460942631
 30
0.0
 10
15.9394150648
 20
11.6427088702
 30
0.0
 10
15.9413987179
 20
11.6396764735
 30
0.0
 10
15.9434625981
 20
11.637011926
 30
0.0
 10
15.9455974981
 20
11.6347283583
 30
0.0
 10
15.9477944624
 20
11.6328374433
 30
0.0
 10
15.9500445721
 20
11.6313499122
 30
0.0
 10
15.9523388119
 20
11.6302761631
 30
0.0
 10
15.9546648865
 20
11.6296263107
 30
0.0
 10
15.9562366043
 20
11.6294804927
 30
0.0
 10
15.9570099614
 20
11.6294804956
 30
0.0
  0
SPLINE
  5
2B6
100
AcDbEntity
  8
02___PRT_ALL_AXES
100
AcDbSpline
 62
7
  6
CONTINUOUS
 70
0
 71
3
 72
15
 73
11
 74
0
 42
0.0000001
 43
0.0000001
 44
0.0000000001
 40
0.0
 40
0.0
 40
0.0
 40
0.0
 40
0.1507912138
 40
0.292499554
 40
0.4256418095
 40
0.5510186559
 40
0.6696794827
 40
0.7829558642
 40
0.8924538617
 40
1.0
 40
1.0
 40
1.0
 40
1.0
 10
16.1289841937
 20
11.8826621218
 30
0.0
 10
16.1295240812
 20
11.881976236
 30
0.0
 10
16.130617021
 20
11.8806806646
 30
0.0
 10
16.1323516175
 20
11.8789268692
 30
0.0
 10
16.1341245958
 20
11.8774300668
 30
0.0
 10
16.1359307077
 20
11.876195758
 30
0.0
 10
16.1377647824
 20
11.8752288069
 30
0.0
 10
16.1396213105
 20
11.8745338343
 30
0.0
 10
16.1414932657
 20
11.8741149118
 30
0.0
 10
16.1427515646
 20
11.8740212921
 30
0.0
 10
16.1433741126
 20
11.8740212954
 30
0.0
  0
SPLINE
  5
2B7
100
AcDbEntity
  8
02___PRT_ALL_AXES
100
AcDbSpline
 62
7
  6
CONTINUOUS
 70
0
 71
3
 72
15
 73
11
 74
0
 42
0.0000001
 43
0.0000001
 44
0.0000000001
 40
0.0
 40
0.0
 40
0.0
 40
0.0
 40
0.1257689498
 40
0.2501669845
 40
0.373762415
 40
0.4971374127
 40
0.620877996
 40
0.7455638039
 40
0.8717582992
 40
1.0
 40
1.0
 40
1.0
 40
1.0
 10
15.8364273161
 20
11.0605288987
 30
0.0
 10
15.8309761426
 20
11.0591462566
 30
0.0
 10
15.8200317259
 20
11.0567780748
 30
0.0
 10
15.8034681043
 20
11.0544433269
 30
0.0
 10
15.7868824668
 20
11.0533524473
 30
0.0
 10
15.7702912379
 20
11.0535069328
 30
0.0
 10
15.7537096282
 20
11.054906494
 30
0.0
 10
15.7371527964
 20
11.0575496477
 30
0.0
 10
15.7206368086
 20
11.0614331194
 30
0.0
 10
15.7097627258
 20
11.0648152421
 30
0.0
 10
15.7043476056
 20
11.0667018614
 30
0.0
  0
SPLINE
  5
2B8
100
AcDbEntity
  8
02___PRT_ALL_AXES
100
AcDbSpline
 62
7
  6
CONTINUOUS
 70
0
 71
3
 72
15
 73
11
 74
0
 42
0.0000001
 43
0.0000001
 44
0.0000000001
 40
0.0
 40
0.0
 40
0.0
 40
0.0
 40
0.1282437259
 40
0.2544413458
 40
0.3791305679
 40
0.5028739834
 40
0.6262503691
 40
0.7498448874
 40
0.8742389036
 40
1.0
 40
1.0
 40
1.0
 40
1.0
 10
15.7043476054
 20
13.9549081276
 30
0.0
 10
15.7097588018
 20
13.9567933823
 30
0.0
 10
15.7206249602
 20
13.9601733222
 30
0.0
 10
15.7371287717
 20
13.9640552857
 30
0.0
 10
15.7536733831
 20
13.966698769
 30
0.0
 10
15.7702427692
 20
13.9681004745
 30
0.0
 10
15.7868218029
 20
13.9682589328
 30
0.0
 10
15.8033953104
 20
13.9671738662
 30
0.0
 10
15.8199469061
 20
13.9648467493
 30
0.0
 10
15.8308836238
 20
13.9624847598
 30
0.0
 10
15.8363309966
 20
13.9611054947
 30
0.0
  0
SPLINE
  5
2B9
100
AcDbEntity
  8
02___PRT_ALL_AXES
100
AcDbSpline
 62
7
  6
CONTINUOUS
 70
0
 71
3
 72
26
 73
22
 74
0
 42
0.0000001
 43
0.0000001
 44
0.0000000001
 40
0.0
 40
0.0
 40
0.0
 40
0.0
 40
0.016699997
 40
0.0336246705
 40
0.0509877766
 40
0.0689835428
 40
0.0877806663
 40
0.1075201136
 40
0.150221727
 40
0.1977414931
 40
0.2503622376
 40
0.3081207233
 40
0.3708695578
 40
0.4383211841
 40
0.5100790647
 40
0.5856605352
 40
0.6645144875
 40
0.7460357586
 40
0.8295784026
 40
0.9144641613
 40
1.0
 40
1.0
 40
1.0
 40
1.0
 10
15.8211221328
 20
13.361600255
 30
0.0
 10
15.8205876072
 20
13.3616002512
 30
0.0
 10
15.8195101466
 20
13.3615315724
 30
0.0
 10
15.8179034676
 20
13.3612235639
 30
0.0
 10
15.8163060735
 20
13.3607118568
 30
0.0
 10
15.8147225694
 20
13.3599984256
 30
0.0
 10
15.8131565918
 20
13.3590858154
 30
0.0
 10
15.8110417099
 20
13.357567361
 30
0.0
 10
15.808464811
 20
13.3551468785
 30
0.0
 10
15.805585383
 20
13.3515818089
 30
0.0
 10
15.8028601763
 20
13.3473152566
 30
0.0
 10
15.8003129351
 20
13.3423868936
 30
0.0
 10
15.7979662345
 20
13.3368418998
 30
0.0
 10
15.7958422053
 20
13.3307323633
 30
0.0
 10
15.7939611976
 20
13.3241162599
 30
0.0
 10
15.7923414776
 20
13.3170569135
 30
0.0
 10
15.7909988547
 20
13.3096222273
 30
0.0
 10
15.7899464677
 20
13.3018839446
 30
0.0
 10
15.7891946597
 20
13.2939168878
 30
0.0
 10
15.7887507732
 20
13.2857982909
 30
0.0
 10
15.7886631578
 20
13.2803426335
 30
0.0
 10
15.7886716285
 20
13.277604856
 30
0.0
  0
SPLINE
  5
2BA
100
AcDbEntity
  8
02___PRT_ALL_AXES
100
AcDbSpline
 62
7
  6
CONTINUOUS
 70
0
 71
3
 72
22
 73
18
 74
0
 42
0.0000001
 43
0.0000001
 44
0.0000000001
 40
0.0
 40
0.0
 40
0.0
 40
0.0
 40
0.0426690012
 40
0.0860783831
 40
0.1309228374
 40
0.1778163079
 40
0.2272729481
 40
0.2797015263
 40
0.3354113413
 40
0.3946230843
 40
0.4574797204
 40
0.5240587654
 40
0.5943828446
 40
0.6684275663
 40
0.7461268168
 40
0.8273815733
 40
1.0
 40
1.0
 40
1.0
 40
1.0
 10
16.030287669
 20
13.34346485
 30
0.0
 10
16.0296792567
 20
13.3434648465
 30
0.0
 10
16.0284500936
 20
13.3433755225
 30
0.0
 10
16.026620741
 20
13.3429755662
 30
0.0
 10
16.0248056784
 20
13.3423119175
 30
0.0
 10
16.0230114887
 20
13.3413882358
 30
0.0
 10
16.021243396
 20
13.3402086795
 30
0.0
 10
16.0195063377
 20
13.3387778372
 30
0.0
 10
16.0178050454
 20
13.3371006339
 30
0.0
 10
16.0161442844
 20
13.3351824424
 30
0.0
 10
16.0145287695
 20
13.3330292783
 30
0.0
 10
16.0129632282
 20
13.330647792
 30
0.0
 10
16.0114523658
 20
13.3280452943
 30
0.0
 10
16.0100007811
 20
13.3252298546
 30
0.0
 10
16.0086128665
 20
13.3222101648
 30
0.0
 10
16.006816897
 20
13.3178356619
 30
0.0
 10
16.0056359839
 20
13.3144095114
 30
0.0
 10
16.0049066364
 20
13.3120587084
 30
0.0
  0
SPLINE
  5
2BB
100
AcDbEntity
  8
LAYER_FEATURE
100
AcDbSpline
 62
7
  6
CONTINUOUS
 70
0
 71
3
 72
58
 73
54
 74
0
 42
0.0000001
 43
0.0000001
 44
0.0000000001
 40
0.0
 40
0.0
 40
0.0
 40
0.0
 40
0.0163583066
 40
0.0330514671
 40
0.0500648586
 40
0.067383511
 40
0.0849915537
 40
0.1028725912
 40
0.1393839942
 40
0.1767770749
 40
0.2149030244
 40
0.2536074776
 40
0.2927317876
 40
0.3321142519
 40
0.371591309
 40
0.4109987213
 40
0.4501727498
 40
0.488951332
 40
0.527175277
 40
0.5646894896
 40
0.601344234
 40
0.6193049133
 40
0.6369977095
 40
0.6544060242
 40
0.6715138628
 40
0.6883058869
 40
0.7047674701
 40
0.7208847584
 40
0.7366447351
 40
0.7520352918
 40
0.7670453063
 40
0.7816647284
 40
0.7958846768
 40
0.809697545
 40
0.823097122
 40
0.8360787281
 40
0.8486393693
 40
0.8607779126
 40
0.8724952844
 40
0.8837946958
 40
0.8946818959
 40
0.9051654519
 40
0.9152570557
 40
0.9249718508
 40
0.9343287667
 40
0.9433508417
 40
0.9520655027
 40
0.9605047595
 40
0.9687052614
 40
0.976708157
 40
0.9845587032
 40
0.9923055923
 40
1.0
 40
1.0
 40
1.0
 40
1.0
 10
15.2221065942
 20
13.5841182048
 30
0.0
 10
15.2171750882
 20
13.5681598457
 30
0.0
 10
15.2075412393
 20
13.5358135399
 30
0.0
 10
15.1939039678
 20
13.4865434126
 30
0.0
 10
15.1809463225
 20
13.4360771138
 30
0.0
 10
15.1686842908
 20
13.3844768964
 30
0.0
 10
15.1571328099
 20
13.331805626
 30
0.0
 10
15.1425968787
 20
13.259736562
 30
0.0
 10
15.1263395457
 20
13.1674202499
 30
0.0
 10
15.1100020577
 20
13.0541849568
 30
0.0
 10
15.0967834349
 20
12.9382895567
 30
0.0
 10
15.0867487996
 20
12.8203019234
 30
0.0
 10
15.0799476016
 20
12.7007991815
 30
0.0
 10
15.0764133691
 20
12.5803663367
 30
0.0
 10
15.0761635187
 20
12.4595929385
 30
0.0
 10
15.079199275
 20
12.3390702623
 30
0.0
 10
15.0855056754
 20
12.2193883044
 30
0.0
 10
15.0950516464
 20
12.101132964
 30
0.0
 10
15.1077901474
 20
11.9848827073
 30
0.0
 10
15.1236584075
 20
11.87120716
 30
0.0
 10
15.1395303877
 20
11.7784675367
 30
0.0
 10
15.1537643801
 20
11.7060180182
 30
0.0
 10
15.1650969899
 20
11.6530339587
 30
0.0
 10
15.1771445585
 20
11.6011014203
 30
0.0
 10
15.1898923913
 20
11.5502838743
 30
0.0
 10
15.2033248226
 20
11.5006435885
 30
0.0
 10
15.2174253819
 20
11.4522413296
 30
0.0
 10
15.2321767772
 20
11.4051363447
 30
0.0
 10
15.2475609284
 20
11.3593862727
 30
0.0
 10
15.2635589894
 20
11.3150470749
 30
0.0
 10
15.2801513761
 20
11.2721729642
 30
0.0
 10
15.2973177938
 20
11.2308163353
 30
0.0
 10
15.3150372658
 20
11.1910276978
 30
0.0
 10
15.3332881686
 20
11.1528556139
 30
0.0
 10
15.3520482681
 20
11.1163466396
 30
0.0
 10
15.3712947572
 20
11.0815452688
 30
0.0
 10
15.3910042978
 20
11.0484938821
 30
0.0
 10
15.4111530655
 20
11.0172327013
 30
0.0
 10
15.4317167981
 20
10.9877997524
 30
0.0
 10
15.4526708476
 20
10.9602308374
 30
0.0
 10
15.4739902286
 20
10.934559517
 30
0.0
 10
15.4956496701
 20
10.9108171129
 30
0.0
 10
15.5176236594
 20
10.889032731
 30
0.0
 10
15.5398864678
 20
10.8692333032
 30
0.0
 10
15.5624121495
 20
10.8514436497
 30
0.0
 10
15.585174496
 20
10.8356865514
 30
0.0
 10
15.6081469408
 20
10.8219828172
 30
0.0
 10
15.6313023689
 20
10.8103513121
 30
0.0
 10
15.6546129804
 20
10.8008089022
 30
0.0
 10
15.6780497385
 20
10.7933702732
 30
0.0
 10
15.7015833168
 20
10.7880476059
 30
0.0
 10
15.7251799683
 20
10.7848501374
 30
0.0
 10
15.7409556945
 20
10.7841383295
 30
0.0
 10
15.7488122172
 20
10.784138336
 30
0.0
  0
SPLINE
  5
2BC
100
AcDbEntity
  8
02___PRT_ALL_AXES
100
AcDbSpline
 62
7
  6
CONTINUOUS
 70
0
 71
3
 72
35
 73
31
 74
0
 42
0.0000001
 43
0.0000001
 44
0.0000000001
 40
0.0
 40
0.0
 40
0.0
 40
0.0
 40
0.0187274849
 40
0.0376984059
 40
0.0570389014
 40
0.0768663206
 40
0.0972872056
 40
0.118396141
 40
0.1402753982
 40
0.1629950616
 40
0.1866135938
 40
0.2111786244
 40
0.2367278407
 40
0.263289882
 40
0.2908852336
 40
0.3195270738
 40
0.3492220252
 40
0.3799708098
 40
0.4117688316
 40
0.4446067266
 40
0.4784708228
 40
0.5133435344
 40
0.5492036932
 40
0.5860268848
 40
0.6237857346
 40
0.6624501501
 40
0.7423588964
 40
0.8254702539
 40
0.9114654061
 40
1.0
 40
1.0
 40
1.0
 40
1.0
 10
15.9061391398
 20
11.6778359317
 30
0.0
 10
15.9022169947
 20
11.6781338334
 30
0.0
 10
15.8943449932
 20
11.679100946
 30
0.0
 10
15.8826209812
 20
11.6816380533
 30
0.0
 10
15.8709442235
 20
11.6852631718
 30
0.0
 10
15.8593320962
 20
11.6899697194
 30
0.0
 10
15.8477995475
 20
11.6957498771
 30
0.0
 10
15.8363614359
 20
11.7025946376
 30
0.0
 10
15.8250320641
 20
11.7104939237
 30
0.0
 10
15.8138254601
 20
11.7194365882
 30
0.0
 10
15.8027554493
 20
11.7294104293
 30
0.0
 10
15.7918357254
 20
11.7404021497
 30
0.0
 10
15.7810798778
 20
11.7523973118
 30
0.0
 10
15.77050137
 20
11.7653802752
 30
0.0
 10
15.7601135306
 20
11.7793341849
 30
0.0
 10
15.7499295389
 20
11.7942409745
 30
0.0
 10
15.7399623942
 20
11.8100813631
 30
0.0
 10
15.7302248786
 20
11.8268348522
 30
0.0
 10
15.7207295147
 20
11.8444797367
 30
0.0
 10
15.7114885631
 20
11.8629931452
 30
0.0
 10
15.7025139888
 20
11.8823510672
 30
0.0
 10
15.6938174449
 20
11.9025283748
 30
0.0
 10
15.6854102171
 20
11.9234988515
 30
0.0
 10
15.6773032645
 20
11.9452352102
 30
0.0
 10
15.6695070584
 20
11.9677092495
 30
0.0
 10
15.6594297326
 20
11.9989622557
 30
0.0
 10
15.6477141462
 20
12.0396841056
 30
0.0
 10
15.635196424
 20
12.0904781559
 30
0.0
 10
15.6241350371
 20
12.1434601524
 30
0.0
 10
15.617852642
 20
12.1795830714
 30
0.0
 10
15.6149553142
 20
12.1979514043
 30
0.0
  0
SPLINE
  5
2BD
100
AcDbEntity
  8
LAYER_FEATURE
100
AcDbSpline
 62
7
  6
CONTINUOUS
 70
0
 71
3
 72
19
 73
15
 74
0
 42
0.0000001
 43
0.0000001
 44
0.0000000001
 40
0.0
 40
0.0
 40
0.0
 40
0.0
 40
0.0566043225
 40
0.1133636736
 40
0.1704315031
 40
0.2279582237
 40
0.2860897504
 40
0.3449663958
 40
0.4047217293
 40
0.4654818964
 40
0.5904464849
 40
0.7207403295
 40
0.857067809
 40
1.0
 40
1.0
 40
1.0
 40
1.0
 10
15.1800146057
 20
14.2374716499
 30
0.0
 10
15.1849814886
 20
14.237471645
 30
0.0
 10
15.194931171
 20
14.2371882852
 30
0.0
 10
15.2098393142
 20
14.2359138583
 30
0.0
 10
15.2247325666
 20
14.2337907344
 30
0.0
 10
15.2396026307
 20
14.2308200271
 30
0.0
 10
15.2544421592
 20
14.2270035609
 30
0.0
 10
15.2692435131
 20
14.2223434396
 30
0.0
 10
15.2839996391
 20
14.216842159
 30
0.0
 10
15.3037868061
 20
14.2083111604
 30
0.0
 10
15.3284164606
 20
14.1954737995
 30
0.0
 10
15.3573769982
 20
14.176906146
 30
0.0
 10
15.3859680139
 20
14.1550747344
 30
0.0
 10
15.4042974403
 20
14.1387751858
 30
0.0
 10
15.4133887284
 20
14.1301352499
 30
0.0
  0
SPLINE
  5
2BE
100
AcDbEntity
  8
LAYER_FEATURE
100
AcDbSpline
 62
7
  6
CONTINUOUS
 70
0
 71
3
 72
19
 73
15
 74
0
 42
0.0000001
 43
0.0000001
 44
0.0000000001
 40
0.0
 40
0.0
 40
0.0
 40
0.0
 40
0.0566116399
 40
0.1133780925
 40
0.1704526055
 40
0.2279853668
 40
0.2861221433
 40
0.3450030164
 40
0.4047614698
 40
0.4655234386
 40
0.5904874157
 40
0.7207743668
 40
0.8570882564
 40
1.0
 40
1.0
 40
1.0
 40
1.0
 10
15.1800146057
 20
10.7841383359
 30
0.0
 10
15.1849777132
 20
10.7841383311
 30
0.0
 10
15.1949198079
 20
10.7844212835
 30
0.0
 10
15.2098166119
 20
10.7856937387
 30
0.0
 10
15.2246985505
 20
10.7878136709
 30
0.0
 10
15.2395573721
 20
10.7907798135
 30
0.0
 10
15.2543857049
 20
10.7945905302
 30
0.0
 10
15.2691759821
 20
10.7992435295
 30
0.0
 10
15.2839211037
 20
10.8047365114
 30
0.0
 10
15.3036934309
 20
10.8132544582
 30
0.0
 10
15.3283048189
 20
10.8260722498
 30
0.0
 10
15.3572447202
 20
10.8446119154
 30
0.0
 10
15.3858159311
 20
10.8664105955
 30
0.0
 10
15.404133459
 20
10.8826861865
 30
0.0
 10
15.413218933
 20
10.8913134465
 30
0.0
  0
SPLINE
  5
2BF
100
AcDbEntity
  8
LAYER_FEATURE
100
AcDbSpline
 62
7
  6
CONTINUOUS
 70
0
 71
3
 72
38
 73
34
 74
0
 42
0.0000001
 43
0.0000001
 44
0.0000000001
 40
0.0
 40
0.0
 40
0.0
 40
0.0
 40
0.0190356828
 40
0.0382093888
 40
0.0576554952
 40
0.0775014645
 40
0.097865241
 40
0.1188534554
 40
0.1405604374
 40
0.1630679273
 40
0.1864453219
 40
0.2107502864
 40
0.2360295776
 40
0.2623199632
 40
0.2896491557
 40
0.3180367093
 40
0.3474948508
 40
0.3780292324
 40
0.4096396023
 40
0.4423203984
 40
0.4760612679
 40
0.5108475254
 40
0.5466605547
 40
0.5834781622
 40
0.6212748899
 40
0.6600222926
 40
0.699689186
 40
0.7402418701
 40
0.7816443322
 40
0.8238584316
 40
0.8668440706
 40
0.9105593525
 40
1.0
 40
1.0
 40
1.0
 40
1.0
 10
15.786477739
 20
14.2374716498
 30
0.0
 10
15.7945801342
 20
14.2374716565
 30
0.0
 10
15.8108536406
 20
14.2367142891
 30
0.0
 10
15.8351902367
 20
14.2333125834
 30
0.0
 10
15.8594572058
 20
14.2276505061
 30
0.0
 10
15.8836174725
 20
14.2197386539
 30
0.0
 10
15.9076389372
 20
14.2095909268
 30
0.0
 10
15.9314899107
 20
14.1972239951
 30
0.0
 10
15.9551401082
 20
14.1826569176
 30
0.0
 10
15.978560005
 20
14.1659109529
 30
0.0
 10
16.001720668
 20
14.1470095219
 30
0.0
 10
16.0245935361
 20
14.1259782571
 30
0.0
 10
16.0471503205
 20
14.1028450922
 30
0.0
 10
16.069362963
 20
14.0776403529
 30
0.0
 10
16.0912036454
 20
14.0503968276
 30
0.0
 10
16.1126448284
 20
14.0211498134
 30
0.0
 10
16.1336593064
 20
13.9899371348
 30
0.0
 10
16.1542202692
 20
13.9567991401
 30
0.0
 10
16.1743013634
 20
13.9217786791
 30
0.0
 10
16.1938767518
 20
13.8849210662
 30
0.0
 10
16.2129211697
 20
13.8462740333
 30
0.0
 10
16.2314099772
 20
13.8058876736
 30
0.0
 10
16.2493192052
 20
13.7638143773
 30
0.0
 10
16.2666255989
 20
13.7201087633
 30
0.0
 10
16.2833066578
 20
13.6748276065
 30
0.0
 10
16.2993406729
 20
13.6280297622
 30
0.0
 10
16.3147067613
 20
13.5797760854
 30
0.0
 10
16.3293848947
 20
13.5301293571
 30
0.0
 10
16.3433559432
 20
13.4791541675
 30
0.0
 10
16.3566016484
 20
13.4269169575
 30
0.0
 10
16.3691048593
 20
13.3734854376
 30
0.0
 10
16.384883281
 20
13.3001883855
 30
0.0
 10
16.3953650879
 20
13.2444748429
 30
0.0
 10
16.401802498
 20
13.2069533191
 30
0.0
  0
SPLINE
  5
2C0
100
AcDbEntity
  8
LAYER_FEATURE
100
AcDbSpline
 62
7
  6
CONTINUOUS
 70
0
 71
3
 72
11
 73
7
 74
0
 42
0.0000001
 43
0.0000001
 44
0.0000000001
 40
0.0
 40
0.0
 40
0.0
 40
0.0
 40
0.2612460786
 40
0.5155132662
 40
0.7620094875
 40
1.0
 40
1.0
 40
1.0
 40
1.0
 10
16.4018324355
 20
11.8148311957
 30
0.0
 10
16.3961227273
 20
11.7815411852
 30
0.0
 10
16.3839187761
 20
11.7160065494
 30
0.0
 10
16.3629510933
 20
11.6197286537
 30
0.0
 10
16.3396354191
 20
11.5270887137
 30
0.0
 10
16.3222679561
 20
11.4668895382
 30
0.0
 10
16.3131833621
 20
11.437491781
 30
0.0
  0
SPLINE
  5
2C1
100
AcDbEntity
  8
LAYER_FEATURE
100
AcDbSpline
 62
7
  6
CONTINUOUS
 70
0
 71
3
 72
38
 73
34
 74
0
 42
0.0000001
 43
0.0000001
 44
0.0000000001
 40
0.0
 40
0.0
 40
0.0
 40
0.0
 40
0.0212770466
 40
0.0426478758
 40
0.0642047512
 40
0.0860369972
 40
0.1082297681
 40
0.1308630401
 40
0.1540108647
 40
0.1777409152
 40
0.2021142543
 40
0.2271852749
 40
0.2530018507
 40
0.2796055914
 40
0.3070321349
 40
0.3353115102
 40
0.3644685519
 40
0.3945232728
 40
0.4254912056
 40
0.4573837966
 40
0.4902087415
 40
0.5239702523
 40
0.5586693516
 40
0.5943041532
 40
0.6308700673
 40
0.668359986
 40
0.7067645167
 40
0.7460721402
 40
0.7862693076
 40
0.827340711
 40
0.8692692201
 40
0.9120359366
 40
1.0
 40
1.0
 40
1.0
 40
1.0
 10
15.786477739
 20
10.784138336
 30
0.0
 10
15.7927847261
 20
10.7841383412
 30
0.0
 10
15.8054312224
 20
10.7845959768
 30
0.0
 10
15.8243669839
 20
10.7866532139
 30
0.0
 10
15.8432713383
 20
10.7900795442
 30
0.0
 10
15.862127083
 20
10.7948714582
 30
0.0
 10
15.8809189773
 20
10.8010242331
 30
0.0
 10
15.8996316701
 20
10.8085319886
 30
0.0
 10
15.9182502899
 20
10.817387748
 30
0.0
 10
15.9367602215
 20
10.8275836037
 30
0.0
 10
15.9551470968
 20
10.8391107451
 30
0.0
 10
15.9733967845
 20
10.8519594047
 30
0.0
 10
15.9914953148
 20
10.8661189419
 30
0.0
 10
16.0094288326
 20
10.8815778493
 30
0.0
 10
16.0271836164
 20
10.8983236844
 30
0.0
 10
16.0447460723
 20
10.9163430659
 30
0.0
 10
16.0621026931
 20
10.93562171
 30
0.0
 10
16.0792400772
 20
10.9561443973
 30
0.0
 10
16.0961449878
 20
10.9778949279
 30
0.0
 10
16.1128043086
 20
11.0008561765
 30
0.0
 10
16.1292050555
 20
11.0250100939
 30
0.0
 10
16.145334441
 20
11.0503376719
 30
0.0
 10
16.1611798652
 20
11.0768189753
 30
0.0
 10
16.1767289022
 20
11.1044331749
 30
0.0
 10
16.1919693383
 20
11.1331585388
 30
0.0
 10
16.2068892166
 20
11.1629724325
 30
0.0
 10
16.2214767958
 20
11.1938513712
 30
0.0
 10
16.2357205619
 20
11.2257710211
 30
0.0
 10
16.2496093185
 20
11.2587062304
 30
0.0
 10
16.2631320742
 20
11.2926309679
 30
0.0
 10
16.2762782432
 20
11.3275186079
 30
0.0
 10
16.2934509468
 20
11.375733729
 30
0.0
 10
16.3054849364
 20
11.4125796665
 30
0.0
 10
16.3131833621
 20
11.437491781
 30
0.0
  0
SPLINE
  5
2C2
100
AcDbEntity
  8
LAYER_FEATURE
100
AcDbSpline
 62
7
  6
CONTINUOUS
 70
0
 71
3
 72
38
 73
34
 74
0
 42
0.0000001
 43
0.0000001
 44
0.0000000001
 40
0.0
 40
0.0
 40
0.0
 40
0.0
 40
0.0879640634
 40
0.1307307799
 40
0.172659289
 40
0.2137306924
 40
0.2539278598
 40
0.2932354833
 40
0.331640014
 40
0.3691299327
 40
0.4056958468
 40
0.4413306484
 40
0.4760297477
 40
0.5097912585
 40
0.5426162034
 40
0.5745087944
 40
0.6054767272
 40
0.6355314481
 40
0.6646884898
 40
0.6929678651
 40
0.7203944086
 40
0.7469981493
 40
0.7728147251
 40
0.7978857457
 40
0.8222590848
 40
0.8459891353
 40
0.8691369599
 40
0.8917702319
 40
0.9139630028
 40
0.9357952488
 40
0.9573521242
 40
0.9787229534
 40
1.0
 40
1.0
 40
1.0
 40
1.0
 10
15.2221065942
 20
13.5841182048
 30
0.0
 10
15.2298050198
 20
13.6090303194
 30
0.0
 10
15.2418390094
 20
13.6458762568
 30
0.0
 10
15.259011713
 20
13.6940913779
 30
0.0
 10
15.272157882
 20
13.728979018
 30
0.0
 10
15.2856806377
 20
13.7629037554
 30
0.0
 10
15.2995693944
 20
13.7958389647
 30
0.0
 10
15.3138131604
 20
13.8277586147
 30
0.0
 10
15.3284007396
 20
13.8586375534
 30
0.0
 10
15.3433206179
 20
13.888451447
 30
0.0
 10
15.3585610541
 20
13.9171768109
 30
0.0
 10
15.3741100911
 20
13.9447910105
 30
0.0
 10
15.3899555152
 20
13.9712723139
 30
0.0
 10
15.4060849007
 20
13.996599892
 30
0.0
 10
15.4224856477
 20
14.0207538093
 30
0.0
 10
15.4391449685
 20
14.0437150579
 30
0.0
 10
15.456049879
 20
14.0654655885
 30
0.0
 10
15.4731872631
 20
14.0859882758
 30
0.0
 10
15.490543884
 20
14.1052669199
 30
0.0
 10
15.5081063399
 20
14.1232863014
 30
0.0
 10
15.5258611237
 20
14.1400321365
 30
0.0
 10
15.5437946415
 20
14.1554910439
 30
0.0
 10
15.5618931718
 20
14.1696505811
 30
0.0
 10
15.5801428595
 20
14.1824992407
 30
0.0
 10
15.5985297347
 20
14.1940263821
 30
0.0
 10
15.6170396663
 20
14.2042222378
 30
0.0
 10
15.6356582862
 20
14.2130779972
 30
0.0
 10
15.654370979
 20
14.2205857528
 30
0.0
 10
15.6731628733
 20
14.2267385276
 30
0.0
 10
15.6920186179
 20
14.2315304416
 30
0.0
 10
15.7109229723
 20
14.2349567719
 30
0.0
 10
15.7298587339
 20
14.237014009
 30
0.0
 10
15.7425052301
 20
14.2374716446
 30
0.0
 10
15.7488122172
 20
14.2374716498
 30
0.0
  0
SPLINE
  5
2C3
100
AcDbEntity
  8
02___PRT_ALL_AXES
100
AcDbSpline
 62
7
  6
CONTINUOUS
 70
0
 71
3
 72
22
 73
18
 74
0
 42
0.0000001
 43
0.0000001
 44
0.0000000001
 40
0.0
 40
0.0
 40
0.0
 40
0.0
 40
0.0543139465
 40
0.1088532201
 40
0.1638397139
 40
0.2194886615
 40
0.2760057989
 40
0.3335850398
 40
0.3924067291
 40
0.452636479
 40
0.5144245436
 40
0.5779056558
 40
0.7103732031
 40
0.7795913407
 40
0.8508940642
 40
0.9243459624
 40
1.0
 40
1.0
 40
1.0
 40
1.0
 10
15.8963910176
 20
13.9608049928
 30
0.0
 10
15.9015286747
 20
13.9608049941
 30
0.0
 10
15.9118289239
 20
13.9604434486
 30
0.0
 10
15.9272533044
 20
13.9588181575
 30
0.0
 10
15.9426537179
 20
13.9561110868
 30
0.0
 10
15.9580170013
 20
13.9523248073
 30
0.0
 10
15.9733314826
 20
13.9474628166
 30
0.0
 10
15.988585377
 20
13.941529476
 30
0.0
 10
16.0037672704
 20
13.934529915
 30
0.0
 10
16.0188658024
 20
13.926470083
 30
0.0
 10
16.0338703524
 20
13.9173563051
 30
0.0
 10
16.0540199355
 20
13.903615599
 30
0.0
 10
16.0736495113
 20
13.887929451
 30
0.0
 10
16.0927274728
 20
13.8705202209
 30
0.0
 10
16.1070994825
 20
13.856259783
 30
0.0
 10
16.1213125896
 20
13.8410001033
 30
0.0
 10
16.1305382775
 20
13.8303268789
 30
0.0
 10
16.1351239975
 20
13.8248329577
 30
0.0
  0
SPLINE
  5
2C4
100
AcDbEntity
  8
02___PRT_ALL_AXES
100
AcDbSpline
 62
7
  6
CONTINUOUS
 70
0
 71
3
 72
45
 73
41
 74
0
 42
0.0000001
 43
0.0000001
 44
0.0000000001
 40
0.0
 40
0.0
 40
0.0
 40
0.0
 40
0.0099899765
 40
0.0202817431
 40
0.0308784029
 40
0.0417818699
 40
0.052992965
 40
0.064511504
 40
0.0763363774
 40
0.0884656219
 40
0.1008964854
 40
0.1136254861
 40
0.1266484652
 40
0.1399606348
 40
0.16742932
 40
0.1959835378
 40
0.2255663029
 40
0.2561139428
 40
0.2875569174
 40
0.3198205405
 40
0.3528256272
 40
0.3864890868
 40
0.4207244719
 40
0.455442497
 40
0.4905515329
 40
0.5259580842
 40
0.5615672536
 40
0.5972831978
 40
0.6330095776
 40
0.6686500055
 40
0.704108493
 40
0.7392898995
 40
0.7741003872
 40
0.8084478832
 40
0.8422425534
 40
0.8753972933
 40
0.90782824
 40
0.9394553145
 40
0.9702028023
 40
1.0
 40
1.0
 40
1.0
 40
1.0
 10
16.1510087658
 20
13.8058022055
 30
0.0
 10
16.1558216333
 20
13.800036149
 30
0.0
 10
16.1653785097
 20
13.7881494915
 30
0.0
 10
16.1793026247
 20
13.7695685938
 30
0.0
 10
16.1930168403
 20
13.7499876224
 30
0.0
 10
16.2065101447
 20
13.7294223858
 30
0.0
 10
16.2197720129
 20
13.7078890636
 30
0.0
 10
16.2327919848
 20
13.6854047183
 30
0.0
 10
16.2455597991
 20
13.6619871386
 30
0.0
 10
16.2580653683
 20
13.6376548694
 30
0.0
 10
16.2702988092
 20
13.6124271787
 30
0.0
 10
16.2822504124
 20
13.5863240773
 30
0.0
 10
16.2939107982
 20
13.5593661824
 30
0.0
 10
16.3092168584
 20
13.5219201293
 30
0.0
 10
16.3275226788
 20
13.4730979033
 30
0.0
 10
16.3479612992
 20
13.4120559662
 30
0.0
 10
16.3670304344
 20
13.348153545
 30
0.0
 10
16.3846693632
 20
13.2815935145
 30
0.0
 10
16.4008220036
 20
13.2125864072
 30
0.0
 10
16.4154369025
 20
13.1413509736
 30
0.0
 10
16.4284674869
 20
13.0681131006
 30
0.0
 10
16.4398722095
 20
12.9931051677
 30
0.0
 10
16.449614697
 20
12.9165652593
 30
0.0
 10
16.4576638704
 20
12.8387363981
 30
0.0
 10
16.463994049
 20
12.7598657558
 30
0.0
 10
16.4685850344
 20
12.6802038551
 30
0.0
 10
16.4714221771
 20
12.6000037624
 30
0.0
 10
16.4724964234
 20
12.5195202736
 30
0.0
 10
16.4718043453
 20
12.439009095
 30
0.0
 10
16.4693481513
 20
12.358726022
 30
0.0
 10
16.4651356795
 20
12.2789261169
 30
0.0
 10
16.4591803718
 20
12.1998628897
 30
0.0
 10
16.4515012308
 20
12.1217874826
 30
0.0
 10
16.4421227567
 20
12.0449478591
 30
0.0
 10
16.4310748698
 20
11.9695880124
 30
0.0
 10
16.4183928016
 20
11.8959471419
 30
0.0
 10
16.4041170123
 20
11.8242589992
 30
0.0
 10
16.3882929242
 20
11.7547506824
 30
0.0
 10
16.3709712227
 20
11.6876434731
 30
0.0
 10
16.3582523558
 20
11.6439280039
 30
0.0
 10
16.3516381259
 20
11.6225243482
 30
0.0
  0
SPLINE
  5
2C5
100
AcDbEntity
  8
LAYER_FEATURE
100
AcDbSpline
 62
7
  6
CONTINUOUS
 70
0
 71
3
 72
58
 73
54
 74
0
 42
0.0000001
 43
0.0000001
 44
0.0000000001
 40
0.0
 40
0.0
 40
0.0
 40
0.0
 40
0.0163583
 40
0.033051471
 40
0.0500648574
 40
0.0673835114
 40
0.0849915535
 40
0.1028725909
 40
0.1393839941
 40
0.1767770752
 40
0.2149030243
 40
0.2536074773
 40
0.2927317876
 40
0.3321142519
 40
0.3715913088
 40
0.4109987214
 40
0.4501727498
 40
0.4889513312
 40
0.5271752767
 40
0.5646894904
 40
0.601344234
 40
0.6193049122
 40
0.6369977078
 40
0.6544060228
 40
0.6715138624
 40
0.6883058876
 40
0.7047674716
 40
0.7208847596
 40
0.736644735
 40
0.7520352903
 40
0.7670453039
 40
0.7816647265
 40
0.7958846763
 40
0.8096975461
 40
0.823097124
 40
0.8360787296
 40
0.8486393693
 40
0.860777911
 40
0.8724952819
 40
0.8837946938
 40
0.8946818953
 40
0.9051654528
 40
0.9152570574
 40
0.9249718519
 40
0.9343287667
 40
0.9433508406
 40
0.952065501
 40
0.960504758
 40
0.9687052606
 40
0.9767081569
 40
0.9845587033
 40
0.9923055923
 40
1.0
 40
1.0
 40
1.0
 40
1.0
 10
14.6156434608
 20
13.5841182048
 30
0.0
 10
14.6107119569
 20
13.5681598521
 30
0.0
 10
14.6010781078
 20
13.5358135422
 30
0.0
 10
14.5874408349
 20
13.4865434166
 30
0.0
 10
14.5744831897
 20
13.4360771104
 30
0.0
 10
14.5622211576
 20
13.3844768973
 30
0.0
 10
14.5506696764
 20
13.331805626
 30
0.0
 10
14.5361337442
 20
13.2597365627
 30
0.0
 10
14.5198764121
 20
13.1674202498
 30
0.0
 10
14.5035389267
 20
13.0541849561
 30
0.0
 10
14.490320302
 20
12.9382895565
 30
0.0
 10
14.4802856634
 20
12.8203019239
 30
0.0
 10
14.473484468
 20
12.7007991817
 30
0.0
 10
14.4699502397
 20
12.5803663366
 30
0.0
 10
14.4697003858
 20
12.4595929383
 30
0.0
 10
14.4727361372
 20
12.3390702619
 30
0.0
 10
14.4790425417
 20
12.2193883048
 30
0.0
 10
14.4885885184
 20
12.1011329653
 30
0.0
 10
14.5013270147
 20
11.9848827073
 30
0.0
 10
14.5171952685
 20
11.8712071583
 30
0.0
 10
14.5330672527
 20
11.7784675363
 30
0.0
 10
14.54730125
 20
11.7060180213
 30
0.0
 10
14.5586338609
 20
11.6530339635
 30
0.0
 10
14.5706814281
 20
11.6011014241
 30
0.0
 10
14.5834292582
 20
11.5502838749
 30
0.0
 10
14.5968616868
 20
11.5006435852
 30
0.0
 10
14.6109622443
 20
11.452241324
 30
0.0
 10
14.6257136406
 20
11.4051363403
 30
0.0
 10
14.6410977948
 20
11.3593862726
 30
0.0
 10
14.6570958589
 20
11.3150470799
 30
0.0
 10
14.673688247
 20
11.2721729717
 30
0.0
 10
14.6908546634
 20
11.2308163412
 30
0.0
 10
14.7085741327
 20
11.1910276986
 30
0.0
 10
14.7268250328
 20
11.1528556089
 30
0.0
 10
14.7455851307
 20
11.1163466315
 30
0.0
 10
14.7648316212
 20
11.0815452628
 30
0.0
 10
14.7845411643
 20
11.0484938818
 30
0.0
 10
14.8046899343
 20
11.0172327074
 30
0.0
 10
14.8252536683
 20
10.9877997621
 30
0.0
 10
14.8462077168
 20
10.9602308451
 30
0.0
 10
14.8675270954
 20
10.9345595181
 30
0.0
 10
14.8891865344
 20
10.9108171066
 30
0.0
 10
14.9111605229
 20
10.8890327212
 30
0.0
 10
14.9334233328
 20
10.8692332964
 30
0.0
 10
14.9559490162
 20
10.8514436493
 30
0.0
 10
14.978711364
 20
10.8356865579
 30
0.0
 10
15.0016838094
 20
10.8219828278
 30
0.0
 10
15.0248392369
 20
10.8103513211
 30
0.0
 10
15.0481498468
 20
10.8008089036
 30
0.0
 10
15.071586604
 20
10.7933702651
 30
0.0
 10
15.0951201826
 20
10.7880475979
 30
0.0
 10
15.1187168349
 20
10.7848501236
 30
0.0
 10
15.1344925612
 20
10.7841383436
 30
0.0
 10
15.1423490839
 20
10.7841383359
 30
0.0
  0
SPLINE
  5
2C6
100
AcDbEntity
  8
02___PRT_ALL_AXES
100
AcDbSpline
 62
7
  6
CONTINUOUS
 70
0
 71
3
 72
22
 73
18
 74
0
 42
0.0000001
 43
0.0000001
 44
0.0000000001
 40
0.0
 40
0.0
 40
0.0
 40
0.0
 40
0.0543139465
 40
0.10885322
 40
0.1638397136
 40
0.2194886612
 40
0.2760057988
 40
0.33358504
 40
0.3924067296
 40
0.4526364799
 40
0.5144245449
 40
0.5779056575
 40
0.7103732053
 40
0.7795913428
 40
0.850894066
 40
0.9243459634
 40
1.0
 40
1.0
 40
1.0
 40
1.0
 10
15.8963910176
 20
11.060804993
 30
0.0
 10
15.9015286747
 20
11.0608049944
 30
0.0
 10
15.9118289239
 20
11.0611665353
 30
0.0
 10
15.9272533044
 20
11.0627918278
 30
0.0
 10
15.9426537179
 20
11.065498898
 30
0.0
 10
15.9580170013
 20
11.0692851776
 30
0.0
 10
15.9733314826
 20
11.0741471683
 30
0.0
 10
15.988585377
 20
11.0800805092
 30
0.0
 10
16.0037672705
 20
11.0870800705
 30
0.0
 10
16.0188658024
 20
11.0951399028
 30
0.0
 10
16.0338703523
 20
11.104253681
 30
0.0
 10
16.0540199354
 20
11.1179943875
 30
0.0
 10
16.0736495112
 20
11.1336805357
 30
0.0
 10
16.0927274726
 20
11.1510897658
 30
0.0
 10
16.1070994825
 20
11.1653502035
 30
0.0
 10
16.1213125888
 20
11.1806098836
 30
0.0
 10
16.130538279
 20
11.1912831058
 30
0.0
 10
16.1351239975
 20
11.1967770282
 30
0.0
  0
SPLINE
  5
2C7
100
AcDbEntity
  8
02___PRT_ALL_AXES
100
AcDbSpline
 62
7
  6
CONTINUOUS
 70
0
 71
3
 72
21
 73
17
 74
0
 42
0.0000001
 43
0.0000001
 44
0.0000000001
 40
0.0
 40
0.0
 40
0.0
 40
0.0
 40
0.0507382627
 40
0.1030506267
 40
0.1569534439
 40
0.2124565545
 40
0.2695638282
 40
0.3282736554
 40
0.3885793916
 40
0.4504697576
 40
0.5139292002
 40
0.5789382161
 40
0.645473646
 40
0.7135089357
 40
0.8539511184
 40
1.0
 40
1.0
 40
1.0
 40
1.0
 10
16.151008766
 20
11.215807779
 30
0.0
 10
16.1559538289
 20
11.2217322155
 30
0.0
 10
16.1657711277
 20
11.2339553703
 30
0.0
 10
16.1800630553
 20
11.2530815221
 30
0.0
 10
16.194132928
 20
11.2732616407
 30
0.0
 10
16.2079688338
 20
11.2944785475
 30
0.0
 10
16.221559395
 20
11.3167146396
 30
0.0
 10
16.2348933077
 20
11.3399513363
 30
0.0
 10
16.2479594896
 20
11.3641692499
 30
0.0
 10
16.2607470529
 20
11.3893481539
 30
0.0
 10
16.2732453374
 20
11.4154670181
 30
0.0
 10
16.2854438819
 20
11.4425039969
 30
0.0
 10
16.297332581
 20
11.4704365449
 30
0.0
 10
16.312922356
 20
11.5092534934
 30
0.0
 10
16.3315289182
 20
11.5598776947
 30
0.0
 10
16.3450797089
 20
11.601301303
 30
0.0
 10
16.3516381259
 20
11.6225243482
 30
0.0
  0
SPLINE
  5
2C8
100
AcDbEntity
  8
LAYER_FEATURE
100
AcDbSpline
 62
7
  6
CONTINUOUS
 70
0
 71
3
 72
38
 73
34
 74
0
 42
0.0000001
 43
0.0000001
 44
0.0000000001
 40
0.0
 40
0.0
 40
0.0
 40
0.0
 40
0.0879640716
 40
0.1307307847
 40
0.1726592835
 40
0.2137306933
 40
0.2539278613
 40
0.2932354821
 40
0.331640013
 40
0.3691299341
 40
0.4056958476
 40
0.4413306462
 40
0.4760297484
 40
0.5097912612
 40
0.5426162009
 40
0.5745087936
 40
0.6054767306
 40
0.6355314471
 40
0.6646884872
 40
0.6929678677
 40
0.7203944107
 40
0.7469981459
 40
0.7728147257
 40
0.7978857495
 40
0.8222590824
 40
0.8459891342
 40
0.8691369629
 40
0.8917702321
 40
0.9139630012
 40
0.9357952498
 40
0.9573521255
 40
0.9787229532
 40
1.0
 40
1.0
 40
1.0
 40
1.0
 10
14.6156434608
 20
13.5841182048
 30
0.0
 10
14.6233418872
 20
13.6090303216
 30
0.0
 10
14.6353758778
 20
13.6458762602
 30
0.0
 10
14.6525485792
 20
13.6940913803
 30
0.0
 10
14.6656947503
 20
13.7289790173
 30
0.0
 10
14.6792175044
 20
13.7629037543
 30
0.0
 10
14.6931062595
 20
13.7958389656
 30
0.0
 10
14.7073500281
 20
13.8277586138
 30
0.0
 10
14.7219376077
 20
13.8586375522
 30
0.0
 10
14.7368574831
 20
13.888451448
 30
0.0
 10
14.7520979196
 20
13.9171768113
 30
0.0
 10
14.7676469607
 20
13.9447910084
 30
0.0
 10
14.7834923816
 20
13.9712723142
 30
0.0
 10
14.7996217637
 20
13.9965998944
 30
0.0
 10
14.816022518
 20
14.0207538062
 30
0.0
 10
14.8326818365
 20
14.0437150565
 30
0.0
 10
14.8495867412
 20
14.0654655924
 30
0.0
 10
14.8667241315
 20
14.085988274
 30
0.0
 10
14.8840807542
 20
14.1052669158
 30
0.0
 10
14.9016432037
 20
14.1232863047
 30
0.0
 10
14.9193979875
 20
14.1400321399
 30
0.0
 10
14.9373315136
 20
14.1554910365
 30
0.0
 10
14.955430038
 20
14.1696505815
 30
0.0
 10
14.9736797206
 20
14.1824992496
 30
0.0
 10
14.992066606
 20
14.1940263739
 30
0.0
 10
15.0105765347
 20
14.2042222332
 30
0.0
 10
15.0291951485
 20
14.2130780077
 30
0.0
 10
15.0479078466
 20
14.2205857509
 30
0.0
 10
15.0666997428
 20
14.2267385165
 30
0.0
 10
15.0855554828
 20
14.2315304481
 30
0.0
 10
15.1044598382
 20
14.2349567833
 30
0.0
 10
15.1233956019
 20
14.2370139855
 30
0.0
 10
15.1360420967
 20
14.2374716561
 30
0.0
 10
15.1423490839
 20
14.2374716499
 30
0.0
  0
SPLINE
  5
2C9
100
AcDbEntity
  8
02___PRT_ALL_AXES
100
AcDbSpline
 62
7
  6
CONTINUOUS
 70
0
 71
3
 72
13
 73
9
 74
0
 42
0.0000001
 43
0.0000001
 44
0.0000000001
 40
0.0
 40
0.0
 40
0.0
 40
0.0
 40
0.2614044092
 40
0.5136420021
 40
0.6370568999
 40
0.7590413333
 40
0.8799125912
 40
1.0
 40
1.0
 40
1.0
 40
1.0
 10
15.8478093166
 20
13.3256796113
 30
0.0
 10
15.8525073922
 20
13.3282619877
 30
0.0
 10
15.8619781954
 20
13.3329167792
 30
0.0
 10
15.8742501053
 20
13.3374733657
 30
0.0
 10
15.8840794573
 20
13.3402362507
 30
0.0
 10
15.8914161485
 20
13.3418670925
 30
0.0
 10
15.8987655876
 20
13.343069992
 30
0.0
 10
15.9036833946
 20
13.343587534
 30
0.0
 10
15.9061391398
 20
13.3437740522
 30
0.0
  0
SPLINE
  5
2CA
100
AcDbEntity
  8
02___PRT_ALL_AXES
100
AcDbSpline
 62
7
  6
CONTINUOUS
 70
0
 71
3
 72
32
 73
28
 74
0
 42
0.0000001
 43
0.0000001
 44
0.0000000001
 40
0.0
 40
0.0
 40
0.0
 40
0.0
 40
0.0726686896
 40
0.1459091839
 40
0.2192724541
 40
0.2923079841
 40
0.3645687559
 40
0.435616035
 40
0.5050242969
 40
0.538987278
 40
0.5723896206
 40
0.6051842033
 40
0.6373257638
 40
0.6687711018
 40
0.6994792979
 40
0.7294119511
 40
0.7585334391
 40
0.7868112081
 40
0.8142160964
 40
0.8407227002
 40
0.8663097919
 40
0.8909608075
 40
0.9146643896
 40
0.9374150975
 40
0.9592140043
 40
0.9800699906
 40
1.0
 40
1.0
 40
1.0
 40
1.0
 10
15.5972690689
 20
12.3506288839
 30
0.0
 10
15.5954887312
 20
12.373970586
 30
0.0
 10
15.5927192138
 20
12.4209027384
 30
0.0
 10
15.5909142559
 20
12.4915284121
 30
0.0
 10
15.5914468036
 20
12.5622941333
 30
0.0
 10
15.594313052
 20
12.6326878165
 30
0.0
 10
15.5994920719
 20
12.7022017397
 30
0.0
 10
15.6069461488
 20
12.7703333686
 30
0.0
 10
15.6150659692
 20
12.8259450713
 30
0.0
 10
15.622681359
 20
12.869344594
 30
0.0
 10
15.6288816691
 20
12.9010110392
 30
0.0
 10
15.6356004089
 20
12.9319714239
 30
0.0
 10
15.642825478
 20
12.9621698966
 30
0.0
 10
15.6505437634
 20
12.9915518586
 30
0.0
 10
15.6587412901
 20
13.0200642434
 30
0.0
 10
15.6674032171
 20
13.0476555692
 30
0.0
 10
15.6765138761
 20
13.0742760476
 30
0.0
 10
15.6860568022
 20
13.0998776747
 30
0.0
 10
15.6960147718
 20
13.1244143229
 30
0.0
 10
15.7063698436
 20
13.1478418252
 30
0.0
 10
15.7171034037
 20
13.170118063
 30
0.0
 10
15.7281962138
 20
13.1912030268
 30
0.0
 10
15.739628482
 20
13.2110589372
 30
0.0
 10
15.751379857
 20
13.2296501492
 30
0.0
 10
15.7634297823
 20
13.2469436702
 30
0.0
 10
15.7757565233
 20
13.2629077752
 30
0.0
 10
15.7843371653
 20
13.2728686014
 30
0.0
 10
15.7886716285
 20
13.277604856
 30
0.0
  0
SPLINE
  5
2CB
100
AcDbEntity
  8
02___PRT_ALL_AXES
100
AcDbSpline
 62
7
  6
CONTINUOUS
 70
0
 71
3
 72
10
 73
6
 74
0
 42
0.0000001
 43
0.0000001
 44
0.0000000001
 40
0.0
 40
0.0
 40
0.0
 40
0.0
 40
0.2507316711
 40
0.5009614402
 40
1.0
 40
1.0
 40
1.0
 40
1.0
 10
16.1289841937
 20
11.8826621218
 30
0.0
 10
16.0925931836
 20
11.8839520563
 30
0.0
 10
16.0198916088
 20
11.8867489255
 30
0.0
 10
15.874800985
 20
11.8931293403
 30
0.0
 10
15.7661263496
 20
11.8987299163
 30
0.0
 10
15.693765348
 20
11.902803584
 30
0.0
  0
LINE
  5
2CC
100
AcDbEntity
  8
02___PRT_ALL_AXES
100
AcDbLine
 62
7
  6
CONTINUOUS
 10
15.9275220859
 20
11.6780217069
 11
15.8864095417
 21
11.6810586576
  0
LINE
  5
2CD
100
AcDbEntity
  8
02___PRT_ALL_AXES
100
AcDbLine
 62
7
  6
CONTINUOUS
 10
15.8478093166
 20
13.3256796113
 11
15.7935653439
 21
13.3219179081
  0
SPLINE
  5
2CE
100
AcDbEntity
  8
02___PRT_ALL_AXES
100
AcDbSpline
 62
7
  6
CONTINUOUS
 70
0
 71
3
 72
25
 73
21
 74
0
 42
0.0000001
 43
0.0000001
 44
0.0000000001
 40
0.0
 40
0.0
 40
0.0
 40
0.0
 40
0.0174874982
 40
0.0351615977
 40
0.0532016156
 40
0.0717737573
 40
0.111048812
 40
0.153979299
 40
0.2011934159
 40
0.2530499669
 40
0.3096951794
 40
0.3711113067
 40
0.4371535232
 40
0.5075769705
 40
0.5820566884
 40
0.6602028177
 40
0.7415724222
 40
0.825679941
 40
0.9120044178
 40
1.0
 40
1.0
 40
1.0
 40
1.0
 10
15.9570099614
 20
11.6294804956
 30
0.0
 10
15.9574852358
 20
11.6294804973
 30
0.0
 10
15.9584417192
 20
11.6295346474
 30
0.0
 10
15.9598698724
 20
11.6297777306
 30
0.0
 10
15.9612917706
 20
11.6301819427
 30
0.0
 10
15.9632100148
 20
11.6309481073
 30
0.0
 10
15.9655909504
 20
11.6323346817
 30
0.0
 10
15.9683115184
 20
11.6345832445
 30
0.0
 10
15.9709361888
 20
11.6374258407
 30
0.0
 10
15.9734487307
 20
11.6408401654
 30
0.0
 10
15.9758333698
 20
11.6448013051
 30
0.0
 10
15.9780734105
 20
11.6492802687
 30
0.0
 10
15.9801525479
 20
11.6542439253
 30
0.0
 10
15.9820551882
 20
11.6596551258
 30
0.0
 10
15.9837668561
 20
11.665473028
 30
0.0
 10
15.9852744106
 20
11.6716534614
 30
0.0
 10
15.9865662303
 20
11.6781493161
 30
0.0
 10
15.9876323177
 20
11.6849109668
 30
0.0
 10
15.9884644246
 20
11.691886555
 30
0.0
 10
15.9888559789
 20
11.6966091814
 30
0.0
 10
15.9890122404
 20
11.6989956105
 30
0.0
  0
SPLINE
  5
2CF
100
AcDbEntity
  8
02___PRT_ALL_AXES
100
AcDbSpline
 62
7
  6
CONTINUOUS
 70
0
 71
3
 72
30
 73
26
 74
0
 42
0.0000001
 43
0.0000001
 44
0.0000000001
 40
0.0
 40
0.0
 40
0.0
 40
0.0
 40
0.0155181108
 40
0.0313970685
 40
0.0479683952
 40
0.0655135367
 40
0.0842551315
 40
0.1043578808
 40
0.1259346373
 40
0.1490540973
 40
0.1737484317
 40
0.2000197942
 40
0.2278455406
 40
0.2571822667
 40
0.2879691408
 40
0.3201306316
 40
0.3882040064
 40
0.4605878645
 40
0.536326364
 40
0.6143719367
 40
0.6936173709
 40
0.7729253496
 40
0.8511569912
 40
0.9271998367
 40
1.0
 40
1.0
 40
1.0
 40
1.0
 10
16.1433741126
 20
11.8740212954
 30
0.0
 10
16.1440808439
 20
11.8740212991
 30
0.0
 10
16.145513499
 20
11.8741425317
 30
0.0
 10
16.1476390681
 20
11.8746839729
 30
0.0
 10
16.1497410747
 20
11.8755803475
 30
0.0
 10
16.1518096773
 20
11.8768246825
 30
0.0
 10
16.153837472
 20
11.878409498
 30
0.0
 10
16.1558172988
 20
11.8803269778
 30
0.0
 10
16.1577421167
 20
11.8825686844
 30
0.0
 10
16.1596047794
 20
11.8851252122
 30
0.0
 10
16.1613980858
 20
11.887986009
 30
0.0
 10
16.1631148745
 20
11.8911392842
 30
0.0
 10
16.1647481325
 20
11.8945719932
 30
0.0
 10
16.1662910791
 20
11.8982698454
 30
0.0
 10
16.1677373308
 20
11.9022174029
 30
0.0
 10
16.1695630129
 20
11.9078996883
 30
0.0
 10
16.1715439049
 20
11.9155147078
 30
0.0
 10
16.1734092914
 20
11.9251882461
 30
0.0
 10
16.1747738715
 20
11.9354030805
 30
0.0
 10
16.1756142379
 20
11.9459872793
 30
0.0
 10
16.1759159132
 20
11.9567629614
 30
0.0
 10
16.175673685
 20
11.9675485645
 30
0.0
 10
16.1748917364
 20
11.9781625889
 30
0.0
 10
16.1735835933
 20
11.9884259087
 30
0.0
 10
16.1723430946
 20
11.9950951
 30
0.0
 10
16.1716309674
 20
11.9983332094
 30
0.0
  0
SPLINE
  5
2D0
100
AcDbEntity
  8
LAYER_FEATURE
100
AcDbSpline
 62
7
  6
CONTINUOUS
 70
0
 71
3
 72
24
 73
20
 74
0
 42
0.0000001
 43
0.0000001
 44
0.0000000001
 40
0.0
 40
0.0
 40
0.0
 40
0.0
 40
0.0836660506
 40
0.1647132347
 40
0.2430320439
 40
0.3185262465
 40
0.3911162875
 40
0.4607407346
 40
0.5273589219
 40
0.5909538612
 40
0.6515357236
 40
0.7091459639
 40
0.7638621368
 40
0.8158033792
 40
0.8651363799
 40
0.912081364
 40
0.9569172159
 40
0.9786557944
 40
1.0
 40
1.0
 40
1.0
 40
1.0
 10
15.3258455664
 20
13.4142390763
 30
0.0
 10
15.3313697352
 20
13.4321152932
 30
0.0
 10
15.3427254059
 20
13.4671623201
 30
0.0
 10
15.3609931218
 20
13.5183582533
 30
0.0
 10
15.3801916446
 20
13.5672556424
 30
0.0
 10
15.400277243
 20
13.6137430456
 30
0.0
 10
15.421204379
 20
13.6577151688
 30
0.0
 10
15.4429258133
 20
13.6990725032
 30
0.0
 10
15.4653927744
 20
13.7377216641
 30
0.0
 10
15.4885551779
 20
13.7735755472
 30
0.0
 10
15.5123618932
 20
13.8065534591
 30
0.0
 10
15.5367609841
 20
13.8365811372
 30
0.0
 10
15.5617000881
 20
13.8635907017
 30
0.0
 10
15.5871262701
 20
13.8875202596
 30
0.0
 10
15.6129873351
 20
13.9083139278
 30
0.0
 10
15.6392271705
 20
13.9259195958
 30
0.0
 10
15.6615971481
 20
13.938020424
 30
0.0
 10
15.6795784108
 20
13.9459914916
 30
0.0
 10
15.6885894735
 20
13.9494180279
 30
0.0
 10
15.6930969647
 20
13.9509884327
 30
0.0
  0
SPLINE
  5
2D1
100
AcDbEntity
  8
LAYER_FEATURE
100
AcDbSpline
 62
7
  6
CONTINUOUS
 70
0
 71
3
 72
79
 73
75
 74
0
 42
0.0000001
 43
0.0000001
 44
0.0000000001
 40
0.0
 40
0.0
 40
0.0
 40
0.0
 40
0.0178851782
 40
0.0362409067
 40
0.0550398719
 40
0.0742528641
 40
0.0938492577
 40
0.1137970394
 40
0.1340629964
 40
0.1546128491
 40
0.1754113879
 40
0.1964226034
 40
0.2176098129
 40
0.2389357831
 40
0.2603628511
 40
0.2818530432
 40
0.3033681921
 40
0.3248700545
 40
0.3463204276
 40
0.3676812661
 40
0.3889147996
 40
0.4099836511
 40
0.4308509569
 40
0.4514804889
 40
0.4718367796
 40
0.4918852517
 40
0.5115923513
 40
0.5309256873
 40
0.549854179
 40
0.5683482124
 40
0.5863798098
 40
0.6039228138
 40
0.6209530917
 40
0.6374487621
 40
0.6533904517
 40
0.6687615891
 40
0.6835487457
 40
0.6977420331
 40
0.7113355702
 40
0.7243280361
 40
0.7367233192
 40
0.7485312776
 40
0.7597686154
 40
0.770459866
 40
0.7806384428
 40
0.7903476734
 40
0.7996416626
 40
0.804154371
 40
0.808588729
 40
0.8129546172
 40
0.8172625325
 40
0.8215235275
 40
0.8257491183
 40
0.8299511909
 40
0.8341418785
 40
0.8383334379
 40
0.8425381167
 40
0.846768021
 40
0.8510349891
 40
0.8553504805
 40
0.8597254693
 40
0.8641703724
 40
0.868694976
 40
0.8780164405
 40
0.8877573575
 40
0.8979710449
 40
0.9087000948
 40
0.9199772557
 40
0.9318264712
 40
0.9442639277
 40
0.9572990303
 40
0.9709352729
 40
0.9851709903
 40
1.0
 40
1.0
 40
1.0
 40
1.0
 10
15.269422364
 20
13.5292174739
 30
0.0
 10
15.2632868909
 20
13.5093630756
 30
0.0
 10
15.2513942187
 20
13.4689632928
 30
0.0
 10
15.2348780547
 20
13.4071758186
 30
0.0
 10
15.2194786554
 20
13.3435121478
 30
0.0
 10
15.205228495
 20
13.2781058265
 30
0.0
 10
15.192157413
 20
13.2110935137
 30
0.0
 10
15.1802928532
 20
13.1426153829
 30
0.0
 10
15.1696597114
 20
13.0728146836
 30
0.0
 10
15.1602803108
 20
13.0018374705
 30
0.0
 10
15.1521743404
 20
12.9298322836
 30
0.0
 10
15.1453588169
 20
12.8569498352
 30
0.0
 10
15.1398480492
 20
12.7833426895
 30
0.0
 10
15.1356536081
 20
12.7091649395
 30
0.0
 10
15.1327843011
 20
12.6345718819
 30
0.0
 10
15.131246154
 20
12.5597196897
 30
0.0
 10
15.1310423983
 20
12.4847650824
 30
0.0
 10
15.1321734625
 20
12.4098649962
 30
0.0
 10
15.1346369695
 20
12.3351762519
 30
0.0
 10
15.1384277456
 20
12.2608552241
 30
0.0
 10
15.1435378304
 20
12.187057512
 30
0.0
 10
15.1499564945
 20
12.1139376106
 30
0.0
 10
15.1576702617
 20
12.0416485849
 30
0.0
 10
15.1666629381
 20
11.9703417466
 30
0.0
 10
15.1769156466
 20
11.9001663329
 30
0.0
 10
15.1884068634
 20
11.8312691889
 30
0.0
 10
15.2011124693
 20
11.7637944565
 30
0.0
 10
15.215005802
 20
11.6978832674
 30
0.0
 10
15.2300577156
 20
11.6336734424
 30
0.0
 10
15.2462366458
 20
11.5712991961
 30
0.0
 10
15.2635086822
 20
11.5108908474
 30
0.0
 10
15.2818376495
 20
11.4525745366
 30
0.0
 10
15.3011851912
 20
11.3964719492
 30
0.0
 10
15.3215108692
 20
11.3427000495
 30
0.0
 10
15.342772274
 20
11.2913708262
 30
0.0
 10
15.364925146
 20
11.2425910472
 30
0.0
 10
15.3879235116
 20
11.1964620292
 30
0.0
 10
15.4117198392
 20
11.1530794245
 30
0.0
 10
15.4362652184
 20
11.1125330351
 30
0.0
 10
15.4615095575
 20
11.0749066611
 30
0.0
 10
15.4874018152
 20
11.0402780035
 30
0.0
 10
15.5138902176
 20
11.008718665
 30
0.0
 10
15.5409225832
 20
10.9802942138
 30
0.0
 10
15.5684461523
 20
10.9550645552
 30
0.0
 10
15.5964087667
 20
10.9330838918
 30
0.0
 10
15.6247545173
 20
10.914402771
 30
0.0
 10
15.6488891919
 20
10.9014954743
 30
0.0
 10
15.668285273
 20
10.8929324847
 30
0.0
 10
15.6827461355
 20
10.8874207535
 30
0.0
 10
15.697253882
 20
10.8827608517
 30
0.0
 10
15.7118010944
 20
10.8789554216
 30
0.0
 10
15.7263798308
 20
10.8760067539
 30
0.0
 10
15.7409821986
 20
10.8739167727
 30
0.0
 10
15.7556001586
 20
10.8726866888
 30
0.0
 10
15.7702256496
 20
10.8723173773
 30
0.0
 10
15.7848505631
 20
10.8728090157
 30
0.0
 10
15.7994668018
 20
10.8741613039
 30
0.0
 10
15.8140662929
 20
10.8763734146
 30
0.0
 10
15.8286410403
 20
10.8794438806
 30
0.0
 10
15.8431831177
 20
10.8833709115
 30
0.0
 10
15.8576846499
 20
10.8881519607
 30
0.0
 10
15.8721381847
 20
10.8937844608
 30
0.0
 10
15.8915250926
 20
10.9025103281
 30
0.0
 10
15.9156439678
 20
10.9156200526
 30
0.0
 10
15.943964168
 20
10.9345370398
 30
0.0
 10
15.9718973841
 20
10.9567502055
 30
0.0
 10
15.9993877913
 20
10.9822086579
 30
0.0
 10
16.0263832511
 20
11.0108578403
 30
0.0
 10
16.052831022
 20
11.0426374481
 30
0.0
 10
16.0786789549
 20
11.0774815033
 30
0.0
 10
16.1038752998
 20
11.1153179181
 30
0.0
 10
16.1283691631
 20
11.1560687423
 30
0.0
 10
16.1521101896
 20
11.199648991
 30
0.0
 10
16.1671014784
 20
11.2299197628
 30
0.0
 10
16.1744742636
 20
11.2454924617
 30
0.0
  0
SPLINE
  5
2D2
100
AcDbEntity
  8
LAYER_FEATURE
100
AcDbSpline
 62
7
  6
CONTINUOUS
 70
0
 71
3
 72
58
 73
54
 74
0
 42
0.0000001
 43
0.0000001
 44
0.0000000001
 40
0.0
 40
0.0
 40
0.0
 40
0.0
 40
0.0163583066
 40
0.0330514671
 40
0.0500648586
 40
0.067383511
 40
0.0849915537
 40
0.1028725912
 40
0.1393839942
 40
0.1767770749
 40
0.2149030244
 40
0.2536074776
 40
0.2927317876
 40
0.3321142519
 40
0.371591309
 40
0.4109987213
 40
0.4501727498
 40
0.488951332
 40
0.527175277
 40
0.5646894896
 40
0.601344234
 40
0.6193049133
 40
0.6369977095
 40
0.6544060242
 40
0.6715138628
 40
0.6883058869
 40
0.7047674701
 40
0.7208847584
 40
0.7366447351
 40
0.7520352918
 40
0.7670453063
 40
0.7816647284
 40
0.7958846768
 40
0.809697545
 40
0.823097122
 40
0.8360787281
 40
0.8486393693
 40
0.8607779126
 40
0.8724952844
 40
0.8837946958
 40
0.8946818959
 40
0.9051654519
 40
0.9152570557
 40
0.9249718508
 40
0.9343287667
 40
0.9433508417
 40
0.9520655027
 40
0.9605047595
 40
0.9687052614
 40
0.976708157
 40
0.9845587032
 40
0.9923055923
 40
1.0
 40
1.0
 40
1.0
 40
1.0
 10
15.259772116
 20
13.5841182048
 30
0.0
 10
15.25484061
 20
13.5681598457
 30
0.0
 10
15.2452067611
 20
13.5358135399
 30
0.0
 10
15.2315694896
 20
13.4865434126
 30
0.0
 10
15.2186118443
 20
13.4360771138
 30
0.0
 10
15.2063498126
 20
13.3844768964
 30
0.0
 10
15.1947983317
 20
13.331805626
 30
0.0
 10
15.1802624005
 20
13.259736562
 30
0.0
 10
15.1640050675
 20
13.1674202499
 30
0.0
 10
15.1476675795
 20
13.0541849568
 30
0.0
 10
15.1344489566
 20
12.9382895567
 30
0.0
 10
15.1244143214
 20
12.8203019234
 30
0.0
 10
15.1176131234
 20
12.7007991815
 30
0.0
 10
15.1140788908
 20
12.5803663367
 30
0.0
 10
15.1138290405
 20
12.4595929385
 30
0.0
 10
15.1168647967
 20
12.3390702623
 30
0.0
 10
15.1231711972
 20
12.2193883044
 30
0.0
 10
15.1327171681
 20
12.101132964
 30
0.0
 10
15.1454556692
 20
11.9848827073
 30
0.0
 10
15.1613239292
 20
11.87120716
 30
0.0
 10
15.1771959095
 20
11.7784675367
 30
0.0
 10
15.1914299019
 20
11.7060180182
 30
0.0
 10
15.2027625116
 20
11.6530339587
 30
0.0
 10
15.2148100803
 20
11.6011014203
 30
0.0
 10
15.227557913
 20
11.5502838743
 30
0.0
 10
15.2409903444
 20
11.5006435885
 30
0.0
 10
15.2550909037
 20
11.4522413296
 30
0.0
 10
15.269842299
 20
11.4051363447
 30
0.0
 10
15.2852264501
 20
11.3593862727
 30
0.0
 10
15.3012245112
 20
11.3150470749
 30
0.0
 10
15.3178168978
 20
11.2721729642
 30
0.0
 10
15.3349833156
 20
11.2308163353
 30
0.0
 10
15.3527027875
 20
11.1910276978
 30
0.0
 10
15.3709536904
 20
11.1528556139
 30
0.0
 10
15.3897137899
 20
11.1163466396
 30
0.0
 10
15.408960279
 20
11.0815452688
 30
0.0
 10
15.4286698195
 20
11.0484938821
 30
0.0
 10
15.4488185873
 20
11.0172327013
 30
0.0
 10
15.4693823199
 20
10.9877997524
 30
0.0
 10
15.4903363694
 20
10.9602308374
 30
0.0
 10
15.5116557503
 20
10.934559517
 30
0.0
 10
15.5333151918
 20
10.9108171129
 30
0.0
 10
15.5552891812
 20
10.889032731
 30
0.0
 10
15.5775519895
 20
10.8692333032
 30
0.0
 10
15.6000776713
 20
10.8514436497
 30
0.0
 10
15.6228400178
 20
10.8356865514
 30
0.0
 10
15.6458124626
 20
10.8219828172
 30
0.0
 10
15.6689678907
 20
10.8103513121
 30
0.0
 10
15.6922785022
 20
10.8008089022
 30
0.0
 10
15.7157152603
 20
10.7933702732
 30
0.0
 10
15.7392488385
 20
10.7880476059
 30
0.0
 10
15.7628454901
 20
10.7848501374
 30
0.0
 10
15.7786212163
 20
10.7841383295
 30
0.0
 10
15.786477739
 20
10.784138336
 30
0.0
  0
SPLINE
  5
2D3
100
AcDbEntity
  8
02___PRT_ALL_AXES
100
AcDbSpline
 62
7
  6
CONTINUOUS
 70
0
 71
3
 72
41
 73
37
 74
0
 42
0.0000001
 43
0.0000001
 44
0.0000000001
 40
0.0
 40
0.0
 40
0.0
 40
0.0
 40
0.0475918585
 40
0.0939252206
 40
0.1389535904
 40
0.1826350911
 40
0.2249333175
 40
0.265817819
 40
0.305264781
 40
0.3432577758
 40
0.3797886502
 40
0.4148585598
 40
0.4484791352
 40
0.4806738587
 40
0.5114795915
 40
0.540948268
 40
0.5691487157
 40
0.5828022317
 40
0.5961732104
 40
0.6221200245
 40
0.647123176
 40
0.6713336268
 40
0.6949230659
 40
0.7180812543
 40
0.7410115848
 40
0.7639250415
 40
0.7870331822
 40
0.8105410426
 40
0.8346408922
 40
0.8595075124
 40
0.8852952617
 40
0.8985793907
 40
0.9121417133
 40
0.9401482918
 40
0.9694104952
 40
1.0
 40
1.0
 40
1.0
 40
1.0
 10
15.4798284711
 20
13.3990856376
 30
0.0
 10
15.4844686766
 20
13.414101348
 30
0.0
 10
15.4939719111
 20
13.4436304474
 30
0.0
 10
15.5091115229
 20
13.4869528813
 30
0.0
 10
15.5249253396
 20
13.5286562743
 30
0.0
 10
15.5413871095
 20
13.5686713976
 30
0.0
 10
15.5584696275
 20
13.606932218
 30
0.0
 10
15.5761447217
 20
13.6433755778
 30
0.0
 10
15.5943833092
 20
13.6779414195
 30
0.0
 10
15.6131554911
 20
13.7105728391
 30
0.0
 10
15.6324306395
 20
13.741216181
 30
0.0
 10
15.6521774561
 20
13.7698211084
 30
0.0
 10
15.6723641491
 20
13.7963406523
 30
0.0
 10
15.6929583789
 20
13.8207311492
 30
0.0
 10
15.7139277945
 20
13.8429525335
 30
0.0
 10
15.735238657
 20
13.8629670811
 30
0.0
 10
15.7534483517
 20
13.8779377762
 30
0.0
 10
15.768149568
 20
13.8887361089
 30
0.0
 10
15.782629664
 20
13.8985566194
 30
0.0
 10
15.8008935056
 20
13.9094503491
 30
0.0
 10
15.8232374847
 20
13.920329434
 30
0.0
 10
15.8457524164
 20
13.9288611128
 30
0.0
 10
15.8683991863
 20
13.9350254134
 30
0.0
 10
15.8911371458
 20
13.9388070028
 30
0.0
 10
15.9139231674
 20
13.9401956754
 30
0.0
 10
15.9367127477
 20
13.9391875651
 30
0.0
 10
15.9594612691
 20
13.9357854758
 30
0.0
 10
15.982125306
 20
13.9299986845
 30
0.0
 10
16.0046638269
 20
13.9218417546
 30
0.0
 10
16.0270373325
 20
13.9113340817
 30
0.0
 10
16.0453326383
 20
13.9007422109
 30
0.0
 10
16.0598392507
 20
13.8911613254
 30
0.0
 10
16.07456669
 20
13.8806081848
 30
0.0
 10
16.0928141828
 20
13.8659403519
 30
0.0
 10
16.1141758064
 20
13.8462799557
 30
0.0
 10
16.1278821979
 20
13.8320210798
 30
0.0
 10
16.1346806785
 20
13.824549577
 30
0.0
  0
SPLINE
  5
2D4
100
AcDbEntity
  8
02___PRT_ALL_AXES
100
AcDbSpline
 62
7
  6
CONTINUOUS
 70
0
 71
3
 72
14
 73
10
 74
0
 42
0.0000001
 43
0.0000001
 44
0.0000000001
 40
0.0
 40
0.0
 40
0.0
 40
0.0
 40
0.1179235004
 40
0.2360731775
 40
0.3554157797
 40
0.4768825778
 40
0.6013453456
 40
0.729596689
 40
1.0
 40
1.0
 40
1.0
 40
1.0
 10
15.9061391398
 20
13.3437740522
 30
0.0
 10
15.9102919572
 20
13.344089466
 30
0.0
 10
15.9186426234
 20
13.3443118725
 30
0.0
 10
15.9311814195
 20
13.3434006816
 30
0.0
 10
15.9436950474
 20
13.3412466505
 30
0.0
 10
15.9561608334
 20
13.3378547978
 30
0.0
 10
15.9685604164
 20
13.3332317308
 30
0.0
 10
15.9852668109
 20
13.3253029947
 30
0.0
 10
15.9972075176
 20
13.3177090302
 30
0.0
 10
16.0049066364
 20
13.3120587084
 30
0.0
  0
SPLINE
  5
2D5
100
AcDbEntity
  8
02___PRT_ALL_AXES
100
AcDbSpline
 62
7
  6
CONTINUOUS
 70
0
 71
3
 72
36
 73
32
 74
0
 42
0.0000001
 43
0.0000001
 44
0.0000000001
 40
0.0
 40
0.0
 40
0.0
 40
0.0
 40
0.0879645476
 40
0.1726570892
 40
0.2539222804
 40
0.2932301908
 40
0.3316350135
 40
0.369125214
 40
0.4056913952
 40
0.4413264661
 40
0.4760258292
 40
0.5097875879
 40
0.5426127762
 40
0.5745056117
 40
0.6054737753
 40
0.6355287154
 40
0.6646859797
 40
0.6929655694
 40
0.7203923133
 40
0.7469962531
 40
0.7728130268
 40
0.7978842333
 40
0.8222577514
 40
0.8459879834
 40
0.8691359822
 40
0.8917694206
 40
0.9139623584
 40
0.9357947694
 40
0.9573518053
 40
0.9787227938
 40
1.0
 40
1.0
 40
1.0
 40
1.0
 10
15.454080311
 20
13.4121394469
 30
0.0
 10
15.4605451924
 20
13.4330598106
 30
0.0
 10
15.4738916644
 20
13.4739236553
 30
0.0
 10
15.495607354
 20
13.5332971824
 30
0.0
 10
15.5149652684
 20
13.5805999418
 30
0.0
 10
15.5310925331
 20
13.6167409096
 30
0.0
 10
15.5433427797
 20
13.6426721189
 30
0.0
 10
15.5558720034
 20
13.6677088699
 30
0.0
 10
15.5686704503
 20
13.6918315203
 30
0.0
 10
15.5817280349
 20
13.7150210518
 30
0.0
 10
15.5950345167
 20
13.7372592154
 30
0.0
 10
15.6085794685
 20
13.7585285099
 30
0.0
 10
15.6223522992
 20
13.7788122028
 30
0.0
 10
15.6363422629
 20
13.7980943379
 30
0.0
 10
15.6505384725
 20
13.8163597442
 30
0.0
 10
15.6649299117
 20
13.833594041
 30
0.0
 10
15.679505447
 20
13.8497836412
 30
0.0
 10
15.6942538388
 20
13.8649157509
 30
0.0
 10
15.7091637499
 20
13.8789783664
 30
0.0
 10
15.7242237502
 20
13.8919602672
 30
0.0
 10
15.7394223176
 20
13.9038510065
 30
0.0
 10
15.75474783
 20
13.9146409009
 30
0.0
 10
15.7701885501
 20
13.9243210213
 30
0.0
 10
15.7857325994
 20
13.9328831881
 30
0.0
 10
15.8013679266
 20
13.9403199773
 30
0.0
 10
15.8170822577
 20
13.9466247415
 30
0.0
 10
15.8328630937
 20
13.9517916513
 30
0.0
 10
15.8486975495
 20
13.9558157581
 30
0.0
 10
15.8645728296
 20
13.9586930747
 30
0.0
 10
15.8804744828
 20
13.9604206675
 30
0.0
 10
15.8910946095
 20
13.9608049914
 30
0.0
 10
15.8963910176
 20
13.9608049928
 30
0.0
  0
SPLINE
  5
2D6
100
AcDbEntity
  8
LAYER_FEATURE
100
AcDbSpline
 62
7
  6
CONTINUOUS
 70
0
 71
3
 72
52
 73
48
 74
0
 42
0.0000001
 43
0.0000001
 44
0.0000000001
 40
0.0
 40
0.0
 40
0.0
 40
0.0
 40
0.0079087572
 40
0.0160274296
 40
0.0243883317
 40
0.0330200545
 40
0.0419474712
 40
0.0511918526
 40
0.0607710577
 40
0.0706997643
 40
0.0809897169
 40
0.0916499816
 40
0.102687191
 40
0.1141057703
 40
0.1259081451
 40
0.1380949247
 40
0.1506650726
 40
0.1636160581
 40
0.1769439888
 40
0.1906437286
 40
0.2047089984
 40
0.2191324707
 40
0.2339058561
 40
0.2490199776
 40
0.2644648382
 40
0.2802296797
 40
0.2963030387
 40
0.312672801
 40
0.3462489451
 40
0.3808511693
 40
0.4163635634
 40
0.4526637272
 40
0.489623834
 40
0.527111644
 40
0.5649914703
 40
0.6031250998
 40
0.6413727074
 40
0.6795937458
 40
0.717647837
 40
0.7553956584
 40
0.7926998447
 40
0.8294259011
 40
0.8654431383
 40
0.9006256617
 40
0.9348533847
 40
0.9680131224
 40
1.0
 40
1.0
 40
1.0
 40
1.0
 10
15.6930969648
 20
11.0706215563
 30
0.0
 10
15.686871231
 20
11.0727905921
 30
0.0
 10
15.6744208882
 20
11.0776784437
 30
0.0
 10
15.656076296
 20
11.0864790584
 30
0.0
 10
15.6378600704
 20
11.0968241994
 30
0.0
 10
15.6197928882
 20
11.1087007687
 30
0.0
 10
15.6018931057
 20
11.1220949967
 30
0.0
 10
15.5841793653
 20
11.1369916109
 30
0.0
 10
15.5666699597
 20
11.1533740398
 30
0.0
 10
15.5493830698
 20
11.1712243067
 30
0.0
 10
15.5323367018
 20
11.1905229964
 30
0.0
 10
15.5155487096
 20
11.2112492396
 30
0.0
 10
15.4990367675
 20
11.2333807003
 30
0.0
 10
15.4828183442
 20
11.2568935695
 30
0.0
 10
15.4669106765
 20
11.281762567
 30
0.0
 10
15.4513307242
 20
11.3079609426
 30
0.0
 10
15.43609515
 20
11.3354605032
 30
0.0
 10
15.4212202937
 20
11.3642316426
 30
0.0
 10
15.4067221434
 20
11.3942433695
 30
0.0
 10
15.3926163149
 20
11.4254633371
 30
0.0
 10
15.3789180161
 20
11.4578578697
 30
0.0
 10
15.3656420301
 20
11.4913920023
 30
0.0
 10
15.352802701
 20
11.5260295256
 30
0.0
 10
15.3404139145
 20
11.5617330236
 30
0.0
 10
15.3284890737
 20
11.5984639249
 30
0.0
 10
15.3170411113
 20
11.6361824975
 30
0.0
 10
15.3060823325
 20
11.6748480546
 30
0.0
 10
15.2920204711
 20
11.7280575598
 30
0.0
 10
15.2757852042
 20
11.7966564421
 30
0.0
 10
15.2585915342
 20
11.8813798764
 30
0.0
 10
15.2436002037
 20
11.9688249324
 30
0.0
 10
15.2308764378
 20
12.0586132064
 30
0.0
 10
15.2204755544
 20
12.1503569692
 30
0.0
 10
15.2124427803
 20
12.2436595896
 30
0.0
 10
15.2068130945
 20
12.338117659
 30
0.0
 10
15.2036109632
 20
12.4333226651
 30
0.0
 10
15.2028503314
 20
12.5288628211
 30
0.0
 10
15.2045345199
 20
12.6243248674
 30
0.0
 10
15.2086561727
 20
12.7192958879
 30
0.0
 10
15.2151973862
 20
12.8133651206
 30
0.0
 10
15.2241296816
 20
12.9061257714
 30
0.0
 10
15.2354141939
 20
12.9971767873
 30
0.0
 10
15.2490018757
 20
13.0861246838
 30
0.0
 10
15.2648335769
 20
13.172585092
 30
0.0
 10
15.2828406434
 20
13.2561851709
 30
0.0
 10
15.3029444301
 20
13.3365628137
 30
0.0
 10
15.3179729901
 20
13.3887634101
 30
0.0
 10
15.3258455664
 20
13.4142390763
 30
0.0
  0
SPLINE
  5
2D7
100
AcDbEntity
  8
02___PRT_ALL_AXES
100
AcDbSpline
 62
7
  6
CONTINUOUS
 70
0
 71
3
 72
52
 73
48
 74
0
 42
0.0000001
 43
0.0000001
 44
0.0000000001
 40
0.0
 40
0.0
 40
0.0
 40
0.0
 40
0.0079087572
 40
0.0160274296
 40
0.0243883317
 40
0.0330200545
 40
0.0419474712
 40
0.0511918526
 40
0.0607710577
 40
0.0706997643
 40
0.0809897169
 40
0.0916499816
 40
0.102687191
 40
0.1141057703
 40
0.1259081451
 40
0.1380949247
 40
0.1506650726
 40
0.1636160581
 40
0.1769439888
 40
0.1906437286
 40
0.2047089984
 40
0.2191324707
 40
0.2339058561
 40
0.2490199776
 40
0.2644648382
 40
0.2802296797
 40
0.2963030387
 40
0.312672801
 40
0.3462489451
 40
0.3808511693
 40
0.4163635634
 40
0.4526637272
 40
0.489623834
 40
0.527111644
 40
0.5649914703
 40
0.6031250998
 40
0.6413727074
 40
0.6795937458
 40
0.717647837
 40
0.7553956584
 40
0.7926998447
 40
0.8294259011
 40
0.8654431383
 40
0.9006256617
 40
0.9348533847
 40
0.9680131224
 40
1.0
 40
1.0
 40
1.0
 40
1.0
 10
15.7043476056
 20
11.0667018614
 30
0.0
 10
15.6981049275
 20
11.0688768006
 30
0.0
 10
15.685620699
 20
11.0737779553
 30
0.0
 10
15.667226179
 20
11.0826025223
 30
0.0
 10
15.648960375
 20
11.0929758193
 30
0.0
 10
15.63084402
 20
11.1048847126
 30
0.0
 10
15.6128955203
 20
11.1183153952
 30
0.0
 10
15.595133569
 20
11.1332525529
 30
0.0
 10
15.5775765087
 20
11.1496795693
 30
0.0
 10
15.5602425697
 20
11.1675784187
 30
0.0
 10
15.5431498073
 20
11.1869296329
 30
0.0
 10
15.5263161237
 20
11.207712286
 30
0.0
 10
15.5097592417
 20
11.2299039811
 30
0.0
 10
15.4934966773
 20
11.2534808444
 30
0.0
 10
15.4775457143
 20
11.2784175269
 30
0.0
 10
15.4619233586
 20
11.3046872057
 30
0.0
 10
15.4466463182
 20
11.3322616109
 30
0.0
 10
15.4317309776
 20
11.3611110556
 30
0.0
 10
15.4171933683
 20
11.3912044643
 30
0.0
 10
15.4030491484
 20
11.4225094022
 30
0.0
 10
15.3893135674
 20
11.4549921019
 30
0.0
 10
15.3760014487
 20
11.4886175031
 30
0.0
 10
15.3631271753
 20
11.523349298
 30
0.0
 10
15.3507046707
 20
11.559149969
 30
0.0
 10
15.3387473745
 20
11.5959808394
 30
0.0
 10
15.3272682545
 20
11.6338020693
 30
0.0
 10
15.3162796496
 20
11.672572861
 30
0.0
 10
15.3021795165
 20
11.7259271845
 30
0.0
 10
15.2859000627
 20
11.79471277
 30
0.0
 10
15.2686595974
 20
11.8796667929
 30
0.0
 10
15.2536274655
 20
11.967349845
 30
0.0
 10
15.2408690698
 20
12.0573824925
 30
0.0
 10
15.2304398787
 20
12.1493759509
 30
0.0
 10
15.2223852421
 20
12.2429325097
 30
0.0
 10
15.2167402341
 20
12.3376476622
 30
0.0
 10
15.2135293878
 20
12.4331117843
 30
0.0
 10
15.2127666857
 20
12.5289119684
 30
0.0
 10
15.2144554581
 20
12.6246338303
 30
0.0
 10
15.2185883286
 20
12.71986333
 30
0.0
 10
15.2251473451
 20
12.8141885875
 30
0.0
 10
15.2341039511
 20
12.9072017016
 30
0.0
 10
15.2454191761
 20
12.9985005277
 30
0.0
 10
15.259043839
 20
13.0876905105
 30
0.0
 10
15.2749186288
 20
13.1743862348
 30
0.0
 10
15.2929747045
 20
13.258213845
 30
0.0
 10
15.3131332069
 20
13.3388102487
 30
0.0
 10
15.3282026696
 20
13.3911529176
 30
0.0
 10
15.3360966724
 20
13.41669792
 30
0.0
  0
SPLINE
  5
2D8
100
AcDbEntity
  8
02___PRT_ALL_AXES
100
AcDbSpline
 62
7
  6
CONTINUOUS
 70
0
 71
3
 72
29
 73
25
 74
0
 42
0.0000001
 43
0.0000001
 44
0.0000000001
 40
0.0
 40
0.0
 40
0.0
 40
0.0
 40
0.0842945203
 40
0.1683854093
 40
0.2515230182
 40
0.3329677359
 40
0.4120089707
 40
0.4879753137
 40
0.5602489565
 40
0.6282812682
 40
0.6916116496
 40
0.7498916831
 40
0.7770753382
 40
0.8029350801
 40
0.8274761281
 40
0.8507194475
 40
0.8727050785
 40
0.8934944063
 40
0.9131739867
 40
0.931858573
 40
0.9496932319
 40
0.9668544688
 40
0.9835474405
 40
1.0
 40
1.0
 40
1.0
 40
1.0
 10
16.0626468795
 20
13.253850216
 30
0.0
 10
16.0627309173
 20
13.2567051091
 30
0.0
 10
16.062784039
 20
13.262412026
 30
0.0
 10
16.0625228975
 20
13.2709324902
 30
0.0
 10
16.0619239304
 20
13.2793393079
 30
0.0
 10
16.0609934943
 20
13.2875438616
 30
0.0
 10
16.0597415404
 20
13.2954598711
 30
0.0
 10
16.0581814061
 20
13.3030042531
 30
0.0
 10
16.0563297032
 20
13.310098001
 30
0.0
 10
16.0542059977
 20
13.316667388
 30
0.0
 10
16.0518326388
 20
13.322643942
 30
0.0
 10
16.0496182489
 20
13.3271805502
 30
0.0
 10
16.047730127
 20
13.3304474483
 30
0.0
 10
16.0463007081
 20
13.3326551196
 30
0.0
 10
16.0448287689
 20
13.3346717782
 30
0.0
 10
16.0433178872
 20
13.3364921538
 30
0.0
 10
16.0417718372
 20
13.3381115206
 30
0.0
 10
16.040194292
 20
13.3395255375
 30
0.0
 10
16.0385889932
 20
13.3407302942
 30
0.0
 10
16.0369597365
 20
13.3417222527
 30
0.0
 10
16.0353104586
 20
13.3424980649
 30
0.0
 10
16.0336453588
 20
13.3430548417
 30
0.0
 10
16.0319695651
 20
13.343390048
 30
0.0
 10
16.0308451268
 20
13.3434648531
 30
0.0
 10
16.030287669
 20
13.34346485
 30
0.0
  0
SPLINE
  5
2D9
100
AcDbEntity
  8
LAYER_FEATURE
100
AcDbSpline
 62
7
  6
CONTINUOUS
 70
0
 71
3
 72
11
 73
7
 74
0
 42
0.0000001
 43
0.0000001
 44
0.0000000001
 40
0.0
 40
0.0
 40
0.0
 40
0.0
 40
0.2143563533
 40
0.4516990029
 40
0.7134695137
 40
1.0
 40
1.0
 40
1.0
 40
1.0
 10
14.6445369078
 20
13.1476231887
 30
0.0
 10
14.645293387
 20
13.1482067304
 30
0.0
 10
14.6467826909
 20
13.1495747075
 30
0.0
 10
14.6488219908
 20
13.152023644
 30
0.0
 10
14.6507606287
 20
13.1549465309
 30
0.0
 10
14.6519239736
 20
13.157099278
 30
0.0
 10
14.6524898356
 20
13.1582441502
 30
0.0
  0
SPLINE
  5
2DA
100
AcDbEntity
  8
LAYER_FEATURE
100
AcDbSpline
 62
7
  6
CONTINUOUS
 70
0
 71
3
 72
16
 73
12
 74
0
 42
0.0000001
 43
0.0000001
 44
0.0000000001
 40
0.0
 40
0.0
 40
0.0
 40
0.0
 40
0.0386809073
 40
0.0783982028
 40
0.1643481123
 40
0.2636793149
 40
0.3791768102
 40
0.5115933316
 40
0.6603261751
 40
0.8238477145
 40
1.0
 40
1.0
 40
1.0
 40
1.0
 10
14.620753401
 20
13.1476467187
 30
0.0
 10
14.6206408535
 20
13.1476467161
 30
0.0
 10
14.6204122271
 20
13.1476258212
 30
0.0
 10
14.6199490981
 20
13.1474983367
 30
0.0
 10
14.6193721914
 20
13.147167278
 30
0.0
 10
14.618741118
 20
13.1465522564
 30
0.0
 10
14.6181540871
 20
13.145724829
 30
0.0
 10
14.6176191722
 20
13.1446991612
 30
0.0
 10
14.6171448228
 20
13.1434933261
 30
0.0
 10
14.6167399763
 20
13.1421296483
 30
0.0
 10
14.6165284188
 20
13.1411633068
 30
0.0
 10
14.6164345074
 20
13.1406594443
 30
0.0
  0
SPLINE
  5
2DB
100
AcDbEntity
  8
02___PRT_ALL_AXES
100
AcDbSpline
 62
7
  6
CONTINUOUS
 70
0
 71
3
 72
72
 73
68
 74
0
 42
0.0000001
 43
0.0000001
 44
0.0000000001
 40
0.0
 40
0.0
 40
0.0
 40
0.0
 40
0.0175786947
 40
0.0355779247
 40
0.0539759365
 40
0.0727496343
 40
0.0918748119
 40
0.1113262373
 40
0.1310777484
 40
0.1511023546
 40
0.1713723236
 40
0.1918592711
 40
0.2333663522
 40
0.275388148
 40
0.3176824536
 40
0.3600043354
 40
0.4021085853
 40
0.4437521704
 40
0.4643272163
 40
0.4846982277
 40
0.5048365542
 40
0.5247141604
 40
0.5443037116
 40
0.5635786609
 40
0.5825133475
 40
0.6010830893
 40
0.6192642919
 40
0.6370345588
 40
0.6543728106
 40
0.6712594221
 40
0.687676362
 40
0.7036073619
 40
0.7190380962
 40
0.7339563901
 40
0.7483524633
 40
0.7622191987
 40
0.7755524694
 40
0.7883515044
 40
0.8006193202
 40
0.8123632206
 40
0.8235953549
 40
0.8343333566
 40
0.8446010167
 40
0.8544289796
 40
0.8638553851
 40
0.8729263514
 40
0.8816961722
 40
0.8859885878
 40
0.8902296676
 40
0.8944282706
 40
0.8985936003
 40
0.9027351402
 40
0.906862578
 40
0.9109857254
 40
0.9151144316
 40
0.9192584971
 40
0.9234275879
 40
0.9276311551
 40
0.9318783612
 40
0.9405360183
 40
0.9494686654
 40
0.9587341052
 40
0.9635084014
 40
0.9683838287
 40
0.9784557791
 40
0.9889856053
 40
1.0
 40
1.0
 40
1.0
 40
1.0
 10
15.4798284711
 20
13.3990856376
 30
0.0
 10
15.4750017682
 20
13.3834664213
 30
0.0
 10
15.4656154922
 20
13.3517348904
 30
0.0
 10
15.4524759536
 20
13.3032840177
 30
0.0
 10
15.4401265153
 20
13.2534799422
 30
0.0
 10
15.4285883998
 20
13.2024079295
 30
0.0
 10
15.4178813097
 20
13.1501550185
 30
0.0
 10
15.408023582
 20
13.0968103964
 30
0.0
 10
15.3990320655
 20
13.0424650833
 30
0.0
 10
15.3909221801
 20
12.9872118919
 30
0.0
 10
15.3837077158
 20
12.9311449673
 30
0.0
 10
15.3752628014
 20
12.8551046785
 30
0.0
 10
15.3670499825
 20
12.7587004333
 30
0.0
 10
15.3609636726
 20
12.6418244438
 30
0.0
 10
15.3586463307
 20
12.5240548101
 30
0.0
 10
15.3601138135
 20
12.4061948774
 30
0.0
 10
15.3653561124
 20
12.2890485952
 30
0.0
 10
15.3728698225
 20
12.1923011348
 30
0.0
 10
15.380760997
 20
12.1158969727
 30
0.0
 10
15.3875689753
 20
12.0594955706
 30
0.0
 10
15.3952781189
 20
12.0038650528
 30
0.0
 10
15.4038753159
 20
11.9491002134
 30
0.0
 10
15.4133458249
 20
11.8952945857
 30
0.0
 10
15.4236734549
 20
11.8425399923
 30
0.0
 10
15.4348405236
 20
11.7909264579
 30
0.0
 10
15.4468279369
 20
11.7405420376
 30
0.0
 10
15.4596151925
 20
11.6914726651
 30
0.0
 10
15.4731804275
 20
11.6438020016
 30
0.0
 10
15.4875004737
 20
11.5976112926
 30
0.0
 10
15.5025508687
 20
11.5529792172
 30
0.0
 10
15.518305947
 20
11.5099817586
 30
0.0
 10
15.5347388561
 20
11.4686920605
 30
0.0
 10
15.5518216344
 20
11.4291803015
 30
0.0
 10
15.5695252807
 20
11.3915135745
 30
0.0
 10
15.587819796
 20
11.3557557585
 30
0.0
 10
15.6066743081
 20
11.3219674282
 30
0.0
 10
15.6260571133
 20
11.2902057407
 30
0.0
 10
15.6459358078
 20
11.2605243695
 30
0.0
 10
15.6662773882
 20
11.2329734491
 30
0.0
 10
15.6870483423
 20
11.2075995375
 30
0.0
 10
15.7082148091
 20
11.1844456657
 30
0.0
 10
15.7297425991
 20
11.1635513814
 30
0.0
 10
15.7515973475
 20
11.1449529042
 30
0.0
 10
15.7737442113
 20
11.1286833609
 30
0.0
 10
15.7961484735
 20
11.1147727963
 30
0.0
 10
15.8187723434
 20
11.1032490199
 30
0.0
 10
15.837918007
 20
11.0955999412
 30
0.0
 10
15.8532628295
 20
11.0907354202
 30
0.0
 10
15.8647184952
 20
11.0877200869
 30
0.0
 10
15.8761966346
 20
11.0853140305
 30
0.0
 10
15.8876924452
 20
11.0835182923
 30
0.0
 10
15.8992007621
 20
11.0823337932
 30
0.0
 10
15.9107164752
 20
11.081761117
 30
0.0
 10
15.9222344336
 20
11.0818005662
 30
0.0
 10
15.9337494788
 20
11.0824521094
 30
0.0
 10
15.9452564848
 20
11.0837154254
 30
0.0
 10
15.9567502529
 20
11.0855898491
 30
0.0
 10
15.9682259681
 20
11.0880746049
 30
0.0
 10
15.9835915893
 20
11.0922251396
 30
0.0
 10
16.0027801899
 20
11.0989820451
 30
0.0
 10
16.0254881539
 20
11.109458275
 30
0.0
 10
16.0440558855
 20
11.1200802438
 30
0.0
 10
16.0587765543
 20
11.1297170138
 30
0.0
 10
16.0737242439
 20
11.1403522489
 30
0.0
 10
16.0922435976
 20
11.1551668117
 30
0.0
 10
16.1139169179
 20
11.1750643603
 30
0.0
 10
16.1278158519
 20
11.1895148272
 30
0.0
 10
16.1347090842
 20
11.1970916266
 30
0.0
  0
SPLINE
  5
2DC
100
AcDbEntity
  8
LAYER_FEATURE
100
AcDbSpline
 62
7
  6
CONTINUOUS
 70
0
 71
3
 72
16
 73
12
 74
0
 42
0.0000001
 43
0.0000001
 44
0.0000000001
 40
0.0
 40
0.0
 40
0.0
 40
0.0
 40
0.0405213235
 40
0.0819323052
 40
0.1703890048
 40
0.2706761806
 40
0.385689778
 40
0.5165888789
 40
0.663310308
 40
0.8249534988
 40
1.0
 40
1.0
 40
1.0
 40
1.0
 10
14.6516094958
 20
13.3094884426
 30
0.0
 10
14.6515082657
 20
13.3094884408
 30
0.0
 10
14.6513032006
 20
13.30947159
 30
0.0
 10
14.6508884379
 20
13.309369167
 30
0.0
 10
14.650369409
 20
13.3091036791
 30
0.0
 10
14.6497920075
 20
13.3086034526
 30
0.0
 10
14.6492480566
 20
13.3079264637
 30
0.0
 10
14.6487433409
 20
13.3070826581
 30
0.0
 10
14.6482840251
 20
13.3060841584
 30
0.0
 10
14.6478769493
 20
13.3049458648
 30
0.0
 10
14.6476526141
 20
13.3041344206
 30
0.0
 10
14.6475492007
 20
13.3037095243
 30
0.0
  0
SPLINE
  5
2DD
100
AcDbEntity
  8
LAYER_FEATURE
100
AcDbSpline
 62
7
  6
CONTINUOUS
 70
0
 71
3
 72
15
 73
11
 74
0
 42
0.0000001
 43
0.0000001
 44
0.0000000001
 40
0.0
 40
0.0
 40
0.0
 40
0.0
 40
0.085851709
 40
0.1774225667
 40
0.2792248012
 40
0.3941414306
 40
0.5236377513
 40
0.6681055709
 40
0.8272097206
 40
1.0
 40
1.0
 40
1.0
 40
1.0
 10
14.6893280372
 20
13.4614408498
 30
0.0
 10
14.689146998
 20
13.4614408379
 30
0.0
 10
14.688770973
 20
13.4613845857
 30
0.0
 10
14.6882290317
 20
13.4611396562
 30
0.0
 10
14.687708116
 20
13.4607434213
 30
0.0
 10
14.687212061
 20
13.4602037947
 30
0.0
 10
14.6867443736
 20
13.4595277022
 30
0.0
 10
14.6863095579
 20
13.4587229507
 30
0.0
 10
14.6859125545
 20
13.4577990357
 30
0.0
 10
14.6856849805
 20
13.4571364966
 30
0.0
 10
14.6855774012
 20
13.4567883697
 30
0.0
  0
SPLINE
  5
2DE
100
AcDbEntity
  8
02___PRT_ALL_AXES
100
AcDbSpline
 62
7
  6
CONTINUOUS
 70
0
 71
3
 72
56
 73
52
 74
0
 42
0.0000001
 43
0.0000001
 44
0.0000000001
 40
0.0
 40
0.0
 40
0.0
 40
0.0
 40
0.0163584103
 40
0.0330515178
 40
0.050064995
 40
0.067383675
 40
0.1028715844
 40
0.1393830802
 40
0.176776254
 40
0.214902299
 40
0.2536068496
 40
0.2927312582
 40
0.3321138212
 40
0.3715909774
 40
0.4109984887
 40
0.4501726155
 40
0.4889512947
 40
0.5271753363
 40
0.5646896435
 40
0.601344479
 40
0.6369967972
 40
0.6544051559
 40
0.6715130378
 40
0.6883051044
 40
0.7047667294
 40
0.7208840582
 40
0.7366440737
 40
0.7520346681
 40
0.7670447198
 40
0.7816641792
 40
0.7958841643
 40
0.8096970677
 40
0.8230966784
 40
0.8360783169
 40
0.8486389894
 40
0.8607775626
 40
0.872494963
 40
0.8837944026
 40
0.8946816307
 40
0.905165214
 40
0.9152568439
 40
0.9249716631
 40
0.9343286019
 40
0.943350699
 40
0.9520653816
 40
0.9605046596
 40
0.9687051822
 40
0.9767080981
 40
0.9845586642
 40
0.9923055729
 40
1.0
 40
1.0
 40
1.0
 40
1.0
 10
15.454080311
 20
13.4121394469
 30
0.0
 10
15.4499389726
 20
13.3987380709
 30
0.0
 10
15.4418487695
 20
13.3715746918
 30
0.0
 10
15.4303966481
 20
13.330199204
 30
0.0
 10
15.419515171
 20
13.2878191953
 30
0.0
 10
15.4056734827
 20
13.2295706738
 30
0.0
 10
15.3899294305
 20
13.1546033554
 30
0.0
 10
15.3736581813
 20
13.0622101938
 30
0.0
 10
15.3599384676
 20
12.9671181468
 30
0.0
 10
15.3488378875
 20
12.8697930343
 30
0.0
 10
15.340411117
 20
12.7707107071
 30
0.0
 10
15.334699691
 20
12.6703561004
 30
0.0
 10
15.3317317539
 20
12.5692204061
 30
0.0
 10
15.3315219323
 20
12.4677987317
 30
0.0
 10
15.3340712669
 20
12.3665876001
 30
0.0
 10
15.3393671833
 20
12.266082494
 30
0.0
 10
15.3473835899
 20
12.1667753561
 30
0.0
 10
15.3580809754
 20
12.0691522412
 30
0.0
 10
15.3714066379
 20
11.9736904937
 30
0.0
 10
15.3872949334
 20
11.880857764
 30
0.0
 10
15.4027254703
 20
11.8054776509
 30
0.0
 10
15.4163225726
 20
11.7468647874
 30
0.0
 10
15.4270278533
 20
11.7041897513
 30
0.0
 10
15.438307969
 20
11.6625034276
 30
0.0
 10
15.4501491753
 20
11.6218567373
 30
0.0
 10
15.4625369288
 20
11.5822994637
 30
0.0
 10
15.4754560537
 20
11.5438800033
 30
0.0
 10
15.4888907208
 20
11.5066453516
 30
0.0
 10
15.5028244827
 20
11.4706410318
 30
0.0
 10
15.5172402954
 20
11.4359110424
 30
0.0
 10
15.5321205449
 20
11.4024978013
 30
0.0
 10
15.5474470751
 20
11.3704420921
 30
0.0
 10
15.5632012131
 20
11.3397830111
 30
0.0
 10
15.5793638056
 20
11.3105579223
 30
0.0
 10
15.5959152539
 20
11.2828024151
 30
0.0
 10
15.6128355514
 20
11.256550267
 30
0.0
 10
15.6301043248
 20
11.2318334112
 30
0.0
 10
15.6477008725
 20
11.2086819099
 30
0.0
 10
15.6656042126
 20
11.1871239452
 30
0.0
 10
15.6837931244
 20
11.1671858218
 30
0.0
 10
15.7022461839
 20
11.1488919845
 30
0.0
 10
15.7209417865
 20
11.132265053
 30
0.0
 10
15.7398581418
 20
11.1173258681
 30
0.0
 10
15.7589732404
 20
11.1040935588
 30
0.0
 10
15.7782647723
 20
11.0925855983
 30
0.0
 10
15.7977099675
 20
11.0828178285
 30
0.0
 10
15.817285481
 20
11.074804414
 30
0.0
 10
15.8369669282
 20
11.0685576864
 30
0.0
 10
15.8567296819
 20
11.0640878765
 30
0.0
 10
15.8765454029
 20
11.0614027379
 30
0.0
 10
15.8897933585
 20
11.0608049913
 30
0.0
 10
15.8963910176
 20
11.060804993
 30
0.0
  0
SPLINE
  5
2DF
100
AcDbEntity
  8
LAYER_FEATURE
100
AcDbSpline
 62
7
  6
CONTINUOUS
 70
0
 71
3
 72
47
 73
43
 74
0
 42
0.0000001
 43
0.0000001
 44
0.0000000001
 40
0.0
 40
0.0
 40
0.0
 40
0.0
 40
0.0461311088
 40
0.0907604286
 40
0.1338233517
 40
0.1752635984
 40
0.2150352446
 40
0.2531037979
 40
0.2894478791
 40
0.3240611564
 40
0.356954672
 40
0.3881596149
 40
0.4177305459
 40
0.4457490225
 40
0.4723274607
 40
0.4976128103
 40
0.5098309204
 40
0.521798098
 40
0.5335433015
 40
0.5450977048
 40
0.5564945388
 40
0.5677688194
 40
0.5789570157
 40
0.5900966614
 40
0.6012258979
 40
0.612383
 40
0.623605888
 40
0.6349316656
 40
0.6463961817
 40
0.6580336738
 40
0.6698764655
 40
0.6819547311
 40
0.7069188991
 40
0.7331298507
 40
0.7607444569
 40
0.7898841857
 40
0.8206386006
 40
0.8530692155
 40
0.8872132295
 40
0.9230868744
 40
0.9606882994
 40
1.0
 40
1.0
 40
1.0
 40
1.0
 10
15.269422364
 20
13.5292174739
 30
0.0
 10
15.2758806469
 20
13.550116485
 30
0.0
 10
15.2891688586
 20
13.5910575559
 30
0.0
 10
15.3105979928
 20
13.6507959428
 30
0.0
 10
15.333152962
 20
13.7077343665
 30
0.0
 10
15.3567784761
 20
13.7617331806
 30
0.0
 10
15.3814169418
 20
13.8126607993
 30
0.0
 10
15.4070085682
 20
13.8603932654
 30
0.0
 10
15.4334916473
 20
13.9048146938
 30
0.0
 10
15.4608028897
 20
13.9458174464
 30
0.0
 10
15.4888777564
 20
13.9833022616
 30
0.0
 10
15.5176509575
 20
14.0171783063
 30
0.0
 10
15.5470563984
 20
14.0473627823
 30
0.0
 10
15.5770288767
 20
14.0737810535
 30
0.0
 10
15.6074990356
 20
14.0963636359
 30
0.0
 10
15.6335485923
 20
14.1121137928
 30
0.0
 10
15.6545203766
 20
14.1226445383
 30
0.0
 10
15.6701445757
 20
14.1294603987
 30
0.0
 10
15.6858320829
 20
14.1352784444
 30
0.0
 10
15.7015735041
 20
14.1400947199
 30
0.0
 10
15.7173588032
 20
14.1439057298
 30
0.0
 10
15.7331779189
 20
14.1467086826
 30
0.0
 10
15.7490206243
 20
14.1485013902
 30
0.0
 10
15.7648765687
 20
14.1492825633
 30
0.0
 10
15.7807353496
 20
14.1490515353
 30
0.0
 10
15.7965865365
 20
14.1478084938
 30
0.0
 10
15.8124197554
 20
14.1455544468
 30
0.0
 10
15.8282246906
 20
14.1422910337
 30
0.0
 10
15.8439912128
 20
14.1380207566
 30
0.0
 10
15.8597092094
 20
14.1327467753
 30
0.0
 10
15.8753691728
 20
14.1264725988
 30
0.0
 10
15.8963870076
 20
14.1166732982
 30
0.0
 10
15.9225153654
 20
14.1018301382
 30
0.0
 10
15.9531097478
 20
14.0803006253
 30
0.0
 10
15.9832247273
 20
14.0549180357
 30
0.0
 10
16.0127906312
 20
14.0257500515
 30
0.0
 10
16.0417422258
 20
13.9928693721
 30
0.0
 10
16.0700133573
 20
13.9563566534
 30
0.0
 10
16.0975385483
 20
13.9163005366
 30
0.0
 10
16.1242530908
 20
13.8727977454
 30
0.0
 10
16.1500928786
 20
13.8259545874
 30
0.0
 10
16.1663390754
 20
13.7932896999
 30
0.0
 10
16.1743196831
 20
13.7764439174
 30
0.0
  0
SPLINE
  5
2E0
100
AcDbEntity
  8
LAYER_FEATURE
100
AcDbSpline
 62
7
  6
CONTINUOUS
 70
0
 71
3
 72
38
 73
34
 74
0
 42
0.0000001
 43
0.0000001
 44
0.0000000001
 40
0.0
 40
0.0
 40
0.0
 40
0.0
 40
0.0879640634
 40
0.1307307799
 40
0.172659289
 40
0.2137306924
 40
0.2539278598
 40
0.2932354833
 40
0.331640014
 40
0.3691299327
 40
0.4056958468
 40
0.4413306484
 40
0.4760297477
 40
0.5097912585
 40
0.5426162034
 40
0.5745087944
 40
0.6054767272
 40
0.6355314481
 40
0.6646884898
 40
0.6929678651
 40
0.7203944086
 40
0.7469981493
 40
0.7728147251
 40
0.7978857457
 40
0.8222590848
 40
0.8459891353
 40
0.8691369599
 40
0.8917702319
 40
0.9139630028
 40
0.9357952488
 40
0.9573521242
 40
0.9787229534
 40
1.0
 40
1.0
 40
1.0
 40
1.0
 10
15.259772116
 20
13.5841182048
 30
0.0
 10
15.2674705416
 20
13.6090303194
 30
0.0
 10
15.2795045312
 20
13.6458762568
 30
0.0
 10
15.2966772348
 20
13.6940913779
 30
0.0
 10
15.3098234038
 20
13.728979018
 30
0.0
 10
15.3233461595
 20
13.7629037554
 30
0.0
 10
15.3372349161
 20
13.7958389647
 30
0.0
 10
15.3514786822
 20
13.8277586147
 30
0.0
 10
15.3660662614
 20
13.8586375534
 30
0.0
 10
15.3809861397
 20
13.888451447
 30
0.0
 10
15.3962265758
 20
13.9171768109
 30
0.0
 10
15.4117756129
 20
13.9447910105
 30
0.0
 10
15.427621037
 20
13.9712723139
 30
0.0
 10
15.4437504225
 20
13.996599892
 30
0.0
 10
15.4601511695
 20
14.0207538093
 30
0.0
 10
15.4768104903
 20
14.0437150579
 30
0.0
 10
15.4937154008
 20
14.0654655885
 30
0.0
 10
15.5108527849
 20
14.0859882758
 30
0.0
 10
15.5282094058
 20
14.1052669199
 30
0.0
 10
15.5457718617
 20
14.1232863014
 30
0.0
 10
15.5635266455
 20
14.1400321365
 30
0.0
 10
15.5814601632
 20
14.1554910439
 30
0.0
 10
15.5995586936
 20
14.1696505811
 30
0.0
 10
15.6178083812
 20
14.1824992407
 30
0.0
 10
15.6361952565
 20
14.1940263821
 30
0.0
 10
15.6547051881
 20
14.2042222378
 30
0.0
 10
15.6733238079
 20
14.2130779972
 30
0.0
 10
15.6920365007
 20
14.2205857528
 30
0.0
 10
15.7108283951
 20
14.2267385276
 30
0.0
 10
15.7296841397
 20
14.2315304416
 30
0.0
 10
15.7485884941
 20
14.2349567719
 30
0.0
 10
15.7675242557
 20
14.237014009
 30
0.0
 10
15.7801707519
 20
14.2374716446
 30
0.0
 10
15.786477739
 20
14.2374716498
 30
0.0
  0
SPLINE
  5
2E1
100
AcDbEntity
  8
02___PRT_ALL_AXES
100
AcDbSpline
 62
7
  6
CONTINUOUS
 70
0
 71
3
 72
56
 73
52
 74
0
 42
0.0000001
 43
0.0000001
 44
0.0000000001
 40
0.0
 40
0.0
 40
0.0
 40
0.0
 40
0.0163584103
 40
0.0330515178
 40
0.050064995
 40
0.067383675
 40
0.1028715844
 40
0.1393830802
 40
0.176776254
 40
0.214902299
 40
0.2536068496
 40
0.2927312582
 40
0.3321138212
 40
0.3715909774
 40
0.4109984887
 40
0.4501726155
 40
0.4889512947
 40
0.5271753363
 40
0.5646896435
 40
0.601344479
 40
0.6369967972
 40
0.6544051559
 40
0.6715130378
 40
0.6883051044
 40
0.7047667294
 40
0.7208840582
 40
0.7366440737
 40
0.7520346681
 40
0.7670447198
 40
0.7816641792
 40
0.7958841643
 40
0.8096970677
 40
0.8230966784
 40
0.8360783169
 40
0.8486389894
 40
0.8607775626
 40
0.872494963
 40
0.8837944026
 40
0.8946816307
 40
0.905165214
 40
0.9152568439
 40
0.9249716631
 40
0.9343286019
 40
0.943350699
 40
0.9520653816
 40
0.9605046596
 40
0.9687051822
 40
0.9767080981
 40
0.9845586642
 40
0.9923055729
 40
1.0
 40
1.0
 40
1.0
 40
1.0
 10
15.3383336461
 20
13.4121394469
 30
0.0
 10
15.3341923077
 20
13.3987380709
 30
0.0
 10
15.3261021046
 20
13.3715746918
 30
0.0
 10
15.3146499832
 20
13.330199204
 30
0.0
 10
15.3037685061
 20
13.2878191953
 30
0.0
 10
15.2899268178
 20
13.2295706738
 30
0.0
 10
15.2741827656
 20
13.1546033554
 30
0.0
 10
15.2579115164
 20
13.0622101938
 30
0.0
 10
15.2441918026
 20
12.9671181468
 30
0.0
 10
15.2330912226
 20
12.8697930343
 30
0.0
 10
15.224664452
 20
12.7707107071
 30
0.0
 10
15.2189530261
 20
12.6703561004
 30
0.0
 10
15.215985089
 20
12.5692204061
 30
0.0
 10
15.2157752674
 20
12.4677987317
 30
0.0
 10
15.218324602
 20
12.3665876001
 30
0.0
 10
15.2236205184
 20
12.266082494
 30
0.0
 10
15.231636925
 20
12.1667753561
 30
0.0
 10
15.2423343105
 20
12.0691522412
 30
0.0
 10
15.255659973
 20
11.9736904937
 30
0.0
 10
15.2715482685
 20
11.880857764
 30
0.0
 10
15.2869788054
 20
11.8054776509
 30
0.0
 10
15.3005759077
 20
11.7468647874
 30
0.0
 10
15.3112811884
 20
11.7041897513
 30
0.0
 10
15.322561304
 20
11.6625034276
 30
0.0
 10
15.3344025104
 20
11.6218567373
 30
0.0
 10
15.3467902639
 20
11.5822994637
 30
0.0
 10
15.3597093888
 20
11.5438800033
 30
0.0
 10
15.3731440559
 20
11.5066453516
 30
0.0
 10
15.3870778177
 20
11.4706410318
 30
0.0
 10
15.4014936305
 20
11.4359110424
 30
0.0
 10
15.41637388
 20
11.4024978013
 30
0.0
 10
15.4317004101
 20
11.3704420921
 30
0.0
 10
15.4474545481
 20
11.3397830111
 30
0.0
 10
15.4636171407
 20
11.3105579223
 30
0.0
 10
15.480168589
 20
11.2828024151
 30
0.0
 10
15.4970888865
 20
11.256550267
 30
0.0
 10
15.5143576599
 20
11.2318334112
 30
0.0
 10
15.5319542075
 20
11.2086819099
 30
0.0
 10
15.5498575477
 20
11.1871239452
 30
0.0
 10
15.5680464595
 20
11.1671858218
 30
0.0
 10
15.586499519
 20
11.1488919845
 30
0.0
 10
15.6051951216
 20
11.132265053
 30
0.0
 10
15.6241114769
 20
11.1173258681
 30
0.0
 10
15.6432265755
 20
11.1040935588
 30
0.0
 10
15.6625181074
 20
11.0925855983
 30
0.0
 10
15.6819633026
 20
11.0828178285
 30
0.0
 10
15.7015388161
 20
11.074804414
 30
0.0
 10
15.7212202633
 20
11.0685576864
 30
0.0
 10
15.740983017
 20
11.0640878765
 30
0.0
 10
15.7607987379
 20
11.0614027379
 30
0.0
 10
15.7740466936
 20
11.0608049913
 30
0.0
 10
15.7806443527
 20
11.060804993
 30
0.0
  0
SPLINE
  5
2E2
100
AcDbEntity
  8
LAYER_FEATURE
100
AcDbSpline
 62
7
  6
CONTINUOUS
 70
0
 71
3
 72
58
 73
54
 74
0
 42
0.0000001
 43
0.0000001
 44
0.0000000001
 40
0.0
 40
0.0
 40
0.0
 40
0.0
 40
0.0163583
 40
0.033051471
 40
0.0500648574
 40
0.0673835114
 40
0.0849915535
 40
0.1028725909
 40
0.1393839941
 40
0.1767770752
 40
0.2149030243
 40
0.2536074773
 40
0.2927317876
 40
0.3321142519
 40
0.3715913088
 40
0.4109987214
 40
0.4501727498
 40
0.4889513312
 40
0.5271752767
 40
0.5646894904
 40
0.601344234
 40
0.6193049122
 40
0.6369977078
 40
0.6544060228
 40
0.6715138624
 40
0.6883058876
 40
0.7047674716
 40
0.7208847596
 40
0.736644735
 40
0.7520352903
 40
0.7670453039
 40
0.7816647265
 40
0.7958846763
 40
0.8096975461
 40
0.823097124
 40
0.8360787296
 40
0.8486393693
 40
0.860777911
 40
0.8724952819
 40
0.8837946938
 40
0.8946818953
 40
0.9051654528
 40
0.9152570574
 40
0.9249718519
 40
0.9343287667
 40
0.9433508406
 40
0.952065501
 40
0.960504758
 40
0.9687052606
 40
0.9767081569
 40
0.9845587033
 40
0.9923055923
 40
1.0
 40
1.0
 40
1.0
 40
1.0
 10
14.6533089826
 20
13.5841182048
 30
0.0
 10
14.6483774786
 20
13.5681598521
 30
0.0
 10
14.6387436296
 20
13.5358135422
 30
0.0
 10
14.6251063567
 20
13.4865434166
 30
0.0
 10
14.6121487115
 20
13.4360771104
 30
0.0
 10
14.5998866794
 20
13.3844768973
 30
0.0
 10
14.5883351982
 20
13.331805626
 30
0.0
 10
14.5737992659
 20
13.2597365627
 30
0.0
 10
14.5575419339
 20
13.1674202498
 30
0.0
 10
14.5412044485
 20
13.0541849561
 30
0.0
 10
14.5279858237
 20
12.9382895565
 30
0.0
 10
14.5179511852
 20
12.8203019239
 30
0.0
 10
14.5111499898
 20
12.7007991817
 30
0.0
 10
14.5076157615
 20
12.5803663366
 30
0.0
 10
14.5073659076
 20
12.4595929383
 30
0.0
 10
14.510401659
 20
12.3390702619
 30
0.0
 10
14.5167080634
 20
12.2193883048
 30
0.0
 10
14.5262540402
 20
12.1011329653
 30
0.0
 10
14.5389925365
 20
11.9848827073
 30
0.0
 10
14.5548607902
 20
11.8712071583
 30
0.0
 10
14.5707327745
 20
11.7784675363
 30
0.0
 10
14.5849667717
 20
11.7060180213
 30
0.0
 10
14.5962993827
 20
11.6530339635
 30
0.0
 10
14.6083469499
 20
11.6011014241
 30
0.0
 10
14.62109478
 20
11.5502838749
 30
0.0
 10
14.6345272086
 20
11.5006435852
 30
0.0
 10
14.6486277661
 20
11.452241324
 30
0.0
 10
14.6633791624
 20
11.4051363403
 30
0.0
 10
14.6787633166
 20
11.3593862726
 30
0.0
 10
14.6947613807
 20
11.3150470799
 30
0.0
 10
14.7113537688
 20
11.2721729717
 30
0.0
 10
14.7285201852
 20
11.2308163412
 30
0.0
 10
14.7462396545
 20
11.1910276986
 30
0.0
 10
14.7644905546
 20
11.1528556089
 30
0.0
 10
14.7832506524
 20
11.1163466315
 30
0.0
 10
14.802497143
 20
11.0815452628
 30
0.0
 10
14.8222066861
 20
11.0484938818
 30
0.0
 10
14.842355456
 20
11.0172327074
 30
0.0
 10
14.8629191901
 20
10.9877997621
 30
0.0
 10
14.8838732386
 20
10.9602308451
 30
0.0
 10
14.9051926172
 20
10.9345595181
 30
0.0
 10
14.9268520562
 20
10.9108171066
 30
0.0
 10
14.9488260447
 20
10.8890327212
 30
0.0
 10
14.9710888546
 20
10.8692332964
 30
0.0
 10
14.993614538
 20
10.8514436493
 30
0.0
 10
15.0163768858
 20
10.8356865579
 30
0.0
 10
15.0393493312
 20
10.8219828278
 30
0.0
 10
15.0625047587
 20
10.8103513211
 30
0.0
 10
15.0858153686
 20
10.8008089036
 30
0.0
 10
15.1092521257
 20
10.7933702651
 30
0.0
 10
15.1327857044
 20
10.7880475979
 30
0.0
 10
15.1563823567
 20
10.7848501236
 30
0.0
 10
15.172158083
 20
10.7841383436
 30
0.0
 10
15.1800146057
 20
10.7841383359
 30
0.0
  0
SPLINE
  5
2E3
100
AcDbEntity
  8
LAYER_FEATURE
100
AcDbSpline
 62
7
  6
CONTINUOUS
 70
0
 71
3
 72
39
 73
35
 74
0
 42
0.0000001
 43
0.0000001
 44
0.0000000001
 40
0.0
 40
0.0
 40
0.0
 40
0.0
 40
0.0463636924
 40
0.0917489756
 40
0.1361242336
 40
0.1794623327
 40
0.2217375672
 40
0.262927445
 40
0.3030124431
 40
0.3419763671
 40
0.3798066521
 40
0.4164946883
 40
0.4520362128
 40
0.4864317501
 40
0.5196870928
 40
0.5518138372
 40
0.5828299848
 40
0.6127606039
 40
0.6416385505
 40
0.669505213
 40
0.6964112551
 40
0.7224173263
 40
0.747594669
 40
0.7720255354
 40
0.7958032988
 40
0.8190321374
 40
0.8418262035
 40
0.8643081969
 40
0.8866073415
 40
0.9088568445
 40
0.9311910133
 40
0.9537422811
 40
0.9766383958
 40
1.0
 40
1.0
 40
1.0
 40
1.0
 10
14.6975414657
 20
13.5292174739
 30
0.0
 10
14.7018440059
 20
13.5431404989
 30
0.0
 10
14.7106181362
 20
13.570613329
 30
0.0
 10
14.7244419337
 20
13.6111070211
 30
0.0
 10
14.7387764423
 20
13.6504123835
 30
0.0
 10
14.7536059761
 20
13.6884866635
 30
0.0
 10
14.7689146735
 20
13.7252890368
 30
0.0
 10
14.7846859917
 20
13.7607797812
 30
0.0
 10
14.8009029662
 20
13.7949207138
 30
0.0
 10
14.8175481607
 20
13.8276751038
 30
0.0
 10
14.8346037122
 20
13.859007735
 30
0.0
 10
14.8520513575
 20
13.8888849374
 30
0.0
 10
14.8698724643
 20
13.91727462
 30
0.0
 10
14.8880480494
 20
13.9441463123
 30
0.0
 10
14.9065588182
 20
13.9694711835
 30
0.0
 10
14.9253852059
 20
13.9932220489
 30
0.0
 10
14.9445074067
 20
14.0153733778
 30
0.0
 10
14.9639054109
 20
14.0359012878
 30
0.0
 10
14.9835590179
 20
14.0547835445
 30
0.0
 10
15.0034478522
 20
14.0719995357
 30
0.0
 10
15.0235513684
 20
14.0875302185
 30
0.0
 10
15.0438488149
 20
14.1013580774
 30
0.0
 10
15.0643191714
 20
14.1134670843
 30
0.0
 10
15.0849410378
 20
14.123842701
 30
0.0
 10
15.1056924979
 20
14.1324719269
 30
0.0
 10
15.1265509877
 20
14.1393433841
 30
0.0
 10
15.1474931749
 20
14.1444475149
 30
0.0
 10
15.1684949308
 20
14.1477768451
 30
0.0
 10
15.1895314064
 20
14.1493262972
 30
0.0
 10
15.210577309
 20
14.1490934532
 30
0.0
 10
15.2316070826
 20
14.147078724
 30
0.0
 10
15.252595888
 20
14.1432850944
 30
0.0
 10
15.273517597
 20
14.1377188438
 30
0.0
 10
15.287248175
 20
14.1328865766
 30
0.0
 10
15.2940797033
 20
14.1301944792
 30
0.0
  0
SPLINE
  5
2E4
100
AcDbEntity
  8
LAYER_FEATURE
100
AcDbSpline
 62
7
  6
CONTINUOUS
 70
0
 71
3
 72
61
 73
57
 74
0
 42
0.0000001
 43
0.0000001
 44
0.0000000001
 40
0.0
 40
0.0
 40
0.0
 40
0.0
 40
0.0169040537
 40
0.0341762275
 40
0.051799321
 40
0.0697554968
 40
0.0880259224
 40
0.1065910743
 40
0.1254307092
 40
0.1445239618
 40
0.183383807
 40
0.2229946118
 40
0.2631725991
 40
0.3037292393
 40
0.3444728798
 40
0.3852103392
 40
0.4257484869
 40
0.4658958217
 40
0.5054640686
 40
0.5442698109
 40
0.5633318283
 40
0.582137528
 40
0.6006661199
 40
0.6188974523
 40
0.6368120762
 40
0.6543913118
 40
0.6716173209
 40
0.6884731829
 40
0.7049429784
 40
0.7210118793
 40
0.7366662487
 40
0.7518937506
 40
0.766683473
 40
0.7810260669
 40
0.7949139026
 40
0.8083412487
 40
0.8213044766
 40
0.8338022933
 40
0.8458360099
 40
0.8574098459
 40
0.8685312743
 40
0.8792114067
 40
0.8894654138
 40
0.8993129694
 40
0.9087786966
 40
0.9178925768
 40
0.9266902681
 40
0.9352132575
 40
0.9435087586
 40
0.9516292724
 40
0.959631749
 40
0.9675763471
 40
0.9755248648
 40
0.9835389876
 40
0.9916785499
 40
1.0
 40
1.0
 40
1.0
 40
1.0
 10
14.6975414657
 20
13.5292174739
 30
0.0
 10
14.6925414949
 20
13.5130375625
 30
0.0
 10
14.6827904814
 20
13.4802137768
 30
0.0
 10
14.6690446796
 20
13.4301702285
 30
0.0
 10
14.6560364039
 20
13.3788417967
 30
0.0
 10
14.643783934
 20
13.3263005514
 30
0.0
 10
14.6323043895
 20
13.2726196708
 30
0.0
 10
14.6216138609
 20
13.2178742271
 30
0.0
 10
14.6117272253
 20
13.1621405086
 30
0.0
 10
14.5995648081
 20
13.0861723026
 30
0.0
 10
14.5864989824
 20
12.9892892978
 30
0.0
 10
14.5743082816
 20
12.8710329835
 30
0.0
 10
14.5655841715
 20
12.7507661331
 30
0.0
 10
14.5603756708
 20
12.629160565
 30
0.0
 10
14.5587120722
 20
12.5068945172
 30
0.0
 10
14.5606027271
 20
12.3846502901
 30
0.0
 10
14.5660370071
 20
12.2631100612
 30
0.0
 10
14.5749843507
 20
12.1429516945
 30
0.0
 10
14.5873944837
 20
12.0248463967
 30
0.0
 10
14.6006410662
 20
11.9281171824
 30
0.0
 10
14.6129456736
 20
11.852292912
 30
0.0
 10
14.6229358726
 20
11.7966811933
 30
0.0
 10
14.633728112
 20
11.7420675978
 30
0.0
 10
14.6453073759
 20
11.6885282509
 30
0.0
 10
14.6576574352
 20
11.6361379608
 30
0.0
 10
14.6707610153
 20
11.5849698648
 30
0.0
 10
14.6845997846
 20
11.5350953896
 30
0.0
 10
14.699154392
 20
11.4865841324
 30
0.0
 10
14.714404494
 20
11.4395037656
 30
0.0
 10
14.7303287861
 20
11.3939199371
 30
0.0
 10
14.7469050387
 20
11.3498961772
 30
0.0
 10
14.7641101334
 20
11.3074938066
 30
0.0
 10
14.7819201039
 20
11.2667718481
 30
0.0
 10
14.8003101787
 20
11.2277869425
 30
0.0
 10
14.8192548291
 20
11.1905932679
 30
0.0
 10
14.8387278207
 20
11.1552424652
 30
0.0
 10
14.8587022703
 20
11.1217835703
 30
0.0
 10
14.8791507079
 20
11.0902629553
 30
0.0
 10
14.9000451439
 20
11.0607242815
 30
0.0
 10
14.9213571399
 20
11.0332084684
 30
0.0
 10
14.9430578814
 20
11.0077536831
 30
0.0
 10
14.9651182438
 20
10.9843953551
 30
0.0
 10
14.9875088457
 20
10.9631662244
 30
0.0
 10
15.01020007
 20
10.9440964228
 30
0.0
 10
15.0331620309
 20
10.927213581
 30
0.0
 10
15.0563644615
 20
10.9125429435
 30
0.0
 10
15.0797764997
 20
10.9001074468
 30
0.0
 10
15.1033663769
 20
10.8899276973
 30
0.0
 10
15.1271010503
 20
10.8820217691
 30
0.0
 10
15.1509458977
 20
10.8764047705
 30
0.0
 10
15.1748645983
 20
10.8730881891
 30
0.0
 10
15.1988194452
 20
10.8720791913
 30
0.0
 10
15.2227717303
 20
10.8733799584
 30
0.0
 10
15.2466835147
 20
10.876987824
 30
0.0
 10
15.2705150665
 20
10.8828942418
 30
0.0
 10
15.2861254121
 20
10.8882873822
 30
0.0
 10
15.2938836805
 20
10.8913383441
 30
0.0
  0
SPLINE
  5
2E5
100
AcDbEntity
  8
LAYER_FEATURE
100
AcDbSpline
 62
7
  6
CONTINUOUS
 70
0
 71
3
 72
15
 73
11
 74
0
 42
0.0000001
 43
0.0000001
 44
0.0000000001
 40
0.0
 40
0.0
 40
0.0
 40
0.0
 40
0.1186688907
 40
0.2438307562
 40
0.3732470495
 40
0.5045228559
 40
0.6352090542
 40
0.7628755028
 40
0.8851854963
 40
1.0
 40
1.0
 40
1.0
 40
1.0
 10
14.678851746
 20
13.4323228195
 30
0.0
 10
14.6787217823
 20
13.4317888358
 30
0.0
 10
14.6784973878
 20
13.4306809884
 30
0.0
 10
14.6782668302
 20
13.4289668076
 30
0.0
 10
14.6781365544
 20
13.4271835515
 30
0.0
 10
14.6781095353
 20
13.4253702315
 30
0.0
 10
14.6781863528
 20
13.4235664375
 30
0.0
 10
14.6783653084
 20
13.4218115256
 30
0.0
 10
14.6786423291
 20
13.4201438575
 30
0.0
 10
14.6788977569
 20
13.4190745272
 30
0.0
 10
14.6790429719
 20
13.4185630192
 30
0.0
  0
SPLINE
  5
2E6
100
AcDbEntity
  8
LAYER_FEATURE
100
AcDbSpline
 62
7
  6
CONTINUOUS
 70
0
 71
3
 72
13
 73
9
 74
0
 42
0.0000001
 43
0.0000001
 44
0.0000000001
 40
0.0
 40
0.0
 40
0.0
 40
0.0
 40
0.262020359
 40
0.5207457136
 40
0.6466172418
 40
0.768984951
 40
0.8870317205
 40
1.0
 40
1.0
 40
1.0
 40
1.0
 10
14.6924001479
 20
13.3447371237
 30
0.0
 10
14.6925489113
 20
13.3484876122
 30
0.0
 10
14.6925777443
 20
13.3559543639
 30
0.0
 10
14.6919583203
 20
13.3652050423
 30
0.0
 10
14.6910629899
 20
13.3724134956
 30
0.0
 10
14.6902105068
 20
13.377592365
 30
0.0
 10
14.689178385
 20
13.3825497564
 30
0.0
 10
14.6883564865
 20
13.385756924
 30
0.0
 10
14.6879145316
 20
13.3873136738
 30
0.0
  0
SPLINE
  5
2E7
100
AcDbEntity
  8
LAYER_FEATURE
100
AcDbSpline
 62
7
  6
CONTINUOUS
 70
0
 71
3
 72
15
 73
11
 74
0
 42
0.0000001
 43
0.0000001
 44
0.0000000001
 40
0.0
 40
0.0
 40
0.0
 40
0.0
 40
0.1248185446
 40
0.2544898325
 40
0.3866402624
 40
0.5188009064
 40
0.6485092633
 40
0.7733826885
 40
0.8911974111
 40
1.0
 40
1.0
 40
1.0
 40
1.0
 10
14.6419325579
 20
13.2774640667
 30
0.0
 10
14.6418275272
 20
13.2769005454
 30
0.0
 10
14.6416535544
 20
13.2757438318
 30
0.0
 10
14.6414983912
 20
13.2739739975
 30
0.0
 10
14.6414459398
 20
13.27216438
 30
0.0
 10
14.6414974196
 20
13.2703545864
 30
0.0
 10
14.6416516445
 20
13.2685841362
 30
0.0
 10
14.6419051836
 20
13.2668915781
 30
0.0
 10
14.6422522834
 20
13.2653138305
 30
0.0
 10
14.64255448
 20
13.2643163343
 30
0.0
 10
14.6427225228
 20
13.2638457659
 30
0.0
  0
SPLINE
  5
2E8
100
AcDbEntity
  8
LAYER_FEATURE
100
AcDbSpline
 62
7
  6
CONTINUOUS
 70
0
 71
3
 72
14
 73
10
 74
0
 42
0.0000001
 43
0.0000001
 44
0.0000000001
 40
0.0
 40
0.0
 40
0.0
 40
0.0
 40
0.2689543383
 40
0.4009088372
 40
0.5299352314
 40
0.6551532751
 40
0.7757332104
 40
0.8909100854
 40
1.0
 40
1.0
 40
1.0
 40
1.0
 10
14.6592145961
 20
13.1943244902
 30
0.0
 10
14.6591990352
 20
13.1980614727
 30
0.0
 10
14.6589800262
 20
13.2036340302
 30
0.0
 10
14.6582862757
 20
13.2109657138
 30
0.0
 10
14.6575776963
 20
13.216286281
 30
0.0
 10
14.6566837684
 20
13.221418494
 30
0.0
 10
14.6556119258
 20
13.2263199772
 30
0.0
 10
14.6543712389
 20
13.2309498906
 30
0.0
 10
14.6534105625
 20
13.2339161631
 30
0.0
 10
14.6529008034
 20
13.235343636
 30
0.0
  0
SPLINE
  5
2E9
100
AcDbEntity
  8
LAYER_FEATURE
100
AcDbSpline
 62
7
  6
CONTINUOUS
 70
0
 71
3
 72
35
 73
31
 74
0
 42
0.0000001
 43
0.0000001
 44
0.0000000001
 40
0.0
 40
0.0
 40
0.0
 40
0.0
 40
0.0217685282
 40
0.0436233082
 40
0.0656493387
 40
0.0879291787
 40
0.1105418927
 40
0.133562207
 40
0.1570598278
 40
0.1810989867
 40
0.2310133449
 40
0.2570050969
 40
0.283737968
 40
0.3112479583
 40
0.3395659811
 40
0.3687182122
 40
0.3987263465
 40
0.4296079415
 40
0.4613767603
 40
0.4940429936
 40
0.5276135684
 40
0.5620924297
 40
0.5974807007
 40
0.633776937
 40
0.6709773447
 40
0.7090758876
 40
0.7480644746
 40
0.8286662015
 40
0.9126862419
 40
1.0
 40
1.0
 40
1.0
 40
1.0
 10
15.1973057232
 20
14.1299716571
 30
0.0
 10
15.1916995821
 20
14.1299716639
 30
0.0
 10
15.1804613135
 20
14.1295861983
 30
0.0
 10
15.1636309526
 20
14.1278534128
 30
0.0
 10
15.1468254831
 20
14.1249671658
 30
0.0
 10
15.1300586135
 20
14.1209300614
 30
0.0
 10
15.1133424504
 20
14.1157456611
 30
0.0
 10
15.0966894335
 20
14.1094184254
 30
0.0
 10
15.0801109554
 20
14.1019532397
 30
0.0
 10
15.0578462931
 20
14.0903473381
 30
0.0
 10
15.0360415293
 20
14.0765653438
 30
0.0
 10
15.0147813068
 20
14.0608477444
 30
0.0
 10
14.9987502209
 20
14.0477979908
 30
0.0
 10
14.9828631619
 20
14.0336575829
 30
0.0
 10
14.9671299521
 20
14.0184360057
 30
0.0
 10
14.9515618171
 20
14.0021443108
 30
0.0
 10
14.9361694485
 20
13.984794056
 30
0.0
 10
14.920963553
 20
13.9663975856
 30
0.0
 10
14.9059547554
 20
13.946967903
 30
0.0
 10
14.8911535289
 20
13.926518776
 30
0.0
 10
14.8765702276
 20
13.9050646781
 30
0.0
 10
14.8622151221
 20
13.8826207614
 30
0.0
 10
14.848098291
 20
13.8592029166
 30
0.0
 10
14.834229663
 20
13.8348277105
 30
0.0
 10
14.8206190831
 20
13.8095123966
 30
0.0
 10
14.8072760367
 20
13.7832748256
 30
0.0
 10
14.7896599023
 20
13.7466813425
 30
0.0
 10
14.7684106303
 20
13.6987261248
 30
0.0
 10
14.7444017577
 20
13.6384353054
 30
0.0
 10
14.7295278409
 20
13.5968828075
 30
0.0
 10
14.7222907936
 20
13.5755929509
 30
0.0
  0
SPLINE
  5
2EA
100
AcDbEntity
  8
LAYER_FEATURE
100
AcDbSpline
 62
7
  6
CONTINUOUS
 70
0
 71
3
 72
15
 73
11
 74
0
 42
0.0000001
 43
0.0000001
 44
0.0000000001
 40
0.0
 40
0.0
 40
0.0
 40
0.0
 40
0.1311309619
 40
0.2653835234
 40
0.4002696996
 40
0.5332659385
 40
0.6619173971
 40
0.7839145655
 40
0.8971811026
 40
1.0
 40
1.0
 40
1.0
 40
1.0
 10
14.6119975097
 20
13.1129641313
 30
0.0
 10
14.6119183102
 20
13.1123783982
 30
0.0
 10
14.6117961989
 20
13.1111875563
 30
0.0
 10
14.6117184228
 20
13.1093840955
 30
0.0
 10
14.6117444685
 20
13.1075706731
 30
0.0
 10
14.6118737867
 20
13.1057869662
 30
0.0
 10
14.6121034393
 20
13.1040718908
 30
0.0
 10
14.6124283226
 20
13.1024626481
 30
0.0
 10
14.6128410859
 20
13.1009942027
 30
0.0
 10
14.6131870862
 20
13.1000816608
 30
0.0
 10
14.6133762793
 20
13.0996585879
 30
0.0
  0
SPLINE
  5
2EB
100
AcDbEntity
  8
LAYER_FEATURE
100
AcDbSpline
 62
7
  6
CONTINUOUS
 70
0
 71
3
 72
14
 73
10
 74
0
 42
0.0000001
 43
0.0000001
 44
0.0000000001
 40
0.0
 40
0.0
 40
0.0
 40
0.0
 40
0.2762074924
 40
0.4099115034
 40
0.5394431581
 40
0.6639513042
 40
0.7826559957
 40
0.8948660305
 40
1.0
 40
1.0
 40
1.0
 40
1.0
 10
14.6327958525
 20
13.0353162024
 30
0.0
 10
14.632619011
 20
13.0389928231
 30
0.0
 10
14.6321640622
 20
13.0444432272
 30
0.0
 10
14.6311517032
 20
13.0515618363
 30
0.0
 10
14.6302165937
 20
13.056645422
 30
0.0
 10
14.6291055767
 20
13.0614886593
 30
0.0
 10
14.6278278581
 20
13.0660517019
 30
0.0
 10
14.6263942257
 20
13.0702966232
 30
0.0
 10
14.625305238
 20
13.0729831008
 30
0.0
 10
14.6247332829
 20
13.0742621043
 30
0.0
  0
SPLINE
  5
2EC
100
AcDbEntity
  8
LAYER_FEATURE
100
AcDbSpline
 62
7
  6
CONTINUOUS
 70
0
 71
3
 72
16
 73
12
 74
0
 42
0.0000001
 43
0.0000001
 44
0.0000000001
 40
0.0
 40
0.0
 40
0.0
 40
0.0
 40
0.044997096
 40
0.0910352497
 40
0.187830276
 40
0.293479302
 40
0.4100087369
 40
0.5386199553
 40
0.6798579279
 40
0.8337652009
 40
1.0
 40
1.0
 40
1.0
 40
1.0
 10
14.6119599403
 20
12.9797947074
 30
0.0
 10
14.6123281139
 20
12.9798401814
 30
0.0
 10
14.6130682566
 20
12.9799760241
 30
0.0
 10
14.6145530669
 20
12.9804250115
 30
0.0
 10
14.6164058062
 20
12.9813338154
 30
0.0
 10
14.6185271958
 20
12.9829069162
 30
0.0
 10
14.6205745673
 20
12.9849620176
 30
0.0
 10
14.6225349237
 20
12.9874809044
 30
0.0
 10
14.6243955848
 20
12.9904435768
 30
0.0
 10
14.6261426904
 20
12.9938264822
 30
0.0
 10
14.6271840932
 20
12.9962541628
 30
0.0
 10
14.6276865154
 20
12.9975292436
 30
0.0
  0
SPLINE
  5
2ED
100
AcDbEntity
  8
LAYER_FEATURE
100
AcDbSpline
 62
7
  6
CONTINUOUS
 70
0
 71
3
 72
17
 73
13
 74
0
 42
0.0000001
 43
0.0000001
 44
0.0000000001
 40
0.0
 40
0.0
 40
0.0
 40
0.0
 40
0.0370368182
 40
0.0758368365
 40
0.1172457984
 40
0.1619323094
 40
0.2627117979
 40
0.3801738953
 40
0.5142709414
 40
0.6637517095
 40
0.8265379401
 40
1.0
 40
1.0
 40
1.0
 40
1.0
 10
14.5969177549
 20
12.9779368109
 30
0.0
 10
14.5967977794
 20
12.9779219924
 30
0.0
 10
14.5965545453
 20
12.9778678259
 30
0.0
 10
14.5961999954
 20
12.9777193675
 30
0.0
 10
14.595852069
 20
12.9775040693
 30
0.0
 10
14.5953805954
 20
12.9771146614
 30
0.0
 10
14.5948222485
 20
12.9764544963
 30
0.0
 10
14.5942317638
 20
12.9754637929
 30
0.0
 10
14.5937043115
 20
12.9742628069
 30
0.0
 10
14.5932509212
 20
12.9728762847
 30
0.0
 10
14.5928811273
 20
12.9713331337
 30
0.0
 10
14.5927004714
 20
12.9702496489
 30
0.0
 10
14.5926246068
 20
12.9696885792
 30
0.0
  0
SPLINE
  5
2EE
100
AcDbEntity
  8
LAYER_FEATURE
100
AcDbSpline
 62
7
  6
CONTINUOUS
 70
0
 71
3
 72
53
 73
49
 74
0
 42
0.0000001
 43
0.0000001
 44
0.0000000001
 40
0.0
 40
0.0
 40
0.0
 40
0.0
 40
0.0395009159
 40
0.0794547152
 40
0.1197488698
 40
0.1602687945
 40
0.2008988822
 40
0.2415229863
 40
0.2820249874
 40
0.3222893658
 40
0.3622017806
 40
0.4016496438
 40
0.440522726
 40
0.4787137546
 40
0.5161190588
 40
0.5526392316
 40
0.5881798366
 40
0.62265219
 40
0.6559741838
 40
0.6880712674
 40
0.703640211
 40
0.7188789927
 40
0.733780933
 40
0.7483400592
 40
0.7625511729
 40
0.776409902
 40
0.7899127593
 40
0.8030572241
 40
0.8158418311
 40
0.8282662481
 40
0.8403313758
 40
0.8520394724
 40
0.8633942709
 40
0.8744011045
 40
0.8850670572
 40
0.8954011281
 40
0.9054143802
 40
0.9151201015
 40
0.9245339741
 40
0.9336742144
 40
0.9425616791
 40
0.9512199375
 40
0.9596752843
 40
0.9679566516
 40
0.9760954274
 40
0.9841251657
 40
0.9920811753
 40
1.0
 40
1.0
 40
1.0
 40
1.0
 10
14.5926246068
 20
12.9696885792
 30
0.0
 10
14.5891426414
 20
12.9394323
 30
0.0
 10
14.5828812473
 20
12.8784850117
 30
0.0
 10
14.5756165052
 20
12.7864345683
 30
0.0
 10
14.5704411339
 20
12.6934557864
 30
0.0
 10
14.567372702
 20
12.5998622242
 30
0.0
 10
14.5664215753
 20
12.5059688196
 30
0.0
 10
14.5675909842
 20
12.4120917083
 30
0.0
 10
14.5708769483
 20
12.318546903
 30
0.0
 10
14.5762683915
 20
12.2256493051
 30
0.0
 10
14.5837470357
 20
12.133711604
 30
0.0
 10
14.5932876361
 20
12.0430432214
 30
0.0
 10
14.6048578922
 20
11.9539492458
 30
0.0
 10
14.6184187156
 20
11.8667293925
 30
0.0
 10
14.6339242577
 20
11.7816769763
 30
0.0
 10
14.6513221249
 20
11.6990778685
 30
0.0
 10
14.6705535802
 20
11.6192096221
 30
0.0
 10
14.6915537263
 20
11.5423400819
 30
0.0
 10
14.7142517093
 20
11.4687279011
 30
0.0
 10
14.7347205071
 20
11.4097186424
 30
0.0
 10
14.7519169086
 20
11.364365945
 30
0.0
 10
14.7650585693
 20
11.3316621017
 30
0.0
 10
14.7785641191
 20
11.2999513446
 30
0.0
 10
14.792422328
 20
11.2692602392
 30
0.0
 10
14.806621521
 20
11.2396145818
 30
0.0
 10
14.821149785
 20
11.2110392499
 30
0.0
 10
14.8359949535
 20
11.1835582327
 30
0.0
 10
14.851144615
 20
11.1571945896
 30
0.0
 10
14.8665860961
 20
11.1319704142
 30
0.0
 10
14.882306521
 20
11.1079068472
 30
0.0
 10
14.8982928295
 20
11.0850240683
 30
0.0
 10
14.9145317501
 20
11.063341249
 30
0.0
 10
14.9310098378
 20
11.0428765554
 30
0.0
 10
14.947713512
 20
11.0236471689
 30
0.0
 10
14.9646290622
 20
11.0056692759
 30
0.0
 10
14.9817426197
 20
10.988958028
 30
0.0
 10
14.9990402156
 20
10.9735275966
 30
0.0
 10
15.0165077847
 20
10.9593911995
 30
0.0
 10
15.034131122
 20
10.9465610684
 30
0.0
 10
15.0518958748
 20
10.9350484646
 30
0.0
 10
15.0697875352
 20
10.9248637347
 30
0.0
 10
15.0877913894
 20
10.9160163048
 30
0.0
 10
15.1058924148
 20
10.9085145792
 30
0.0
 10
15.1240753098
 20
10.9023659592
 30
0.0
 10
15.1423242811
 20
10.8975767835
 30
0.0
 10
15.1606236036
 20
10.8941521607
 30
0.0
 10
15.1789554784
 20
10.8920958311
 30
0.0
 10
15.1912001549
 20
10.8916383238
 30
0.0
 10
15.1973057232
 20
10.8916383264
 30
0.0
  0
SPLINE
  5
2EF
100
AcDbEntity
  8
LAYER_FEATURE
100
AcDbSpline
 62
7
  6
CONTINUOUS
 70
0
 71
3
 72
15
 73
11
 74
0
 42
0.0000001
 43
0.0000001
 44
0.0000000001
 40
0.0
 40
0.0
 40
0.0
 40
0.0
 40
0.1126201789
 40
0.2332966346
 40
0.3599532662
 40
0.490291179
 40
0.6218949065
 40
0.7523081315
 40
0.8791066464
 40
1.0
 40
1.0
 40
1.0
 40
1.0
 10
14.7222907936
 20
13.5755929509
 30
0.0
 10
14.7221370914
 20
13.5750955705
 30
0.0
 10
14.7218643242
 20
13.5740508295
 30
0.0
 10
14.7215613282
 20
13.5724135743
 30
0.0
 10
14.7213548986
 20
13.5706788797
 30
0.0
 10
14.7212497282
 20
13.5688846416
 30
0.0
 10
14.7212481511
 20
13.5670699843
 30
0.0
 10
14.7213502304
 20
13.565274534
 30
0.0
 10
14.7215536273
 20
13.5635375795
 30
0.0
 10
14.7217598679
 20
13.5624102605
 30
0.0
 10
14.7218808758
 20
13.5618646886
 30
0.0
  0
SPLINE
  5
2F0
100
AcDbEntity
  8
LAYER_FEATURE
100
AcDbSpline
 62
7
  6
CONTINUOUS
 70
0
 71
3
 72
13
 73
9
 74
0
 42
0.0000001
 43
0.0000001
 44
0.0000000001
 40
0.0
 40
0.0
 40
0.0
 40
0.0
 40
0.2553006401
 40
0.5118278956
 40
0.6383031982
 40
0.7623864849
 40
0.8832229423
 40
1.0
 40
1.0
 40
1.0
 40
1.0
 10
14.7319351803
 20
13.4846625769
 30
0.0
 10
14.7322492762
 20
13.4883791651
 30
0.0
 10
14.7326019504
 20
13.4958558685
 30
0.0
 10
14.7323848397
 20
13.5051868559
 30
0.0
 10
14.7318107492
 20
13.5125743399
 30
0.0
 10
14.7311884586
 20
13.5179658559
 30
0.0
 10
14.730377932
 20
13.5231889001
 30
0.0
 10
14.7297035768
 20
13.5265955194
 30
0.0
 10
14.7293341496
 20
13.5282611065
 30
0.0
  0
SPLINE
  5
2F1
100
AcDbEntity
  8
02___PRT_ALL_AXES
100
AcDbSpline
 62
7
  6
CONTINUOUS
 70
0
 71
3
 72
36
 73
32
 74
0
 42
0.0000001
 43
0.0000001
 44
0.0000000001
 40
0.0
 40
0.0
 40
0.0
 40
0.0
 40
0.0879645476
 40
0.1726570892
 40
0.2539222804
 40
0.2932301908
 40
0.3316350135
 40
0.369125214
 40
0.4056913952
 40
0.4413264661
 40
0.4760258292
 40
0.5097875879
 40
0.5426127762
 40
0.5745056117
 40
0.6054737753
 40
0.6355287154
 40
0.6646859797
 40
0.6929655694
 40
0.7203923133
 40
0.7469962531
 40
0.7728130268
 40
0.7978842333
 40
0.8222577514
 40
0.8459879834
 40
0.8691359822
 40
0.8917694206
 40
0.9139623584
 40
0.9357947694
 40
0.9573518053
 40
0.9787227938
 40
1.0
 40
1.0
 40
1.0
 40
1.0
 10
15.3383336461
 20
13.4121394469
 30
0.0
 10
15.3447985275
 20
13.4330598106
 30
0.0
 10
15.3581449995
 20
13.4739236553
 30
0.0
 10
15.379860689
 20
13.5332971824
 30
0.0
 10
15.3992186035
 20
13.5805999418
 30
0.0
 10
15.4153458681
 20
13.6167409096
 30
0.0
 10
15.4275961148
 20
13.6426721189
 30
0.0
 10
15.4401253385
 20
13.6677088699
 30
0.0
 10
15.4529237854
 20
13.6918315203
 30
0.0
 10
15.46598137
 20
13.7150210518
 30
0.0
 10
15.4792878518
 20
13.7372592154
 30
0.0
 10
15.4928328036
 20
13.7585285099
 30
0.0
 10
15.5066056343
 20
13.7788122028
 30
0.0
 10
15.520595598
 20
13.7980943379
 30
0.0
 10
15.5347918076
 20
13.8163597442
 30
0.0
 10
15.5491832467
 20
13.833594041
 30
0.0
 10
15.5637587821
 20
13.8497836412
 30
0.0
 10
15.5785071739
 20
13.8649157509
 30
0.0
 10
15.5934170849
 20
13.8789783664
 30
0.0
 10
15.6084770853
 20
13.8919602672
 30
0.0
 10
15.6236756527
 20
13.9038510065
 30
0.0
 10
15.6390011651
 20
13.9146409009
 30
0.0
 10
15.6544418852
 20
13.9243210213
 30
0.0
 10
15.6699859345
 20
13.9328831881
 30
0.0
 10
15.6856212616
 20
13.9403199773
 30
0.0
 10
15.7013355928
 20
13.9466247415
 30
0.0
 10
15.7171164288
 20
13.9517916513
 30
0.0
 10
15.7329508846
 20
13.9558157581
 30
0.0
 10
15.7488261647
 20
13.9586930747
 30
0.0
 10
15.7647278178
 20
13.9604206675
 30
0.0
 10
15.7753479445
 20
13.9608049914
 30
0.0
 10
15.7806443527
 20
13.9608049928
 30
0.0
  0
SPLINE
  5
2F2
100
AcDbEntity
  8
02___PRT_ALL_AXES
100
AcDbSpline
 62
7
  6
CONTINUOUS
 70
0
 71
3
 72
24
 73
20
 74
0
 42
0.0000001
 43
0.0000001
 44
0.0000000001
 40
0.0
 40
0.0
 40
0.0
 40
0.0
 40
0.0836660506
 40
0.1647132347
 40
0.2430320439
 40
0.3185262465
 40
0.3911162875
 40
0.4607407346
 40
0.5273589219
 40
0.5909538612
 40
0.6515357236
 40
0.7091459639
 40
0.7638621368
 40
0.8158033792
 40
0.8651363799
 40
0.912081364
 40
0.9569172159
 40
0.9786557944
 40
1.0
 40
1.0
 40
1.0
 40
1.0
 10
15.3360966724
 20
13.41669792
 30
0.0
 10
15.3416358762
 20
13.43462279
 30
0.0
 10
15.3530224531
 20
13.4697652031
 30
0.0
 10
15.3713398876
 20
13.5211004743
 30
0.0
 10
15.3905906624
 20
13.5701309457
 30
0.0
 10
15.410730927
 20
13.616744872
 30
0.0
 10
15.4317150196
 20
13.6608366725
 30
0.0
 10
15.4534955724
 20
13.7023065677
 30
0.0
 10
15.476023681
 20
13.7410609186
 30
0.0
 10
15.4992491248
 20
13.7770123839
 30
0.0
 10
15.5231206339
 20
13.8100800505
 30
0.0
 10
15.5475861309
 20
13.8401894539
 30
0.0
 10
15.5725931108
 20
13.8672725293
 30
0.0
 10
15.5980884943
 20
13.8912672155
 30
0.0
 10
15.6240199444
 20
13.912117477
 30
0.0
 10
15.6503311958
 20
13.9297710617
 30
0.0
 10
15.672762057
 20
13.9419048243
 30
0.0
 10
15.6907922586
 20
13.9498975865
 30
0.0
 10
15.6998278464
 20
13.9533334486
 30
0.0
 10
15.7043476054
 20
13.9549081276
 30
0.0
  0
SPLINE
  5
2F3
100
AcDbEntity
  8
LAYER_FEATURE
100
AcDbSpline
 62
7
  6
CONTINUOUS
 70
0
 71
3
 72
38
 73
34
 74
0
 42
0.0000001
 43
0.0000001
 44
0.0000000001
 40
0.0
 40
0.0
 40
0.0
 40
0.0
 40
0.0879640716
 40
0.1307307847
 40
0.1726592835
 40
0.2137306933
 40
0.2539278613
 40
0.2932354821
 40
0.331640013
 40
0.3691299341
 40
0.4056958476
 40
0.4413306462
 40
0.4760297484
 40
0.5097912612
 40
0.5426162009
 40
0.5745087936
 40
0.6054767306
 40
0.6355314471
 40
0.6646884872
 40
0.6929678677
 40
0.7203944107
 40
0.7469981459
 40
0.7728147257
 40
0.7978857495
 40
0.8222590824
 40
0.8459891342
 40
0.8691369629
 40
0.8917702321
 40
0.9139630012
 40
0.9357952498
 40
0.9573521255
 40
0.9787229532
 40
1.0
 40
1.0
 40
1.0
 40
1.0
 10
14.6533089826
 20
13.5841182048
 30
0.0
 10
14.661007409
 20
13.6090303216
 30
0.0
 10
14.6730413996
 20
13.6458762602
 30
0.0
 10
14.690214101
 20
13.6940913803
 30
0.0
 10
14.7033602721
 20
13.7289790173
 30
0.0
 10
14.7168830262
 20
13.7629037543
 30
0.0
 10
14.7307717813
 20
13.7958389656
 30
0.0
 10
14.7450155499
 20
13.8277586138
 30
0.0
 10
14.7596031295
 20
13.8586375522
 30
0.0
 10
14.7745230049
 20
13.888451448
 30
0.0
 10
14.7897634413
 20
13.9171768113
 30
0.0
 10
14.8053124825
 20
13.9447910084
 30
0.0
 10
14.8211579034
 20
13.9712723142
 30
0.0
 10
14.8372872855
 20
13.9965998944
 30
0.0
 10
14.8536880398
 20
14.0207538062
 30
0.0
 10
14.8703473583
 20
14.0437150565
 30
0.0
 10
14.887252263
 20
14.0654655924
 30
0.0
 10
14.9043896533
 20
14.085988274
 30
0.0
 10
14.921746276
 20
14.1052669158
 30
0.0
 10
14.9393087255
 20
14.1232863047
 30
0.0
 10
14.9570635093
 20
14.1400321399
 30
0.0
 10
14.9749970354
 20
14.1554910365
 30
0.0
 10
14.9930955598
 20
14.1696505815
 30
0.0
 10
15.0113452424
 20
14.1824992496
 30
0.0
 10
15.0297321278
 20
14.1940263739
 30
0.0
 10
15.0482420565
 20
14.2042222332
 30
0.0
 10
15.0668606703
 20
14.2130780077
 30
0.0
 10
15.0855733684
 20
14.2205857509
 30
0.0
 10
15.1043652645
 20
14.2267385165
 30
0.0
 10
15.1232210046
 20
14.2315304481
 30
0.0
 10
15.1421253599
 20
14.2349567833
 30
0.0
 10
15.1610611236
 20
14.2370139855
 30
0.0
 10
15.1737076185
 20
14.2374716561
 30
0.0
 10
15.1800146057
 20
14.2374716499
 30
0.0
  0
SPLINE
  5
2F4
100
AcDbEntity
  8
02___PRT_ALL_AXES
100
AcDbSpline
 62
7
  6
CONTINUOUS
 70
0
 71
3
 72
39
 73
35
 74
0
 42
0.0000001
 43
0.0000001
 44
0.0000000001
 40
0.0
 40
0.0
 40
0.0
 40
0.0
 40
0.0208347638
 40
0.0428599185
 40
0.0660773246
 40
0.0904748522
 40
0.116028855
 40
0.142705593
 40
0.1704626067
 40
0.1992498228
 40
0.2290104959
 40
0.2596820127
 40
0.291196594
 40
0.3234819177
 40
0.3564616839
 40
0.3900561411
 40
0.4241825738
 40
0.4587557641
 40
0.4936884324
 40
0.5288916658
 40
0.5642753377
 40
0.5997485196
 40
0.6352198864
 40
0.6705981205
 40
0.7057923165
 40
0.7407123896
 40
0.775269485
 40
0.8093763964
 40
0.8429479939
 40
0.8759016705
 40
0.908157796
 40
0.93964027
 40
0.9702767614
 40
1.0
 40
1.0
 40
1.0
 40
1.0
 10
16.0626468795
 20
13.253850216
 30
0.0
 10
16.0681159084
 20
13.2467196481
 30
0.0
 10
16.0788727538
 20
13.2316677501
 30
0.0
 10
16.0940638541
 20
13.2075375021
 30
0.0
 10
16.1087140604
 20
13.1813009216
 30
0.0
 10
16.1227791371
 20
13.1530375421
 30
0.0
 10
16.1362175396
 20
13.1228315068
 30
0.0
 10
16.1489889035
 20
13.0907734853
 30
0.0
 10
16.1610547996
 20
13.0569598115
 30
0.0
 10
16.1723787647
 20
13.0214923397
 30
0.0
 10
16.1829265025
 20
12.9844780608
 30
0.0
 10
16.1926660112
 20
12.9460287706
 30
0.0
 10
16.2015677045
 20
12.9062607088
 30
0.0
 10
16.2096045214
 20
12.8652941944
 30
0.0
 10
16.2167520224
 20
12.8232532461
 30
0.0
 10
16.2229884613
 20
12.7802651909
 30
0.0
 10
16.2282948575
 20
12.7364602673
 30
0.0
 10
16.2326550564
 20
12.6919712229
 30
0.0
 10
16.2360557799
 20
12.6469329061
 30
0.0
 10
16.2384866784
 20
12.6014818515
 30
0.0
 10
16.2399403526
 20
12.555755859
 30
0.0
 10
16.2404123765
 20
12.5098935706
 30
0.0
 10
16.2399013117
 20
12.4640340457
 30
0.0
 10
16.2384087098
 20
12.4183163357
 30
0.0
 10
16.2359391171
 20
12.3728790576
 30
0.0
 10
16.2325000563
 20
12.3278599678
 30
0.0
 10
16.2281019986
 20
12.2833955408
 30
0.0
 10
16.2227583323
 20
12.2396205496
 30
0.0
 10
16.216485321
 20
12.1966676549
 30
0.0
 10
16.2093020499
 20
12.1546669814
 30
0.0
 10
16.2012303941
 20
12.1137457509
 30
0.0
 10
16.1922948585
 20
12.0740277562
 30
0.0
 10
16.1825227681
 20
12.0356335935
 30
0.0
 10
16.1753563627
 20
12.0106001403
 30
0.0
 10
16.1716309674
 20
11.9983332094
 30
0.0
  0
SPLINE
  5
2F5
100
AcDbEntity
  8
02___PRT_ALL_AXES
100
AcDbSpline
 62
7
  6
CONTINUOUS
 70
0
 71
3
 72
22
 73
18
 74
0
 42
0.0000001
 43
0.0000001
 44
0.0000000001
 40
0.0
 40
0.0
 40
0.0
 40
0.0
 40
0.1741505693
 40
0.25623479
 40
0.334747174
 40
0.4095437424
 40
0.4805184867
 40
0.5476083926
 40
0.610799637
 40
0.6701387546
 40
0.7257435267
 40
0.7778167291
 40
0.8266622345
 40
0.872699558
 40
0.916473103
 40
0.9586502177
 40
1.0
 40
1.0
 40
1.0
 40
1.0
 10
15.8478093166
 20
13.3256796113
 30
0.0
 10
15.8470923933
 20
13.3283406313
 30
0.0
 10
15.845915676
 20
13.3322256175
 30
0.0
 10
15.8440934047
 20
13.3372007707
 30
0.0
 10
15.8426703266
 20
13.34064456
 30
0.0
 10
15.8411691383
 20
13.3438621314
 30
0.0
 10
15.8395951589
 20
13.3468419985
 30
0.0
 10
15.8379539729
 20
13.3495735152
 30
0.0
 10
15.8362512589
 20
13.3520469643
 30
0.0
 10
15.8344928321
 20
13.354253575
 30
0.0
 10
15.8326845055
 20
13.3561854756
 30
0.0
 10
15.8308320404
 20
13.3578355793
 30
0.0
 10
15.8289411781
 20
13.3591974801
 30
0.0
 10
15.8270178627
 20
13.3602652598
 30
0.0
 10
15.825068285
 20
13.3610333279
 30
0.0
 10
15.8231004886
 20
13.3614966382
 30
0.0
 10
15.8217764862
 20
13.3616002597
 30
0.0
 10
15.8211221328
 20
13.361600255
 30
0.0
  0
SPLINE
  5
2F6
100
AcDbEntity
  8
02___PRT_ALL_AXES
100
AcDbSpline
 62
7
  6
CONTINUOUS
 70
0
 71
3
 72
21
 73
17
 74
0
 42
0.0000001
 43
0.0000001
 44
0.0000000001
 40
0.0
 40
0.0
 40
0.0
 40
0.0
 40
0.1526100263
 40
0.225940024
 40
0.2972575887
 40
0.3665504528
 40
0.4338132905
 40
0.4990485526
 40
0.5622667239
 40
0.6234872996
 40
0.6827395208
 40
0.7400633758
 40
0.7955107817
 40
0.8491461724
 40
0.9010477885
 40
1.0
 40
1.0
 40
1.0
 40
1.0
 10
16.1289841937
 20
11.8826621218
 30
0.0
 10
16.1241232187
 20
11.8717797638
 30
0.0
 10
16.1165648602
 20
11.855824629
 30
0.0
 10
16.1058219318
 20
11.8352420703
 30
0.0
 10
16.0976940348
 20
11.8206411513
 30
0.0
 10
16.0893961174
 20
11.8066846661
 30
0.0
 10
16.0809357351
 20
11.7933854646
 30
0.0
 10
16.0723207215
 20
11.7807559518
 30
0.0
 10
16.0635589883
 20
11.768807843
 30
0.0
 10
16.0546585771
 20
11.7575522292
 30
0.0
 10
16.0456276267
 20
11.7469996061
 30
0.0
 10
16.0364742643
 20
11.7371597505
 30
0.0
 10
16.0272070814
 20
11.7280420649
 30
0.0
 10
16.0178334265
 20
11.7196544212
 30
0.0
 10
16.0054064032
 20
11.7096174679
 30
0.0
 10
15.9956528995
 20
11.7029483983
 30
0.0
 10
15.9890122404
 20
11.6989956105
 30
0.0
  0
SPLINE
  5
2F7
100
AcDbEntity
  8
02___PRT_ALL_AXES
100
AcDbSpline
 62
7
  6
CONTINUOUS
 70
0
 71
3
 72
12
 73
8
 74
0
 42
0.0000001
 43
0.0000001
 44
0.0000000001
 40
0.0
 40
0.0
 40
0.0
 40
0.0
 40
0.2506851877
 40
0.5009328106
 40
0.6258863121
 40
0.7507210378
 40
1.0
 40
1.0
 40
1.0
 40
1.0
 10
15.6516609618
 20
12.0269699943
 30
0.0
 10
15.6951416499
 20
12.0251948857
 30
0.0
 10
15.7820150603
 20
12.0213455612
 30
0.0
 10
15.8905225578
 20
12.0157887158
 30
0.0
 10
15.9771860229
 20
12.0108805271
 30
0.0
 10
16.063662936
 20
12.0056637622
 30
0.0
 10
16.1284652856
 20
12.0013760679
 30
0.0
 10
16.1716309674
 20
11.9983332094
 30
0.0
  0
ENDSEC
  0
SECTION
  2
OBJECTS
  0
DICTIONARY
  5
C
100
AcDbDictionary
280
0
281
1
  3
ACAD_GROUP
350
D
  3
ACAD_MLINESTYLE
350
17
  3
ACAD_LAYOUT
350
1A
  3
ACAD_PLOTSETTINGS
350
19
  3
ACAD_PLOTSTYLENAME
350
E
  0
DICTIONARY
  5
D
102
{ACAD_REACTORS
330
C
102
}
100
AcDbDictionary
280
0
281
1
  0
ACDBDICTIONARYWDFLT
  5
E
102
{ACAD_REACTORS
330
C
102
}
100
AcDbDictionary
281
1
  3
Normal
350
F
100
AcDbDictionaryWithDefault
340
F
  0
DICTIONARY
  5
17
102
{ACAD_REACTORS
330
C
102
}
100
AcDbDictionary
280
0
281
1
  3
Standard
350
18
  0
DICTIONARY
  5
19
102
{ACAD_REACTORS
330
C
102
}
100
AcDbDictionary
281
1
  0
DICTIONARY
  5
1A
102
{ACAD_REACTORS
330
C
102
}
100
AcDbDictionary
281
1
  3
Model
350
2F8
  3
Layout1
350
2F9
  0
ACDBPLACEHOLDER
  5
F
102
{ACAD_REACTORS
330
E
102
}
  0
MLINESTYLE
  5
18
102
{ACAD_REACTORS
330
17
102
}
100
AcDbMlineStyle
  2
STANDARD
 70
0
  3

 62
256
 51
90.0
 52
90.0
 71
2
 49
0.5
 62
256
  6
BYLAYER
 49
-0.5
 62
256
  6
BYLAYER
  0
LAYOUT
  5
2F8
102
{ACAD_REACTORS
330
1A
102
}
100
AcDbPlotSettings
  1

  2
none_device
  4
ANSI_C_(22.00_x_17.00_Inches)
  6

 40
0.0
 41
0.0
 42
0.0
 43
0.0
 44
558.8
 45
431.8
 46
0.0
 47
0.0
 48
0.0
 49
0.0
140
0.0
141
0.0
142
1.0
143
1.0
 70
1024
 72
0
 73
0
 74
0
  7

 75
0
147
1.0
148
0.0
149
0.0
100
AcDbLayout
  1
Model
 70
0
 71
0
 10
0.0
 20
0.0
 11
22.0
 21
17.0
 12
0.0
 22
0.0
 32
0.0
 14
0.0
 24
0.0
 34
0.0
 15
0.0
 25
0.0
 35
0.0
146
0.0
 13
0.0
 23
0.0
 33
0.0
 16
1.0
 26
0.0
 36
0.0
 17
0.0
 27
1.0
 37
0.0
 76
0
330
222
345
0
346
0
  0
LAYOUT
  5
2F9
102
{ACAD_REACTORS
330
1A
102
}
100
AcDbPlotSettings
  1

  2
none_device
  4
ANSI_C_(22.00_x_17.00_Inches)
  6

 40
0.0
 41
0.0
 42
0.0
 43
0.0
 44
558.8
 45
431.8
 46
0.0
 47
0.0
 48
0.0
 49
0.0
140
0.0
141
0.0
142
1.0
143
1.0
 70
0
 72
0
 73
0
 74
0
  7

 75
0
147
1.0
148
0.0
149
0.0
100
AcDbLayout
  1
Layout1
 70
0
 71
1
 10
0.0
 20
0.0
 11
22.0
 21
17.0
 12
0.0
 22
0.0
 32
0.0
 14
0.0
 24
0.0
 34
0.0
 15
0.0
 25
0.0
 35
0.0
146
0.0
 13
0.0
 23
0.0
 33
0.0
 16
1.0
 26
0.0
 36
0.0
 17
0.0
 27
1.0
 37
0.0
 76
0
330
223
345
0
346
0
  0
ENDSEC
  0
EOF