999
DXF file: _cgs_temp_output.dxf
999
Pro/ENGINEER 2016360 by Parametric Technology Corporation
  0
SECTION
  2
HEADER
  9
$ACADVER
  1
AC1021
  9
$DWGCODEPAGE
  3
ANSI_1252
  9
$EXTMAX
 10
22.0
 20
17.0
 30
0.0
  9
$EXTMIN
 10
0.0
 20
0.0
 30
0.0
  9
$LIMMIN
 10
0.0
 20
0.0
  9
$LIMMAX
 10
22.0
 20
17.0
  9
$VIEWCTR
 10
11.0
 20
8.5
  9
$VIEWSIZE
 40
17.0
  9
$CLAYER
  8
0
  9
$LTSCALE
 40
1.21
  9
$CELTYPE
  6
BYLAYER
  9
$DIMSCALE
 40
1.0
  9
$DIMASZ
 40
0.1875
  9
$DIMEXO
 40
0.0625
  9
$DIMDLI
 40
0.836
  9
$DIMEXE
 40
0.125
  9
$DIMCEN
 40
0.198
  9
$DIMLFAC
 40
1.0
  9
$DIMBLK
  1
_CLOSED
  9
$DIMALT
 70
0
  9
$DIMALTF
 40
25.4
  9
$DIMTXT
 40
0.15625
  9
$DIMTOL
 70
0
  9
$DIMLIM
 70
0
  9
$DIMTFAC
 40
1.0
  9
$DIMGAP
 40
0.09
  9
$DIMDSEP
 70
46
  9
$AUNITS
 70
0
  9
$PDMODE
 70
3
  9
$PDSIZE
 40
0.3125
  9
$HANDSEED
  5
2ED
  9
$TILEMODE
 70
1
  9
$MEASUREMENT
 70
0
  9
$INSUNITS
 70
1
  0
ENDSEC
  0
SECTION
  2
CLASSES
  0
CLASS
  1
ACDBDICTIONARYWDFLT
  2
AcDbDictionaryWithDefault
  3
AutoCAD 2000
 90
0
 91
1
280
0
281
0
  0
CLASS
  1
ACDBPLACEHOLDER
  2
AcDbPlaceHolder
  3
AutoCAD 2000
 90
0
 91
1
280
0
281
0
  0
CLASS
  1
LAYOUT
  2
AcDbLayout
  3
AutoCAD 2000
 90
0
 91
0
280
0
281
0
  0
ENDSEC
  0
SECTION
  2
TABLES
  0
TABLE
  2
VPORT
  5
8
100
AcDbSymbolTable
 70
2
  0
VPORT
  5
1F4
100
AcDbSymbolTableRecord
100
AcDbViewportTableRecord
  2
*ACTIVE
 70
0
 10
0.0
 20
0.0
 11
1.0
 21
1.0
 12
11.0
 22
8.5
 13
0.0
 23
0.0
 14
1.0
 24
1.0
 15
0.0
 25
0.0
 16
0.0
 26
0.0
 36
1.0
 17
0.0
 27
0.0
 37
0.0
 40
17.0
 41
1.2941176471
 42
50.0
 43
0.0
 44
0.0
 50
0.0
 51
0.0
 71
0
 72
100
 73
1
 74
1
 75
0
 76
0
 77
0
 78
0
  0
ENDTAB
  0
TABLE
  2
LTYPE
  5
5
100
AcDbSymbolTable
 70
6
  0
LTYPE
  5
14
100
AcDbSymbolTableRecord
100
AcDbLinetypeTableRecord
  2
BYBLOCK
 70
0
  3

 72
65
 73
0
 40
0.0
  0
LTYPE
  5
15
100
AcDbSymbolTableRecord
100
AcDbLinetypeTableRecord
  2
BYLAYER
 70
0
  3

 72
65
 73
0
 40
0.0
  0
LTYPE
  5
16
100
AcDbSymbolTableRecord
100
AcDbLinetypeTableRecord
  2
CONTINUOUS
 70
64
  3
Solid line
 72
65
 73
0
 40
0.0
  0
LTYPE
  5
1F5
100
AcDbSymbolTableRecord
100
AcDbLinetypeTableRecord
  2
CENTER
 70
64
  3
____ _ ____ _ ____ _ ____ _ ____ _ ____ _ ____
 72
65
 73
4
 40
0.6
 49
0.375
 74
0
 49
-0.075
 74
0
 49
0.075
 74
0
 49
-0.075
 74
0
  0
LTYPE
  5
1F6
100
AcDbSymbolTableRecord
100
AcDbLinetypeTableRecord
  2
HIDDEN
 70
64
  3
- - - - - - - - - - - - - - - - - - - -
 72
65
 73
2
 40
0.2
 49
0.1
 74
0
 49
-0.1
 74
0
  0
LTYPE
  5
1F7
100
AcDbSymbolTableRecord
100
AcDbLinetypeTableRecord
  2
PHANTOM
 70
64
  3
_____ _ _ _____ _ _ _____ _ _ _____
 72
65
 73
6
 40
0.8
 49
0.45
 74
0
 49
-0.05
 74
0
 49
0.1
 74
0
 49
-0.05
 74
0
 49
0.1
 74
0
 49
-0.05
 74
0
  0
LTYPE
  5
1F8
100
AcDbSymbolTableRecord
100
AcDbLinetypeTableRecord
  2
DOT
 70
64
  3
. . . . . . . . . . . . . . . . . . . .
 72
65
 73
2
 40
0.2
 49
0.1
 74
0
 49
-0.1
 74
0
  0
LTYPE
  5
1F9
100
AcDbSymbolTableRecord
100
AcDbLinetypeTableRecord
  2
DASHED
 70
64
  3
- - - - - - - - - - - - - - - - - - - -
 72
65
 73
2
 40
0.2
 49
0.1
 74
0
 49
-0.1
 74
0
  0
ENDTAB
  0
TABLE
  2
LAYER
  5
2
100
AcDbSymbolTable
 70
36
  0
LAYER
  5
10
100
AcDbSymbolTableRecord
100
AcDbLayerTableRecord
  2
0
 70
0
 62
7
  6
CONTINUOUS
370
-3
390
F
  0
LAYER
  5
1FA
100
AcDbSymbolTableRecord
100
AcDbLayerTableRecord
  2
DEFAULT_1
 70
0
 62
7
  6
CENTER
370
-3
390
F
  0
LAYER
  5
1FB
100
AcDbSymbolTableRecord
100
AcDbLayerTableRecord
  2
DEFAULT_2
 70
0
 62
8
  6
HIDDEN
370
-3
390
F
  0
LAYER
  5
1FC
100
AcDbSymbolTableRecord
100
AcDbLayerTableRecord
  2
DEFAULT_3
 70
0
 62
7
  6
PHANTOM
370
-3
390
F
  0
LAYER
  5
1FD
100
AcDbSymbolTableRecord
100
AcDbLayerTableRecord
  2
01_ALL_DTM_PLN
 70
0
 62
7
  6
CONTINUOUS
370
-3
390
F
  0
LAYER
  5
1FE
100
AcDbSymbolTableRecord
100
AcDbLayerTableRecord
  2
01__ASM_ALL_DTM_PLN
 70
0
 62
7
  6
CONTINUOUS
370
-3
390
F
  0
LAYER
  5
1FF
100
AcDbSymbolTableRecord
100
AcDbLayerTableRecord
  2
01__ASM_DEF_DTM_PLN
 70
0
 62
7
  6
CONTINUOUS
370
-3
390
F
  0
LAYER
  5
200
100
AcDbSymbolTableRecord
100
AcDbLayerTableRecord
  2
01___PRT_ALL_DTM_PLN
 70
0
 62
7
  6
CONTINUOUS
370
-3
390
F
  0
LAYER
  5
201
100
AcDbSymbolTableRecord
100
AcDbLayerTableRecord
  2
01___PRT_DEF_DTM_PLN
 70
0
 62
7
  6
CONTINUOUS
370
-3
390
F
  0
LAYER
  5
202
100
AcDbSymbolTableRecord
100
AcDbLayerTableRecord
  2
02_ALL_AXES
 70
0
 62
7
  6
CONTINUOUS
370
-3
390
F
  0
LAYER
  5
203
100
AcDbSymbolTableRecord
100
AcDbLayerTableRecord
  2
02__ASM_ALL_AXES
 70
0
 62
7
  6
CONTINUOUS
370
-3
390
F
  0
LAYER
  5
204
100
AcDbSymbolTableRecord
100
AcDbLayerTableRecord
  2
02___PRT_ALL_AXES
 70
0
 62
7
  6
CONTINUOUS
370
-3
390
F
  0
LAYER
  5
205
100
AcDbSymbolTableRecord
100
AcDbLayerTableRecord
  2
03_ALL_CURVES
 70
0
 62
7
  6
CONTINUOUS
370
-3
390
F
  0
LAYER
  5
206
100
AcDbSymbolTableRecord
100
AcDbLayerTableRecord
  2
03__ASM_ALL_CURVES
 70
0
 62
7
  6
CONTINUOUS
370
-3
390
F
  0
LAYER
  5
207
100
AcDbSymbolTableRecord
100
AcDbLayerTableRecord
  2
03___PRT_ALL_CURVES
 70
0
 62
7
  6
CONTINUOUS
370
-3
390
F
  0
LAYER
  5
208
100
AcDbSymbolTableRecord
100
AcDbLayerTableRecord
  2
04_ALL_DTM_PNT
 70
0
 62
7
  6
CONTINUOUS
370
-3
390
F
  0
LAYER
  5
209
100
AcDbSymbolTableRecord
100
AcDbLayerTableRecord
  2
04__ASM_ALL_DTM_PNT
 70
0
 62
7
  6
CONTINUOUS
370
-3
390
F
  0
LAYER
  5
20A
100
AcDbSymbolTableRecord
100
AcDbLayerTableRecord
  2
04___PRT_ALL_DTM_PNT
 70
0
 62
7
  6
CONTINUOUS
370
-3
390
F
  0
LAYER
  5
20B
100
AcDbSymbolTableRecord
100
AcDbLayerTableRecord
  2
05_ALL_DTM_CSYS
 70
0
 62
7
  6
CONTINUOUS
370
-3
390
F
  0
LAYER
  5
20C
100
AcDbSymbolTableRecord
100
AcDbLayerTableRecord
  2
05__ASM_ALL_DTM_CSYS
 70
0
 62
7
  6
CONTINUOUS
370
-3
390
F
  0
LAYER
  5
20D
100
AcDbSymbolTableRecord
100
AcDbLayerTableRecord
  2
05__ASM_DEF_DTM_CSYS
 70
0
 62
7
  6
CONTINUOUS
370
-3
390
F
  0
LAYER
  5
20E
100
AcDbSymbolTableRecord
100
AcDbLayerTableRecord
  2
05___PRT_ALL_DTM_CSYS
 70
0
 62
7
  6
CONTINUOUS
370
-3
390
F
  0
LAYER
  5
20F
100
AcDbSymbolTableRecord
100
AcDbLayerTableRecord
  2
05___PRT_DEF_DTM_CSYS
 70
0
 62
7
  6
CONTINUOUS
370
-3
390
F
  0
LAYER
  5
210
100
AcDbSymbolTableRecord
100
AcDbLayerTableRecord
  2
06_ALL_SURFS
 70
0
 62
7
  6
CONTINUOUS
370
-3
390
F
  0
LAYER
  5
211
100
AcDbSymbolTableRecord
100
AcDbLayerTableRecord
  2
06__ASM_ALL_SURFS
 70
0
 62
7
  6
CONTINUOUS
370
-3
390
F
  0
LAYER
  5
212
100
AcDbSymbolTableRecord
100
AcDbLayerTableRecord
  2
06___PRT_ALL_SURFS
 70
0
 62
7
  6
CONTINUOUS
370
-3
390
F
  0
LAYER
  5
213
100
AcDbSymbolTableRecord
100
AcDbLayerTableRecord
  2
07__ASM_ALL_SKELETONS
 70
0
 62
7
  6
CONTINUOUS
370
-3
390
F
  0
LAYER
  5
214
100
AcDbSymbolTableRecord
100
AcDbLayerTableRecord
  2
LAYER_AXIS
 70
0
 62
7
  6
CONTINUOUS
370
-3
390
F
  0
LAYER
  5
215
100
AcDbSymbolTableRecord
100
AcDbLayerTableRecord
  2
LAYER_CHAMFER_FEAT
 70
0
 62
7
  6
CONTINUOUS
370
-3
390
F
  0
LAYER
  5
216
100
AcDbSymbolTableRecord
100
AcDbLayerTableRecord
  2
LAYER_CUT_FEAT
 70
0
 62
7
  6
CONTINUOUS
370
-3
390
F
  0
LAYER
  5
217
100
AcDbSymbolTableRecord
100
AcDbLayerTableRecord
  2
LAYER_DATUM
 70
0
 62
7
  6
CONTINUOUS
370
-3
390
F
  0
LAYER
  5
218
100
AcDbSymbolTableRecord
100
AcDbLayerTableRecord
  2
LAYER_DIM
 70
0
 62
7
  6
CONTINUOUS
370
-3
390
F
  0
LAYER
  5
219
100
AcDbSymbolTableRecord
100
AcDbLayerTableRecord
  2
LAYER_FEATURE
 70
0
 62
7
  6
CONTINUOUS
370
-3
390
F
  0
LAYER
  5
21A
100
AcDbSymbolTableRecord
100
AcDbLayerTableRecord
  2
LAYER_GEOM_FEAT
 70
0
 62
7
  6
CONTINUOUS
370
-3
390
F
  0
LAYER
  5
21B
100
AcDbSymbolTableRecord
100
AcDbLayerTableRecord
  2
LAYER_NOGEOM_FEAT
 70
0
 62
7
  6
CONTINUOUS
370
-3
390
F
  0
LAYER
  5
21C
100
AcDbSymbolTableRecord
100
AcDbLayerTableRecord
  2
LAYER_PARAMETER_DIM
 70
0
 62
7
  6
CONTINUOUS
370
-3
390
F
  0
LAYER
  5
21D
100
AcDbSymbolTableRecord
100
AcDbLayerTableRecord
  2
LAYER_PROTRUSION_FEAT
 70
0
 62
7
  6
CONTINUOUS
370
-3
390
F
  0
LAYER
  5
21E
100
AcDbSymbolTableRecord
100
AcDbLayerTableRecord
  2
LAYER_QUILT
 70
0
 62
7
  6
CONTINUOUS
370
-3
390
F
  0
LAYER
  5
21F
100
AcDbSymbolTableRecord
100
AcDbLayerTableRecord
  2
LAYER_ROUND_FEAT
 70
0
 62
7
  6
CONTINUOUS
370
-3
390
F
  0
ENDTAB
  0
TABLE
  2
STYLE
  5
3
100
AcDbSymbolTable
 70
1
  0
STYLE
  5
11
100
AcDbSymbolTableRecord
100
AcDbTextStyleTableRecord
  2
STANDARD
 70
0
 40
0.0
 41
0.8
 50
0.0
 71
0
 42
0.2
  3
txt
  4

  0
STYLE
  5
220
100
AcDbSymbolTableRecord
100
AcDbTextStyleTableRecord
  2
TEXTSTYLE_1
 70
0
 40
0.0
 41
0.8
 50
0.0
 71
0
 42
0.2
  3
gdt
  4

  0
ENDTAB
  0
TABLE
  2
VIEW
  5
6
100
AcDbSymbolTable
 70
0
  0
ENDTAB
  0
TABLE
  2
UCS
  5
7
100
AcDbSymbolTable
 70
0
  0
ENDTAB
  0
TABLE
  2
APPID
  5
9
100
AcDbSymbolTable
 70
1
  0
APPID
  5
221
100
AcDbSymbolTableRecord
100
AcDbRegAppTableRecord
  2
ACAD
 70
0
  0
ENDTAB
  0
TABLE
  2
BLOCK_RECORD
  5
1
100
AcDbSymbolTable
 70
0
  0
BLOCK_RECORD
  5
222
100
AcDbSymbolTableRecord
100
AcDbBlockTableRecord
  2
*Model_Space
  0
BLOCK_RECORD
  5
223
100
AcDbSymbolTableRecord
100
AcDbBlockTableRecord
  2
*Paper_Space
  0
ENDTAB
  0
TABLE
  2
DIMSTYLE
  5
A
100
AcDbSymbolTable
 70
1
100
AcDbDimStyleTable
 71
0
  0
DIMSTYLE
105
224
100
AcDbSymbolTableRecord
100
AcDbDimStyleTableRecord
  2
STANDARD
 70
0
  3

  4

 40
1.0
 41
0.1875
 42
0.0625
 43
0.38
 44
0.125
 45
0.0
 46
0.0
 47
0.0001
 48
0.0001
140
0.15625
141
0.09
142
0.0
143
25.4
144
1.0
145
0.0
146
1.0
147
0.09
 71
0.0
 72
0.0
 73
1
 74
1
 75
0
 76
0
 77
0
 78
4
 79
1
170
0
171
3
172
0
173
0
174
0
175
0
176
0
177
0
178
0
270
2
179
4
271
4
272
4
273
2
274
2
275
0
280
0
281
0
282
0
283
1
284
4
285
0
286
0
287
3
288
0
340
11
278
46
  0
ENDTAB
  0
ENDSEC
  0
SECTION
  2
BLOCKS
  0
BLOCK
  5
20
100
AcDbEntity
  8
0
100
AcDbBlockBegin
  2
*Model_Space
 70
0
 10
0.0
 20
0.0
 30
0.0
  3
*Model_Space
  1

  0
ENDBLK
  5
21
100
AcDbEntity
  8
0
100
AcDbBlockEnd
  0
BLOCK
  5
1C
100
AcDbEntity
  8
0
100
AcDbBlockBegin
  2
*Paper_Space
 70
0
 10
0.0
 20
0.0
 30
0.0
  3
*Paper_Space
  1

  0
ENDBLK
  5
1D
100
AcDbEntity
  8
0
100
AcDbBlockEnd
  0
ENDSEC
  0
SECTION
  2
ENTITIES
  0
MTEXT
  5
225
100
AcDbEntity
  8
0
100
AcDbMText
 62
7
  6
CONTINUOUS
  7
STANDARD
 71
1
 72
1
 10
15.9560215477
 20
0.9479130325
 30
0.0
 11
1.0
 21
0.0
 31
0.0
 44
0.9
  1
SCALE: 1:0.333
 40
0.3
 41
3.36
  0
LINE
  5
226
100
AcDbEntity
  8
0
100
AcDbLine
 62
7
  6
CONTINUOUS
 10
0.0
 20
0.0
 11
0.0
 21
17.0
  0
LINE
  5
227
100
AcDbEntity
  8
0
100
AcDbLine
 62
7
  6
CONTINUOUS
 10
0.0
 20
0.0
 11
22.0
 21
0.0
  0
LINE
  5
228
100
AcDbEntity
  8
0
100
AcDbLine
 62
7
  6
CONTINUOUS
 10
0.0
 20
17.0
 11
22.0
 21
17.0
  0
LINE
  5
229
100
AcDbEntity
  8
0
100
AcDbLine
 62
7
  6
CONTINUOUS
 10
22.0
 20
0.0
 11
22.0
 21
17.0
  0
LINE
  5
22A
100
AcDbEntity
  8
LAYER_FEATURE
100
AcDbLine
 62
7
  6
CONTINUOUS
 10
6.2940339428
 20
4.1801198968
 11
6.253140319
 21
4.1801198968
  0
LINE
  5
22B
100
AcDbEntity
  8
LAYER_FEATURE
100
AcDbLine
 62
7
  6
CONTINUOUS
 10
5.8380339428
 20
4.1801198968
 11
5.8789275666
 21
4.1801198968
  0
LINE
  5
22C
100
AcDbEntity
  8
02___PRT_ALL_AXES
100
AcDbLine
 62
7
  6
CONTINUOUS
 10
5.8927006095
 20
4.2811198968
 11
6.2393672762
 21
4.2811198968
  0
LINE
  5
22D
100
AcDbEntity
  8
02___PRT_ALL_AXES
100
AcDbLine
 62
7
  6
CONTINUOUS
 10
6.4017006095
 20
4.8117865634
 11
6.2940339428
 21
4.8117865634
  0
LINE
  5
22E
100
AcDbEntity
  8
LAYER_FEATURE
100
AcDbLine
 62
7
  6
CONTINUOUS
 10
5.8380339428
 20
6.8601198968
 11
5.8380339428
 21
4.1801198968
  0
LINE
  5
22F
100
AcDbEntity
  8
LAYER_FEATURE
100
AcDbLine
 62
7
  6
CONTINUOUS
 10
5.8789275666
 20
6.8601198968
 11
5.8789275666
 21
4.1801198968
  0
LINE
  5
230
100
AcDbEntity
  8
LAYER_FEATURE
100
AcDbLine
 62
7
  6
CONTINUOUS
 10
5.8927006095
 20
6.7953228246
 11
5.8927006095
 21
4.2449169689
  0
LINE
  5
231
100
AcDbEntity
  8
LAYER_FEATURE
100
AcDbLine
 62
7
  6
CONTINUOUS
 10
6.253140319
 20
6.8601198968
 11
6.2393672762
 21
6.7953228246
  0
LINE
  5
232
100
AcDbEntity
  8
LAYER_FEATURE
100
AcDbLine
 62
7
  6
CONTINUOUS
 10
6.253140319
 20
4.1801198968
 11
6.2393672762
 21
4.2449169689
  0
LINE
  5
233
100
AcDbEntity
  8
LAYER_FEATURE
100
AcDbLine
 62
7
  6
CONTINUOUS
 10
5.8789275666
 20
4.1801198968
 11
5.8927006095
 21
4.2449169689
  0
LINE
  5
234
100
AcDbEntity
  8
LAYER_FEATURE
100
AcDbLine
 62
7
  6
CONTINUOUS
 10
5.8789275666
 20
6.8601198968
 11
5.8927006095
 21
6.7953228246
  0
LINE
  5
235
100
AcDbEntity
  8
LAYER_FEATURE
100
AcDbLine
 62
7
  6
CONTINUOUS
 10
6.2393672762
 20
6.7953228246
 11
6.2393672762
 21
4.2449169689
  0
LINE
  5
236
100
AcDbEntity
  8
LAYER_FEATURE
100
AcDbLine
 62
7
  6
CONTINUOUS
 10
6.253140319
 20
6.8601198968
 11
6.253140319
 21
4.1801198968
  0
LINE
  5
237
100
AcDbEntity
  8
LAYER_FEATURE
100
AcDbLine
 62
7
  6
CONTINUOUS
 10
6.2940339428
 20
6.8601198968
 11
6.2940339428
 21
4.1801198968
  0
LINE
  5
238
100
AcDbEntity
  8
02___PRT_ALL_AXES
100
AcDbLine
 62
7
  6
CONTINUOUS
 10
6.4017006095
 20
6.2284532301
 11
6.4017006095
 21
4.8117865634
  0
LINE
  5
239
100
AcDbEntity
  8
02___PRT_ALL_AXES
100
AcDbLine
 62
7
  6
CONTINUOUS
 10
6.4227006095
 20
6.2074532301
 11
6.4227006095
 21
4.8327865634
  0
LINE
  5
23A
100
AcDbEntity
  8
02___PRT_ALL_AXES
100
AcDbLine
 62
7
  6
CONTINUOUS
 10
6.4227006095
 20
4.8327865634
 11
6.4017006095
 21
4.8117865634
  0
LINE
  5
23B
100
AcDbEntity
  8
02___PRT_ALL_AXES
100
AcDbLine
 62
7
  6
CONTINUOUS
 10
6.4017006095
 20
6.2284532301
 11
6.2940339428
 21
6.2284532301
  0
LINE
  5
23C
100
AcDbEntity
  8
02___PRT_ALL_AXES
100
AcDbLine
 62
7
  6
CONTINUOUS
 10
6.4227006095
 20
6.2074532301
 11
6.4017006095
 21
6.2284532301
  0
LINE
  5
23D
100
AcDbEntity
  8
LAYER_FEATURE
100
AcDbLine
 62
7
  6
CONTINUOUS
 10
5.8927006095
 20
6.6076790514
 11
6.2393672762
 21
6.6076790514
  0
LINE
  5
23E
100
AcDbEntity
  8
0
100
AcDbLine
 62
7
  6
CONTINUOUS
 10
5.8927006095
 20
6.6088723292
 11
6.2393672762
 21
6.6088723292
  0
LINE
  5
23F
100
AcDbEntity
  8
LAYER_FEATURE
100
AcDbLine
 62
7
  6
CONTINUOUS
 10
5.8927006095
 20
6.6720549841
 11
6.2393672762
 21
6.6720549841
  0
LINE
  5
240
100
AcDbEntity
  8
LAYER_FEATURE
100
AcDbLine
 62
7
  6
CONTINUOUS
 10
5.8927006095
 20
6.6825151362
 11
6.2393672762
 21
6.6825151362
  0
LINE
  5
241
100
AcDbEntity
  8
0
100
AcDbLine
 62
7
  6
CONTINUOUS
 10
5.8927006095
 20
6.6830502321
 11
6.2393672762
 21
6.6830502321
  0
LINE
  5
242
100
AcDbEntity
  8
LAYER_FEATURE
100
AcDbLine
 62
7
  6
CONTINUOUS
 10
5.8927006095
 20
6.7262101663
 11
6.2393672762
 21
6.7262101663
  0
LINE
  5
243
100
AcDbEntity
  8
LAYER_FEATURE
100
AcDbLine
 62
7
  6
CONTINUOUS
 10
5.8927006095
 20
6.7325767846
 11
6.2393672762
 21
6.7325767846
  0
LINE
  5
244
100
AcDbEntity
  8
0
100
AcDbLine
 62
7
  6
CONTINUOUS
 10
5.8927006095
 20
6.7327112751
 11
6.2393672762
 21
6.7327112751
  0
LINE
  5
245
100
AcDbEntity
  8
LAYER_FEATURE
100
AcDbLine
 62
7
  6
CONTINUOUS
 10
5.8927006095
 20
6.7546596283
 11
6.2393672762
 21
6.7546596283
  0
LINE
  5
246
100
AcDbEntity
  8
LAYER_FEATURE
100
AcDbLine
 62
7
  6
CONTINUOUS
 10
5.8927006095
 20
6.7567970194
 11
6.2393672762
 21
6.7567970194
  0
LINE
  5
247
100
AcDbEntity
  8
LAYER_FEATURE
100
AcDbLine
 62
7
  6
CONTINUOUS
 10
6.2940339428
 20
6.8601198968
 11
6.253140319
 21
6.8601198968
  0
LINE
  5
248
100
AcDbEntity
  8
LAYER_FEATURE
100
AcDbLine
 62
7
  6
CONTINUOUS
 10
5.8380339428
 20
6.8601198968
 11
5.8789275666
 21
6.8601198968
  0
LINE
  5
249
100
AcDbEntity
  8
LAYER_FEATURE
100
AcDbLine
 62
7
  6
CONTINUOUS
 10
5.7785387505
 20
11.2600477814
 11
5.8194323743
 21
11.2600477814
  0
LINE
  5
24A
100
AcDbEntity
  8
LAYER_FEATURE
100
AcDbLine
 62
7
  6
CONTINUOUS
 10
6.1936451267
 20
11.2600477814
 11
6.2345387505
 21
11.2600477814
  0
LINE
  5
24B
100
AcDbEntity
  8
02___PRT_ALL_AXES
100
AcDbLine
 62
7
  6
CONTINUOUS
 10
5.8332054172
 20
11.3610477814
 11
6.1798720839
 21
11.3610477814
  0
LINE
  5
24C
100
AcDbEntity
  8
02___PRT_ALL_AXES
100
AcDbLine
 62
7
  6
CONTINUOUS
 10
6.2345387505
 20
11.891714448
 11
6.3422054172
 21
11.891714448
  0
LINE
  5
24D
100
AcDbEntity
  8
LAYER_FEATURE
100
AcDbLine
 62
7
  6
CONTINUOUS
 10
5.8332054172
 20
12.0064687343
 11
6.1798720839
 21
12.0064687343
  0
LINE
  5
24E
100
AcDbEntity
  8
LAYER_FEATURE
100
AcDbLine
 62
7
  6
CONTINUOUS
 10
6.1798720839
 20
12.0890172522
 11
5.8332054172
 21
12.0890172522
  0
LINE
  5
24F
100
AcDbEntity
  8
LAYER_FEATURE
100
AcDbLine
 62
7
  6
CONTINUOUS
 10
6.1798720839
 20
12.1252351817
 11
5.8332054172
 21
12.1252351817
  0
LINE
  5
250
100
AcDbEntity
  8
0
100
AcDbLine
 62
7
  6
CONTINUOUS
 10
5.8332054172
 20
12.1365314836
 11
6.1798720839
 21
12.1365314836
  0
LINE
  5
251
100
AcDbEntity
  8
LAYER_FEATURE
100
AcDbLine
 62
7
  6
CONTINUOUS
 10
5.8332054172
 20
12.1437950503
 11
6.1798720839
 21
12.1437950503
  0
LINE
  5
252
100
AcDbEntity
  8
LAYER_FEATURE
100
AcDbLine
 62
7
  6
CONTINUOUS
 10
5.8332054172
 20
12.1711441706
 11
6.1798720839
 21
12.1711441706
  0
LINE
  5
253
100
AcDbEntity
  8
LAYER_FEATURE
100
AcDbLine
 62
7
  6
CONTINUOUS
 10
6.1798720839
 20
12.2463262853
 11
5.8332054172
 21
12.2463262853
  0
LINE
  5
254
100
AcDbEntity
  8
LAYER_FEATURE
100
AcDbLine
 62
7
  6
CONTINUOUS
 10
5.7785387505
 20
11.2600477814
 11
5.7785387505
 21
13.9400477814
  0
LINE
  5
255
100
AcDbEntity
  8
LAYER_FEATURE
100
AcDbLine
 62
7
  6
CONTINUOUS
 10
6.1798720839
 20
12.2846303093
 11
5.8332054172
 21
12.2846303093
  0
LINE
  5
256
100
AcDbEntity
  8
LAYER_FEATURE
100
AcDbLine
 62
7
  6
CONTINUOUS
 10
5.8332054172
 20
12.3163802616
 11
6.1798720839
 21
12.3163802616
  0
LINE
  5
257
100
AcDbEntity
  8
LAYER_FEATURE
100
AcDbLine
 62
7
  6
CONTINUOUS
 10
5.8194323743
 20
11.2600477814
 11
5.8194323743
 21
13.9400477814
  0
LINE
  5
258
100
AcDbEntity
  8
LAYER_FEATURE
100
AcDbLine
 62
7
  6
CONTINUOUS
 10
5.8332054172
 20
11.3248449364
 11
5.8332054172
 21
13.8752506264
  0
LINE
  5
259
100
AcDbEntity
  8
LAYER_FEATURE
100
AcDbLine
 62
7
  6
CONTINUOUS
 10
5.8332054172
 20
12.3449609428
 11
6.1798720839
 21
12.3449609428
  0
LINE
  5
25A
100
AcDbEntity
  8
LAYER_FEATURE
100
AcDbLine
 62
7
  6
CONTINUOUS
 10
6.1798720839
 20
12.4111742779
 11
5.8332054172
 21
12.4111742779
  0
LINE
  5
25B
100
AcDbEntity
  8
LAYER_FEATURE
100
AcDbLine
 62
7
  6
CONTINUOUS
 10
6.1798720839
 20
13.8752507092
 11
6.1936451267
 21
13.9400477814
  0
LINE
  5
25C
100
AcDbEntity
  8
LAYER_FEATURE
100
AcDbLine
 62
7
  6
CONTINUOUS
 10
6.1798720839
 20
12.4507480126
 11
5.8332054172
 21
12.4507480126
  0
LINE
  5
25D
100
AcDbEntity
  8
LAYER_FEATURE
100
AcDbLine
 62
7
  6
CONTINUOUS
 10
5.8332054172
 20
12.4950113536
 11
6.1798720839
 21
12.4950113536
  0
LINE
  5
25E
100
AcDbEntity
  8
LAYER_FEATURE
100
AcDbLine
 62
7
  6
CONTINUOUS
 10
6.1798720839
 20
11.3248448536
 11
6.1936451267
 21
11.2600477814
  0
LINE
  5
25F
100
AcDbEntity
  8
LAYER_FEATURE
100
AcDbLine
 62
7
  6
CONTINUOUS
 10
5.8332054172
 20
12.524214448
 11
6.1798720839
 21
12.524214448
  0
LINE
  5
260
100
AcDbEntity
  8
LAYER_FEATURE
100
AcDbLine
 62
7
  6
CONTINUOUS
 10
6.1798720839
 20
12.5800477814
 11
5.8332054172
 21
12.5800477814
  0
LINE
  5
261
100
AcDbEntity
  8
LAYER_FEATURE
100
AcDbLine
 62
7
  6
CONTINUOUS
 10
5.8194323743
 20
11.2600477814
 11
5.8332054172
 21
11.3248448536
  0
LINE
  5
262
100
AcDbEntity
  8
LAYER_FEATURE
100
AcDbLine
 62
7
  6
CONTINUOUS
 10
6.1798720839
 20
12.6200477814
 11
5.8332054172
 21
12.6200477814
  0
LINE
  5
263
100
AcDbEntity
  8
LAYER_FEATURE
100
AcDbLine
 62
7
  6
CONTINUOUS
 10
5.8332054172
 20
12.6758811147
 11
6.1798720839
 21
12.6758811147
  0
LINE
  5
264
100
AcDbEntity
  8
LAYER_FEATURE
100
AcDbLine
 62
7
  6
CONTINUOUS
 10
5.8194323743
 20
13.9400477814
 11
5.8332054172
 21
13.8752507092
  0
LINE
  5
265
100
AcDbEntity
  8
LAYER_FEATURE
100
AcDbLine
 62
7
  6
CONTINUOUS
 10
6.1798720839
 20
11.3248449283
 11
6.1798720839
 21
13.8752506344
  0
LINE
  5
266
100
AcDbEntity
  8
LAYER_FEATURE
100
AcDbLine
 62
7
  6
CONTINUOUS
 10
6.1936451267
 20
11.2600477814
 11
6.1936451267
 21
13.9400477814
  0
LINE
  5
267
100
AcDbEntity
  8
LAYER_FEATURE
100
AcDbLine
 62
7
  6
CONTINUOUS
 10
6.2345387505
 20
11.2600477814
 11
6.2345387505
 21
13.9400477814
  0
LINE
  5
268
100
AcDbEntity
  8
02___PRT_ALL_AXES
100
AcDbLine
 62
7
  6
CONTINUOUS
 10
6.3422054172
 20
11.891714448
 11
6.3422054172
 21
13.3083811147
  0
LINE
  5
269
100
AcDbEntity
  8
02___PRT_ALL_AXES
100
AcDbLine
 62
7
  6
CONTINUOUS
 10
6.3632054172
 20
11.912714448
 11
6.3632054172
 21
13.2873811147
  0
LINE
  5
26A
100
AcDbEntity
  8
02___PRT_ALL_AXES
100
AcDbLine
 62
7
  6
CONTINUOUS
 10
6.3422054172
 20
11.891714448
 11
6.3632054172
 21
11.912714448
  0
LINE
  5
26B
100
AcDbEntity
  8
02___PRT_ALL_AXES
100
AcDbLine
 62
7
  6
CONTINUOUS
 10
6.2345387505
 20
13.3083811147
 11
6.3422054172
 21
13.3083811147
  0
LINE
  5
26C
100
AcDbEntity
  8
02___PRT_ALL_AXES
100
AcDbLine
 62
7
  6
CONTINUOUS
 10
6.3422054172
 20
13.3083811147
 11
6.3632054172
 21
13.2873811147
  0
LINE
  5
26D
100
AcDbEntity
  8
02___PRT_ALL_AXES
100
AcDbLine
 62
7
  6
CONTINUOUS
 10
5.8332054172
 20
13.8390477814
 11
6.1798720839
 21
13.8390477814
  0
LINE
  5
26E
100
AcDbEntity
  8
LAYER_FEATURE
100
AcDbLine
 62
7
  6
CONTINUOUS
 10
5.7785387505
 20
13.9400477814
 11
5.8194323743
 21
13.9400477814
  0
LINE
  5
26F
100
AcDbEntity
  8
LAYER_FEATURE
100
AcDbLine
 62
7
  6
CONTINUOUS
 10
6.1936451267
 20
13.9400477814
 11
6.2345387505
 21
13.9400477814
  0
LINE
  5
270
100
AcDbEntity
  8
LAYER_FEATURE
100
AcDbLine
 62
7
  6
CONTINUOUS
 10
15.261086664
 20
11.1708049929
 11
15.2987521858
 21
11.1708049929
  0
LINE
  5
271
100
AcDbEntity
  8
LAYER_FEATURE
100
AcDbLine
 62
7
  6
CONTINUOUS
 10
15.6434249555
 20
11.1708049929
 11
15.6810904773
 21
11.1708049929
  0
LINE
  5
272
100
AcDbEntity
  8
02___PRT_ALL_AXES
100
AcDbLine
 62
7
  6
CONTINUOUS
 10
15.3114379984
 20
11.2718049929
 11
15.4448020356
 21
11.2718049929
  0
LINE
  5
273
100
AcDbEntity
  8
02___PRT_ALL_AXES
100
AcDbLine
 62
7
  6
CONTINUOUS
 10
15.6219592376
 20
13.6067643296
 11
15.6107085968
 21
13.6028446347
  0
LINE
  5
274
100
AcDbEntity
  8
02___PRT_ALL_AXES
100
AcDbLine
 62
7
  6
CONTINUOUS
 10
15.6219592376
 20
11.4148456562
 11
15.6107085968
 21
11.4187653511
  0
LINE
  5
275
100
AcDbEntity
  8
LAYER_FEATURE
100
AcDbLine
 62
7
  6
CONTINUOUS
 10
14.9547912419
 20
13.2249089496
 11
14.9620342051
 21
13.2483471873
  0
LINE
  5
276
100
AcDbEntity
  8
02___PRT_ALL_AXES
100
AcDbLine
 62
7
  6
CONTINUOUS
 10
15.679862396
 20
11.8024716596
 11
15.7802580443
 21
11.8024716596
  0
LINE
  5
277
100
AcDbEntity
  8
LAYER_FEATURE
100
AcDbLine
 62
7
  6
CONTINUOUS
 10
14.869573639
 20
12.758845138
 11
14.8731616975
 21
12.7977694774
  0
LINE
  5
278
100
AcDbEntity
  8
LAYER_FEATURE
100
AcDbLine
 62
7
  6
CONTINUOUS
 10
14.8883462429
 20
12.9214122825
 11
14.8941030657
 21
12.9585802661
  0
LINE
  5
279
100
AcDbEntity
  8
LAYER_FEATURE
100
AcDbLine
 62
7
  6
CONTINUOUS
 10
14.916136313
 20
13.0752280454
 11
14.9239392034
 21
13.1098475022
  0
LINE
  5
27A
100
AcDbEntity
  8
LAYER_FEATURE
100
AcDbLine
 62
7
  6
CONTINUOUS
 10
14.8400502956
 20
12.7314480819
 11
14.8546299983
 21
12.7370997794
  0
LINE
  5
27B
100
AcDbEntity
  8
LAYER_FEATURE
100
AcDbLine
 62
7
  6
CONTINUOUS
 10
14.8636001446
 20
12.8344106279
 11
14.8515543012
 21
12.8562470002
  0
LINE
  5
27C
100
AcDbEntity
  8
LAYER_FEATURE
100
AcDbLine
 62
7
  6
CONTINUOUS
 10
14.8867209513
 20
12.9984059522
 11
14.8760415933
 21
13.0245134905
  0
LINE
  5
27D
100
AcDbEntity
  8
LAYER_FEATURE
100
AcDbLine
 62
7
  6
CONTINUOUS
 10
14.9188938645
 20
13.1520089086
 11
14.9098086038
 21
13.1818311761
  0
LINE
  5
27E
100
AcDbEntity
  8
LAYER_FEATURE
100
AcDbLine
 62
7
  6
CONTINUOUS
 10
14.9594331745
 20
13.2919457168
 11
14.9521356476
 21
13.3248471035
  0
LINE
  5
27F
100
AcDbEntity
  8
02___PRT_ALL_AXES
100
AcDbLine
 62
7
  6
CONTINUOUS
 10
15.5935717114
 20
12.2736061188
 11
15.6009932005
 21
12.2735364217
  0
LINE
  5
280
100
AcDbEntity
  8
02___PRT_ALL_AXES
100
AcDbLine
 62
7
  6
CONTINUOUS
 10
15.5935673842
 20
12.2736280118
 11
15.6009932005
 21
12.2735364217
  0
LINE
  5
281
100
AcDbEntity
  8
LAYER_FEATURE
100
AcDbLine
 62
7
  6
CONTINUOUS
 10
14.8360014262
 20
12.721876164
 11
15.1281392288
 21
12.721876164
  0
LINE
  5
282
100
AcDbEntity
  8
LAYER_FEATURE
100
AcDbLine
 62
7
  6
CONTINUOUS
 10
15.1307139067
 20
12.758845138
 11
14.869573639
 21
12.758845138
  0
LINE
  5
283
100
AcDbEntity
  8
LAYER_FEATURE
100
AcDbLine
 62
7
  6
CONTINUOUS
 10
15.1338105202
 20
12.7977694774
 11
14.8731616975
 21
12.7977694774
  0
LINE
  5
284
100
AcDbEntity
  8
LAYER_FEATURE
100
AcDbLine
 62
7
  6
CONTINUOUS
 10
14.8575841122
 20
12.9053457866
 11
14.8723288944
 21
12.9054859931
  0
LINE
  5
285
100
AcDbEntity
  8
LAYER_FEATURE
100
AcDbLine
 62
7
  6
CONTINUOUS
 10
14.849606148
 20
12.8694642842
 11
15.140705161
 21
12.8694642842
  0
LINE
  5
286
100
AcDbEntity
  8
LAYER_FEATURE
100
AcDbLine
 62
7
  6
CONTINUOUS
 10
14.8530356646
 20
12.8973897209
 11
15.1438898056
 21
12.8973897209
  0
LINE
  5
287
100
AcDbEntity
  8
LAYER_FEATURE
100
AcDbLine
 62
7
  6
CONTINUOUS
 10
15.1467603637
 20
12.9214122825
 11
14.8883462429
 21
12.9214122825
  0
LINE
  5
288
100
AcDbEntity
  8
LAYER_FEATURE
100
AcDbLine
 62
7
  6
CONTINUOUS
 10
15.1517034129
 20
12.9585802661
 11
14.8941030657
 21
12.9585802661
  0
LINE
  5
289
100
AcDbEntity
  8
02___PRT_ALL_AXES
100
AcDbLine
 62
7
  6
CONTINUOUS
 10
15.7874359595
 20
13.0724369747
 11
15.7931242688
 21
13.0730590417
  0
LINE
  5
28A
100
AcDbEntity
  8
LAYER_FEATURE
100
AcDbLine
 62
7
  6
CONTINUOUS
 10
14.8748636177
 20
13.0383183255
 11
15.1638155923
 21
13.0383183255
  0
LINE
  5
28B
100
AcDbEntity
  8
LAYER_FEATURE
100
AcDbLine
 62
7
  6
CONTINUOUS
 10
14.8798399529
 20
13.0646638955
 11
15.1683424302
 21
13.0646638955
  0
LINE
  5
28C
100
AcDbEntity
  8
0
100
AcDbLine
 62
7
  6
CONTINUOUS
 10
14.884093474
 20
13.0709623111
 11
15.1694246579
 21
13.0709623111
  0
LINE
  5
28D
100
AcDbEntity
  8
LAYER_FEATURE
100
AcDbLine
 62
7
  6
CONTINUOUS
 10
15.1701576194
 20
13.0752280454
 11
14.916136313
 21
13.0752280454
  0
LINE
  5
28E
100
AcDbEntity
  8
LAYER_FEATURE
100
AcDbLine
 62
7
  6
CONTINUOUS
 10
15.1767411347
 20
13.1098475022
 11
14.9239392034
 21
13.1098475022
  0
LINE
  5
28F
100
AcDbEntity
  8
LAYER_FEATURE
100
AcDbLine
 62
7
  6
CONTINUOUS
 10
14.9094259123
 20
13.1959293359
 11
15.1950805106
 21
13.1959293359
  0
LINE
  5
290
100
AcDbEntity
  8
02___PRT_ALL_AXES
100
AcDbLine
 62
7
  6
CONTINUOUS
 10
15.679862396
 20
13.2191383262
 11
15.7802580443
 21
13.2191383262
  0
LINE
  5
291
100
AcDbEntity
  8
LAYER_FEATURE
100
AcDbLine
 62
7
  6
CONTINUOUS
 10
14.9158430043
 20
13.2201335292
 11
15.2007622072
 21
13.2201335292
  0
LINE
  5
292
100
AcDbEntity
  8
0
100
AcDbLine
 62
7
  6
CONTINUOUS
 10
14.9196927441
 20
13.2249089496
 11
15.2019610652
 21
13.2249089496
  0
LINE
  5
293
100
AcDbEntity
  8
02___PRT_ALL_AXES
100
AcDbLine
 62
7
  6
CONTINUOUS
 10
15.896880477
 20
11.8688947802
 11
15.9127652458
 21
11.88792553
  0
LINE
  5
294
100
AcDbEntity
  8
LAYER_FEATURE
100
AcDbLine
 62
7
  6
CONTINUOUS
 10
15.2078451795
 20
13.2483471873
 11
14.9620342051
 21
13.2483471873
  0
LINE
  5
295
100
AcDbEntity
  8
02___PRT_ALL_AXES
100
AcDbLine
 62
7
  6
CONTINUOUS
 10
15.896880477
 20
13.1527152056
 11
15.9127652458
 21
13.1336844558
  0
LINE
  5
296
100
AcDbEntity
  8
LAYER_FEATURE
100
AcDbLine
 62
7
  6
CONTINUOUS
 10
14.9525563967
 20
13.3389381105
 11
15.2332372524
 21
13.3389381105
  0
LINE
  5
297
100
AcDbEntity
  8
02___PRT_ALL_AXES
100
AcDbLine
 62
7
  6
CONTINUOUS
 10
15.3114379984
 20
13.7498049929
 11
15.4447081356
 21
13.7498049929
  0
LINE
  5
298
100
AcDbEntity
  8
LAYER_FEATURE
100
AcDbLine
 62
7
  6
CONTINUOUS
 10
15.261086664
 20
13.8508049929
 11
15.2987521858
 21
13.8508049929
  0
LINE
  5
299
100
AcDbEntity
  8
LAYER_FEATURE
100
AcDbLine
 62
7
  6
CONTINUOUS
 10
15.6434249555
 20
13.8508049929
 11
15.6810904773
 21
13.8508049929
  0
CIRCLE
  5
29A
100
AcDbEntity
  8
LAYER_FEATURE
100
AcDbCircle
 62
7
  6
CONTINUOUS
 10
15.5603552569
 20
5.4606247044
 40
1.34
  0
CIRCLE
  5
29B
100
AcDbEntity
  8
LAYER_FEATURE
100
AcDbCircle
 62
7
  6
CONTINUOUS
 10
15.5603552569
 20
5.4606247044
 40
1.2752029278
  0
CIRCLE
  5
29C
100
AcDbEntity
  8
02___PRT_ALL_AXES
100
AcDbCircle
 62
7
  6
CONTINUOUS
 10
15.5603552569
 20
5.4606247044
 40
1.106
  0
CIRCLE
  5
29D
100
AcDbEntity
  8
02___PRT_ALL_AXES
100
AcDbCircle
 62
7
  6
CONTINUOUS
 10
15.5603552569
 20
5.4606247044
 40
0.7083333333
  0
CIRCLE
  5
29E
100
AcDbEntity
  8
02___PRT_ALL_AXES
100
AcDbCircle
 62
7
  6
CONTINUOUS
 10
15.5603552569
 20
5.4606247044
 40
0.6873333333
  0
ARC
  5
29F
100
AcDbEntity
  8
02___PRT_ALL_AXES
100
AcDbCircle
 62
7
  6
CONTINUOUS
 10
15.5603552569
 20
5.4606247044
 40
0.5625
100
AcDbArc
 50
153.3827617612
 51
231.6172382388
  0
ARC
  5
2A0
100
AcDbEntity
  8
02___PRT_ALL_AXES
100
AcDbCircle
 62
7
  6
CONTINUOUS
 10
15.5603552569
 20
5.4606247044
 40
0.5625
100
AcDbArc
 50
58.3827617612
 51
136.6172382388
  0
ARC
  5
2A1
100
AcDbEntity
  8
02___PRT_ALL_AXES
100
AcDbCircle
 62
7
  6
CONTINUOUS
 10
15.5603552569
 20
5.4606247044
 40
0.5625
100
AcDbArc
 50
248.3827617612
 51
41.6172382388
  0
ARC
  5
2A2
100
AcDbEntity
  8
02___PRT_ALL_AXES
100
AcDbCircle
 62
7
  6
CONTINUOUS
 10
15.5603552569
 20
5.4606247044
 40
0.5421046798
100
AcDbArc
 50
136.1802428979
 51
153.8197571021
  0
ARC
  5
2A3
100
AcDbEntity
  8
02___PRT_ALL_AXES
100
AcDbCircle
 62
7
  6
CONTINUOUS
 10
15.5603552569
 20
5.4606247044
 40
0.5217093597
100
AcDbArc
 50
58.7288156508
 51
231.2711843492
  0
ARC
  5
2A4
100
AcDbEntity
  8
02___PRT_ALL_AXES
100
AcDbCircle
 62
7
  6
CONTINUOUS
 10
15.5603552569
 20
5.4606247044
 40
0.5217093597
100
AcDbArc
 50
248.7288156508
 51
41.2711843492
  0
ARC
  5
2A5
100
AcDbEntity
  8
02___PRT_ALL_AXES
100
AcDbCircle
 62
7
  6
CONTINUOUS
 10
15.1166478996
 20
5.7713119408
 40
0.0833333333
100
AcDbArc
 50
50.8903869362
 51
239.1096130638
  0
ARC
  5
2A6
100
AcDbEntity
  8
02___PRT_ALL_AXES
100
AcDbCircle
 62
7
  6
CONTINUOUS
 10
15.9085318788
 20
5.8755654445
 40
0.0833333333
100
AcDbArc
 50
301.820265907
 51
158.179734093
  0
ARC
  5
2A7
100
AcDbEntity
  8
02___PRT_ALL_AXES
100
AcDbCircle
 62
7
  6
CONTINUOUS
 10
15.2895219236
 20
4.9915276107
 40
0.0833333333
100
AcDbArc
 50
131.820265907
 51
348.179734093
  0
ARC
  5
2A8
100
AcDbEntity
  8
02___PRT_ALL_AXES
100
AcDbCircle
 62
7
  6
CONTINUOUS
 10
19.2304660188
 20
62.4325672837
 40
50.5825529231
100
AcDbArc
 50
266.0413933054
 51
266.1675271571
  0
ARC
  5
2A9
100
AcDbEntity
  8
02___PRT_ALL_AXES
100
AcDbCircle
 62
7
  6
CONTINUOUS
 10
13.8586967879
 20
-14.2665293274
 40
26.3697696586
100
AcDbArc
 50
85.540733433
 51
86.0399169954
  0
ARC
  5
2AA
100
AcDbEntity
  8
LAYER_FEATURE
100
AcDbCircle
 62
7
  6
CONTINUOUS
 10
17.6483119175
 20
12.5399291586
 40
2.8180396348
100
AcDbArc
 50
172.7125556465
 51
173.2845976615
  0
ARC
  5
2AB
100
AcDbEntity
  8
LAYER_FEATURE
100
AcDbCircle
 62
7
  6
CONTINUOUS
 10
17.271727339
 20
12.5992247318
 40
2.4367517072
100
AcDbArc
 50
168.9883819935
 51
169.6188072167
  0
ARC
  5
2AC
100
AcDbEntity
  8
LAYER_FEATURE
100
AcDbCircle
 62
7
  6
CONTINUOUS
 10
16.8297552911
 20
12.6997583192
 40
1.983393708
100
AcDbArc
 50
164.7894972681
 51
165.5128630968
  0
ARC
  5
2AD
100
AcDbEntity
  8
02___PRT_ALL_AXES
100
AcDbCircle
 62
7
  6
CONTINUOUS
 10
15.6846680644
 20
13.4268194979
 40
0.1905584892
100
AcDbArc
 50
106.4503710332
 51
109.2128934742
  0
ARC
  5
2AE
100
AcDbEntity
  8
02___PRT_ALL_AXES
100
AcDbCircle
 62
7
  6
CONTINUOUS
 10
15.6842919829
 20
11.5936209451
 40
0.1893303266
100
AcDbArc
 50
250.7781070518
 51
253.5548237233
  0
SPLINE
  5
2AF
100
AcDbEntity
  8
02___PRT_ALL_AXES
100
AcDbSpline
 62
7
  6
CONTINUOUS
 70
0
 71
3
 72
41
 73
37
 74
0
 42
0.0000001
 43
0.0000001
 44
0.0000000001
 40
0.0
 40
0.0
 40
0.0
 40
0.0
 40
0.0239321634
 40
0.0499145038
 40
0.0779254223
 40
0.1078962097
 40
0.1397214671
 40
0.1732655869
 40
0.2083683412
 40
0.2448491833
 40
0.2825109075
 40
0.3211428261
 40
0.3605236439
 40
0.4004241311
 40
0.4406096698
 40
0.4808427249
 40
0.5208852782
 40
0.5605012554
 40
0.599458978
 40
0.6375336732
 40
0.6745100905
 40
0.7101852837
 40
0.7443716538
 40
0.7769003859
 40
0.8076254848
 40
0.8364287131
 40
0.8632258822
 40
0.8879751431
 40
0.910688131
 40
0.9314448728
 40
0.9504128053
 40
0.9678678688
 40
0.9761577241
 40
0.984230035
 40
0.9921530454
 40
1.0
 40
1.0
 40
1.0
 40
1.0
 10
15.582782981
 20
12.4307371382
 30
0.0
 10
15.5819408607
 20
12.4296441719
 30
0.0
 10
15.5803024261
 20
12.4272724733
 30
0.0
 10
15.5780656689
 20
12.4233715463
 30
0.0
 10
15.5759631408
 20
12.4190071161
 30
0.0
 10
15.574009321
 20
12.4142091507
 30
0.0
 10
15.5722174267
 20
12.4090101839
 30
0.0
 10
15.5705998856
 20
12.4034459151
 30
0.0
 10
15.5691679455
 20
12.397554683
 30
0.0
 10
15.5679316187
 20
12.3913772297
 30
0.0
 10
15.5668995649
 20
12.3849563688
 30
0.0
 10
15.566079024
 20
12.3783366699
 30
0.0
 10
15.5654757559
 20
12.3715641299
 30
0.0
 10
15.5650939973
 20
12.3646858394
 30
0.0
 10
15.5649364299
 20
12.3577496445
 30
0.0
 10
15.5650041606
 20
12.3508038041
 30
0.0
 10
15.5652967132
 20
12.3438966458
 30
0.0
 10
15.5658120327
 20
12.3370762215
 30
0.0
 10
15.5665464996
 20
12.3303899638
 30
0.0
 10
15.5674949572
 20
12.3238843463
 30
0.0
 10
15.5686507502
 20
12.3176045474
 30
0.0
 10
15.5700057769
 20
12.3115941207
 30
0.0
 10
15.5715505564
 20
12.3058946712
 30
0.0
 10
15.5732743151
 20
12.3005455391
 30
0.0
 10
15.5751650968
 20
12.2955834927
 30
0.0
 10
15.5772099168
 20
12.2910424324
 30
0.0
 10
15.5793949558
 20
12.2869531237
 30
0.0
 10
15.5817059062
 20
12.2833429747
 30
0.0
 10
15.5841282333
 20
12.2802360015
 30
0.0
 10
15.586648226
 20
12.2776529795
 30
0.0
 10
15.5892516672
 20
12.2756127182
 30
0.0
 10
15.5915203358
 20
12.2743584808
 30
0.0
 10
15.5933455257
 20
12.2736652935
 30
0.0
 10
15.594699492
 20
12.2732991706
 30
0.0
 10
15.5960587699
 20
12.2730790616
 30
0.0
 10
15.5969687014
 20
12.2730300305
 30
0.0
 10
15.597421102
 20
12.2730300292
 30
0.0
  0
SPLINE
  5
2B0
100
AcDbEntity
  8
02___PRT_ALL_AXES
100
AcDbSpline
 62
7
  6
CONTINUOUS
 70
0
 71
3
 72
22
 73
18
 74
0
 42
0.0000001
 43
0.0000001
 44
0.0000000001
 40
0.0
 40
0.0
 40
0.0
 40
0.0
 40
0.1749970274
 40
0.257598312
 40
0.3366426136
 40
0.411952054
 40
0.4833888191
 40
0.5508583911
 40
0.6143186226
 40
0.6737898917
 40
0.7293679384
 40
0.7812395994
 40
0.8297008243
 40
0.8751749724
 40
0.9182261957
 40
0.9595598102
 40
1.0
 40
1.0
 40
1.0
 40
1.0
 10
15.8495584442
 20
11.9631297578
 30
0.0
 10
15.8502579479
 20
11.960234099
 30
0.0
 10
15.8514201739
 20
11.9560009615
 30
0.0
 10
15.8532479396
 20
11.950568448
 30
0.0
 10
15.8546881791
 20
11.9467993366
 30
0.0
 10
15.8562183566
 20
11.9432719633
 30
0.0
 10
15.8578324533
 20
11.9400002686
 30
0.0
 10
15.8595241263
 20
11.9369971812
 30
0.0
 10
15.8612868375
 20
11.9342744959
 30
0.0
 10
15.863113922
 20
11.931842875
 30
0.0
 10
15.8649986862
 20
11.929711866
 30
0.0
 10
15.8669344793
 20
11.9278899943
 30
0.0
 10
15.8689147482
 20
11.9263849545
 30
0.0
 10
15.8709327753
 20
11.9252038719
 30
0.0
 10
15.8729815807
 20
11.924353515
 30
0.0
 10
15.8750519618
 20
11.9238401118
 30
0.0
 10
15.8764465413
 20
11.9237251879
 30
0.0
 10
15.877134949
 20
11.9237251937
 30
0.0
  0
SPLINE
  5
2B1
100
AcDbEntity
  8
02___PRT_ALL_AXES
100
AcDbSpline
 62
7
  6
CONTINUOUS
 70
0
 71
3
 72
38
 73
34
 74
0
 42
0.0000001
 43
0.0000001
 44
0.0000000001
 40
0.0
 40
0.0
 40
0.0
 40
0.0
 40
0.0459469744
 40
0.090960798
 40
0.1350119323
 40
0.1780753692
 40
0.2201270916
 40
0.2611459457
 40
0.3011134049
 40
0.340013808
 40
0.3778346513
 40
0.41456685
 40
0.4502050792
 40
0.4847481114
 40
0.5181992067
 40
0.5505665578
 40
0.5818637984
 40
0.6121105426
 40
0.641332958
 40
0.6695643895
 40
0.6968460104
 40
0.7232274709
 40
0.7735096344
 40
0.7975811905
 40
0.8210454398
 40
0.8439997838
 40
0.8665503373
 40
0.8888106473
 40
0.9108999221
 40
0.9329408389
 40
0.9550570713
 40
0.9773707417
 40
1.0
 40
1.0
 40
1.0
 40
1.0
 10
16.0172387005
 20
11.823304368
 30
0.0
 10
16.0144376282
 20
11.8142400948
 30
0.0
 10
16.008729161
 20
11.7963455339
 30
0.0
 10
15.9997505396
 20
11.7699517386
 30
0.0
 10
15.9904508009
 20
11.7443015774
 30
0.0
 10
15.980839424
 20
11.7194210165
 30
0.0
 10
15.9709259494
 20
11.6953348337
 30
0.0
 10
15.9607203414
 20
11.6720672018
 30
0.0
 10
15.9502328133
 20
11.6496413916
 30
0.0
 10
15.9394738477
 20
11.6280798364
 30
0.0
 10
15.9284541849
 20
11.6074040974
 30
0.0
 10
15.9171847993
 20
11.5876348385
 30
0.0
 10
15.9056769044
 20
11.5687917977
 30
0.0
 10
15.8939419174
 20
11.5508937801
 30
0.0
 10
15.881991444
 20
11.5339586462
 30
0.0
 10
15.8698372595
 20
11.5180033047
 30
0.0
 10
15.8574912876
 20
11.5030436841
 30
0.0
 10
15.8449656329
 20
11.4890947607
 30
0.0
 10
15.8322723705
 20
11.4761704636
 30
0.0
 10
15.8194241881
 20
11.4642840803
 30
0.0
 10
15.8064320756
 20
11.4534468684
 30
0.0
 10
15.7892154258
 20
11.4406197898
 30
0.0
 10
15.7714675652
 20
11.4296484352
 30
0.0
 10
15.7532920212
 20
11.4208092067
 30
0.0
 10
15.7397771073
 20
11.4153713141
 30
0.0
 10
15.72619786
 20
11.4110371708
 30
0.0
 10
15.7125678013
 20
11.4078119438
 30
0.0
 10
15.6989016577
 20
11.4057000548
 30
0.0
 10
15.685214315
 20
11.4047044287
 30
0.0
 10
15.6715210579
 20
11.4048264532
 30
0.0
 10
15.6578368984
 20
11.4060660236
 30
0.0
 10
15.6441779856
 20
11.4084210994
 30
0.0
 10
15.6351744696
 20
11.4107134843
 30
0.0
 10
15.6306929908
 20
11.412035922
 30
0.0
  0
SPLINE
  5
2B2
100
AcDbEntity
  8
02___PRT_ALL_AXES
100
AcDbSpline
 62
7
  6
CONTINUOUS
 70
0
 71
3
 72
60
 73
56
 74
0
 42
0.0000001
 43
0.0000001
 44
0.0000000001
 40
0.0
 40
0.0
 40
0.0
 40
0.0
 40
0.0080798159
 40
0.0160364443
 40
0.0239273821
 40
0.0318119212
 40
0.0397495314
 40
0.0477982235
 40
0.0560130699
 40
0.0644450201
 40
0.0731400826
 40
0.0821388754
 40
0.0867640326
 40
0.0914778177
 40
0.1011839534
 40
0.1112831628
 40
0.1217952437
 40
0.1327356456
 40
0.144115887
 40
0.1559439534
 40
0.1682246645
 40
0.180960005
 40
0.1941494191
 40
0.2077900685
 40
0.22187706
 40
0.2364036434
 40
0.2513613857
 40
0.2667403236
 40
0.2825290985
 40
0.298715077
 40
0.3152844579
 40
0.3322223687
 40
0.3495129531
 40
0.3671394517
 40
0.3850842752
 40
0.4033290741
 40
0.4218548025
 40
0.4596684718
 40
0.498362597
 40
0.5377656067
 40
0.5777000653
 40
0.6179842334
 40
0.6584335795
 40
0.6988622644
 40
0.739084613
 40
0.7789165857
 40
0.8181772664
 40
0.8566903837
 40
0.8942858883
 40
0.9126891942
 40
0.9308030216
 40
0.9486086483
 40
0.9660879939
 40
0.9832239638
 40
1.0
 40
1.0
 40
1.0
 40
1.0
 10
15.6307048121
 20
13.6095775489
 30
0.0
 10
15.6359020657
 20
13.6111108301
 30
0.0
 10
15.6463569147
 20
13.6137050139
 30
0.0
 10
15.6622418083
 20
13.6161302334
 30
0.0
 10
15.6781552563
 20
13.6170474152
 30
0.0
 10
15.6940710398
 20
13.616454177
 30
0.0
 10
15.7099648367
 20
13.6143518984
 30
0.0
 10
15.7258122832
 20
13.6107448996
 30
0.0
 10
15.7415899871
 20
13.6056403203
 30
0.0
 10
15.7572756772
 20
13.5990475312
 30
0.0
 10
15.7728475933
 20
13.5909781387
 30
0.0
 10
15.7855951656
 20
13.5831062469
 30
0.0
 10
15.7957110883
 20
13.5761091287
 30
0.0
 10
15.8059668804
 20
13.568492592
 30
0.0
 10
15.8186808865
 20
13.5580458312
 30
0.0
 10
15.8335982952
 20
13.5442142394
 30
0.0
 10
15.8483040744
 20
13.5289855753
 30
0.0
 10
15.8627787598
 20
13.5123809507
 30
0.0
 10
15.8770036757
 20
13.4944226765
 30
0.0
 10
15.8909601599
 20
13.4751349382
 30
0.0
 10
15.9046298324
 20
13.4545436258
 30
0.0
 10
15.9179945749
 20
13.4326763822
 30
0.0
 10
15.9310365928
 20
13.4095625714
 30
0.0
 10
15.9437384526
 20
13.3852332559
 30
0.0
 10
15.956083122
 20
13.3597211603
 30
0.0
 10
15.9680540062
 20
13.3330606311
 30
0.0
 10
15.9796349802
 20
13.3052875916
 30
0.0
 10
15.9908104205
 20
13.2764394937
 30
0.0
 10
16.001565232
 20
13.2465552652
 30
0.0
 10
16.0118848735
 20
13.2156752549
 30
0.0
 10
16.021755381
 20
13.1838411772
 30
0.0
 10
16.0311633908
 20
13.1510960521
 30
0.0
 10
16.0400961576
 20
13.1174841492
 30
0.0
 10
16.0485415813
 20
13.0830509144
 30
0.0
 10
16.0564881963
 20
13.0478429496
 30
0.0
 10
16.0639252955
 20
13.0119077876
 30
0.0
 10
16.073211474
 20
12.9627555237
 30
0.0
 10
16.0834499464
 20
12.8998365029
 30
0.0
 10
16.0934786861
 20
12.822738472
 30
0.0
 10
16.1012776073
 20
12.7439538298
 30
0.0
 10
16.1068042497
 20
12.6639089385
 30
0.0
 10
16.1100285079
 20
12.5830362629
 30
0.0
 10
16.110932818
 20
12.5017730657
 30
0.0
 10
16.1095122577
 20
12.4205587021
 30
0.0
 10
16.1057745665
 20
12.3398322574
 30
0.0
 10
16.0997401024
 20
12.260030189
 30
0.0
 10
16.0914417303
 20
12.1815836181
 30
0.0
 10
16.0809246259
 20
12.1049170597
 30
0.0
 10
16.0702850507
 20
12.042419199
 30
0.0
 10
16.060684581
 20
11.993649589
 30
0.0
 10
16.053019794
 20
11.9580315289
 30
0.0
 10
16.0448501976
 20
11.9231619905
 30
0.0
 10
16.0361867854
 20
11.8890879207
 30
0.0
 10
16.0270413677
 20
11.8558557158
 30
0.0
 10
16.0205604714
 20
11.8340536226
 30
0.0
 10
16.0172387005
 20
11.823304368
 30
0.0
  0
SPLINE
  5
2B3
100
AcDbEntity
  8
02___PRT_ALL_AXES
100
AcDbSpline
 62
7
  6
CONTINUOUS
 70
0
 71
3
 72
29
 73
25
 74
0
 42
0.0000001
 43
0.0000001
 44
0.0000000001
 40
0.0
 40
0.0
 40
0.0
 40
0.0
 40
0.016641098
 40
0.0335103183
 40
0.0508245417
 40
0.0687803549
 40
0.0875482947
 40
0.1072702037
 40
0.1280597838
 40
0.150004406
 40
0.1731676498
 40
0.197592632
 40
0.2233044679
 40
0.2503127413
 40
0.3081801175
 40
0.3710520857
 40
0.438627804
 40
0.5104967592
 40
0.5861617359
 40
0.6650569348
 40
0.7465627477
 40
0.8300186262
 40
0.9147330763
 40
1.0
 40
1.0
 40
1.0
 40
1.0
 10
15.7573078621
 20
13.1248057367
 30
0.0
 10
15.7567682118
 20
13.1248057339
 30
0.0
 10
15.755680262
 20
13.1247357055
 30
0.0
 10
15.7540581357
 20
13.1244217298
 30
0.0
 10
15.7524456073
 20
13.1239001035
 30
0.0
 10
15.7508473624
 20
13.1231729705
 30
0.0
 10
15.7492672403
 20
13.1222428981
 30
0.0
 10
15.7477088778
 20
13.1211128231
 30
0.0
 10
15.7461757518
 20
13.1197858957
 30
0.0
 10
15.7446712928
 20
13.1182655761
 30
0.0
 10
15.743198867
 20
13.1165557054
 30
0.0
 10
15.7417618935
 20
13.1146604761
 30
0.0
 10
15.7403636814
 20
13.1125845157
 30
0.0
 10
15.7385129473
 20
13.1095112617
 30
0.0
 10
15.7363325489
 20
13.1052376971
 30
0.0
 10
15.7339792355
 20
13.0995973761
 30
0.0
 10
15.73185438
 20
13.0933856848
 30
0.0
 10
15.7299789027
 20
13.0866632745
 30
0.0
 10
15.7283713229
 20
13.0794955781
 30
0.0
 10
15.7270476514
 20
13.0719529212
 30
0.0
 10
15.726021107
 20
13.0641094833
 30
0.0
 10
15.7253019674
 20
13.0560425601
 30
0.0
 10
15.7248973917
 20
13.0478318628
 30
0.0
 10
15.7248401367
 20
13.0423182418
 30
0.0
 10
15.7248649405
 20
13.039553252
 30
0.0
  0
SPLINE
  5
2B4
100
AcDbEntity
  8
LAYER_FEATURE
100
AcDbSpline
 62
7
  6
CONTINUOUS
 70
0
 71
3
 72
58
 73
54
 74
0
 42
0.0000001
 43
0.0000001
 44
0.0000000001
 40
0.0
 40
0.0
 40
0.0
 40
0.0
 40
0.0163583127
 40
0.0330514635
 40
0.0500648597
 40
0.0673835105
 40
0.0849915538
 40
0.1028725914
 40
0.1393839943
 40
0.1767770745
 40
0.2149030241
 40
0.2536074777
 40
0.2927317878
 40
0.3321142518
 40
0.371591309
 40
0.4109987213
 40
0.4501727494
 40
0.4889513317
 40
0.5271752776
 40
0.5646894901
 40
0.6013442332
 40
0.619304912
 40
0.6369977083
 40
0.6544060238
 40
0.6715138635
 40
0.6883058884
 40
0.7047674716
 40
0.7208847591
 40
0.7366447347
 40
0.7520352903
 40
0.7670453042
 40
0.781664727
 40
0.7958846766
 40
0.8096975463
 40
0.8230971241
 40
0.83607873
 40
0.84863937
 40
0.8607779118
 40
0.8724952824
 40
0.8837946938
 40
0.8946818947
 40
0.9051654519
 40
0.9152570569
 40
0.9249718525
 40
0.9343287681
 40
0.9433508421
 40
0.9520655021
 40
0.9605047584
 40
0.9687052604
 40
0.9767081563
 40
0.9845587029
 40
0.9923055922
 40
1.0
 40
1.0
 40
1.0
 40
1.0
 10
15.2346688542
 20
13.3437623504
 30
0.0
 10
15.2308416995
 20
13.3313776733
 30
0.0
 10
15.2233652378
 20
13.3062749448
 30
0.0
 10
15.2127818737
 20
13.268038281
 30
0.0
 10
15.2027259402
 20
13.228873321
 30
0.0
 10
15.1932098464
 20
13.1888283614
 30
0.0
 10
15.1842451838
 20
13.1479522025
 30
0.0
 10
15.1729644038
 20
13.0920221561
 30
0.0
 10
15.1603477097
 20
13.0203789952
 30
0.0
 10
15.147668807
 20
12.9325014132
 30
0.0
 10
15.1374103394
 20
12.8425594231
 30
0.0
 10
15.1296228444
 20
12.7509937304
 30
0.0
 10
15.1243446966
 20
12.6582522201
 30
0.0
 10
15.1216019102
 20
12.5647888928
 30
0.0
 10
15.121408009
 20
12.4710612749
 30
0.0
 10
15.123763946
 20
12.377528233
 30
0.0
 10
15.1286581057
 20
12.2846476406
 30
0.0
 10
15.1360663672
 20
12.1928741906
 30
0.0
 10
15.1459522256
 20
12.1026568086
 30
0.0
 10
15.1582669777
 20
12.014437562
 30
0.0
 10
15.1705846183
 20
11.9424658873
 30
0.0
 10
15.1816310772
 20
11.886240587
 30
0.0
 10
15.1904258819
 20
11.8451216833
 30
0.0
 10
15.1997755374
 20
11.8048188231
 30
0.0
 10
15.2096686409
 20
11.7653812654
 30
0.0
 10
15.2200930361
 20
11.7268573351
 30
0.0
 10
15.2310359417
 20
11.6892941921
 30
0.0
 10
15.2424839371
 20
11.652737816
 30
0.0
 10
15.2544229907
 20
11.6172329371
 30
0.0
 10
15.266838476
 20
11.5828229835
 30
0.0
 10
15.2797151937
 20
11.5495500261
 30
0.0
 10
15.2930373932
 20
11.5174547255
 30
0.0
 10
15.3067887962
 20
11.4865762811
 30
0.0
 10
15.3209526226
 20
11.4569523819
 30
0.0
 10
15.3355116177
 20
11.4286191602
 30
0.0
 10
15.3504480827
 20
11.4016111473
 30
0.0
 10
15.3657439053
 20
11.375961233
 30
0.0
 10
15.3813805955
 20
11.3517006302
 30
0.0
 10
15.3973393237
 20
11.3288588472
 30
0.0
 10
15.4136009604
 20
11.3074636664
 30
0.0
 10
15.4301461158
 20
11.2875411328
 30
0.0
 10
15.4469551791
 20
11.2691155559
 30
0.0
 10
15.4640083513
 20
11.2522095255
 30
0.0
 10
15.4812856654
 20
11.2368439442
 30
0.0
 10
15.4987669866
 20
11.2230380754
 30
0.0
 10
15.5164319749
 20
11.2108095987
 30
0.0
 10
15.5342600123
 20
11.2001746601
 30
0.0
 10
15.5522300552
 20
11.1911478968
 30
0.0
 10
15.5703205291
 20
11.1837423959
 30
0.0
 10
15.5885089006
 20
11.1779695564
 30
0.0
 10
15.6067724108
 20
11.1738388333
 30
0.0
 10
15.6250848701
 20
11.1713573963
 30
0.0
 10
15.6373278085
 20
11.1708049887
 30
0.0
 10
15.6434249555
 20
11.1708049937
 30
0.0
  0
SPLINE
  5
2B5
100
AcDbEntity
  8
02___PRT_ALL_AXES
100
AcDbSpline
 62
7
  6
CONTINUOUS
 70
0
 71
3
 72
34
 73
30
 74
0
 42
0.0000001
 43
0.0000001
 44
0.0000000001
 40
0.0
 40
0.0
 40
0.0
 40
0.0
 40
0.0190926473
 40
0.0384170148
 40
0.0580913302
 40
0.0782260382
 40
0.0989221174
 40
0.1202700122
 40
0.1423491783
 40
0.1652281617
 40
0.1889649783
 40
0.2136076772
 40
0.2391951289
 40
0.2657578207
 40
0.2933185736
 40
0.3218932904
 40
0.3514916806
 40
0.3821178429
 40
0.4137707687
 40
0.4464448948
 40
0.4801305348
 40
0.5148141938
 40
0.5504789393
 40
0.587104733
 40
0.6631404537
 40
0.7427126742
 40
0.8255714151
 40
0.9114357663
 40
1.0
 40
1.0
 40
1.0
 40
1.0
 10
15.7931242681
 20
11.9485508835
 30
0.0
 10
15.7905931305
 20
11.9487431359
 30
0.0
 10
15.7855145964
 20
11.9493564848
 30
0.0
 10
15.7779475329
 20
11.9509470029
 30
0.0
 10
15.7704085199
 20
11.9532090626
 30
0.0
 10
15.7629077955
 20
11.9561389816
 30
0.0
 10
15.7554542388
 20
11.9597323746
 30
0.0
 10
15.7480566912
 20
11.9639841254
 30
0.0
 10
15.740723659
 20
11.968888473
 30
0.0
 10
15.7334635074
 20
11.9744390783
 30
0.0
 10
15.7262844846
 20
11.9806289996
 30
0.0
 10
15.7191947262
 20
11.9874506329
 30
0.0
 10
15.7122023078
 20
11.9948957427
 30
0.0
 10
15.7053152546
 20
12.0029554412
 30
0.0
 10
15.6985415016
 20
12.0116201386
 30
0.0
 10
15.6918888916
 20
12.0208795504
 30
0.0
 10
15.6853651857
 20
12.0307227168
 30
0.0
 10
15.6789780335
 20
12.0411379886
 30
0.0
 10
15.6727349283
 20
12.0521130174
 30
0.0
 10
15.6666432343
 20
12.0636347945
 30
0.0
 10
15.660710165
 20
12.0756896651
 30
0.0
 10
15.6549427618
 20
12.0882633028
 30
0.0
 10
15.6493477955
 20
12.1013408125
 30
0.0
 10
15.6420356119
 20
12.1196572687
 30
0.0
 10
15.6333967865
 20
12.1437209268
 30
0.0
 10
15.6239445338
 20
12.1739925985
 30
0.0
 10
15.6153261008
 20
12.2058673972
 30
0.0
 10
15.6075827461
 20
12.2391932951
 30
0.0
 10
15.6030922502
 20
12.2619501282
 30
0.0
 10
15.6009932005
 20
12.2735364217
 30
0.0
  0
SPLINE
  5
2B6
100
AcDbEntity
  8
LAYER_FEATURE
100
AcDbSpline
 62
7
  6
CONTINUOUS
 70
0
 71
3
 72
20
 73
16
 74
0
 42
0.0000001
 43
0.0000001
 44
0.0000000001
 40
0.0
 40
0.0
 40
0.0
 40
0.0
 40
0.057083135
 40
0.1143073293
 40
0.1718123457
 40
0.2297354462
 40
0.2882101766
 40
0.3473654459
 40
0.4073245138
 40
0.4682044613
 40
0.5931288029
 40
0.7229680123
 40
0.7899592003
 40
0.8584222771
 40
1.0
 40
1.0
 40
1.0
 40
1.0
 10
15.2987521858
 20
13.8508049854
 30
0.0
 10
15.3024130249
 20
13.8508049818
 30
0.0
 10
15.3097452879
 20
13.8506066807
 30
0.0
 10
15.3207328165
 20
13.8497147519
 30
0.0
 10
15.3317104933
 20
13.8482287797
 30
0.0
 10
15.3426728192
 20
13.8461494501
 30
0.0
 10
15.3536149205
 20
13.8434779143
 30
0.0
 10
15.3645317143
 20
13.8402154635
 30
0.0
 10
15.3754185166
 20
13.836363698
 30
0.0
 10
15.3900112028
 20
13.8303943594
 30
0.0
 10
15.4081857334
 20
13.8214126608
 30
0.0
 10
15.4258421448
 20
13.8106860037
 30
0.0
 10
15.4398355946
 20
13.8010023001
 30
0.0
 10
15.4540492927
 20
13.790337369
 30
0.0
 10
15.4643687444
 20
13.7816567272
 30
0.0
 10
15.4711219583
 20
13.7755876557
 30
0.0
  0
SPLINE
  5
2B7
100
AcDbEntity
  8
LAYER_FEATURE
100
AcDbSpline
 62
7
  6
CONTINUOUS
 70
0
 71
3
 72
20
 73
16
 74
0
 42
0.0000001
 43
0.0000001
 44
0.0000000001
 40
0.0
 40
0.0
 40
0.0
 40
0.0
 40
0.0570771824
 40
0.114295596
 40
0.1717951739
 40
0.22971333
 40
0.2881837842
 40
0.3473355517
 40
0.4072920716
 40
0.4681704713
 40
0.5930952283
 40
0.7229400123
 40
0.7899360961
 40
0.8584054146
 40
1.0
 40
1.0
 40
1.0
 40
1.0
 10
15.2987521858
 20
11.1708050004
 30
0.0
 10
15.3024154468
 20
11.1708049968
 30
0.0
 10
15.3097525742
 20
11.1710035753
 30
0.0
 10
15.3207473792
 20
11.1718966727
 30
0.0
 10
15.3317323085
 20
11.1733846307
 30
0.0
 10
15.3427018627
 20
11.1754666939
 30
0.0
 10
15.3536511399
 20
11.1781417904
 30
0.0
 10
15.3645750745
 20
11.181408527
 30
0.0
 10
15.3754689365
 20
11.1852654088
 30
0.0
 10
15.3900711884
 20
11.1912426456
 30
0.0
 10
15.4082574765
 20
11.200236306
 30
0.0
 10
15.4259247501
 20
11.2109769377
 30
0.0
 10
15.4399266379
 20
11.2206732396
 30
0.0
 10
15.4541490982
 20
11.2313521661
 30
0.0
 10
15.4644745541
 20
11.2400440312
 30
0.0
 10
15.471231584
 20
11.2461208786
 30
0.0
  0
SPLINE
  5
2B8
100
AcDbEntity
  8
LAYER_FEATURE
100
AcDbSpline
 62
7
  6
CONTINUOUS
 70
0
 71
3
 72
58
 73
54
 74
0
 42
0.0000001
 43
0.0000001
 44
0.0000000001
 40
0.0
 40
0.0
 40
0.0
 40
0.0
 40
0.0076944078
 40
0.0154412971
 40
0.0232918437
 40
0.0312947396
 40
0.0394952416
 40
0.0479344979
 40
0.0566491579
 40
0.0656712319
 40
0.0750281475
 40
0.0847429431
 40
0.0948345481
 40
0.1053181053
 40
0.1162053062
 40
0.1275047176
 40
0.1392220882
 40
0.15136063
 40
0.16392127
 40
0.1769028759
 40
0.1903024537
 40
0.2041153234
 40
0.218335273
 40
0.2329546958
 40
0.2479647097
 40
0.2633552653
 40
0.2791152409
 40
0.2952325284
 40
0.3116941116
 40
0.3284861365
 40
0.3455939762
 40
0.3630022917
 40
0.380695088
 40
0.3986557668
 40
0.4353105099
 40
0.4728247224
 40
0.5110486683
 40
0.5498272506
 40
0.5890012787
 40
0.628408691
 40
0.6678857482
 40
0.7072682122
 40
0.7463925223
 40
0.7850969759
 40
0.8232229255
 40
0.8606160057
 40
0.8971274086
 40
0.9150084462
 40
0.9326164895
 40
0.9499351403
 40
0.9669485365
 40
0.9836416873
 40
1.0
 40
1.0
 40
1.0
 40
1.0
 10
15.6810904773
 20
13.8508049922
 30
0.0
 10
15.6871876244
 20
13.8508049971
 30
0.0
 10
15.6994305627
 20
13.8502525895
 30
0.0
 10
15.717743022
 20
13.8477711526
 30
0.0
 10
15.7360065322
 20
13.8436404294
 30
0.0
 10
15.7541949037
 20
13.8378675899
 30
0.0
 10
15.7722853776
 20
13.830462089
 30
0.0
 10
15.7902554206
 20
13.8214353258
 30
0.0
 10
15.808083458
 20
13.8108003871
 30
0.0
 10
15.8257484463
 20
13.7985719104
 30
0.0
 10
15.8432297674
 20
13.7847660416
 30
0.0
 10
15.8605070815
 20
13.7694004603
 30
0.0
 10
15.8775602537
 20
13.7524944299
 30
0.0
 10
15.894369317
 20
13.734068853
 30
0.0
 10
15.9109144725
 20
13.7141463194
 30
0.0
 10
15.9271761091
 20
13.6927511386
 30
0.0
 10
15.9431348374
 20
13.6699093556
 30
0.0
 10
15.9587715275
 20
13.6456487528
 30
0.0
 10
15.9740673501
 20
13.6199988385
 30
0.0
 10
15.9890038151
 20
13.5929908256
 30
0.0
 10
16.0035628102
 20
13.5646576039
 30
0.0
 10
16.0177266366
 20
13.5350337047
 30
0.0
 10
16.0314780396
 20
13.5041552603
 30
0.0
 10
16.0448002391
 20
13.4720599598
 30
0.0
 10
16.0576769568
 20
13.4387870023
 30
0.0
 10
16.0700924421
 20
13.4043770487
 30
0.0
 10
16.0820314957
 20
13.3688721698
 30
0.0
 10
16.0934794912
 20
13.3323157937
 30
0.0
 10
16.1044223967
 20
13.2947526507
 30
0.0
 10
16.1148467919
 20
13.2562287204
 30
0.0
 10
16.1247398955
 20
13.2167911627
 30
0.0
 10
16.1340895509
 20
13.1764883025
 30
0.0
 10
16.1428843556
 20
13.1353693988
 30
0.0
 10
16.1539308145
 20
13.0791440985
 30
0.0
 10
16.1662484552
 20
13.0071724238
 30
0.0
 10
16.1785632072
 20
12.9189531772
 30
0.0
 10
16.1884490656
 20
12.8287357952
 30
0.0
 10
16.1958573271
 20
12.7369623452
 30
0.0
 10
16.2007514868
 20
12.6440817528
 30
0.0
 10
16.2031074238
 20
12.5505487109
 30
0.0
 10
16.2029135227
 20
12.456821093
 30
0.0
 10
16.2001707363
 20
12.3633577657
 30
0.0
 10
16.1948925885
 20
12.2706162554
 30
0.0
 10
16.1871050935
 20
12.1790505627
 30
0.0
 10
16.1768466258
 20
12.0891085726
 30
0.0
 10
16.1641677231
 20
12.0012309906
 30
0.0
 10
16.151551029
 20
11.9295878298
 30
0.0
 10
16.1402702491
 20
11.8736577833
 30
0.0
 10
16.1313055864
 20
11.8327816244
 30
0.0
 10
16.1217894926
 20
11.7927366649
 30
0.0
 10
16.1117335592
 20
11.7535717048
 30
0.0
 10
16.1011501951
 20
11.7153350411
 30
0.0
 10
16.0936737333
 20
11.6902323125
 30
0.0
 10
16.0898465786
 20
11.6778476354
 30
0.0
  0
SPLINE
  5
2B9
100
AcDbEntity
  8
LAYER_FEATURE
100
AcDbSpline
 62
7
  6
CONTINUOUS
 70
0
 71
3
 72
38
 73
34
 74
0
 42
0.0000001
 43
0.0000001
 44
0.0000000001
 40
0.0
 40
0.0
 40
0.0
 40
0.0
 40
0.0212770472
 40
0.0426478763
 40
0.0642047498
 40
0.0860369964
 40
0.1082297705
 40
0.1308630396
 40
0.1540108617
 40
0.1777409173
 40
0.2021142561
 40
0.2271852721
 40
0.2530018495
 40
0.2796055948
 40
0.3070321341
 40
0.3353115069
 40
0.3644685544
 40
0.3945232742
 40
0.425491203
 40
0.4573837959
 40
0.4902087439
 40
0.5239702514
 40
0.5586693495
 40
0.5943041549
 40
0.6308700679
 40
0.6683599846
 40
0.7067645162
 40
0.7460721413
 40
0.7862693083
 40
0.827340706
 40
0.8692692239
 40
0.9120359448
 40
1.0
 40
1.0
 40
1.0
 40
1.0
 10
15.6810904773
 20
11.1708049937
 30
0.0
 10
15.685985089
 20
11.1708049976
 30
0.0
 10
15.6957995512
 20
11.1711601639
 30
0.0
 10
15.7104948709
 20
11.1727567076
 30
0.0
 10
15.72516582
 20
11.175415738
 30
0.0
 10
15.7397990431
 20
11.1791345615
 30
0.0
 10
15.7543827094
 20
11.1839095088
 30
0.0
 10
15.7689049181
 20
11.1897359807
 30
0.0
 10
15.7833541209
 20
11.1966085904
 30
0.0
 10
15.7977189651
 20
11.2045212168
 30
0.0
 10
15.8119883167
 20
11.213466989
 30
0.0
 10
15.8261512064
 20
11.2234383349
 30
0.0
 10
15.8401967827
 20
11.234427013
 30
0.0
 10
15.8541142951
 20
11.2464240868
 30
0.0
 10
15.8678931087
 20
11.2594198836
 30
0.0
 10
15.8815226623
 20
11.2734040341
 30
0.0
 10
15.8949924658
 20
11.2883654594
 30
0.0
 10
15.9082921364
 20
11.304292331
 30
0.0
 10
15.9214113947
 20
11.3211720829
 30
0.0
 10
15.934340055
 20
11.338991432
 30
0.0
 10
15.9470680448
 20
11.3577363665
 30
0.0
 10
15.9595854476
 20
11.3773921291
 30
0.0
 10
15.9718824769
 20
11.3979432556
 30
0.0
 10
15.9839494862
 20
11.4193735831
 30
0.0
 10
15.9957770078
 20
11.4416662392
 30
0.0
 10
16.0073557566
 20
11.4648036612
 30
0.0
 10
16.0186766179
 20
11.488767626
 30
0.0
 10
16.0297306595
 20
11.5135392471
 30
0.0
 10
16.0405091935
 20
11.5390990026
 30
0.0
 10
16.0510036883
 20
11.5654266949
 30
0.0
 10
16.0612059263
 20
11.5925016612
 30
0.0
 10
16.0745330066
 20
11.6299195744
 30
0.0
 10
16.0838721253
 20
11.6585142974
 30
0.0
 10
16.0898465786
 20
11.6778476354
 30
0.0
  0
SPLINE
  5
2BA
100
AcDbEntity
  8
02___PRT_ALL_AXES
100
AcDbSpline
 62
7
  6
CONTINUOUS
 70
0
 71
3
 72
19
 73
15
 74
0
 42
0.0000001
 43
0.0000001
 44
0.0000000001
 40
0.0
 40
0.0
 40
0.0
 40
0.0
 40
0.0543193723
 40
0.1088640937
 40
0.1638560776
 40
0.2195105822
 40
0.2760333686
 40
0.3336183625
 40
0.3924459229
 40
0.4526816855
 40
0.5779199774
 40
0.710400747
 40
0.8509049141
 40
1.0
 40
1.0
 40
1.0
 40
1.0
 10
15.7802580443
 20
13.219138326
 30
0.0
 10
15.7827678193
 20
13.2191383275
 30
0.0
 10
15.7877995503
 20
13.2189617067
 30
0.0
 10
15.7953344484
 20
13.2181677429
 30
0.0
 10
15.8028576396
 20
13.2168453255
 30
0.0
 10
15.8103626906
 20
13.2149957093
 30
0.0
 10
15.8178439089
 20
13.2126205916
 30
0.0
 10
15.8252954969
 20
13.2097221366
 30
0.0
 10
15.8327120428
 20
13.2063027486
 30
0.0
 10
15.8426745953
 20
13.200984634
 30
0.0
 10
15.8550311602
 20
13.1929830851
 30
0.0
 10
15.869425011
 20
13.1814800546
 30
0.0
 10
15.8835393718
 20
13.1679905241
 30
0.0
 10
15.8924661454
 20
13.158003797
 30
0.0
 10
15.896880477
 20
13.1527152056
 30
0.0
  0
SPLINE
  5
2BB
100
AcDbEntity
  8
02___PRT_ALL_AXES
100
AcDbSpline
 62
7
  6
CONTINUOUS
 70
0
 71
3
 72
39
 73
35
 74
0
 42
0.0000001
 43
0.0000001
 44
0.0000000001
 40
0.0
 40
0.0
 40
0.0
 40
0.0
 40
0.0202790402
 40
0.041776955
 40
0.0645047712
 40
0.088457392
 40
0.1136160193
 40
0.1399501419
 40
0.1674191632
 40
0.195973728
 40
0.2255568552
 40
0.2561048663
 40
0.2875482257
 40
0.3198122413
 40
0.3528177315
 40
0.3864816014
 40
0.4207174044
 40
0.4554358531
 40
0.4905453172
 40
0.5259523006
 40
0.5615619043
 40
0.5972782842
 40
0.6330050999
 40
0.6686459625
 40
0.7041048828
 40
0.7392867183
 40
0.774097631
 40
0.8084455459
 40
0.8422406283
 40
0.8753957731
 40
0.9078271153
 40
0.9394545749
 40
0.9702023988
 40
1.0
 40
1.0
 40
1.0
 40
1.0
 10
15.9127652453
 20
13.1336844531
 30
0.0
 10
15.9174643683
 20
13.1280546705
 30
0.0
 10
15.9267159928
 20
13.1160939064
 30
0.0
 10
15.9397843924
 20
13.0967566386
 30
0.0
 10
15.952406479
 20
13.0755639969
 30
0.0
 10
15.9645425052
 20
13.0525833559
 30
0.0
 10
15.9761551782
 20
13.0278861524
 30
0.0
 10
15.9872080888
 20
13.0015499414
 30
0.0
 10
15.9976664694
 20
12.9736575066
 30
0.0
 10
16.0074972651
 20
12.9442967802
 30
0.0
 10
16.0166692949
 20
12.9135604793
 30
0.0
 10
16.0251534337
 20
12.8815458173
 30
0.0
 10
16.032922672
 20
12.8483541599
 30
0.0
 10
16.0399522816
 20
12.8140906963
 30
0.0
 10
16.0462198473
 20
12.7788640826
 30
0.0
 10
16.0517053954
 20
12.7427860892
 30
0.0
 10
16.0563914245
 20
12.7059712324
 30
0.0
 10
16.0602629881
 20
12.6685364033
 30
0.0
 10
16.0633077358
 20
12.6306004891
 30
0.0
 10
16.0655159472
 20
12.5922839882
 30
0.0
 10
16.0668805845
 20
12.553708623
 30
0.0
 10
16.0673972819
 20
12.5149969473
 30
0.0
 10
16.0670644035
 20
12.4762719532
 30
0.0
 10
16.0658829978
 20
12.4376566753
 30
0.0
 10
16.0638568483
 20
12.3992737958
 30
0.0
 10
16.0609924082
 20
12.3612452504
 30
0.0
 10
16.0572988273
 20
12.3236918355
 30
0.0
 10
16.0527878833
 20
12.2867328191
 30
0.0
 10
16.0474739705
 20
12.2504855591
 30
0.0
 10
16.0413740359
 20
12.2150651075
 30
0.0
 10
16.0345075355
 20
12.1805838975
 30
0.0
 10
16.0268963282
 20
12.1471511728
 30
0.0
 10
16.0185647794
 20
12.1148733409
 30
0.0
 10
16.0124471445
 20
12.0938466789
 30
0.0
 10
16.0092657682
 20
12.0835517414
 30
0.0
  0
SPLINE
  5
2BC
100
AcDbEntity
  8
LAYER_FEATURE
100
AcDbSpline
 62
7
  6
CONTINUOUS
 70
0
 71
3
 72
38
 73
34
 74
0
 42
0.0000001
 43
0.0000001
 44
0.0000000001
 40
0.0
 40
0.0
 40
0.0
 40
0.0
 40
0.0879640552
 40
0.1307307761
 40
0.172659294
 40
0.2137306917
 40
0.2539278587
 40
0.2932354838
 40
0.3316400154
 40
0.3691299321
 40
0.4056958451
 40
0.4413306505
 40
0.4760297486
 40
0.5097912561
 40
0.5426162041
 40
0.574508797
 40
0.6054767258
 40
0.6355314456
 40
0.6646884931
 40
0.6929678659
 40
0.7203944052
 40
0.7469981505
 40
0.7728147279
 40
0.7978857439
 40
0.8222590827
 40
0.8459891383
 40
0.8691369604
 40
0.8917702295
 40
0.9139630036
 40
0.9357952502
 40
0.9573521237
 40
0.9787229528
 40
1.0
 40
1.0
 40
1.0
 40
1.0
 10
15.2346688542
 20
13.3437623504
 30
0.0
 10
15.2406433076
 20
13.3630956885
 30
0.0
 10
15.2499824262
 20
13.3916904114
 30
0.0
 10
15.2633095066
 20
13.4291083246
 30
0.0
 10
15.2735117445
 20
13.4561832909
 30
0.0
 10
15.2840062393
 20
13.4825109832
 30
0.0
 10
15.2947847733
 20
13.5080707388
 30
0.0
 10
15.3058388149
 20
13.5328423599
 30
0.0
 10
15.3171596762
 20
13.5568063247
 30
0.0
 10
15.328738425
 20
13.5799437466
 30
0.0
 10
15.3405659467
 20
13.6022364028
 30
0.0
 10
15.3526329559
 20
13.6236667302
 30
0.0
 10
15.3649299852
 20
13.6442178567
 30
0.0
 10
15.377447388
 20
13.6638736193
 30
0.0
 10
15.3901753778
 20
13.6826185538
 30
0.0
 10
15.4031040381
 20
13.7004379029
 30
0.0
 10
15.4162232964
 20
13.7173176548
 30
0.0
 10
15.429522967
 20
13.7332445264
 30
0.0
 10
15.4429927706
 20
13.7482059517
 30
0.0
 10
15.4566223241
 20
13.7621901022
 30
0.0
 10
15.4704011377
 20
13.775185899
 30
0.0
 10
15.4843186501
 20
13.7871829728
 30
0.0
 10
15.4983642264
 20
13.7981716509
 30
0.0
 10
15.5125271161
 20
13.8081429968
 30
0.0
 10
15.5267964677
 20
13.817088769
 30
0.0
 10
15.5411613119
 20
13.8250013954
 30
0.0
 10
15.5556105147
 20
13.8318740051
 30
0.0
 10
15.5701327234
 20
13.837700477
 30
0.0
 10
15.5847163897
 20
13.8424754243
 30
0.0
 10
15.5993496129
 20
13.8461942478
 30
0.0
 10
15.6140205619
 20
13.8488532782
 30
0.0
 10
15.6287158816
 20
13.8504498219
 30
0.0
 10
15.6385303438
 20
13.8508049882
 30
0.0
 10
15.6434249555
 20
13.8508049922
 30
0.0
  0
SPLINE
  5
2BD
100
AcDbEntity
  8
LAYER_FEATURE
100
AcDbSpline
 62
7
  6
CONTINUOUS
 70
0
 71
3
 72
58
 73
54
 74
0
 42
0.0000001
 43
0.0000001
 44
0.0000000001
 40
0.0
 40
0.0
 40
0.0
 40
0.0
 40
0.0163583
 40
0.033051471
 40
0.0500648574
 40
0.0673835114
 40
0.0849915535
 40
0.1028725909
 40
0.1393839941
 40
0.1767770752
 40
0.2149030243
 40
0.2536074773
 40
0.2927317876
 40
0.3321142519
 40
0.3715913088
 40
0.4109987214
 40
0.4501727498
 40
0.4889513312
 40
0.5271752767
 40
0.5646894904
 40
0.601344234
 40
0.6193049122
 40
0.6369977078
 40
0.6544060228
 40
0.6715138624
 40
0.6883058876
 40
0.7047674716
 40
0.7208847596
 40
0.736644735
 40
0.7520352903
 40
0.7670453039
 40
0.7816647265
 40
0.7958846763
 40
0.8096975461
 40
0.823097124
 40
0.8360787296
 40
0.8486393693
 40
0.860777911
 40
0.8724952819
 40
0.8837946938
 40
0.8946818953
 40
0.9051654528
 40
0.9152570574
 40
0.9249718519
 40
0.9343287667
 40
0.9433508406
 40
0.952065501
 40
0.960504758
 40
0.9687052606
 40
0.9767081569
 40
0.9845587033
 40
0.9923055923
 40
1.0
 40
1.0
 40
1.0
 40
1.0
 10
14.8523305628
 20
13.3437623504
 30
0.0
 10
14.848503411
 20
13.3313776829
 30
0.0
 10
14.8410269491
 20
13.3062749482
 30
0.0
 10
14.8304435828
 20
13.2680382869
 30
0.0
 10
14.8203876496
 20
13.2288733157
 30
0.0
 10
14.8108715552
 20
13.1888283627
 30
0.0
 10
14.8019068922
 20
13.1479522024
 30
0.0
 10
14.7906261108
 20
13.0920221571
 30
0.0
 10
14.7780094169
 20
13.0203789954
 30
0.0
 10
14.7653305189
 20
12.9325014122
 30
0.0
 10
14.7550720495
 20
12.8425594226
 30
0.0
 10
14.7472845501
 20
12.7509937308
 30
0.0
 10
14.7420064023
 20
12.6582522205
 30
0.0
 10
14.7392636228
 20
12.5647888929
 30
0.0
 10
14.7390697208
 20
12.4710612749
 30
0.0
 10
14.7414256514
 20
12.3775282326
 30
0.0
 10
14.7463198108
 20
12.2846476403
 30
0.0
 10
14.7537280785
 20
12.1928741916
 30
0.0
 10
14.7636139385
 20
12.1026568099
 30
0.0
 10
14.7759286837
 20
12.0144375614
 30
0.0
 10
14.788246324
 20
11.9424658857
 30
0.0
 10
14.7992927852
 20
11.8862405864
 30
0.0
 10
14.8080875914
 20
11.8451216844
 30
0.0
 10
14.8174372478
 20
11.8048188256
 30
0.0
 10
14.8273303515
 20
11.7653812681
 30
0.0
 10
14.8377547459
 20
11.7268573368
 30
0.0
 10
14.8486976495
 20
11.6892941919
 30
0.0
 10
14.8601456444
 20
11.6527378146
 30
0.0
 10
14.8720846984
 20
11.6172329358
 30
0.0
 10
14.8845001844
 20
11.5828229832
 30
0.0
 10
14.8973769026
 20
11.5495500267
 30
0.0
 10
14.9106991022
 20
11.5174547265
 30
0.0
 10
14.924450505
 20
11.4865762819
 30
0.0
 10
14.938614331
 20
11.4569523822
 30
0.0
 10
14.9531733258
 20
11.4286191603
 30
0.0
 10
14.9681097915
 20
11.4016111483
 30
0.0
 10
14.9834056145
 20
11.3759612349
 30
0.0
 10
14.9990423047
 20
11.3517006323
 30
0.0
 10
15.0150010327
 20
11.3288588485
 30
0.0
 10
15.0312626688
 20
11.3074636658
 30
0.0
 10
15.0478078235
 20
11.2875411302
 30
0.0
 10
15.0646168863
 20
11.2691155522
 30
0.0
 10
15.0816700588
 20
11.2522095233
 30
0.0
 10
15.0989473746
 20
11.2368439466
 30
0.0
 10
15.1164286965
 20
11.2230380815
 30
0.0
 10
15.1340936845
 20
11.2108096051
 30
0.0
 10
15.1519217213
 20
11.200174664
 30
0.0
 10
15.1698917635
 20
11.1911478963
 30
0.0
 10
15.1879822368
 20
11.1837423908
 30
0.0
 10
15.2061706082
 20
11.1779695478
 30
0.0
 10
15.2244341191
 20
11.1738388292
 30
0.0
 10
15.2427465789
 20
11.1713573916
 30
0.0
 10
15.2549895171
 20
11.1708050064
 30
0.0
 10
15.261086664
 20
11.1708050004
 30
0.0
  0
SPLINE
  5
2BE
100
AcDbEntity
  8
02___PRT_ALL_AXES
100
AcDbSpline
 62
7
  6
CONTINUOUS
 70
0
 71
3
 72
19
 73
15
 74
0
 42
0.0000001
 43
0.0000001
 44
0.0000000001
 40
0.0
 40
0.0
 40
0.0
 40
0.0
 40
0.0543193719
 40
0.1088640941
 40
0.1638560792
 40
0.2195105818
 40
0.276033365
 40
0.3336183614
 40
0.3924459254
 40
0.4526816854
 40
0.577919974
 40
0.710400747
 40
0.8509049086
 40
1.0
 40
1.0
 40
1.0
 40
1.0
 10
15.7802580443
 20
11.8024716598
 30
0.0
 10
15.7827678193
 20
11.8024716613
 30
0.0
 10
15.7877995504
 20
11.8026482754
 30
0.0
 10
15.7953344485
 20
11.8034422434
 30
0.0
 10
15.8028576393
 20
11.8047646621
 30
0.0
 10
15.8103626904
 20
11.806614277
 30
0.0
 10
15.8178439095
 20
11.8089893922
 30
0.0
 10
15.825295497
 20
11.811887849
 30
0.0
 10
15.8327120422
 20
11.8153072389
 30
0.0
 10
15.8426745955
 20
11.8206253518
 30
0.0
 10
15.8550311608
 20
11.8286269002
 30
0.0
 10
15.8694250103
 20
11.8401299321
 30
0.0
 10
15.883539372
 20
11.8536194616
 30
0.0
 10
15.8924661472
 20
11.8636061877
 30
0.0
 10
15.8968804769
 20
11.868894781
 30
0.0
  0
SPLINE
  5
2BF
100
AcDbEntity
  8
02___PRT_ALL_AXES
100
AcDbSpline
 62
7
  6
CONTINUOUS
 70
0
 71
3
 72
15
 73
11
 74
0
 42
0.0000001
 43
0.0000001
 44
0.0000000001
 40
0.0
 40
0.0
 40
0.0
 40
0.0
 40
0.1030415305
 40
0.2124413763
 40
0.3282548625
 40
0.4504494272
 40
0.5789180637
 40
0.7134903982
 40
0.8539414921
 40
1.0
 40
1.0
 40
1.0
 40
1.0
 10
15.9127652454
 20
11.8879255321
 30
0.0
 10
15.9175953388
 20
11.8937122313
 30
0.0
 10
15.9271000253
 20
11.9060262848
 30
0.0
 10
15.9405026433
 20
11.9259670931
 30
0.0
 10
15.9534321446
 20
11.9478608098
 30
0.0
 10
15.9658456079
 20
11.9716340998
 30
0.0
 10
15.977702821
 20
11.9972090277
 30
0.0
 10
15.9889645848
 20
12.0245010128
 30
0.0
 10
15.9995934237
 20
12.0534191794
 30
0.0
 10
16.0061112376
 20
12.0733436766
 30
0.0
 10
16.0092657682
 20
12.0835517414
 30
0.0
  0
SPLINE
  5
2C0
100
AcDbEntity
  8
LAYER_FEATURE
100
AcDbSpline
 62
7
  6
CONTINUOUS
 70
0
 71
3
 72
38
 73
34
 74
0
 42
0.0000001
 43
0.0000001
 44
0.0000000001
 40
0.0
 40
0.0
 40
0.0
 40
0.0
 40
0.0879640716
 40
0.1307307847
 40
0.1726592835
 40
0.2137306933
 40
0.2539278613
 40
0.2932354821
 40
0.331640013
 40
0.3691299341
 40
0.4056958476
 40
0.4413306462
 40
0.4760297484
 40
0.5097912612
 40
0.5426162009
 40
0.5745087936
 40
0.6054767306
 40
0.6355314471
 40
0.6646884872
 40
0.6929678677
 40
0.7203944107
 40
0.7469981459
 40
0.7728147257
 40
0.7978857495
 40
0.8222590824
 40
0.8459891342
 40
0.8691369629
 40
0.8917702321
 40
0.9139630012
 40
0.9357952498
 40
0.9573521255
 40
0.9787229532
 40
1.0
 40
1.0
 40
1.0
 40
1.0
 10
14.8523305628
 20
13.3437623504
 30
0.0
 10
14.8583050172
 20
13.363095692
 30
0.0
 10
14.8676441373
 20
13.3916904166
 30
0.0
 10
14.8809712145
 20
13.4291083283
 30
0.0
 10
14.8911734554
 20
13.4561832898
 30
0.0
 10
14.9016679479
 20
13.4825109815
 30
0.0
 10
14.9124464799
 20
13.5080707401
 30
0.0
 10
14.9235005242
 20
13.5328423589
 30
0.0
 10
14.9348213872
 20
13.5568063227
 30
0.0
 10
14.9464001322
 20
13.5799437476
 30
0.0
 10
14.9582276524
 20
13.6022364041
 30
0.0
 10
14.9702946688
 20
13.6236667269
 30
0.0
 10
14.9825916943
 20
13.6442178562
 30
0.0
 10
14.9951090912
 20
13.663873623
 30
0.0
 10
15.0078370898
 20
13.6826185507
 30
0.0
 10
15.0207657501
 20
13.7004378994
 30
0.0
 10
15.0338850004
 20
13.7173176589
 30
0.0
 10
15.047184674
 20
13.7332445276
 30
0.0
 10
15.0606544854
 20
13.7482059446
 30
0.0
 10
15.0742840312
 20
13.7621901036
 30
0.0
 10
15.0880628402
 20
13.7751859062
 30
0.0
 10
15.1019803643
 20
13.787182965
 30
0.0
 10
15.1160259373
 20
13.7981716466
 30
0.0
 10
15.1301888184
 20
13.8081430068
 30
0.0
 10
15.1444581774
 20
13.8170887673
 30
0.0
 10
15.1588230255
 20
13.825001384
 30
0.0
 10
15.17327222
 20
13.8318740121
 30
0.0
 10
15.1877944297
 20
13.8377004846
 30
0.0
 10
15.202378102
 20
13.8424754109
 30
0.0
 10
15.2170113211
 20
13.8461942458
 30
0.0
 10
15.2316822687
 20
13.8488532935
 30
0.0
 10
15.2463775911
 20
13.8504498095
 30
0.0
 10
15.2561920524
 20
13.8508049902
 30
0.0
 10
15.261086664
 20
13.8508049854
 30
0.0
  0
SPLINE
  5
2C1
100
AcDbEntity
  8
02___PRT_ALL_AXES
100
AcDbSpline
 62
7
  6
CONTINUOUS
 70
0
 71
3
 72
32
 73
28
 74
0
 42
0.0000001
 43
0.0000001
 44
0.0000000001
 40
0.0
 40
0.0
 40
0.0
 40
0.0
 40
0.0746751552
 40
0.1496618692
 40
0.2244975211
 40
0.2987207874
 40
0.3718769359
 40
0.4435228288
 40
0.5132321172
 40
0.5472349683
 40
0.5806042979
 40
0.6132940683
 40
0.6452604189
 40
0.6764618947
 40
0.7068596954
 40
0.7364179508
 40
0.7651040267
 40
0.7928888687
 40
0.8197473934
 40
0.845658937
 40
0.8706077752
 40
0.8945837268
 40
0.9175828336
 40
0.9396082515
 40
0.9606709745
 40
0.9807915114
 40
1.0
 40
1.0
 40
1.0
 40
1.0
 10
15.582782981
 20
12.4307371382
 30
0.0
 10
15.5818923599
 20
12.4466407581
 30
0.0
 10
15.580647597
 20
12.4785470928
 30
0.0
 10
15.5803721033
 20
12.5264409301
 30
0.0
 10
15.5816824223
 20
12.5742218414
 30
0.0
 10
15.5845689931
 20
12.6215423207
 30
0.0
 10
15.5890106488
 20
12.6680593547
 30
0.0
 10
15.5949748584
 20
12.7134349714
 30
0.0
 10
15.6012280473
 20
12.7503235347
 30
0.0
 10
15.6069769594
 20
12.7789946363
 30
0.0
 10
15.6116031373
 20
12.799832561
 30
0.0
 10
15.6165708177
 20
12.8201448281
 30
0.0
 10
15.6218710121
 20
12.8398946209
 30
0.0
 10
15.6274940546
 20
12.859046064
 30
0.0
 10
15.6334297182
 20
12.8775644101
 30
0.0
 10
15.6396672105
 20
12.8954160736
 30
0.0
 10
15.6461952045
 20
12.9125687026
 30
0.0
 10
15.6530018619
 20
12.9289912376
 30
0.0
 10
15.6600748627
 20
12.9446539713
 30
0.0
 10
15.6674014367
 20
12.9595286036
 30
0.0
 10
15.6749683966
 20
12.9735882991
 30
0.0
 10
15.6827621787
 20
12.9868077194
 30
0.0
 10
15.6907688997
 20
12.999163103
 30
0.0
 10
15.6989743454
 20
13.0106321643
 30
0.0
 10
15.7073642753
 20
13.0211944936
 30
0.0
 10
15.7159235479
 20
13.0308304352
 30
0.0
 10
15.7218677198
 20
13.0367596584
 30
0.0
 10
15.7248649405
 20
13.039553252
 30
0.0
  0
LINE
  5
2C2
100
AcDbEntity
  8
02___PRT_ALL_AXES
100
AcDbLine
 62
7
  6
CONTINUOUS
 10
15.7874359595
 20
13.0724369747
 11
15.7266581268
 21
13.0678575403
  0
SPLINE
  5
2C3
100
AcDbEntity
  8
02___PRT_ALL_AXES
100
AcDbSpline
 62
7
  6
CONTINUOUS
 70
0
 71
3
 72
9
 73
5
 74
0
 42
0.0000001
 43
0.0000001
 44
0.0000000001
 40
0.0
 40
0.0
 40
0.0
 40
0.0
 40
0.4958662969
 40
1.0
 40
1.0
 40
1.0
 40
1.0
 10
15.597421102
 20
12.2730300292
 30
0.0
 10
15.5980188773
 20
12.2730300275
 30
0.0
 10
15.5992258905
 20
12.2731162014
 30
0.0
 10
15.6004086386
 20
12.2733701764
 30
0.0
 10
15.6009932005
 20
12.2735364217
 30
0.0
  0
SPLINE
  5
2C4
100
AcDbEntity
  8
LAYER_FEATURE
100
AcDbSpline
 62
7
  6
CONTINUOUS
 70
0
 71
3
 72
24
 73
20
 74
0
 42
0.0000001
 43
0.0000001
 44
0.0000000001
 40
0.0
 40
0.0
 40
0.0
 40
0.0
 40
0.0836660506
 40
0.1647132347
 40
0.2430320439
 40
0.3185262465
 40
0.3911162875
 40
0.4607407346
 40
0.5273589219
 40
0.5909538612
 40
0.6515357236
 40
0.7091459639
 40
0.7638621368
 40
0.8158033792
 40
0.8651363799
 40
0.912081364
 40
0.9569172159
 40
0.9786557944
 40
1.0
 40
1.0
 40
1.0
 40
1.0
 10
15.3322349855
 20
13.1958467741
 30
0.0
 10
15.3364237653
 20
13.2094016706
 30
0.0
 10
15.3450343646
 20
13.2359765787
 30
0.0
 10
15.3588861207
 20
13.2747966253
 30
0.0
 10
15.3734436745
 20
13.3118737681
 30
0.0
 10
15.388673866
 20
13.3471235048
 30
0.0
 10
15.4045421654
 20
13.3804659944
 30
0.0
 10
15.4210127528
 20
13.4118257832
 30
0.0
 10
15.4380486466
 20
13.4411320608
 30
0.0
 10
15.4556118695
 20
13.4683187791
 30
0.0
 10
15.4736636509
 20
13.4933247512
 30
0.0
 10
15.4921646096
 20
13.5160936665
 30
0.0
 10
15.511075041
 20
13.5365740541
 30
0.0
 10
15.5303548062
 20
13.5547189827
 30
0.0
 10
15.5499643276
 20
13.5704860782
 30
0.0
 10
15.5698610572
 20
13.5838358271
 30
0.0
 10
15.5868234118
 20
13.5930114527
 30
0.0
 10
15.6004579607
 20
13.5990556285
 30
0.0
 10
15.6072907276
 20
13.6016538485
 30
0.0
 10
15.610708597
 20
13.6028446303
 30
0.0
  0
SPLINE
  5
2C5
100
AcDbEntity
  8
LAYER_FEATURE
100
AcDbSpline
 62
7
  6
CONTINUOUS
 70
0
 71
3
 72
79
 73
75
 74
0
 42
0.0000001
 43
0.0000001
 44
0.0000000001
 40
0.0
 40
0.0
 40
0.0
 40
0.0
 40
0.0178417205
 40
0.0361841939
 40
0.0549959059
 40
0.074243075
 40
0.0938901924
 40
0.1139001157
 40
0.1342342848
 40
0.1548529053
 40
0.1757151221
 40
0.196779187
 40
0.2180026222
 40
0.2393423815
 40
0.2607550072
 40
0.2821967847
 40
0.303623897
 40
0.3249925787
 40
0.3462592699
 40
0.3673807704
 40
0.3883143976
 40
0.4090181448
 40
0.4294508427
 40
0.4495723254
 40
0.4693436059
 40
0.488727055
 40
0.5076865905
 40
0.5261878787
 40
0.5441985561
 40
0.5616884697
 40
0.5786299394
 40
0.5949980564
 40
0.6107710264
 40
0.6259305681
 40
0.6404623719
 40
0.6543566469
 40
0.667608774
 40
0.68022009
 40
0.6921988098
 40
0.7035611139
 40
0.7143323947
 40
0.7245486261
 40
0.7342577372
 40
0.743520789
 40
0.7480095609
 40
0.7524160579
 40
0.7567517278
 40
0.7610287659
 40
0.7652600164
 40
0.7694588547
 40
0.7736390479
 40
0.7778145914
 40
0.7819995387
 40
0.7862078263
 40
0.7904531066
 40
0.7947485894
 40
0.7991069111
 40
0.8035400238
 40
0.8080591073
 40
0.8126745215
 40
0.8222286912
 40
0.8322712904
 40
0.8428544766
 40
0.8540180267
 40
0.8657906795
 40
0.8781915196
 40
0.8912312668
 40
0.9049134185
 40
0.919235233
 40
0.9341885548
 40
0.949760502
 40
0.9659340646
 40
0.9826884871
 40
1.0
 40
1.0
 40
1.0
 40
1.0
 10
15.2794143833
 20
13.3034838444
 30
0.0
 10
15.2742889075
 20
13.2868977985
 30
0.0
 10
15.2643783035
 20
13.2531088158
 30
0.0
 10
15.2506972391
 20
13.2013705417
 30
0.0
 10
15.2380195512
 20
13.1479707625
 30
0.0
 10
15.2263759821
 20
13.0930382213
 30
0.0
 10
15.2157945796
 20
13.0367048329
 30
0.0
 10
15.2063008873
 20
12.9791060568
 30
0.0
 10
15.1979178107
 20
12.9203803977
 30
0.0
 10
15.1906655885
 20
12.8606691141
 30
0.0
 10
15.1845617349
 20
12.8001158561
 30
0.0
 10
15.1796209885
 20
12.7388663231
 30
0.0
 10
15.1758552734
 20
12.6770679069
 30
0.0
 10
15.1732736827
 20
12.6148693314
 30
0.0
 10
15.1718824542
 20
12.5524202912
 30
0.0
 10
15.1716849516
 20
12.4898710894
 30
0.0
 10
15.1726816452
 20
12.4273722721
 30
0.0
 10
15.1748701269
 20
12.3650742633
 30
0.0
 10
15.1782451137
 20
12.3031269996
 30
0.0
 10
15.1827984622
 20
12.2416795668
 30
0.0
 10
15.1885191719
 20
12.1808798358
 30
0.0
 10
15.1953934269
 20
12.1208741035
 30
0.0
 10
15.2034046307
 20
12.061806739
 30
0.0
 10
15.2125334498
 20
12.0038198308
 30
0.0
 10
15.2227578471
 20
11.9470528362
 30
0.0
 10
15.2340531439
 20
11.8916422394
 30
0.0
 10
15.2463920901
 20
11.83772122
 30
0.0
 10
15.2597449358
 20
11.7854193243
 30
0.0
 10
15.2740795015
 20
11.7348621389
 30
0.0
 10
15.2893612615
 20
11.6861709739
 30
0.0
 10
15.3055534564
 20
11.6394625649
 30
0.0
 10
15.3226172011
 20
11.5948487793
 30
0.0
 10
15.340511609
 20
11.5524363286
 30
0.0
 10
15.3591939162
 20
11.5123264895
 30
0.0
 10
15.3786196641
 20
11.4746148614
 30
0.0
 10
15.3987428845
 20
11.439391143
 30
0.0
 10
15.4195163221
 20
11.4067389447
 30
0.0
 10
15.4408916717
 20
11.3767356378
 30
0.0
 10
15.4628198466
 20
11.3494523303
 30
0.0
 10
15.4852513597
 20
11.3249539246
 30
0.0
 10
15.5081362217
 20
11.3032995065
 30
0.0
 10
15.5314251477
 20
11.2845423755
 30
0.0
 10
15.5550652686
 20
11.2687321592
 30
0.0
 10
15.575228927
 20
11.2579364709
 30
0.0
 10
15.5914361665
 20
11.250882806
 30
0.0
 10
15.6035142274
 20
11.2464068538
 30
0.0
 10
15.6156330315
 20
11.2426939628
 30
0.0
 10
15.627785377
 20
11.2397465288
 30
0.0
 10
15.6399636018
 20
11.237566722
 30
0.0
 10
15.6521600357
 20
11.2361561781
 30
0.0
 10
15.6643668883
 20
11.2355158924
 30
0.0
 10
15.6765763371
 20
11.2356463954
 30
0.0
 10
15.6887805354
 20
11.2365475779
 30
0.0
 10
15.7009716734
 20
11.2382187287
 30
0.0
 10
15.7131419893
 20
11.240658666
 30
0.0
 10
15.7252838271
 20
11.2438655464
 30
0.0
 10
15.7373896496
 20
11.2478371086
 30
0.0
 10
15.7494519467
 20
11.2525705536
 30
0.0
 10
15.761463675
 20
11.2580627642
 30
0.0
 10
15.7775858565
 20
11.2664884111
 30
0.0
 10
15.7976038002
 20
11.2789860126
 30
0.0
 10
15.821013381
 20
11.2967732324
 30
0.0
 10
15.8440377284
 20
11.3174753575
 30
0.0
 10
15.8666245928
 20
11.3410394531
 30
0.0
 10
15.8887247535
 20
11.3674086841
 30
0.0
 10
15.9102883726
 20
11.3965200456
 30
0.0
 10
15.9312662485
 20
11.4283045154
 30
0.0
 10
15.9516097846
 20
11.4626867765
 30
0.0
 10
15.9712713481
 20
11.4995852746
 30
0.0
 10
15.9902045112
 20
11.5389123206
 30
0.0
 10
16.0083642917
 20
11.5805742237
 30
0.0
 10
16.02570736
 20
11.6244716222
 30
0.0
 10
16.0421921088
 20
11.670499153
 30
0.0
 10
16.0524217856
 20
11.7020329879
 30
0.0
 10
16.0573949462
 20
11.7181261414
 30
0.0
  0
SPLINE
  5
2C6
100
AcDbEntity
  8
LAYER_FEATURE
100
AcDbSpline
 62
7
  6
CONTINUOUS
 70
0
 71
3
 72
58
 73
54
 74
0
 42
0.0000001
 43
0.0000001
 44
0.0000000001
 40
0.0
 40
0.0
 40
0.0
 40
0.0
 40
0.0163583127
 40
0.0330514635
 40
0.0500648597
 40
0.0673835105
 40
0.0849915538
 40
0.1028725914
 40
0.1393839943
 40
0.1767770745
 40
0.2149030241
 40
0.2536074777
 40
0.2927317878
 40
0.3321142518
 40
0.371591309
 40
0.4109987213
 40
0.4501727494
 40
0.4889513317
 40
0.5271752776
 40
0.5646894901
 40
0.6013442332
 40
0.619304912
 40
0.6369977083
 40
0.6544060238
 40
0.6715138635
 40
0.6883058884
 40
0.7047674716
 40
0.7208847591
 40
0.7366447347
 40
0.7520352903
 40
0.7670453042
 40
0.781664727
 40
0.7958846766
 40
0.8096975463
 40
0.8230971241
 40
0.83607873
 40
0.84863937
 40
0.8607779118
 40
0.8724952824
 40
0.8837946938
 40
0.8946818947
 40
0.9051654519
 40
0.9152570569
 40
0.9249718525
 40
0.9343287681
 40
0.9433508421
 40
0.9520655021
 40
0.9605047584
 40
0.9687052604
 40
0.9767081563
 40
0.9845587029
 40
0.9923055922
 40
1.0
 40
1.0
 40
1.0
 40
1.0
 10
15.272334376
 20
13.3437623504
 30
0.0
 10
15.2685072213
 20
13.3313776733
 30
0.0
 10
15.2610307595
 20
13.3062749448
 30
0.0
 10
15.2504473954
 20
13.268038281
 30
0.0
 10
15.240391462
 20
13.228873321
 30
0.0
 10
15.2308753682
 20
13.1888283614
 30
0.0
 10
15.2219107056
 20
13.1479522025
 30
0.0
 10
15.2106299256
 20
13.0920221561
 30
0.0
 10
15.1980132315
 20
13.0203789952
 30
0.0
 10
15.1853343288
 20
12.9325014132
 30
0.0
 10
15.1750758612
 20
12.8425594231
 30
0.0
 10
15.1672883661
 20
12.7509937304
 30
0.0
 10
15.1620102184
 20
12.6582522201
 30
0.0
 10
15.159267432
 20
12.5647888928
 30
0.0
 10
15.1590735308
 20
12.4710612749
 30
0.0
 10
15.1614294678
 20
12.377528233
 30
0.0
 10
15.1663236275
 20
12.2846476406
 30
0.0
 10
15.173731889
 20
12.1928741906
 30
0.0
 10
15.1836177474
 20
12.1026568086
 30
0.0
 10
15.1959324994
 20
12.014437562
 30
0.0
 10
15.2082501401
 20
11.9424658873
 30
0.0
 10
15.219296599
 20
11.886240587
 30
0.0
 10
15.2280914037
 20
11.8451216833
 30
0.0
 10
15.2374410591
 20
11.8048188231
 30
0.0
 10
15.2473341627
 20
11.7653812654
 30
0.0
 10
15.2577585579
 20
11.7268573351
 30
0.0
 10
15.2687014634
 20
11.6892941921
 30
0.0
 10
15.2801494589
 20
11.652737816
 30
0.0
 10
15.2920885125
 20
11.6172329371
 30
0.0
 10
15.3045039978
 20
11.5828229835
 30
0.0
 10
15.3173807155
 20
11.5495500261
 30
0.0
 10
15.330702915
 20
11.5174547255
 30
0.0
 10
15.344454318
 20
11.4865762811
 30
0.0
 10
15.3586181444
 20
11.4569523819
 30
0.0
 10
15.3731771395
 20
11.4286191602
 30
0.0
 10
15.3881136045
 20
11.4016111473
 30
0.0
 10
15.4034094271
 20
11.375961233
 30
0.0
 10
15.4190461172
 20
11.3517006302
 30
0.0
 10
15.4350048455
 20
11.3288588472
 30
0.0
 10
15.4512664821
 20
11.3074636664
 30
0.0
 10
15.4678116376
 20
11.2875411328
 30
0.0
 10
15.4846207009
 20
11.2691155559
 30
0.0
 10
15.5016738731
 20
11.2522095255
 30
0.0
 10
15.5189511872
 20
11.2368439442
 30
0.0
 10
15.5364325083
 20
11.2230380754
 30
0.0
 10
15.5540974967
 20
11.2108095987
 30
0.0
 10
15.5719255341
 20
11.2001746601
 30
0.0
 10
15.589895577
 20
11.1911478968
 30
0.0
 10
15.6079860509
 20
11.1837423959
 30
0.0
 10
15.6261744224
 20
11.1779695564
 30
0.0
 10
15.6444379326
 20
11.1738388333
 30
0.0
 10
15.6627503919
 20
11.1713573963
 30
0.0
 10
15.6749933302
 20
11.1708049887
 30
0.0
 10
15.6810904773
 20
11.1708049937
 30
0.0
  0
SPLINE
  5
2C7
100
AcDbEntity
  8
02___PRT_ALL_AXES
100
AcDbSpline
 62
7
  6
CONTINUOUS
 70
0
 71
3
 72
30
 73
26
 74
0
 42
0.0000001
 43
0.0000001
 44
0.0000000001
 40
0.0
 40
0.0
 40
0.0
 40
0.0
 40
0.0160814754
 40
0.0324335506
 40
0.0493106163
 40
0.0669383472
 40
0.0855066095
 40
0.1051674016
 40
0.1260366936
 40
0.148198107
 40
0.1717069977
 40
0.1965945919
 40
0.222871808
 40
0.250532278
 40
0.2795547289
 40
0.3099052849
 40
0.374392237
 40
0.443539193
 40
0.5167619313
 40
0.5933850513
 40
0.6726638582
 40
0.7538025814
 40
0.8359711519
 40
0.9183202304
 40
1.0
 40
1.0
 40
1.0
 40
1.0
 10
15.877134949
 20
11.9237251937
 30
0.0
 10
15.8777339188
 20
11.9237251987
 30
0.0
 10
15.8789436379
 20
11.9238117392
 30
0.0
 10
15.8807445321
 20
11.9241992547
 30
0.0
 10
15.8825318658
 20
11.9248423777
 30
0.0
 10
15.884299324
 20
11.9257377149
 30
0.0
 10
15.886041897
 20
11.9268813291
 30
0.0
 10
15.8877548293
 20
11.9282689038
 30
0.0
 10
15.8894335721
 20
11.9298957887
 30
0.0
 10
15.8910735787
 20
11.9317568968
 30
0.0
 10
15.8926703136
 20
11.9338465767
 30
0.0
 10
15.8942192559
 20
11.9361585561
 30
0.0
 10
15.8957159169
 20
11.9386859311
 30
0.0
 10
15.8971558664
 20
11.9414211399
 30
0.0
 10
15.8985348792
 20
11.9443559749
 30
0.0
 10
15.9003228579
 20
11.9486098636
 30
0.0
 10
15.9023623445
 20
11.9543730195
 30
0.0
 10
15.9044593262
 20
11.9617913392
 30
0.0
 10
15.9062274769
 20
11.9697581299
 30
0.0
 10
15.9076451405
 20
11.978177022
 30
0.0
 10
15.9086948389
 20
11.9869463791
 30
0.0
 10
15.9093636406
 20
11.995959876
 30
0.0
 10
15.909643282
 20
12.0051081801
 30
0.0
 10
15.9095303281
 20
12.0142800026
 30
0.0
 10
15.909191645
 20
12.020382332
 30
0.0
 10
15.9089552129
 20
12.0234153709
 30
0.0
  0
SPLINE
  5
2C8
100
AcDbEntity
  8
02___PRT_ALL_AXES
100
AcDbSpline
 62
7
  6
CONTINUOUS
 70
0
 71
3
 72
59
 73
55
 74
0
 42
0.0000001
 43
0.0000001
 44
0.0000000001
 40
0.0
 40
0.0
 40
0.0
 40
0.0
 40
0.0078425664
 40
0.0157063051
 40
0.0236655896
 40
0.0317911842
 40
0.0401486139
 40
0.0487966128
 40
0.0577863389
 40
0.0671611611
 40
0.0769568647
 40
0.0872021326
 40
0.0979191629
 40
0.1091243287
 40
0.1208288247
 40
0.133039267
 40
0.1457582272
 40
0.1589847007
 40
0.1727145128
 40
0.1869406671
 40
0.2016536451
 40
0.2168416681
 40
0.2324909243
 40
0.2485857652
 40
0.2651088788
 40
0.2820414433
 40
0.2993632636
 40
0.317052896
 40
0.3534425003
 40
0.3910198704
 40
0.4295792725
 40
0.4689043913
 40
0.5087709323
 40
0.5489490851
 40
0.5892059035
 40
0.6293076574
 40
0.6690221682
 40
0.7081211598
 40
0.7463826756
 40
0.7835935715
 40
0.8017423757
 40
0.8195539906
 40
0.8370054765
 40
0.854074988
 40
0.8707418857
 40
0.8869868568
 40
0.9027920486
 40
0.9181412164
 40
0.9330198944
 40
0.9474155716
 40
0.9613179545
 40
0.974719046
 40
0.9876138867
 40
1.0
 40
1.0
 40
1.0
 40
1.0
 10
15.7931242683
 20
13.0730590898
 30
0.0
 10
15.7961376592
 20
13.0732879661
 30
0.0
 10
15.802201868
 20
13.0734270097
 30
0.0
 10
15.8113055002
 20
13.0726630395
 30
0.0
 10
15.8203864865
 20
13.070928869
 30
0.0
 10
15.8294259714
 20
13.0682291119
 30
0.0
 10
15.8384076965
 20
13.0645707129
 30
0.0
 10
15.8473159788
 20
13.0599621689
 30
0.0
 10
15.8561360774
 20
13.0544132632
 30
0.0
 10
15.8648537773
 20
13.0479348919
 30
0.0
 10
15.873455208
 20
13.040539046
 30
0.0
 10
15.8819266826
 20
13.0322388755
 30
0.0
 10
15.8902546258
 20
13.0230487733
 30
0.0
 10
15.8984255618
 20
13.0129844569
 30
0.0
 10
15.906426131
 20
13.0020630178
 30
0.0
 10
15.9142431254
 20
12.9903029475
 30
0.0
 10
15.921863534
 20
12.9777241444
 30
0.0
 10
15.929274587
 20
12.9643479037
 30
0.0
 10
15.9364637983
 20
12.9501968957
 30
0.0
 10
15.9434190032
 20
12.9352951352
 30
0.0
 10
15.9501283988
 20
12.9196679464
 30
0.0
 10
15.9565805693
 20
12.9033419162
 30
0.0
 10
15.9627645155
 20
12.8863448469
 30
0.0
 10
15.9686696784
 20
12.8687057085
 30
0.0
 10
15.9742859684
 20
12.85045458
 30
0.0
 10
15.9796037596
 20
12.8316226254
 30
0.0
 10
15.9846140129
 20
12.8122419296
 30
0.0
 10
15.9909320461
 20
12.7854615635
 30
0.0
 10
15.9979777129
 20
12.7508419747
 30
0.0
 10
16.0050062433
 20
12.7080446646
 30
0.0
 10
16.0106378397
 20
12.6639009211
 30
0.0
 10
16.0148337351
 20
12.6187123146
 30
0.0
 10
16.017565023
 20
12.5727870056
 30
0.0
 10
16.0188128728
 20
12.5264385191
 30
0.0
 10
16.0185686817
 20
12.4799832882
 30
0.0
 10
16.0168341438
 20
12.4337384943
 30
0.0
 10
16.0136212089
 20
12.3880198939
 30
0.0
 10
16.0089520114
 20
12.3431393778
 30
0.0
 10
16.0028587142
 20
12.2994036309
 30
0.0
 10
15.9965781055
 20
12.2638687608
 30
0.0
 10
15.9908561317
 20
12.2362578606
 30
0.0
 10
15.9862732735
 20
12.216191176
 30
0.0
 10
15.9813714497
 20
12.1966284688
 30
0.0
 10
15.9761590005
 20
12.1776030883
 30
0.0
 10
15.9706448653
 20
12.1591475416
 30
0.0
 10
15.9648384751
 20
12.1412933264
 30
0.0
 10
15.9587497581
 20
12.124070904
 30
0.0
 10
15.9523891117
 20
12.1075096353
 30
0.0
 10
15.9457673867
 20
12.0916377372
 30
0.0
 10
15.9388958586
 20
12.0764821989
 30
0.0
 10
15.9317862139
 20
12.0620688445
 30
0.0
 10
15.9244504373
 20
12.0484219757
 30
0.0
 10
15.9169011159
 20
12.0355651673
 30
0.0
 10
15.9116279108
 20
12.0273697562
 30
0.0
 10
15.9089552129
 20
12.0234153709
 30
0.0
  0
SPLINE
  5
2C9
100
AcDbEntity
  8
02___PRT_ALL_AXES
100
AcDbSpline
 62
7
  6
CONTINUOUS
 70
0
 71
3
 72
40
 73
36
 74
0
 42
0.0000001
 43
0.0000001
 44
0.0000000001
 40
0.0
 40
0.0
 40
0.0
 40
0.0
 40
0.0475561686
 40
0.0938221148
 40
0.1387493271
 40
0.1822940979
 40
0.2244187869
 40
0.2650921661
 40
0.304290246
 40
0.3419971153
 40
0.3782059446
 40
0.4129201437
 40
0.4461547055
 40
0.4779377482
 40
0.5083122584
 40
0.537338002
 40
0.56509353
 40
0.5785276715
 40
0.5916833708
 40
0.6172186642
 40
0.6418495919
 40
0.6657441749
 40
0.6890916774
 40
0.7120987888
 40
0.7349838291
 40
0.7579694468
 40
0.7812747173
 40
0.8051077387
 40
0.8296596626
 40
0.8551006778
 40
0.8815779859
 40
0.9092154522
 40
0.9381144561
 40
0.9683554728
 40
1.0
 40
1.0
 40
1.0
 40
1.0
 10
15.5899348822
 20
12.9380582444
 30
0.0
 10
15.5922210305
 20
12.945456223
 30
0.0
 10
15.596905612
 20
12.9599983939
 30
0.0
 10
15.6043790608
 20
12.9813204247
 30
0.0
 10
15.6121923074
 20
13.0018231954
 30
0.0
 10
15.6203317463
 20
13.0214709899
 30
0.0
 10
15.628783257
 20
13.0402297719
 30
0.0
 10
15.6375322149
 20
13.0580670531
 30
0.0
 10
15.6465635231
 20
13.0749519855
 30
0.0
 10
15.6558616595
 20
13.0908554047
 30
0.0
 10
15.6654107226
 20
13.1057498789
 30
0.0
 10
15.6751944814
 20
13.1196097363
 30
0.0
 10
15.6851964508
 20
13.1324110983
 30
0.0
 10
15.6953998827
 20
13.1441318293
 30
0.0
 10
15.7057880533
 20
13.1547516817
 30
0.0
 10
15.7163434785
 20
13.1642516375
 30
0.0
 10
15.7253617609
 20
13.1712965005
 30
0.0
 10
15.7326392152
 20
13.1763336954
 30
0.0
 10
15.7398055982
 20
13.1808839292
 30
0.0
 10
15.7488446156
 20
13.1858716553
 30
0.0
 10
15.7598966408
 20
13.1907372993
 30
0.0
 10
15.7710269859
 20
13.1944127283
 30
0.0
 10
15.7822147804
 20
13.1968883583
 30
0.0
 10
15.7934382907
 20
13.1981573701
 30
0.0
 10
15.8046745909
 20
13.1982159999
 30
0.0
 10
15.8159003501
 20
13.197064076
 30
0.0
 10
15.8270925917
 20
13.1947050139
 30
0.0
 10
15.8382293632
 20
13.1911454145
 30
0.0
 10
15.8492900424
 20
13.1863944235
 30
0.0
 10
15.8602552769
 20
13.1804631319
 30
0.0
 10
15.8711067081
 20
13.1733641683
 30
0.0
 10
15.8818266006
 20
13.1651115789
 30
0.0
 10
15.8923977053
 20
13.1557206735
 30
0.0
 10
15.9028025451
 20
13.1452087694
 30
0.0
 10
15.9094635892
 20
13.1376400009
 30
0.0
 10
15.9127652453
 20
13.1336844531
 30
0.0
  0
SPLINE
  5
2CA
100
AcDbEntity
  8
02___PRT_ALL_AXES
100
AcDbSpline
 62
7
  6
CONTINUOUS
 70
0
 71
3
 72
27
 73
23
 74
0
 42
0.0000001
 43
0.0000001
 44
0.0000000001
 40
0.0
 40
0.0
 40
0.0
 40
0.0
 40
0.0879722985
 40
0.1726720924
 40
0.2539443347
 40
0.331659276
 40
0.4057168386
 40
0.476051248
 40
0.5426367551
 40
0.6054946185
 40
0.6647016902
 40
0.7204005094
 40
0.7728109579
 40
0.8222423105
 40
0.8459746028
 40
0.8691246136
 40
0.8917600197
 40
0.9139548846
 40
0.9357891912
 40
0.9573480998
 40
0.9787209453
 40
1.0
 40
1.0
 40
1.0
 40
1.0
 10
15.5641867221
 20
12.9511120538
 30
0.0
 10
15.5673448577
 20
12.9613317844
 30
0.0
 10
15.573864674
 20
12.9812939463
 30
0.0
 10
15.5844729683
 20
13.0102985185
 30
0.0
 10
15.5956983023
 20
13.037728158
 30
0.0
 10
15.6075053928
 20
13.0634966613
 30
0.0
 10
15.6198574837
 20
13.0875237067
 30
0.0
 10
15.6327164065
 20
13.1097345294
 30
0.0
 10
15.6460428683
 20
13.1300602616
 30
0.0
 10
15.6597968759
 20
13.1484380171
 30
0.0
 10
15.6739377891
 20
13.1648107521
 30
0.0
 10
15.6884256224
 20
13.1791273917
 30
0.0
 10
15.7032180994
 20
13.1913407238
 30
0.0
 10
15.7159379639
 20
13.1998453097
 30
0.0
 10
15.7262006775
 20
13.2054983033
 30
0.0
 10
15.7338387428
 20
13.2091312918
 30
0.0
 10
15.7415152525
 20
13.2122111888
 30
0.0
 10
15.7492242901
 20
13.2147352571
 30
0.0
 10
15.7569595109
 20
13.2167010528
 30
0.0
 10
15.7647146769
 20
13.2181066389
 30
0.0
 10
15.7724827254
 20
13.2189505812
 30
0.0
 10
15.7776707185
 20
13.2191383244
 30
0.0
 10
15.7802580443
 20
13.219138326
 30
0.0
  0
SPLINE
  5
2CB
100
AcDbEntity
  8
02___PRT_ALL_AXES
100
AcDbSpline
 62
7
  6
CONTINUOUS
 70
0
 71
3
 72
25
 73
21
 74
0
 42
0.0000001
 43
0.0000001
 44
0.0000000001
 40
0.0
 40
0.0
 40
0.0
 40
0.0
 40
0.0894091666
 40
0.1761936214
 40
0.259983225
 40
0.3404389058
 40
0.4172547918
 40
0.4901665296
 40
0.5589583986
 40
0.6234734001
 40
0.6836257461
 40
0.7394172682
 40
0.7909587204
 40
0.8384967405
 40
0.8824453685
 40
0.9234164631
 40
0.9430539492
 40
0.9622739114
 40
0.9812091615
 40
1.0
 40
1.0
 40
1.0
 40
1.0
 10
15.7874359595
 20
13.0724369747
 30
0.0
 10
15.7871409141
 20
13.0743300282
 30
0.0
 10
15.7864991441
 20
13.0780515044
 30
0.0
 10
15.785363116
 20
13.0835066619
 30
0.0
 10
15.7840728738
 20
13.0887301932
 30
0.0
 10
15.7826355868
 20
13.0936933296
 30
0.0
 10
15.7810591769
 20
13.0983689167
 30
0.0
 10
15.7793523143
 20
13.1027314199
 30
0.0
 10
15.7775243057
 20
13.1067571351
 30
0.0
 10
15.7755849976
 20
13.1104243189
 30
0.0
 10
15.7735446342
 20
13.1137133092
 30
0.0
 10
15.7714136318
 20
13.1166065913
 30
0.0
 10
15.7692024416
 20
13.1190887216
 30
0.0
 10
15.7669209648
 20
13.1211461023
 30
0.0
 10
15.7645797166
 20
13.1227661667
 30
0.0
 10
15.7625575572
 20
13.1237556582
 30
0.0
 10
15.7609348307
 20
13.1243030297
 30
0.0
 10
15.759728968
 20
13.1245928387
 30
0.0
 10
15.7585194653
 20
13.1247669742
 30
0.0
 10
15.7577105223
 20
13.1248057388
 30
0.0
 10
15.7573078621
 20
13.1248057367
 30
0.0
  0
SPLINE
  5
2CC
100
AcDbEntity
  8
LAYER_FEATURE
100
AcDbSpline
 62
7
  6
CONTINUOUS
 70
0
 71
3
 72
52
 73
48
 74
0
 42
0.0000001
 43
0.0000001
 44
0.0000000001
 40
0.0
 40
0.0
 40
0.0
 40
0.0
 40
0.0079087572
 40
0.0160274296
 40
0.0243883317
 40
0.0330200545
 40
0.0419474712
 40
0.0511918526
 40
0.0607710577
 40
0.0706997643
 40
0.0809897169
 40
0.0916499816
 40
0.102687191
 40
0.1141057703
 40
0.1259081451
 40
0.1380949247
 40
0.1506650726
 40
0.1636160581
 40
0.1769439888
 40
0.1906437286
 40
0.2047089984
 40
0.2191324707
 40
0.2339058561
 40
0.2490199776
 40
0.2644648382
 40
0.2802296797
 40
0.2963030387
 40
0.312672801
 40
0.3462489451
 40
0.3808511693
 40
0.4163635634
 40
0.4526637272
 40
0.489623834
 40
0.527111644
 40
0.5649914703
 40
0.6031250998
 40
0.6413727074
 40
0.6795937458
 40
0.717647837
 40
0.7553956584
 40
0.7926998447
 40
0.8294259011
 40
0.8654431383
 40
0.9006256617
 40
0.9348533847
 40
0.9680131224
 40
1.0
 40
1.0
 40
1.0
 40
1.0
 10
15.6107085972
 20
11.4187653579
 30
0.0
 10
15.6059878457
 20
11.4204100602
 30
0.0
 10
15.5965471956
 20
11.4241163434
 30
0.0
 10
15.5826371469
 20
11.430789535
 30
0.0
 10
15.568824434
 20
11.4386338858
 30
0.0
 10
15.5551247354
 20
11.4476394639
 30
0.0
 10
15.54155197
 20
11.4577958284
 30
0.0
 10
15.5281202736
 20
11.4690913985
 30
0.0
 10
15.5148435171
 20
11.481513609
 30
0.0
 10
15.5017354862
 20
11.4950488285
 30
0.0
 10
15.4888098345
 20
11.5096823352
 30
0.0
 10
15.4760800999
 20
11.5253983048
 30
0.0
 10
15.4635596842
 20
11.5421798006
 30
0.0
 10
15.4512618334
 20
11.5600087691
 30
0.0
 10
15.4391996175
 20
11.5788660412
 30
0.0
 10
15.4273858964
 20
11.5987313332
 30
0.0
 10
15.4158333049
 20
11.6195832673
 30
0.0
 10
15.4045542329
 20
11.6413993942
 30
0.0
 10
15.3935608037
 20
11.6641562142
 30
0.0
 10
15.382864858
 20
11.6878292
 30
0.0
 10
15.3724779275
 20
11.7123928165
 30
0.0
 10
15.3624112218
 20
11.7378205509
 30
0.0
 10
15.3526756174
 20
11.764084947
 30
0.0
 10
15.3432816433
 20
11.7911576337
 30
0.0
 10
15.3342394626
 20
11.8190093636
 30
0.0
 10
15.3255588818
 20
11.8476100093
 30
0.0
 10
15.3172492314
 20
11.8769287195
 30
0.0
 10
15.3065866244
 20
11.9172755858
 30
0.0
 10
15.2942760017
 20
11.9692916669
 30
0.0
 10
15.2812386562
 20
12.0335344196
 30
0.0
 10
15.269871266
 20
12.0998408807
 30
0.0
 10
15.260223289
 20
12.1679241203
 30
0.0
 10
15.2523366708
 20
12.2374901371
 30
0.0
 10
15.2462457052
 20
12.3082381801
 30
0.0
 10
15.2419769156
 20
12.3798623586
 30
0.0
 10
15.2395488539
 20
12.4520529126
 30
0.0
 10
15.238972094
 20
12.5244975987
 30
0.0
 10
15.240249154
 20
12.5968830571
 30
0.0
 10
15.243374456
 20
12.6688961881
 30
0.0
 10
15.2483344244
 20
12.7402255257
 30
0.0
 10
15.2551074648
 20
12.8105626125
 30
0.0
 10
15.2636641073
 20
12.8796033441
 30
0.0
 10
15.2739671608
 20
12.9470493555
 30
0.0
 10
15.2859717741
 20
13.0126091933
 30
0.0
 10
15.2996258892
 20
13.0760001457
 30
0.0
 10
15.3148698722
 20
13.1369476399
 30
0.0
 10
15.3262654922
 20
13.1765294868
 30
0.0
 10
15.3322349855
 20
13.1958467741
 30
0.0
  0
LINE
  5
2CD
100
AcDbEntity
  8
LAYER_FEATURE
100
AcDbLine
 62
7
  6
CONTINUOUS
 10
14.9132011426
 20
13.0709263922
 11
14.916136313
 21
13.0752280454
  0
SPLINE
  5
2CE
100
AcDbEntity
  8
LAYER_FEATURE
100
AcDbSpline
 62
7
  6
CONTINUOUS
 70
0
 71
3
 72
16
 73
12
 74
0
 42
0.0000001
 43
0.0000001
 44
0.0000000001
 40
0.0
 40
0.0
 40
0.0
 40
0.0
 40
0.0399345184
 40
0.0808032845
 40
0.1684425327
 40
0.2683862488
 40
0.3835101304
 40
0.5148592007
 40
0.6622184182
 40
0.8244964046
 40
1.0
 40
1.0
 40
1.0
 40
1.0
 10
14.884093474
 20
13.070962313
 30
0.0
 10
14.8839860651
 20
13.0709623125
 30
0.0
 10
14.8837683043
 20
13.0709438001
 30
0.0
 10
14.8833276357
 20
13.0708312344
 30
0.0
 10
14.8827768528
 20
13.0705392076
 30
0.0
 10
14.8821671807
 20
13.0699912873
 30
0.0
 10
14.8815949668
 20
13.0692510979
 30
0.0
 10
14.8810667713
 20
13.0683300181
 30
0.0
 10
14.8805896079
 20
13.0672421459
 30
0.0
 10
14.8801710942
 20
13.0660048366
 30
0.0
 10
14.8799437424
 20
13.065124383
 30
0.0
 10
14.8798399529
 20
13.0646638955
 30
0.0
  0
SPLINE
  5
2CF
100
AcDbEntity
  8
02___PRT_ALL_AXES
100
AcDbSpline
 62
7
  6
CONTINUOUS
 70
0
 71
3
 72
52
 73
48
 74
0
 42
0.0000001
 43
0.0000001
 44
0.0000000001
 40
0.0
 40
0.0
 40
0.0
 40
0.0
 40
0.0079087572
 40
0.0160274296
 40
0.0243883317
 40
0.0330200545
 40
0.0419474712
 40
0.0511918526
 40
0.0607710577
 40
0.0706997643
 40
0.0809897169
 40
0.0916499816
 40
0.102687191
 40
0.1141057703
 40
0.1259081451
 40
0.1380949247
 40
0.1506650726
 40
0.1636160581
 40
0.1769439888
 40
0.1906437286
 40
0.2047089984
 40
0.2191324707
 40
0.2339058561
 40
0.2490199776
 40
0.2644648382
 40
0.2802296797
 40
0.2963030387
 40
0.312672801
 40
0.3462489451
 40
0.3808511693
 40
0.4163635634
 40
0.4526637272
 40
0.489623834
 40
0.527111644
 40
0.5649914703
 40
0.6031250998
 40
0.6413727074
 40
0.6795937458
 40
0.717647837
 40
0.7553956584
 40
0.7926998447
 40
0.8294259011
 40
0.8654431383
 40
0.9006256617
 40
0.9348533847
 40
0.9680131224
 40
1.0
 40
1.0
 40
1.0
 40
1.0
 10
15.621959238
 20
11.414845663
 30
0.0
 10
15.6172215421
 20
11.4164962687
 30
0.0
 10
15.6077470064
 20
11.420215855
 30
0.0
 10
15.5937870299
 20
11.426912999
 30
0.0
 10
15.5799247386
 20
11.4347855057
 30
0.0
 10
15.5661758672
 20
11.4438234078
 30
0.0
 10
15.5525543845
 20
11.4540162269
 30
0.0
 10
15.5390744773
 20
11.4653523406
 30
0.0
 10
15.5257500661
 20
11.4778191385
 30
0.0
 10
15.5125949861
 20
11.4914029404
 30
0.0
 10
15.4996229399
 20
11.5060889717
 30
0.0
 10
15.4868475141
 20
11.5218613512
 30
0.0
 10
15.4742821584
 20
11.5387030814
 30
0.0
 10
15.4619401665
 20
11.556596044
 30
0.0
 10
15.4498346553
 20
11.5755210011
 30
0.0
 10
15.4379785308
 20
11.5954575963
 30
0.0
 10
15.4263844732
 20
11.616384375
 30
0.0
 10
15.4150649169
 20
11.6382788072
 30
0.0
 10
15.4040320286
 20
11.6611173091
 30
0.0
 10
15.3932976915
 20
11.6848752651
 30
0.0
 10
15.3828734789
 20
11.7095270486
 30
0.0
 10
15.3727706404
 20
11.7350460516
 30
0.0
 10
15.3630000916
 20
11.7614047194
 30
0.0
 10
15.3535723994
 20
11.7885745791
 30
0.0
 10
15.3444977634
 20
11.8165262781
 30
0.0
 10
15.335786025
 20
11.8452295811
 30
0.0
 10
15.3274465486
 20
11.8746535259
 30
0.0
 10
15.3167456699
 20
11.9151452106
 30
0.0
 10
15.3043908602
 20
11.9673479948
 30
0.0
 10
15.2913067194
 20
12.0318213361
 30
0.0
 10
15.2798985278
 20
12.0983657933
 30
0.0
 10
15.270215921
 20
12.1666934064
 30
0.0
 10
15.262300995
 20
12.2365091188
 30
0.0
 10
15.256188167
 20
12.3075111001
 30
0.0
 10
15.2519040553
 20
12.3793923618
 30
0.0
 10
15.2494672785
 20
12.4518420317
 30
0.0
 10
15.2488884484
 20
12.524546746
 30
0.0
 10
15.2501700921
 20
12.59719202
 30
0.0
 10
15.2533066119
 20
12.6694636302
 30
0.0
 10
15.2582843833
 20
12.7410489926
 30
0.0
 10
15.2650817344
 20
12.8116385427
 30
0.0
 10
15.2736690895
 20
12.8809270845
 30
0.0
 10
15.2840091242
 20
12.9486151822
 30
0.0
 10
15.296056826
 20
13.0144103361
 30
0.0
 10
15.3097599503
 20
13.0780288198
 30
0.0
 10
15.325058649
 20
13.1391950749
 30
0.0
 10
15.3364951717
 20
13.1789189943
 30
0.0
 10
15.3424860915
 20
13.1983056178
 30
0.0
  0
SPLINE
  5
2D0
100
AcDbEntity
  8
LAYER_FEATURE
100
AcDbSpline
 62
7
  6
CONTINUOUS
 70
0
 71
3
 72
15
 73
11
 74
0
 42
0.0000001
 43
0.0000001
 44
0.0000000001
 40
0.0
 40
0.0
 40
0.0
 40
0.0
 40
0.0858518027
 40
0.1774223665
 40
0.2792241801
 40
0.39414084
 40
0.5236356815
 40
0.6681080548
 40
0.82720401
 40
1.0
 40
1.0
 40
1.0
 40
1.0
 10
14.9196927441
 20
13.2249089403
 30
0.0
 10
14.9195069211
 20
13.224908938
 30
0.0
 10
14.9191209611
 20
13.2248511814
 30
0.0
 10
14.9185647019
 20
13.2245997879
 30
0.0
 10
14.9180300174
 20
13.2241930892
 30
0.0
 10
14.9175208593
 20
13.2236392062
 30
0.0
 10
14.917040802
 20
13.222945249
 30
0.0
 10
14.9165945161
 20
13.2221192357
 30
0.0
 10
14.9161870088
 20
13.2211709096
 30
0.0
 10
14.9159534299
 20
13.2204908666
 30
0.0
 10
14.9158430043
 20
13.2201335292
 30
0.0
  0
SPLINE
  5
2D1
100
AcDbEntity
  8
02___PRT_ALL_AXES
100
AcDbSpline
 62
7
  6
CONTINUOUS
 70
0
 71
3
 72
62
 73
58
 74
0
 42
0.0000001
 43
0.0000001
 44
0.0000000001
 40
0.0
 40
0.0
 40
0.0
 40
0.0
 40
0.0176380331
 40
0.0357027957
 40
0.0541719464
 40
0.0730216745
 40
0.0922270765
 40
0.1117621604
 40
0.151711044
 40
0.1926448591
 40
0.2343275429
 40
0.2765151102
 40
0.3189583391
 40
0.3614053869
 40
0.4036043722
 40
0.4453059552
 40
0.4862659524
 40
0.5262480227
 40
0.5458022127
 40
0.565028325
 40
0.5839003112
 40
0.6023931804
 40
0.6204831112
 40
0.6381475729
 40
0.6553654565
 40
0.6721172195
 40
0.6883850462
 40
0.7041530283
 40
0.7194073682
 40
0.7341366114
 40
0.7483319143
 40
0.7619873543
 40
0.7751002906
 40
0.7876717845
 40
0.799707086
 40
0.8112161927
 40
0.8222144809
 40
0.8327233996
 40
0.8427712002
 40
0.8476339637
 40
0.8523955431
 40
0.8616365095
 40
0.8705483363
 40
0.8791917662
 40
0.8876352909
 40
0.8959537794
 40
0.9042263835
 40
0.9125338874
 40
0.9209558309
 40
0.9295678057
 40
0.9384392704
 40
0.9476320776
 40
0.957199728
 40
0.9671872378
 40
0.9776314462
 40
0.9885615892
 40
1.0
 40
1.0
 40
1.0
 40
1.0
 10
15.5899348822
 20
12.9380582444
 30
0.0
 10
15.5875847924
 20
12.9304533512
 30
0.0
 10
15.5830163451
 20
12.9150006942
 30
0.0
 10
15.5766268447
 20
12.8914016015
 30
0.0
 10
15.5706268843
 20
12.8671367785
 30
0.0
 10
15.5650270481
 20
12.8422487905
 30
0.0
 10
15.5598370687
 20
12.8167810096
 30
0.0
 10
15.5534283907
 20
12.7818510603
 30
0.0
 10
15.5465266228
 20
12.7370515158
 30
0.0
 10
15.5400646829
 20
12.6821077079
 30
0.0
 10
15.5354080461
 20
12.625967843
 30
0.0
 10
15.5325895026
 20
12.5690242282
 30
0.0
 10
15.5316289277
 20
12.5116741511
 30
0.0
 10
15.5325330852
 20
12.4543180061
 30
0.0
 10
15.5352956041
 20
12.397356231
 30
0.0
 10
15.5398970115
 20
12.3411862445
 30
0.0
 10
15.5463049063
 20
12.2862005672
 30
0.0
 10
15.5531622857
 20
12.2413584107
 30
0.0
 10
15.5595361961
 20
12.2063886174
 30
0.0
 10
15.5647010555
 20
12.180887156
 30
0.0
 10
15.5702763479
 20
12.1559628164
 30
0.0
 10
15.576252367
 20
12.1316590635
 30
0.0
 10
15.5826186282
 20
12.1080183753
 30
0.0
 10
15.5893639895
 20
12.0850820275
 30
0.0
 10
15.5964766464
 20
12.0628900546
 30
0.0
 10
15.603944163
 20
12.0414811691
 30
0.0
 10
15.6117534959
 20
12.0208926926
 30
0.0
 10
15.6198910222
 20
12.0011604867
 30
0.0
 10
15.6283425705
 20
11.9823188884
 30
0.0
 10
15.6370934564
 20
11.9644006482
 30
0.0
 10
15.6461285213
 20
11.9474368734
 30
0.0
 10
15.6554321742
 20
11.9314569755
 30
0.0
 10
15.6649884419
 20
11.9164886246
 30
0.0
 10
15.674781017
 20
11.9025577189
 30
0.0
 10
15.6847933327
 20
11.8896883488
 30
0.0
 10
15.6950085555
 20
11.8779028472
 30
0.0
 10
15.7054098742
 20
11.867221643
 30
0.0
 10
15.715979717
 20
11.8576639257
 30
0.0
 10
15.7250114529
 20
11.8505733051
 30
0.0
 10
15.7323003403
 20
11.8455015382
 30
0.0
 10
15.7394776627
 20
11.8409191555
 30
0.0
 10
15.7485308577
 20
11.8358936165
 30
0.0
 10
15.7596015309
 20
11.8309859851
 30
0.0
 10
15.7707513829
 20
11.8272728263
 30
0.0
 10
15.7819594561
 20
11.8247638432
 30
0.0
 10
15.7932039138
 20
11.8234659699
 30
0.0
 10
15.8044617049
 20
11.8233830712
 30
0.0
 10
15.8157093523
 20
11.8245153962
 30
0.0
 10
15.8269237212
 20
11.8268595698
 30
0.0
 10
15.8380827043
 20
11.8304089894
 30
0.0
 10
15.8491655379
 20
11.8351544765
 30
0.0
 10
15.8601527444
 20
11.841084886
 30
0.0
 10
15.871025855
 20
11.8481875225
 30
0.0
 10
15.8817670341
 20
11.8564482648
 30
0.0
 10
15.8923589371
 20
11.8658517233
 30
0.0
 10
15.9027839889
 20
11.8763804904
 30
0.0
 10
15.9094574752
 20
11.8839626541
 30
0.0
 10
15.9127652454
 20
11.8879255321
 30
0.0
  0
SPLINE
  5
2D2
100
AcDbEntity
  8
02___PRT_ALL_AXES
100
AcDbSpline
 62
7
  6
CONTINUOUS
 70
0
 71
3
 72
52
 73
48
 74
0
 42
0.0000001
 43
0.0000001
 44
0.0000000001
 40
0.0
 40
0.0
 40
0.0
 40
0.0
 40
0.0330501566
 40
0.0673811103
 40
0.1028692275
 40
0.1393809377
 40
0.1767743314
 40
0.2149006001
 40
0.253605378
 40
0.2927300162
 40
0.3321128104
 40
0.3715901983
 40
0.410997941
 40
0.4501722977
 40
0.4889512048
 40
0.5271754709
 40
0.5646899984
 40
0.6013450496
 40
0.6369975768
 40
0.6715126464
 40
0.7047649964
 40
0.7208824194
 40
0.7366425275
 40
0.7520332125
 40
0.7670433522
 40
0.7816628971
 40
0.7958829653
 40
0.8096959499
 40
0.8230956395
 40
0.8360773542
 40
0.8486381
 40
0.8607767441
 40
0.8724942135
 40
0.8837937198
 40
0.8946810118
 40
0.9051646564
 40
0.9152563454
 40
0.924971222
 40
0.934328216
 40
0.9433503662
 40
0.9520650998
 40
0.9605044273
 40
0.9687049982
 40
0.9767079613
 40
0.9845585736
 40
0.9923055277
 40
1.0
 40
1.0
 40
1.0
 40
1.0
 10
15.5641867221
 20
12.9511120538
 30
0.0
 10
15.5600993868
 20
12.9378854317
 30
0.0
 10
15.5523226755
 20
12.9107450894
 30
0.0
 10
15.5420046149
 20
12.8689007862
 30
0.0
 10
15.5328486428
 20
12.8253043653
 30
0.0
 10
15.524900051
 20
12.7801695541
 30
0.0
 10
15.5181978914
 20
12.7337166038
 30
0.0
 10
15.5127751937
 20
12.6861727102
 30
0.0
 10
15.5086586688
 20
12.6377704286
 30
0.0
 10
15.505868604
 20
12.5887466253
 30
0.0
 10
15.5044187495
 20
12.539341258
 30
0.0
 10
15.5043162512
 20
12.4897961871
 30
0.0
 10
15.5055616144
 20
12.4403539681
 30
0.0
 10
15.508148701
 20
12.391256645
 30
0.0
 10
15.5120647607
 20
12.3427445422
 30
0.0
 10
15.517290495
 20
12.2950550715
 30
0.0
 10
15.5238001575
 20
12.2484215238
 30
0.0
 10
15.5315616825
 20
12.2030719684
 30
0.0
 10
15.5405368708
 20
12.1592278399
 30
0.0
 10
15.5506815409
 20
12.1171037341
 30
0.0
 10
15.5601645374
 20
12.0832606705
 30
0.0
 10
15.5683177963
 20
12.0572247354
 30
0.0
 10
15.5746289041
 20
12.0384565714
 30
0.0
 10
15.5811918052
 20
12.0202672394
 30
0.0
 10
15.5879985307
 20
12.0026789199
 30
0.0
 10
15.5950407377
 20
11.9857131218
 30
0.0
 10
15.6023098258
 20
11.9693905619
 30
0.0
 10
15.6097969235
 20
11.9537311637
 30
0.0
 10
15.6174929102
 20
11.9387540262
 30
0.0
 10
15.6253884295
 20
11.9244774024
 30
0.0
 10
15.6334739074
 20
11.9109186782
 30
0.0
 10
15.6417395703
 20
11.8980943535
 30
0.0
 10
15.650175465
 20
11.8860200271
 30
0.0
 10
15.6587714793
 20
11.8747103851
 30
0.0
 10
15.6675173638
 20
11.8641791955
 30
0.0
 10
15.6764027521
 20
11.8544393081
 30
0.0
 10
15.685417178
 20
11.8455026638
 30
0.0
 10
15.6945500868
 20
11.8373803115
 30
0.0
 10
15.7037908348
 20
11.830082433
 30
0.0
 10
15.7131286703
 20
11.8236183737
 30
0.0
 10
15.7225526948
 20
11.8179966694
 30
0.0
 10
15.7320517845
 20
11.8132250579
 30
0.0
 10
15.741614535
 20
11.8093104577
 30
0.0
 10
15.751229035
 20
11.8062588945
 30
0.0
 10
15.7608832538
 20
11.8040753664
 30
0.0
 10
15.7705633475
 20
11.8027636622
 30
0.0
 10
15.7770350499
 20
11.8024716579
 30
0.0
 10
15.7802580443
 20
11.8024716598
 30
0.0
  0
SPLINE
  5
2D3
100
AcDbEntity
  8
02___PRT_ALL_AXES
100
AcDbSpline
 62
7
  6
CONTINUOUS
 70
0
 71
3
 72
52
 73
48
 74
0
 42
0.0000001
 43
0.0000001
 44
0.0000000001
 40
0.0
 40
0.0
 40
0.0
 40
0.0
 40
0.0330501566
 40
0.0673811103
 40
0.1028692275
 40
0.1393809377
 40
0.1767743314
 40
0.2149006001
 40
0.253605378
 40
0.2927300162
 40
0.3321128104
 40
0.3715901983
 40
0.410997941
 40
0.4501722977
 40
0.4889512048
 40
0.5271754709
 40
0.5646899984
 40
0.6013450496
 40
0.6369975768
 40
0.6715126464
 40
0.7047649964
 40
0.7208824194
 40
0.7366425275
 40
0.7520332125
 40
0.7670433522
 40
0.7816628971
 40
0.7958829653
 40
0.8096959499
 40
0.8230956395
 40
0.8360773542
 40
0.8486381
 40
0.8607767441
 40
0.8724942135
 40
0.8837937198
 40
0.8946810118
 40
0.9051646564
 40
0.9152563454
 40
0.924971222
 40
0.934328216
 40
0.9433503662
 40
0.9520650998
 40
0.9605044273
 40
0.9687049982
 40
0.9767079613
 40
0.9845585736
 40
0.9923055277
 40
1.0
 40
1.0
 40
1.0
 40
1.0
 10
15.4637910738
 20
12.9511120538
 30
0.0
 10
15.4597037384
 20
12.9378854317
 30
0.0
 10
15.4519270271
 20
12.9107450894
 30
0.0
 10
15.4416089666
 20
12.8689007862
 30
0.0
 10
15.4324529945
 20
12.8253043653
 30
0.0
 10
15.4245044027
 20
12.7801695541
 30
0.0
 10
15.417802243
 20
12.7337166038
 30
0.0
 10
15.4123795453
 20
12.6861727102
 30
0.0
 10
15.4082630205
 20
12.6377704286
 30
0.0
 10
15.4054729557
 20
12.5887466253
 30
0.0
 10
15.4040231011
 20
12.539341258
 30
0.0
 10
15.4039206029
 20
12.4897961871
 30
0.0
 10
15.4051659661
 20
12.4403539681
 30
0.0
 10
15.4077530527
 20
12.391256645
 30
0.0
 10
15.4116691123
 20
12.3427445422
 30
0.0
 10
15.4168948467
 20
12.2950550715
 30
0.0
 10
15.4234045092
 20
12.2484215238
 30
0.0
 10
15.4311660341
 20
12.2030719684
 30
0.0
 10
15.4401412224
 20
12.1592278399
 30
0.0
 10
15.4502858926
 20
12.1171037341
 30
0.0
 10
15.459768889
 20
12.0832606705
 30
0.0
 10
15.467922148
 20
12.0572247354
 30
0.0
 10
15.4742332557
 20
12.0384565714
 30
0.0
 10
15.4807961569
 20
12.0202672394
 30
0.0
 10
15.4876028824
 20
12.0026789199
 30
0.0
 10
15.4946450894
 20
11.9857131218
 30
0.0
 10
15.5019141774
 20
11.9693905619
 30
0.0
 10
15.5094012752
 20
11.9537311637
 30
0.0
 10
15.5170972618
 20
11.9387540262
 30
0.0
 10
15.5249927811
 20
11.9244774024
 30
0.0
 10
15.5330782591
 20
11.9109186782
 30
0.0
 10
15.541343922
 20
11.8980943535
 30
0.0
 10
15.5497798167
 20
11.8860200271
 30
0.0
 10
15.558375831
 20
11.8747103851
 30
0.0
 10
15.5671217155
 20
11.8641791955
 30
0.0
 10
15.5760071037
 20
11.8544393081
 30
0.0
 10
15.5850215296
 20
11.8455026638
 30
0.0
 10
15.5941544385
 20
11.8373803115
 30
0.0
 10
15.6033951865
 20
11.830082433
 30
0.0
 10
15.612733022
 20
11.8236183737
 30
0.0
 10
15.6221570464
 20
11.8179966694
 30
0.0
 10
15.6316561361
 20
11.8132250579
 30
0.0
 10
15.6412188867
 20
11.8093104577
 30
0.0
 10
15.6508333866
 20
11.8062588945
 30
0.0
 10
15.6604876055
 20
11.8040753664
 30
0.0
 10
15.6701676991
 20
11.8027636622
 30
0.0
 10
15.6766394016
 20
11.8024716579
 30
0.0
 10
15.679862396
 20
11.8024716598
 30
0.0
  0
SPLINE
  5
2D4
100
AcDbEntity
  8
LAYER_FEATURE
100
AcDbSpline
 62
7
  6
CONTINUOUS
 70
0
 71
3
 72
79
 73
75
 74
0
 42
0.0000001
 43
0.0000001
 44
0.0000000001
 40
0.0
 40
0.0
 40
0.0
 40
0.0
 40
0.0173115129
 40
0.0340659354
 40
0.050239498
 40
0.0658114452
 40
0.080764767
 40
0.0950865815
 40
0.1087687332
 40
0.1218084804
 40
0.1342093205
 40
0.1459819733
 40
0.1571455234
 40
0.1677287096
 40
0.1777713088
 40
0.1873254785
 40
0.1919408927
 40
0.1964599762
 40
0.2008930889
 40
0.2052514106
 40
0.2095468934
 40
0.2137921737
 40
0.2180004613
 40
0.2221854086
 40
0.2263609521
 40
0.2305411453
 40
0.2347399836
 40
0.2389712341
 40
0.2432482722
 40
0.2475839421
 40
0.2519904391
 40
0.256479211
 40
0.2657422628
 40
0.2754513739
 40
0.2856676053
 40
0.2964388861
 40
0.3078011902
 40
0.31977991
 40
0.332391226
 40
0.3456433531
 40
0.3595376281
 40
0.3740694319
 40
0.3892289736
 40
0.4050019436
 40
0.4213700606
 40
0.4383115303
 40
0.4558014439
 40
0.4738121213
 40
0.4923134095
 40
0.511272945
 40
0.5306563941
 40
0.5504276746
 40
0.5705491573
 40
0.5909818552
 40
0.6116856024
 40
0.6326192296
 40
0.6537407301
 40
0.6750074213
 40
0.696376103
 40
0.7178032153
 40
0.7392449928
 40
0.7606576185
 40
0.7819973778
 40
0.803220813
 40
0.8242848779
 40
0.8451470947
 40
0.8657657152
 40
0.8860998843
 40
0.9061098076
 40
0.925756925
 40
0.9450040941
 40
0.9638158061
 40
0.9821582795
 40
1.0
 40
1.0
 40
1.0
 40
1.0
 10
15.2794143833
 20
13.3034838444
 30
0.0
 10
15.2843875439
 20
13.3195769979
 30
0.0
 10
15.2946172206
 20
13.3511108328
 30
0.0
 10
15.3111019695
 20
13.3971383636
 30
0.0
 10
15.3284450378
 20
13.4410357621
 30
0.0
 10
15.3466048183
 20
13.4826976652
 30
0.0
 10
15.3655379814
 20
13.5220247112
 30
0.0
 10
15.3851995449
 20
13.5589232093
 30
0.0
 10
15.405543081
 20
13.5933054704
 30
0.0
 10
15.4265209569
 20
13.6250899402
 30
0.0
 10
15.448084576
 20
13.6542013017
 30
0.0
 10
15.4701847367
 20
13.6805705327
 30
0.0
 10
15.4927716011
 20
13.7041346283
 30
0.0
 10
15.5157959485
 20
13.7248367534
 30
0.0
 10
15.5392055293
 20
13.7426239732
 30
0.0
 10
15.559223473
 20
13.7551215747
 30
0.0
 10
15.5753456545
 20
13.7635472216
 30
0.0
 10
15.5873573828
 20
13.7690394322
 30
0.0
 10
15.5994196799
 20
13.7737728772
 30
0.0
 10
15.6115255024
 20
13.7777444395
 30
0.0
 10
15.6236673402
 20
13.7809513198
 30
0.0
 10
15.6358376561
 20
13.7833912571
 30
0.0
 10
15.6480287941
 20
13.7850624079
 30
0.0
 10
15.6602329924
 20
13.7859635904
 30
0.0
 10
15.6724424412
 20
13.7860940934
 30
0.0
 10
15.6846492938
 20
13.7854538077
 30
0.0
 10
15.6968457277
 20
13.7840432639
 30
0.0
 10
15.7090239525
 20
13.781863457
 30
0.0
 10
15.721176298
 20
13.778916023
 30
0.0
 10
15.7332951021
 20
13.7752031321
 30
0.0
 10
15.7453731629
 20
13.7707271798
 30
0.0
 10
15.7615804025
 20
13.7636735149
 30
0.0
 10
15.7817440609
 20
13.7528778266
 30
0.0
 10
15.8053841818
 20
13.7370676103
 30
0.0
 10
15.8286731078
 20
13.7183104794
 30
0.0
 10
15.8515579698
 20
13.6966560612
 30
0.0
 10
15.8739894829
 20
13.6721576555
 30
0.0
 10
15.8959176578
 20
13.6448743481
 30
0.0
 10
15.9172930074
 20
13.6148710411
 30
0.0
 10
15.938066445
 20
13.5822188428
 30
0.0
 10
15.9581896654
 20
13.5469951245
 30
0.0
 10
15.9776154133
 20
13.5092834963
 30
0.0
 10
15.9962977205
 20
13.4691736572
 30
0.0
 10
16.0141921284
 20
13.4267612065
 30
0.0
 10
16.0312558731
 20
13.3821474209
 30
0.0
 10
16.047448068
 20
13.3354390119
 30
0.0
 10
16.062729828
 20
13.2867478469
 30
0.0
 10
16.0770643937
 20
13.2361906615
 30
0.0
 10
16.0904172394
 20
13.1838887658
 30
0.0
 10
16.1027561856
 20
13.1299677464
 30
0.0
 10
16.1140514824
 20
13.0745571496
 30
0.0
 10
16.1242758797
 20
13.017790155
 30
0.0
 10
16.1334046988
 20
12.9598032468
 30
0.0
 10
16.1414159026
 20
12.9007358823
 30
0.0
 10
16.1482901576
 20
12.84073015
 30
0.0
 10
16.1540108673
 20
12.779930419
 30
0.0
 10
16.1585642158
 20
12.7184829862
 30
0.0
 10
16.1619392026
 20
12.6565357226
 30
0.0
 10
16.1641276843
 20
12.5942377137
 30
0.0
 10
16.1651243779
 20
12.5317388964
 30
0.0
 10
16.1649268753
 20
12.4691896946
 30
0.0
 10
16.1635356468
 20
12.4067406544
 30
0.0
 10
16.1609540561
 20
12.3445420789
 30
0.0
 10
16.157188341
 20
12.2827436628
 30
0.0
 10
16.1522475946
 20
12.2214941297
 30
0.0
 10
16.146143741
 20
12.1609408717
 30
0.0
 10
16.1388915187
 20
12.1012295881
 30
0.0
 10
16.1305084422
 20
12.042503929
 30
0.0
 10
16.1210147499
 20
11.9849051529
 30
0.0
 10
16.1104333474
 20
11.9285717645
 30
0.0
 10
16.0987897783
 20
11.8736392234
 30
0.0
 10
16.0861120904
 20
11.8202394441
 30
0.0
 10
16.072431026
 20
11.76850117
 30
0.0
 10
16.062520422
 20
11.7347121873
 30
0.0
 10
16.0573949462
 20
11.7181261414
 30
0.0
  0
SPLINE
  5
2D5
100
AcDbEntity
  8
LAYER_FEATURE
100
AcDbSpline
 62
7
  6
CONTINUOUS
 70
0
 71
3
 72
38
 73
34
 74
0
 42
0.0000001
 43
0.0000001
 44
0.0000000001
 40
0.0
 40
0.0
 40
0.0
 40
0.0
 40
0.0879640552
 40
0.1307307761
 40
0.172659294
 40
0.2137306917
 40
0.2539278587
 40
0.2932354838
 40
0.3316400154
 40
0.3691299321
 40
0.4056958451
 40
0.4413306505
 40
0.4760297486
 40
0.5097912561
 40
0.5426162041
 40
0.574508797
 40
0.6054767258
 40
0.6355314456
 40
0.6646884931
 40
0.6929678659
 40
0.7203944052
 40
0.7469981505
 40
0.7728147279
 40
0.7978857439
 40
0.8222590827
 40
0.8459891383
 40
0.8691369604
 40
0.8917702295
 40
0.9139630036
 40
0.9357952502
 40
0.9573521237
 40
0.9787229528
 40
1.0
 40
1.0
 40
1.0
 40
1.0
 10
15.272334376
 20
13.3437623504
 30
0.0
 10
15.2783088293
 20
13.3630956885
 30
0.0
 10
15.287647948
 20
13.3916904114
 30
0.0
 10
15.3009750283
 20
13.4291083246
 30
0.0
 10
15.3111772663
 20
13.4561832909
 30
0.0
 10
15.3216717611
 20
13.4825109832
 30
0.0
 10
15.3324502951
 20
13.5080707388
 30
0.0
 10
15.3435043367
 20
13.5328423599
 30
0.0
 10
15.354825198
 20
13.5568063247
 30
0.0
 10
15.3664039468
 20
13.5799437466
 30
0.0
 10
15.3782314684
 20
13.6022364028
 30
0.0
 10
15.3902984777
 20
13.6236667302
 30
0.0
 10
15.402595507
 20
13.6442178567
 30
0.0
 10
15.4151129098
 20
13.6638736193
 30
0.0
 10
15.4278408996
 20
13.6826185538
 30
0.0
 10
15.4407695599
 20
13.7004379029
 30
0.0
 10
15.4538888182
 20
13.7173176548
 30
0.0
 10
15.4671884888
 20
13.7332445264
 30
0.0
 10
15.4806582924
 20
13.7482059517
 30
0.0
 10
15.4942878459
 20
13.7621901022
 30
0.0
 10
15.5080666595
 20
13.775185899
 30
0.0
 10
15.5219841719
 20
13.7871829728
 30
0.0
 10
15.5360297482
 20
13.7981716509
 30
0.0
 10
15.5501926379
 20
13.8081429968
 30
0.0
 10
15.5644619895
 20
13.817088769
 30
0.0
 10
15.5788268337
 20
13.8250013954
 30
0.0
 10
15.5932760365
 20
13.8318740051
 30
0.0
 10
15.6077982452
 20
13.837700477
 30
0.0
 10
15.6223819115
 20
13.8424754243
 30
0.0
 10
15.6370151347
 20
13.8461942478
 30
0.0
 10
15.6516860837
 20
13.8488532782
 30
0.0
 10
15.6663814034
 20
13.8504498219
 30
0.0
 10
15.6761958656
 20
13.8508049882
 30
0.0
 10
15.6810904773
 20
13.8508049922
 30
0.0
  0
SPLINE
  5
2D6
100
AcDbEntity
  8
LAYER_FEATURE
100
AcDbSpline
 62
7
  6
CONTINUOUS
 70
0
 71
3
 72
36
 73
32
 74
0
 42
0.0000001
 43
0.0000001
 44
0.0000000001
 40
0.0
 40
0.0
 40
0.0
 40
0.0
 40
0.0219241864
 40
0.043932347
 40
0.0661072698
 40
0.0885294522
 40
0.1112760945
 40
0.1344202759
 40
0.1580303408
 40
0.1821694191
 40
0.2068951869
 40
0.2322597883
 40
0.2583098143
 40
0.2850864818
 40
0.3126258517
 40
0.3409590263
 40
0.3701125013
 40
0.4001084517
 40
0.4309649789
 40
0.4626964781
 40
0.4953138796
 40
0.5288248769
 40
0.5632342444
 40
0.598544005
 40
0.6347536248
 40
0.6718602692
 40
0.7098589048
 40
0.748742448
 40
0.8291229012
 40
0.9129139705
 40
1.0
 40
1.0
 40
1.0
 40
1.0
 10
15.3114379984
 20
13.7498049898
 30
0.0
 10
15.3072205629
 20
13.7498049842
 30
0.0
 10
15.2987667931
 20
13.7495199653
 30
0.0
 10
15.2861057834
 20
13.7482385049
 30
0.0
 10
15.2734628294
 20
13.7461040324
 30
0.0
 10
15.2608478813
 20
13.7431183388
 30
0.0
 10
15.248269777
 20
13.7392839579
 30
0.0
 10
15.2357374404
 20
13.7346040623
 30
0.0
 10
15.2232595873
 20
13.7290823383
 30
0.0
 10
15.210844773
 20
13.722723089
 30
0.0
 10
15.1985014101
 20
13.7155311229
 30
0.0
 10
15.1862378293
 20
13.7075117029
 30
0.0
 10
15.1740622225
 20
13.6986706555
 30
0.0
 10
15.1619827155
 20
13.6890142703
 30
0.0
 10
15.1500073907
 20
13.6785493071
 30
0.0
 10
15.1381442174
 20
13.6672830842
 30
0.0
 10
15.1264011341
 20
13.6552233878
 30
0.0
 10
15.1147860304
 20
13.6423785071
 30
0.0
 10
15.103306683
 20
13.628757285
 30
0.0
 10
15.0919708386
 20
13.6143690421
 30
0.0
 10
15.0807861645
 20
13.5992236175
 30
0.0
 10
15.0697602057
 20
13.5833313878
 30
0.0
 10
15.0589004617
 20
13.5667032051
 30
0.0
 10
15.0482143178
 20
13.5493504394
 30
0.0
 10
15.0377090217
 20
13.5312849657
 30
0.0
 10
15.0273917803
 20
13.5125191436
 30
0.0
 10
15.0172695514
 20
13.4930657557
 30
0.0
 10
15.003894874
 20
13.4659289323
 30
0.0
 10
14.9877389413
 20
13.4303532794
 30
0.0
 10
14.9694472929
 20
13.3856043713
 30
0.0
 10
14.9580895342
 20
13.3547502157
 30
0.0
 10
14.9525563967
 20
13.3389381105
 30
0.0
  0
SPLINE
  5
2D7
100
AcDbEntity
  8
02___PRT_ALL_AXES
100
AcDbSpline
 62
7
  6
CONTINUOUS
 70
0
 71
3
 72
27
 73
23
 74
0
 42
0.0000001
 43
0.0000001
 44
0.0000000001
 40
0.0
 40
0.0
 40
0.0
 40
0.0
 40
0.0879722985
 40
0.1726720924
 40
0.2539443347
 40
0.331659276
 40
0.4057168386
 40
0.476051248
 40
0.5426367551
 40
0.6054946185
 40
0.6647016902
 40
0.7204005094
 40
0.7728109579
 40
0.8222423105
 40
0.8459746028
 40
0.8691246136
 40
0.8917600197
 40
0.9139548846
 40
0.9357891912
 40
0.9573480998
 40
0.9787209453
 40
1.0
 40
1.0
 40
1.0
 40
1.0
 10
15.4637910738
 20
12.9511120538
 30
0.0
 10
15.4669492094
 20
12.9613317844
 30
0.0
 10
15.4734690256
 20
12.9812939463
 30
0.0
 10
15.48407732
 20
13.0102985185
 30
0.0
 10
15.495302654
 20
13.037728158
 30
0.0
 10
15.5071097445
 20
13.0634966613
 30
0.0
 10
15.5194618354
 20
13.0875237067
 30
0.0
 10
15.5323207581
 20
13.1097345294
 30
0.0
 10
15.5456472199
 20
13.1300602616
 30
0.0
 10
15.5594012276
 20
13.1484380171
 30
0.0
 10
15.5735421408
 20
13.1648107521
 30
0.0
 10
15.5880299741
 20
13.1791273917
 30
0.0
 10
15.6028224511
 20
13.1913407238
 30
0.0
 10
15.6155423155
 20
13.1998453097
 30
0.0
 10
15.6258050292
 20
13.2054983033
 30
0.0
 10
15.6334430944
 20
13.2091312918
 30
0.0
 10
15.6411196041
 20
13.2122111888
 30
0.0
 10
15.6488286417
 20
13.2147352571
 30
0.0
 10
15.6565638626
 20
13.2167010528
 30
0.0
 10
15.6643190285
 20
13.2181066389
 30
0.0
 10
15.6720870771
 20
13.2189505812
 30
0.0
 10
15.6772750701
 20
13.2191383244
 30
0.0
 10
15.679862396
 20
13.219138326
 30
0.0
  0
SPLINE
  5
2D8
100
AcDbEntity
  8
LAYER_FEATURE
100
AcDbSpline
 62
7
  6
CONTINUOUS
 70
0
 71
3
 72
58
 73
54
 74
0
 42
0.0000001
 43
0.0000001
 44
0.0000000001
 40
0.0
 40
0.0
 40
0.0
 40
0.0
 40
0.0163583
 40
0.033051471
 40
0.0500648574
 40
0.0673835114
 40
0.0849915535
 40
0.1028725909
 40
0.1393839941
 40
0.1767770752
 40
0.2149030243
 40
0.2536074773
 40
0.2927317876
 40
0.3321142519
 40
0.3715913088
 40
0.4109987214
 40
0.4501727498
 40
0.4889513312
 40
0.5271752767
 40
0.5646894904
 40
0.601344234
 40
0.6193049122
 40
0.6369977078
 40
0.6544060228
 40
0.6715138624
 40
0.6883058876
 40
0.7047674716
 40
0.7208847596
 40
0.736644735
 40
0.7520352903
 40
0.7670453039
 40
0.7816647265
 40
0.7958846763
 40
0.8096975461
 40
0.823097124
 40
0.8360787296
 40
0.8486393693
 40
0.860777911
 40
0.8724952819
 40
0.8837946938
 40
0.8946818953
 40
0.9051654528
 40
0.9152570574
 40
0.9249718519
 40
0.9343287667
 40
0.9433508406
 40
0.952065501
 40
0.960504758
 40
0.9687052606
 40
0.9767081569
 40
0.9845587033
 40
0.9923055923
 40
1.0
 40
1.0
 40
1.0
 40
1.0
 10
14.8899960845
 20
13.3437623504
 30
0.0
 10
14.8861689328
 20
13.3313776829
 30
0.0
 10
14.8786924708
 20
13.3062749482
 30
0.0
 10
14.8681091046
 20
13.2680382869
 30
0.0
 10
14.8580531714
 20
13.2288733157
 30
0.0
 10
14.848537077
 20
13.1888283627
 30
0.0
 10
14.839572414
 20
13.1479522024
 30
0.0
 10
14.8282916326
 20
13.0920221571
 30
0.0
 10
14.8156749386
 20
13.0203789954
 30
0.0
 10
14.8029960407
 20
12.9325014122
 30
0.0
 10
14.7927375713
 20
12.8425594226
 30
0.0
 10
14.7849500718
 20
12.7509937308
 30
0.0
 10
14.7796719241
 20
12.6582522205
 30
0.0
 10
14.7769291446
 20
12.5647888929
 30
0.0
 10
14.7767352425
 20
12.4710612749
 30
0.0
 10
14.7790911732
 20
12.3775282326
 30
0.0
 10
14.7839853326
 20
12.2846476403
 30
0.0
 10
14.7913936003
 20
12.1928741916
 30
0.0
 10
14.8012794603
 20
12.1026568099
 30
0.0
 10
14.8135942055
 20
12.0144375614
 30
0.0
 10
14.8259118458
 20
11.9424658857
 30
0.0
 10
14.836958307
 20
11.8862405864
 30
0.0
 10
14.8457531131
 20
11.8451216844
 30
0.0
 10
14.8551027696
 20
11.8048188256
 30
0.0
 10
14.8649958732
 20
11.7653812681
 30
0.0
 10
14.8754202677
 20
11.7268573368
 30
0.0
 10
14.8863631713
 20
11.6892941919
 30
0.0
 10
14.8978111662
 20
11.6527378146
 30
0.0
 10
14.9097502202
 20
11.6172329358
 30
0.0
 10
14.9221657062
 20
11.5828229832
 30
0.0
 10
14.9350424244
 20
11.5495500267
 30
0.0
 10
14.948364624
 20
11.5174547265
 30
0.0
 10
14.9621160268
 20
11.4865762819
 30
0.0
 10
14.9762798528
 20
11.4569523822
 30
0.0
 10
14.9908388476
 20
11.4286191603
 30
0.0
 10
15.0057753133
 20
11.4016111483
 30
0.0
 10
15.0210711362
 20
11.3759612349
 30
0.0
 10
15.0367078265
 20
11.3517006323
 30
0.0
 10
15.0526665545
 20
11.3288588485
 30
0.0
 10
15.0689281906
 20
11.3074636658
 30
0.0
 10
15.0854733453
 20
11.2875411302
 30
0.0
 10
15.1022824081
 20
11.2691155522
 30
0.0
 10
15.1193355806
 20
11.2522095233
 30
0.0
 10
15.1366128964
 20
11.2368439466
 30
0.0
 10
15.1540942183
 20
11.2230380815
 30
0.0
 10
15.1717592063
 20
11.2108096051
 30
0.0
 10
15.1895872431
 20
11.200174664
 30
0.0
 10
15.2075572853
 20
11.1911478963
 30
0.0
 10
15.2256477586
 20
11.1837423908
 30
0.0
 10
15.24383613
 20
11.1779695478
 30
0.0
 10
15.2620996408
 20
11.1738388292
 30
0.0
 10
15.2804121007
 20
11.1713573916
 30
0.0
 10
15.2926550389
 20
11.1708050064
 30
0.0
 10
15.2987521858
 20
11.1708050004
 30
0.0
  0
SPLINE
  5
2D9
100
AcDbEntity
  8
LAYER_FEATURE
100
AcDbSpline
 62
7
  6
CONTINUOUS
 70
0
 71
3
 72
39
 73
35
 74
0
 42
0.0000001
 43
0.0000001
 44
0.0000000001
 40
0.0
 40
0.0
 40
0.0
 40
0.0
 40
0.0470952029
 40
0.0931109979
 40
0.1380108223
 40
0.1817625316
 40
0.2243366227
 40
0.2657076235
 40
0.3058540258
 40
0.3447588158
 40
0.3824098877
 40
0.4188005641
 40
0.4539301724
 40
0.4878047026
 40
0.5204375529
 40
0.5518503634
 40
0.582073939
 40
0.6111492458
 40
0.6391284569
 40
0.66607599
 40
0.6920694528
 40
0.7172003813
 40
0.7415746115
 40
0.7653120983
 40
0.7885459998
 40
0.8114208885
 40
0.8340900565
 40
0.8567120267
 40
0.8794465467
 40
0.9024504575
 40
0.9258738585
 40
0.9498569202
 40
0.9745275555
 40
1.0
 40
1.0
 40
1.0
 40
1.0
 10
14.9224477169
 20
13.3034838444
 30
0.0
 10
14.9260681025
 20
13.3151994162
 30
0.0
 10
14.9334620437
 20
13.338289957
 30
0.0
 10
14.945155991
 20
13.372270869
 30
0.0
 10
14.9573129435
 20
13.4051627274
 30
0.0
 10
14.9699174035
 20
13.4369237616
 30
0.0
 10
14.9829535502
 20
13.4675140613
 30
0.0
 10
14.9964049179
 20
13.4968950384
 30
0.0
 10
15.010254597
 20
13.5250297167
 30
0.0
 10
15.0244851897
 20
13.5518826972
 30
0.0
 10
15.0390788694
 20
13.5774202259
 30
0.0
 10
15.054017404
 20
13.6016102297
 30
0.0
 10
15.069282199
 20
13.6244223481
 30
0.0
 10
15.084854337
 20
13.6458279588
 30
0.0
 10
15.1007146192
 20
13.6658001938
 30
0.0
 10
15.116843607
 20
13.6843139446
 30
0.0
 10
15.1332216599
 20
13.7013458517
 30
0.0
 10
15.1498289647
 20
13.7168742778
 30
0.0
 10
15.166645544
 20
13.7308792651
 30
0.0
 10
15.1836512353
 20
13.7433424798
 30
0.0
 10
15.2008256314
 20
13.7542471477
 30
0.0
 10
15.2181479638
 20
13.7635780126
 30
0.0
 10
15.2355969341
 20
13.7713213485
 30
0.0
 10
15.2531505163
 20
13.7774650616
 30
0.0
 10
15.2707857799
 20
13.7819989149
 30
0.0
 10
15.2884788097
 20
13.7849148667
 30
0.0
 10
15.3062047959
 20
13.7862074776
 30
0.0
 10
15.323938331
 20
13.7858742606
 30
0.0
 10
15.3416538545
 20
13.783915867
 30
0.0
 10
15.3593261744
 20
13.7803360197
 30
0.0
 10
15.3769307557
 20
13.7751413132
 30
0.0
 10
15.3944443497
 20
13.7683405704
 30
0.0
 10
15.4118433907
 20
13.7599454486
 30
0.0
 10
15.4231586043
 20
13.7534059268
 30
0.0
 10
15.4287840276
 20
13.7498928475
 30
0.0
  0
SPLINE
  5
2DA
100
AcDbEntity
  8
LAYER_FEATURE
100
AcDbSpline
 62
7
  6
CONTINUOUS
 70
0
 71
3
 72
64
 73
60
 74
0
 42
0.0000001
 43
0.0000001
 44
0.0000000001
 40
0.0
 40
0.0
 40
0.0
 40
0.0
 40
0.017174129
 40
0.0347349176
 40
0.0526636433
 40
0.0709407169
 40
0.089545527
 40
0.1084566534
 40
0.1276518902
 40
0.1471083394
 40
0.1668024738
 40
0.1867102064
 40
0.2270664332
 40
0.2679768685
 40
0.3092350494
 40
0.350631442
 40
0.391955301
 40
0.432996516
 40
0.473547465
 40
0.4935760007
 40
0.513406216
 40
0.5330137075
 40
0.5523745913
 40
0.5714655687
 40
0.5902639944
 40
0.6087479476
 40
0.6268963072
 40
0.6446888304
 40
0.6621062376
 40
0.6791303033
 40
0.6957439547
 40
0.7119313804
 40
0.7276781494
 40
0.7429713453
 40
0.7577997159
 40
0.7721538436
 40
0.7860263394
 40
0.7994120649
 40
0.8123083881
 40
0.8247154774
 40
0.8366366387
 40
0.8480787007
 40
0.8590524486
 40
0.8695731032
 40
0.8796608352
 40
0.8893412891
 40
0.8986460757
 40
0.9076131678
 40
0.9162871112
 40
0.9247189408
 40
0.932965696
 40
0.9410894566
 40
0.949155892
 40
0.957232415
 40
0.9653861284
 40
0.9736818089
 40
0.9821801629
 40
0.9909365168
 40
1.0
 40
1.0
 40
1.0
 40
1.0
 10
14.9224477169
 20
13.3034838444
 30
0.0
 10
14.9184140698
 20
13.2904309576
 30
0.0
 10
14.9105552316
 20
13.2639379331
 30
0.0
 10
14.8995031014
 20
13.223525446
 30
0.0
 10
14.8890682306
 20
13.1820438336
 30
0.0
 10
14.8792663642
 20
13.1395555636
 30
0.0
 10
14.8701122065
 20
13.0961241948
 30
0.0
 10
14.8616195151
 20
13.0518148694
 30
0.0
 10
14.853801048
 20
13.0066939944
 30
0.0
 10
14.8466685717
 20
12.9608292652
 30
0.0
 10
14.8402327426
 20
12.9142893264
 30
0.0
 10
14.8325591806
 20
12.8511452937
 30
0.0
 10
14.8247933816
 20
12.7710222422
 30
0.0
 10
14.8184215249
 20
12.6737478867
 30
0.0
 10
14.8149937702
 20
12.5754971879
 30
0.0
 10
14.8145307796
 20
12.476859271
 30
0.0
 10
14.8170353485
 20
12.3784244479
 30
0.0
 10
14.8224923924
 20
12.2807829516
 30
0.0
 10
14.8295012085
 20
12.2002339861
 30
0.0
 10
14.8365758333
 20
12.1366586164
 30
0.0
 10
14.8425721634
 20
12.089732898
 30
0.0
 10
14.849271301
 20
12.0434389681
 30
0.0
 10
14.8566632372
 20
11.9978461202
 30
0.0
 10
14.8647368459
 20
11.9530227593
 30
0.0
 10
14.8734799982
 20
11.9090360823
 30
0.0
 10
14.8828795554
 20
11.8659520325
 30
0.0
 10
14.8929213966
 20
11.8238351844
 30
0.0
 10
14.9035904392
 20
11.7827486488
 30
0.0
 10
14.9148706637
 20
11.7427539749
 30
0.0
 10
14.9267451399
 20
11.7039110562
 30
0.0
 10
14.9391960547
 20
11.6662780381
 30
0.0
 10
14.9522047434
 20
11.6299112276
 30
0.0
 10
14.9657517217
 20
11.5948650065
 30
0.0
 10
14.9798167223
 20
11.5611917466
 30
0.0
 10
14.9943787332
 20
11.5289417287
 30
0.0
 10
15.0094160405
 20
11.4981630653
 30
0.0
 10
15.024906275
 20
11.4689016281
 30
0.0
 10
15.0408264635
 20
11.4412009813
 30
0.0
 10
15.0571530858
 20
11.4151023236
 30
0.0
 10
15.0738621363
 20
11.3906444393
 30
0.0
 10
15.0909291911
 20
11.3678636649
 30
0.0
 10
15.1083294769
 20
11.3467938739
 30
0.0
 10
15.1260379381
 20
11.3274664862
 30
0.0
 10
15.1440292922
 20
11.3099105088
 30
0.0
 10
15.1622780583
 20
11.2941526094
 30
0.0
 10
15.1807585377
 20
11.2802172213
 30
0.0
 10
15.1994447172
 20
11.2681266607
 30
0.0
 10
15.2183100721
 20
11.257901218
 30
0.0
 10
15.2373272645
 20
11.2495591554
 30
0.0
 10
15.2564677779
 20
11.2431165302
 30
0.0
 10
15.2757015972
 20
11.2385867787
 30
0.0
 10
15.2949970949
 20
11.2359800772
 30
0.0
 10
15.314321278
 20
11.2353026229
 30
0.0
 10
15.333640411
 20
11.2365560688
 30
0.0
 10
15.3529209216
 20
11.2397373798
 30
0.0
 10
15.3721300856
 20
11.2448390477
 30
0.0
 10
15.3912370881
 20
11.2518500539
 30
0.0
 10
15.4102110676
 20
11.2607553179
 30
0.0
 10
15.4225245595
 20
11.2678130517
 30
0.0
 10
15.4286421557
 20
11.2716285991
 30
0.0
  0
SPLINE
  5
2DB
100
AcDbEntity
  8
LAYER_FEATURE
100
AcDbSpline
 62
7
  6
CONTINUOUS
 70
0
 71
3
 72
15
 73
11
 74
0
 42
0.0000001
 43
0.0000001
 44
0.0000000001
 40
0.0
 40
0.0
 40
0.0
 40
0.0
 40
0.1205150496
 40
0.247035412
 40
0.3772792436
 40
0.5088279712
 40
0.6392257021
 40
0.7660538326
 40
0.8870076351
 40
1.0
 40
1.0
 40
1.0
 40
1.0
 10
14.9094259123
 20
13.1959293359
 30
0.0
 10
14.9093001358
 20
13.1953712972
 30
0.0
 10
14.9090852655
 20
13.1942174437
 30
0.0
 10
14.9088717357
 20
13.1924383553
 30
0.0
 10
14.9087620328
 20
13.1905973748
 30
0.0
 10
14.9087586633
 20
13.1887347844
 30
0.0
 10
14.9088616906
 20
13.1868912576
 30
0.0
 10
14.9090688131
 20
13.1851069987
 30
0.0
 10
14.9093753269
 20
13.1834209892
 30
0.0
 10
14.9096523046
 20
13.1823442265
 30
0.0
 10
14.9098086038
 20
13.1818311761
 30
0.0
  0
SPLINE
  5
2DC
100
AcDbEntity
  8
LAYER_FEATURE
100
AcDbSpline
 62
7
  6
CONTINUOUS
 70
0
 71
3
 72
14
 73
10
 74
0
 42
0.0000001
 43
0.0000001
 44
0.0000000001
 40
0.0
 40
0.0
 40
0.0
 40
0.0
 40
0.2640806646
 40
0.3948426616
 40
0.5235074513
 40
0.6491828931
 40
0.7710150141
 40
0.8881988934
 40
1.0
 40
1.0
 40
1.0
 40
1.0
 10
14.9239392034
 20
13.1098475022
 30
0.0
 10
14.924038088
 20
13.113598888
 30
0.0
 10
14.9239868425
 20
13.1192158333
 30
0.0
 10
14.9235190838
 20
13.1266414623
 30
0.0
 10
14.922974033
 20
13.1320880985
 30
0.0
 10
14.9222384332
 20
13.1373841481
 30
0.0
 10
14.9213183922
 20
13.1424858034
 30
0.0
 10
14.9202217181
 20
13.1473505372
 30
0.0
 10
14.9193568598
 20
13.150489132
 30
0.0
 10
14.9188938645
 20
13.1520089086
 30
0.0
  0
SPLINE
  5
2DD
100
AcDbEntity
  8
LAYER_FEATURE
100
AcDbSpline
 62
7
  6
CONTINUOUS
 70
0
 71
3
 72
15
 73
11
 74
0
 42
0.0000001
 43
0.0000001
 44
0.0000000001
 40
0.0
 40
0.0
 40
0.0
 40
0.0
 40
0.1286119949
 40
0.261041787
 40
0.3948444662
 40
0.5275166831
 40
0.6565970901
 40
0.7797434986
 40
0.8948171456
 40
1.0
 40
1.0
 40
1.0
 40
1.0
 10
14.8748636177
 20
13.0383183255
 30
0.0
 10
14.8747717527
 20
13.0377252142
 30
0.0
 10
14.8746252351
 20
13.0365149206
 30
0.0
 10
14.8745138201
 20
13.0346747135
 30
0.0
 10
14.8745086834
 20
13.0328121419
 30
0.0
 10
14.8746099734
 20
13.0309679659
 30
0.0
 10
14.8748153984
 20
13.0291824426
 30
0.0
 10
14.8751203728
 20
13.0274943691
 30
0.0
 10
14.8755179924
 20
13.0259404871
 30
0.0
 10
14.8758557568
 20
13.0249678
 30
0.0
 10
14.8760415933
 20
13.0245134905
 30
0.0
  0
SPLINE
  5
2DE
100
AcDbEntity
  8
LAYER_FEATURE
100
AcDbSpline
 62
7
  6
CONTINUOUS
 70
0
 71
3
 72
15
 73
11
 74
0
 42
0.0000001
 43
0.0000001
 44
0.0000000001
 40
0.0
 40
0.0
 40
0.0
 40
0.0
 40
0.1375725801
 40
0.2733311268
 40
0.4063319911
 40
0.5356602507
 40
0.6604520902
 40
0.7799058627
 40
0.8932962951
 40
1.0
 40
1.0
 40
1.0
 40
1.0
 10
14.8941030657
 20
12.9585802661
 30
0.0
 10
14.8940458924
 20
12.9604458849
 30
0.0
 10
14.8938663486
 20
12.9641508615
 30
0.0
 10
14.8933993072
 20
12.9696450884
 30
0.0
 10
14.892739637
 20
12.9750069999
 30
0.0
 10
14.8918928662
 20
12.9801919607
 30
0.0
 10
14.8908661384
 20
12.9851569112
 30
0.0
 10
14.8896680297
 20
12.989860773
 30
0.0
 10
14.888308667
 20
12.9942644687
 30
0.0
 10
14.8872690489
 20
12.9970660329
 30
0.0
 10
14.8867209513
 20
12.9984059522
 30
0.0
  0
SPLINE
  5
2DF
100
AcDbEntity
  8
LAYER_FEATURE
100
AcDbSpline
 62
7
  6
CONTINUOUS
 70
0
 71
3
 72
17
 73
13
 74
0
 42
0.0000001
 43
0.0000001
 44
0.0000000001
 40
0.0
 40
0.0
 40
0.0
 40
0.0
 40
0.0462692949
 40
0.0931233675
 40
0.1410616333
 40
0.1905546344
 40
0.2956934843
 40
0.41124734
 40
0.538862333
 40
0.6794157448
 40
0.8331848715
 40
1.0
 40
1.0
 40
1.0
 40
1.0
 10
14.8723288944
 20
12.9054859931
 30
0.0
 10
14.8726954811
 20
12.905489479
 30
0.0
 10
14.8734335857
 20
12.9055401414
 30
0.0
 10
14.8745344872
 20
12.9057459755
 30
0.0
 10
14.8756298764
 20
12.9060812697
 30
0.0
 10
14.8771086805
 20
12.9067117383
 30
0.0
 10
14.8789406576
 20
12.9078446073
 30
0.0
 10
14.8810249914
 20
12.9096679592
 30
0.0
 10
14.8830292424
 20
12.9119642136
 30
0.0
 10
14.8849399186
 20
12.9147142815
 30
0.0
 10
14.8867438285
 20
12.917896373
 30
0.0
 10
14.8878234524
 20
12.920198351
 30
0.0
 10
14.8883462429
 20
12.9214122825
 30
0.0
  0
SPLINE
  5
2E0
100
AcDbEntity
  8
LAYER_FEATURE
100
AcDbSpline
 62
7
  6
CONTINUOUS
 70
0
 71
3
 72
17
 73
13
 74
0
 42
0.0000001
 43
0.0000001
 44
0.0000000001
 40
0.0
 40
0.0
 40
0.0
 40
0.0
 40
0.0376497649
 40
0.0764939535
 40
0.1175211362
 40
0.1615505708
 40
0.260671822
 40
0.3766941888
 40
0.5100549797
 40
0.6597810328
 40
0.8239488839
 40
1.0
 40
1.0
 40
1.0
 40
1.0
 10
14.8575841122
 20
12.9053457866
 30
0.0
 10
14.8574619024
 20
12.9053446245
 30
0.0
 10
14.8572132322
 20
12.905318118
 30
0.0
 10
14.8568461222
 20
12.9052074905
 30
0.0
 10
14.8564846395
 20
12.9050272199
 30
0.0
 10
14.8559937083
 20
12.9046828041
 30
0.0
 10
14.8554074169
 20
12.9040688231
 30
0.0
 10
14.8547839783
 20
12.9031201926
 30
0.0
 10
14.8542219892
 20
12.9019494257
 30
0.0
 10
14.853732877
 20
12.9005802619
 30
0.0
 10
14.8533267097
 20
12.8990409553
 30
0.0
 10
14.8531231365
 20
12.8979544684
 30
0.0
 10
14.8530356646
 20
12.8973897209
 30
0.0
  0
SPLINE
  5
2E1
100
AcDbEntity
  8
LAYER_FEATURE
100
AcDbSpline
 62
7
  6
CONTINUOUS
 70
0
 71
3
 72
15
 73
11
 74
0
 42
0.0000001
 43
0.0000001
 44
0.0000000001
 40
0.0
 40
0.0
 40
0.0
 40
0.0
 40
0.1370522145
 40
0.275558153
 40
0.4129413871
 40
0.5466467887
 40
0.6742469668
 40
0.7935279375
 40
0.9025907017
 40
1.0
 40
1.0
 40
1.0
 40
1.0
 10
14.849606148
 20
12.8694642842
 30
0.0
 10
14.8495494372
 20
12.8688490688
 30
0.0
 10
14.8494731099
 20
12.8676083578
 30
0.0
 10
14.849466236
 20
12.865745887
 30
0.0
 10
14.849565776
 20
12.8639010788
 30
0.0
 10
14.8497695232
 20
12.862114254
 30
0.0
 10
14.8500728813
 20
12.8604243271
 30
0.0
 10
14.8504691273
 20
12.8588677424
 30
0.0
 10
14.8509493415
 20
12.8574781174
 30
0.0
 10
14.8513421988
 20
12.8566314936
 30
0.0
 10
14.8515543012
 20
12.8562470002
 30
0.0
  0
SPLINE
  5
2E2
100
AcDbEntity
  8
LAYER_FEATURE
100
AcDbSpline
 62
7
  6
CONTINUOUS
 70
0
 71
3
 72
15
 73
11
 74
0
 42
0.0000001
 43
0.0000001
 44
0.0000000001
 40
0.0
 40
0.0
 40
0.0
 40
0.0
 40
0.1433412421
 40
0.2831449737
 40
0.4184696968
 40
0.5484277394
 40
0.6722111846
 40
0.7891071264
 40
0.8985186929
 40
1.0
 40
1.0
 40
1.0
 40
1.0
 10
14.8731616975
 20
12.7977694774
 30
0.0
 10
14.873000287
 20
12.7995833473
 30
0.0
 10
14.8726156232
 20
12.8031608697
 30
0.0
 10
14.8718432673
 20
12.8084221437
 30
0.0
 10
14.8708879058
 20
12.8134805711
 30
0.0
 10
14.8697575392
 20
12.8182941432
 30
0.0
 10
14.8684616703
 20
12.8228230287
 30
0.0
 10
14.8670110325
 20
12.8270300186
 30
0.0
 10
14.8654178111
 20
12.8308803344
 30
0.0
 10
14.8642228754
 20
12.8332817586
 30
0.0
 10
14.8636001446
 20
12.8344106279
 30
0.0
  0
SPLINE
  5
2E3
100
AcDbEntity
  8
LAYER_FEATURE
100
AcDbSpline
 62
7
  6
CONTINUOUS
 70
0
 71
3
 72
15
 73
11
 74
0
 42
0.0000001
 43
0.0000001
 44
0.0000000001
 40
0.0
 40
0.0
 40
0.0
 40
0.0
 40
0.0890206132
 40
0.1863607048
 40
0.2937778364
 40
0.4122902502
 40
0.542336648
 40
0.6839122891
 40
0.836668639
 40
1.0
 40
1.0
 40
1.0
 40
1.0
 10
14.8546299983
 20
12.7370997794
 30
0.0
 10
14.8553807524
 20
12.7373908028
 30
0.0
 10
14.856888531
 20
12.7381724506
 30
0.0
 10
14.8590017327
 20
12.7398007361
 30
0.0
 10
14.8610400106
 20
12.7419092187
 30
0.0
 10
14.8629897334
 20
12.744479303
 30
0.0
 10
14.8648382669
 20
12.7474906862
 30
0.0
 10
14.8665717165
 20
12.750919594
 30
0.0
 10
14.868176503
 20
12.7547384836
 30
0.0
 10
14.8691219965
 20
12.7574385443
 30
0.0
 10
14.869573639
 20
12.758845138
 30
0.0
  0
SPLINE
  5
2E4
100
AcDbEntity
  8
LAYER_FEATURE
100
AcDbSpline
 62
7
  6
CONTINUOUS
 70
0
 71
3
 72
17
 73
13
 74
0
 42
0.0000001
 43
0.0000001
 44
0.0000000001
 40
0.0
 40
0.0
 40
0.0
 40
0.0
 40
0.0764745973
 40
0.1194022115
 40
0.1659408807
 40
0.2163110037
 40
0.2706109577
 40
0.3908699624
 40
0.5259391651
 40
0.6740990988
 40
0.8330269774
 40
1.0
 40
1.0
 40
1.0
 40
1.0
 10
14.8400502956
 20
12.7314480819
 30
0.0
 10
14.8397941567
 20
12.7313487918
 30
0.0
 10
14.8394213883
 20
12.7311203647
 30
0.0
 10
14.8389791852
 20
12.7307201837
 30
0.0
 10
14.8386446434
 20
12.7303440317
 30
0.0
 10
14.8383224819
 20
12.729905975
 30
0.0
 10
14.8378966089
 20
12.7292184918
 30
0.0
 10
14.8374122599
 20
12.7282138467
 30
0.0
 10
14.8369218284
 20
12.726847907
 30
0.0
 10
14.8365142402
 20
12.7253110332
 30
0.0
 10
14.8361984637
 20
12.7236363804
 30
0.0
 10
14.8360564822
 20
12.7224734282
 30
0.0
 10
14.8360014262
 20
12.721876164
 30
0.0
  0
SPLINE
  5
2E5
100
AcDbEntity
  8
LAYER_FEATURE
100
AcDbSpline
 62
7
  6
CONTINUOUS
 70
0
 71
3
 72
51
 73
47
 74
0
 42
0.0000001
 43
0.0000001
 44
0.0000000001
 40
0.0
 40
0.0
 40
0.0
 40
0.0
 40
0.0410283704
 40
0.0822789391
 40
0.1236486167
 40
0.1650333402
 40
0.2063291294
 40
0.247432378
 40
0.2882403118
 40
0.3286514514
 40
0.3685660673
 40
0.4078866593
 40
0.4465184476
 40
0.4843698695
 40
0.5213531273
 40
0.557384756
 40
0.5923862267
 40
0.6262846434
 40
0.6590134883
 40
0.6905134716
 40
0.7207335513
 40
0.7353510333
 40
0.7496337917
 40
0.7635783186
 40
0.7771818983
 40
0.7904426497
 40
0.8033595886
 40
0.8159327245
 40
0.8281631259
 40
0.8400530019
 40
0.8516058236
 40
0.8628264163
 40
0.8737210646
 40
0.8842976552
 40
0.8945657934
 40
0.9142190268
 40
0.9236384885
 40
0.9328075661
 40
0.9417462163
 40
0.9504766872
 40
0.9590234828
 40
0.9674132809
 40
0.9756747599
 40
0.9838383339
 40
0.9919358158
 40
1.0
 40
1.0
 40
1.0
 40
1.0
 10
14.8360014262
 20
12.721876164
 30
0.0
 10
14.8345046602
 20
12.6996438451
 30
0.0
 10
14.8319888444
 20
12.6550246402
 30
0.0
 10
14.8296453732
 20
12.5879067319
 30
0.0
 10
14.8287256562
 20
12.5205603798
 30
0.0
 10
14.8292324869
 20
12.4531851893
 30
0.0
 10
14.8311643267
 20
12.3859804949
 30
0.0
 10
14.8345154472
 20
12.3191451916
 30
0.0
 10
14.8392758997
 20
12.2528770375
 30
0.0
 10
14.8454315211
 20
12.1873721043
 30
0.0
 10
14.8529640368
 20
12.1228241788
 30
0.0
 10
14.8618510734
 20
12.0594241815
 30
0.0
 10
14.8720662174
 20
11.9973595901
 30
0.0
 10
14.8835791531
 20
11.9368138806
 30
0.0
 10
14.8963557007
 20
11.8779659618
 30
0.0
 10
14.9103579363
 20
11.8209896379
 30
0.0
 10
14.9255443694
 20
11.7660530592
 30
0.0
 10
14.9418699938
 20
11.7133182804
 30
0.0
 10
14.9592865604
 20
11.6629404331
 30
0.0
 10
14.977742524
 20
11.615068412
 30
0.0
 10
14.9941202275
 20
11.5769680195
 30
0.0
 10
15.00772241
 20
11.5478807692
 30
0.0
 10
15.0180359424
 20
11.5270199016
 30
0.0
 10
15.0285666623
 20
11.5068871834
 30
0.0
 10
15.0393068798
 20
11.4874973973
 30
0.0
 10
15.0502486676
 20
11.4688648578
 30
0.0
 10
15.0613840146
 20
11.4510033122
 30
0.0
 10
15.0727047377
 20
11.4339259184
 30
0.0
 10
15.0842025427
 20
11.4176452575
 30
0.0
 10
15.0958690579
 20
11.4021733418
 30
0.0
 10
15.1076957562
 20
11.3875215847
 30
0.0
 10
15.1196740879
 20
11.3737007404
 30
0.0
 10
15.1317952055
 20
11.3607212218
 30
0.0
 10
15.1440510238
 20
11.3485920114
 30
0.0
 10
15.1603197356
 20
11.3337841739
 30
0.0
 10
15.1770571937
 20
11.3204428838
 30
0.0
 10
15.1942361322
 20
11.3087568868
 30
0.0
 10
15.2070287094
 20
11.3010056876
 30
0.0
 10
15.2199010292
 20
11.2941509481
 30
0.0
 10
15.2328440656
 20
11.2881979946
 30
0.0
 10
15.2458481898
 20
11.2831518882
 30
0.0
 10
15.2589037144
 20
11.2790169753
 30
0.0
 10
15.2720006302
 20
11.2757969134
 30
0.0
 10
15.2851290432
 20
11.2734946838
 30
0.0
 10
15.2982777856
 20
11.2721124797
 30
0.0
 10
15.3070583128
 20
11.2718049912
 30
0.0
 10
15.3114379984
 20
11.2718049971
 30
0.0
  0
SPLINE
  5
2E6
100
AcDbEntity
  8
LAYER_FEATURE
100
AcDbSpline
 62
7
  6
CONTINUOUS
 70
0
 71
3
 72
15
 73
11
 74
0
 42
0.0000001
 43
0.0000001
 44
0.0000000001
 40
0.0
 40
0.0
 40
0.0
 40
0.0
 40
0.1126204601
 40
0.233296856
 40
0.3599530997
 40
0.4902911285
 40
0.6218950407
 40
0.7523079002
 40
0.8791063589
 40
1.0
 40
1.0
 40
1.0
 40
1.0
 10
14.9525563967
 20
13.3389381105
 30
0.0
 10
14.9523986328
 20
13.3384275864
 30
0.0
 10
14.952118659
 20
13.3373552387
 30
0.0
 10
14.9518076562
 20
13.3356747228
 30
0.0
 10
14.9515957716
 20
13.3338941938
 30
0.0
 10
14.9514878168
 20
13.3320525467
 30
0.0
 10
14.9514862035
 20
13.3301899405
 30
0.0
 10
14.9515909806
 20
13.3283470499
 30
0.0
 10
14.9517997526
 20
13.3265642002
 30
0.0
 10
14.952011442
 20
13.3254070925
 30
0.0
 10
14.9521356476
 20
13.3248471035
 30
0.0
  0
SPLINE
  5
2E7
100
AcDbEntity
  8
LAYER_FEATURE
100
AcDbSpline
 62
7
  6
CONTINUOUS
 70
0
 71
3
 72
14
 73
10
 74
0
 42
0.0000001
 43
0.0000001
 44
0.0000000001
 40
0.0
 40
0.0
 40
0.0
 40
0.0
 40
0.2552898455
 40
0.3838708566
 40
0.5118478661
 40
0.6383178993
 40
0.7623964994
 40
0.8832269717
 40
1.0
 40
1.0
 40
1.0
 40
1.0
 10
14.9620342051
 20
13.2483471873
 30
0.0
 10
14.9623483006
 20
13.2520637706
 30
0.0
 10
14.962613033
 20
13.2576723895
 30
0.0
 10
14.9625700285
 20
13.2651514431
 30
0.0
 10
14.9623384384
 20
13.2707440803
 30
0.0
 10
14.9619097449
 20
13.2762589766
 30
0.0
 10
14.9612874871
 20
13.2816504511
 30
0.0
 10
14.9604769586
 20
13.2868735059
 30
0.0
 10
14.959802604
 20
13.2902801191
 30
0.0
 10
14.9594331745
 20
13.2919457168
 30
0.0
  0
SPLINE
  5
2E8
100
AcDbEntity
  8
02___PRT_ALL_AXES
100
AcDbSpline
 62
7
  6
CONTINUOUS
 70
0
 71
3
 72
24
 73
20
 74
0
 42
0.0000001
 43
0.0000001
 44
0.0000000001
 40
0.0
 40
0.0
 40
0.0
 40
0.0
 40
0.0836660506
 40
0.1647132347
 40
0.2430320439
 40
0.3185262465
 40
0.3911162875
 40
0.4607407346
 40
0.5273589219
 40
0.5909538612
 40
0.6515357236
 40
0.7091459639
 40
0.7638621368
 40
0.8158033792
 40
0.8651363799
 40
0.912081364
 40
0.9569172159
 40
0.9786557944
 40
1.0
 40
1.0
 40
1.0
 40
1.0
 10
15.3424860915
 20
13.1983056178
 30
0.0
 10
15.3466899062
 20
13.2119091673
 30
0.0
 10
15.3553314118
 20
13.2385794617
 30
0.0
 10
15.3692328865
 20
13.2775388464
 30
0.0
 10
15.3838426923
 20
13.3147490714
 30
0.0
 10
15.39912755
 20
13.3501253312
 30
0.0
 10
15.415052806
 20
13.3835874981
 30
0.0
 10
15.4315825119
 20
13.4150598477
 30
0.0
 10
15.4486795531
 20
13.4444713153
 30
0.0
 10
15.4663058163
 20
13.4717556158
 30
0.0
 10
15.4844223916
 20
13.4968513427
 30
0.0
 10
15.5029897565
 20
13.5197019832
 30
0.0
 10
15.5219680637
 20
13.5402558817
 30
0.0
 10
15.5413170304
 20
13.5584659386
 30
0.0
 10
15.560996937
 20
13.5742896275
 30
0.0
 10
15.5809650825
 20
13.5876872931
 30
0.0
 10
15.5979883207
 20
13.596895853
 30
0.0
 10
15.6116718086
 20
13.6029617234
 30
0.0
 10
15.6185291005
 20
13.6055692692
 30
0.0
 10
15.6219592378
 20
13.6067643252
 30
0.0
  0
SPLINE
  5
2E9
100
AcDbEntity
  8
LAYER_FEATURE
100
AcDbSpline
 62
7
  6
CONTINUOUS
 70
0
 71
3
 72
38
 73
34
 74
0
 42
0.0000001
 43
0.0000001
 44
0.0000000001
 40
0.0
 40
0.0
 40
0.0
 40
0.0
 40
0.0879640716
 40
0.1307307847
 40
0.1726592835
 40
0.2137306933
 40
0.2539278613
 40
0.2932354821
 40
0.331640013
 40
0.3691299341
 40
0.4056958476
 40
0.4413306462
 40
0.4760297484
 40
0.5097912612
 40
0.5426162009
 40
0.5745087936
 40
0.6054767306
 40
0.6355314471
 40
0.6646884872
 40
0.6929678677
 40
0.7203944107
 40
0.7469981459
 40
0.7728147257
 40
0.7978857495
 40
0.8222590824
 40
0.8459891342
 40
0.8691369629
 40
0.8917702321
 40
0.9139630012
 40
0.9357952498
 40
0.9573521255
 40
0.9787229532
 40
1.0
 40
1.0
 40
1.0
 40
1.0
 10
14.8899960845
 20
13.3437623504
 30
0.0
 10
14.895970539
 20
13.363095692
 30
0.0
 10
14.9053096591
 20
13.3916904166
 30
0.0
 10
14.9186367363
 20
13.4291083283
 30
0.0
 10
14.9288389771
 20
13.4561832898
 30
0.0
 10
14.9393334697
 20
13.4825109815
 30
0.0
 10
14.9501120016
 20
13.5080707401
 30
0.0
 10
14.961166046
 20
13.5328423589
 30
0.0
 10
14.972486909
 20
13.5568063227
 30
0.0
 10
14.984065654
 20
13.5799437476
 30
0.0
 10
14.9958931741
 20
13.6022364041
 30
0.0
 10
15.0079601906
 20
13.6236667269
 30
0.0
 10
15.0202572161
 20
13.6442178562
 30
0.0
 10
15.032774613
 20
13.663873623
 30
0.0
 10
15.0455026115
 20
13.6826185507
 30
0.0
 10
15.0584312718
 20
13.7004378994
 30
0.0
 10
15.0715505222
 20
13.7173176589
 30
0.0
 10
15.0848501957
 20
13.7332445276
 30
0.0
 10
15.0983200072
 20
13.7482059446
 30
0.0
 10
15.1119495529
 20
13.7621901036
 30
0.0
 10
15.125728362
 20
13.7751859062
 30
0.0
 10
15.1396458861
 20
13.787182965
 30
0.0
 10
15.1536914591
 20
13.7981716466
 30
0.0
 10
15.1678543402
 20
13.8081430068
 30
0.0
 10
15.1821236992
 20
13.8170887673
 30
0.0
 10
15.1964885473
 20
13.825001384
 30
0.0
 10
15.2109377418
 20
13.8318740121
 30
0.0
 10
15.2254599515
 20
13.8377004846
 30
0.0
 10
15.2400436238
 20
13.8424754109
 30
0.0
 10
15.2546768429
 20
13.8461942458
 30
0.0
 10
15.2693477905
 20
13.8488532935
 30
0.0
 10
15.2840431129
 20
13.8504498095
 30
0.0
 10
15.2938575742
 20
13.8508049902
 30
0.0
 10
15.2987521858
 20
13.8508049854
 30
0.0
  0
SPLINE
  5
2EA
100
AcDbEntity
  8
02___PRT_ALL_AXES
100
AcDbSpline
 62
7
  6
CONTINUOUS
 70
0
 71
3
 72
15
 73
11
 74
0
 42
0.0000001
 43
0.0000001
 44
0.0000000001
 40
0.0
 40
0.0
 40
0.0
 40
0.0
 40
0.1342980787
 40
0.2647984787
 40
0.3920026752
 40
0.5164814421
 40
0.6388502127
 40
0.7597653145
 40
0.879914096
 40
1.0
 40
1.0
 40
1.0
 40
1.0
 10
15.8495584442
 20
11.9631297578
 30
0.0
 10
15.8472862146
 20
11.9617629659
 30
0.0
 10
15.8427186807
 20
11.9592095504
 30
0.0
 10
15.8357143142
 20
11.9559020708
 30
0.0
 10
15.8286689131
 20
11.9531799874
 30
0.0
 10
15.8215904696
 20
11.9510470514
 30
0.0
 10
15.8144866548
 20
11.9495060765
 30
0.0
 10
15.8073653558
 20
11.948559323
 30
0.0
 10
15.8002354527
 20
11.9482081793
 30
0.0
 10
15.7954884788
 20
11.94837131
 30
0.0
 10
15.7931242681
 20
11.9485508835
 30
0.0
  0
ENDSEC
  0
SECTION
  2
OBJECTS
  0
DICTIONARY
  5
C
100
AcDbDictionary
280
0
281
1
  3
ACAD_GROUP
350
D
  3
ACAD_MLINESTYLE
350
17
  3
ACAD_LAYOUT
350
1A
  3
ACAD_PLOTSETTINGS
350
19
  3
ACAD_PLOTSTYLENAME
350
E
  0
DICTIONARY
  5
D
102
{ACAD_REACTORS
330
C
102
}
100
AcDbDictionary
280
0
281
1
  0
ACDBDICTIONARYWDFLT
  5
E
102
{ACAD_REACTORS
330
C
102
}
100
AcDbDictionary
281
1
  3
Normal
350
F
100
AcDbDictionaryWithDefault
340
F
  0
DICTIONARY
  5
17
102
{ACAD_REACTORS
330
C
102
}
100
AcDbDictionary
280
0
281
1
  3
Standard
350
18
  0
DICTIONARY
  5
19
102
{ACAD_REACTORS
330
C
102
}
100
AcDbDictionary
281
1
  0
DICTIONARY
  5
1A
102
{ACAD_REACTORS
330
C
102
}
100
AcDbDictionary
281
1
  3
Model
350
2EB
  3
Layout1
350
2EC
  0
ACDBPLACEHOLDER
  5
F
102
{ACAD_REACTORS
330
E
102
}
  0
MLINESTYLE
  5
18
102
{ACAD_REACTORS
330
17
102
}
100
AcDbMlineStyle
  2
STANDARD
 70
0
  3

 62
256
 51
90.0
 52
90.0
 71
2
 49
0.5
 62
256
  6
BYLAYER
 49
-0.5
 62
256
  6
BYLAYER
  0
LAYOUT
  5
2EB
102
{ACAD_REACTORS
330
1A
102
}
100
AcDbPlotSettings
  1

  2
none_device
  4
ANSI_C_(22.00_x_17.00_Inches)
  6

 40
0.0
 41
0.0
 42
0.0
 43
0.0
 44
558.8
 45
431.8
 46
0.0
 47
0.0
 48
0.0
 49
0.0
140
0.0
141
0.0
142
1.0
143
1.0
 70
1024
 72
0
 73
0
 74
0
  7

 75
0
147
1.0
148
0.0
149
0.0
100
AcDbLayout
  1
Model
 70
0
 71
0
 10
0.0
 20
0.0
 11
22.0
 21
17.0
 12
0.0
 22
0.0
 32
0.0
 14
0.0
 24
0.0
 34
0.0
 15
0.0
 25
0.0
 35
0.0
146
0.0
 13
0.0
 23
0.0
 33
0.0
 16
1.0
 26
0.0
 36
0.0
 17
0.0
 27
1.0
 37
0.0
 76
0
330
222
345
0
346
0
  0
LAYOUT
  5
2EC
102
{ACAD_REACTORS
330
1A
102
}
100
AcDbPlotSettings
  1

  2
none_device
  4
ANSI_C_(22.00_x_17.00_Inches)
  6

 40
0.0
 41
0.0
 42
0.0
 43
0.0
 44
558.8
 45
431.8
 46
0.0
 47
0.0
 48
0.0
 49
0.0
140
0.0
141
0.0
142
1.0
143
1.0
 70
0
 72
0
 73
0
 74
0
  7

 75
0
147
1.0
148
0.0
149
0.0
100
AcDbLayout
  1
Layout1
 70
0
 71
1
 10
0.0
 20
0.0
 11
22.0
 21
17.0
 12
0.0
 22
0.0
 32
0.0
 14
0.0
 24
0.0
 34
0.0
 15
0.0
 25
0.0
 35
0.0
146
0.0
 13
0.0
 23
0.0
 33
0.0
 16
1.0
 26
0.0
 36
0.0
 17
0.0
 27
1.0
 37
0.0
 76
0
330
223
345
0
346
0
  0
ENDSEC
  0
EOF