999
DXF file: _cgs_temp_output.dxf
999
Pro/ENGINEER 2016360 by Parametric Technology Corporation
  0
SECTION
  2
HEADER
  9
$ACADVER
  1
AC1021
  9
$DWGCODEPAGE
  3
ANSI_1252
  9
$EXTMAX
 10
22.0
 20
17.0
 30
0.0
  9
$EXTMIN
 10
0.0
 20
0.0
 30
0.0
  9
$LIMMIN
 10
0.0
 20
0.0
  9
$LIMMAX
 10
22.0
 20
17.0
  9
$VIEWCTR
 10
11.0
 20
8.5
  9
$VIEWSIZE
 40
17.0
  9
$CLAYER
  8
0
  9
$LTSCALE
 40
1.21
  9
$CELTYPE
  6
BYLAYER
  9
$DIMSCALE
 40
1.0
  9
$DIMASZ
 40
0.1875
  9
$DIMEXO
 40
0.0625
  9
$DIMDLI
 40
0.836
  9
$DIMEXE
 40
0.125
  9
$DIMCEN
 40
0.198
  9
$DIMLFAC
 40
1.0
  9
$DIMBLK
  1
_CLOSED
  9
$DIMALT
 70
0
  9
$DIMALTF
 40
25.4
  9
$DIMTXT
 40
0.15625
  9
$DIMTOL
 70
0
  9
$DIMLIM
 70
0
  9
$DIMTFAC
 40
1.0
  9
$DIMGAP
 40
0.09
  9
$DIMDSEP
 70
46
  9
$AUNITS
 70
0
  9
$PDMODE
 70
3
  9
$PDSIZE
 40
0.3125
  9
$HANDSEED
  5
2DA
  9
$TILEMODE
 70
1
  9
$MEASUREMENT
 70
0
  9
$INSUNITS
 70
1
  0
ENDSEC
  0
SECTION
  2
CLASSES
  0
CLASS
  1
ACDBDICTIONARYWDFLT
  2
AcDbDictionaryWithDefault
  3
AutoCAD 2000
 90
0
 91
1
280
0
281
0
  0
CLASS
  1
ACDBPLACEHOLDER
  2
AcDbPlaceHolder
  3
AutoCAD 2000
 90
0
 91
1
280
0
281
0
  0
CLASS
  1
LAYOUT
  2
AcDbLayout
  3
AutoCAD 2000
 90
0
 91
0
280
0
281
0
  0
ENDSEC
  0
SECTION
  2
TABLES
  0
TABLE
  2
VPORT
  5
8
100
AcDbSymbolTable
 70
2
  0
VPORT
  5
1F4
100
AcDbSymbolTableRecord
100
AcDbViewportTableRecord
  2
*ACTIVE
 70
0
 10
0.0
 20
0.0
 11
1.0
 21
1.0
 12
11.0
 22
8.5
 13
0.0
 23
0.0
 14
1.0
 24
1.0
 15
0.0
 25
0.0
 16
0.0
 26
0.0
 36
1.0
 17
0.0
 27
0.0
 37
0.0
 40
17.0
 41
1.2941176471
 42
50.0
 43
0.0
 44
0.0
 50
0.0
 51
0.0
 71
0
 72
100
 73
1
 74
1
 75
0
 76
0
 77
0
 78
0
  0
ENDTAB
  0
TABLE
  2
LTYPE
  5
5
100
AcDbSymbolTable
 70
6
  0
LTYPE
  5
14
100
AcDbSymbolTableRecord
100
AcDbLinetypeTableRecord
  2
BYBLOCK
 70
0
  3

 72
65
 73
0
 40
0.0
  0
LTYPE
  5
15
100
AcDbSymbolTableRecord
100
AcDbLinetypeTableRecord
  2
BYLAYER
 70
0
  3

 72
65
 73
0
 40
0.0
  0
LTYPE
  5
16
100
AcDbSymbolTableRecord
100
AcDbLinetypeTableRecord
  2
CONTINUOUS
 70
64
  3
Solid line
 72
65
 73
0
 40
0.0
  0
LTYPE
  5
1F5
100
AcDbSymbolTableRecord
100
AcDbLinetypeTableRecord
  2
CENTER
 70
64
  3
____ _ ____ _ ____ _ ____ _ ____ _ ____ _ ____
 72
65
 73
4
 40
0.6
 49
0.375
 74
0
 49
-0.075
 74
0
 49
0.075
 74
0
 49
-0.075
 74
0
  0
LTYPE
  5
1F6
100
AcDbSymbolTableRecord
100
AcDbLinetypeTableRecord
  2
HIDDEN
 70
64
  3
- - - - - - - - - - - - - - - - - - - -
 72
65
 73
2
 40
0.2
 49
0.1
 74
0
 49
-0.1
 74
0
  0
LTYPE
  5
1F7
100
AcDbSymbolTableRecord
100
AcDbLinetypeTableRecord
  2
PHANTOM
 70
64
  3
_____ _ _ _____ _ _ _____ _ _ _____
 72
65
 73
6
 40
0.8
 49
0.45
 74
0
 49
-0.05
 74
0
 49
0.1
 74
0
 49
-0.05
 74
0
 49
0.1
 74
0
 49
-0.05
 74
0
  0
LTYPE
  5
1F8
100
AcDbSymbolTableRecord
100
AcDbLinetypeTableRecord
  2
DOT
 70
64
  3
. . . . . . . . . . . . . . . . . . . .
 72
65
 73
2
 40
0.2
 49
0.1
 74
0
 49
-0.1
 74
0
  0
LTYPE
  5
1F9
100
AcDbSymbolTableRecord
100
AcDbLinetypeTableRecord
  2
DASHED
 70
64
  3
- - - - - - - - - - - - - - - - - - - -
 72
65
 73
2
 40
0.2
 49
0.1
 74
0
 49
-0.1
 74
0
  0
ENDTAB
  0
TABLE
  2
LAYER
  5
2
100
AcDbSymbolTable
 70
36
  0
LAYER
  5
10
100
AcDbSymbolTableRecord
100
AcDbLayerTableRecord
  2
0
 70
0
 62
7
  6
CONTINUOUS
370
-3
390
F
  0
LAYER
  5
1FA
100
AcDbSymbolTableRecord
100
AcDbLayerTableRecord
  2
DEFAULT_1
 70
0
 62
7
  6
CENTER
370
-3
390
F
  0
LAYER
  5
1FB
100
AcDbSymbolTableRecord
100
AcDbLayerTableRecord
  2
DEFAULT_2
 70
0
 62
8
  6
HIDDEN
370
-3
390
F
  0
LAYER
  5
1FC
100
AcDbSymbolTableRecord
100
AcDbLayerTableRecord
  2
DEFAULT_3
 70
0
 62
7
  6
PHANTOM
370
-3
390
F
  0
LAYER
  5
1FD
100
AcDbSymbolTableRecord
100
AcDbLayerTableRecord
  2
01_ALL_DTM_PLN
 70
0
 62
7
  6
CONTINUOUS
370
-3
390
F
  0
LAYER
  5
1FE
100
AcDbSymbolTableRecord
100
AcDbLayerTableRecord
  2
01__ASM_ALL_DTM_PLN
 70
0
 62
7
  6
CONTINUOUS
370
-3
390
F
  0
LAYER
  5
1FF
100
AcDbSymbolTableRecord
100
AcDbLayerTableRecord
  2
01__ASM_DEF_DTM_PLN
 70
0
 62
7
  6
CONTINUOUS
370
-3
390
F
  0
LAYER
  5
200
100
AcDbSymbolTableRecord
100
AcDbLayerTableRecord
  2
01___PRT_ALL_DTM_PLN
 70
0
 62
7
  6
CONTINUOUS
370
-3
390
F
  0
LAYER
  5
201
100
AcDbSymbolTableRecord
100
AcDbLayerTableRecord
  2
01___PRT_DEF_DTM_PLN
 70
0
 62
7
  6
CONTINUOUS
370
-3
390
F
  0
LAYER
  5
202
100
AcDbSymbolTableRecord
100
AcDbLayerTableRecord
  2
02_ALL_AXES
 70
0
 62
7
  6
CONTINUOUS
370
-3
390
F
  0
LAYER
  5
203
100
AcDbSymbolTableRecord
100
AcDbLayerTableRecord
  2
02__ASM_ALL_AXES
 70
0
 62
7
  6
CONTINUOUS
370
-3
390
F
  0
LAYER
  5
204
100
AcDbSymbolTableRecord
100
AcDbLayerTableRecord
  2
02___PRT_ALL_AXES
 70
0
 62
7
  6
CONTINUOUS
370
-3
390
F
  0
LAYER
  5
205
100
AcDbSymbolTableRecord
100
AcDbLayerTableRecord
  2
03_ALL_CURVES
 70
0
 62
7
  6
CONTINUOUS
370
-3
390
F
  0
LAYER
  5
206
100
AcDbSymbolTableRecord
100
AcDbLayerTableRecord
  2
03__ASM_ALL_CURVES
 70
0
 62
7
  6
CONTINUOUS
370
-3
390
F
  0
LAYER
  5
207
100
AcDbSymbolTableRecord
100
AcDbLayerTableRecord
  2
03___PRT_ALL_CURVES
 70
0
 62
7
  6
CONTINUOUS
370
-3
390
F
  0
LAYER
  5
208
100
AcDbSymbolTableRecord
100
AcDbLayerTableRecord
  2
04_ALL_DTM_PNT
 70
0
 62
7
  6
CONTINUOUS
370
-3
390
F
  0
LAYER
  5
209
100
AcDbSymbolTableRecord
100
AcDbLayerTableRecord
  2
04__ASM_ALL_DTM_PNT
 70
0
 62
7
  6
CONTINUOUS
370
-3
390
F
  0
LAYER
  5
20A
100
AcDbSymbolTableRecord
100
AcDbLayerTableRecord
  2
04___PRT_ALL_DTM_PNT
 70
0
 62
7
  6
CONTINUOUS
370
-3
390
F
  0
LAYER
  5
20B
100
AcDbSymbolTableRecord
100
AcDbLayerTableRecord
  2
05_ALL_DTM_CSYS
 70
0
 62
7
  6
CONTINUOUS
370
-3
390
F
  0
LAYER
  5
20C
100
AcDbSymbolTableRecord
100
AcDbLayerTableRecord
  2
05__ASM_ALL_DTM_CSYS
 70
0
 62
7
  6
CONTINUOUS
370
-3
390
F
  0
LAYER
  5
20D
100
AcDbSymbolTableRecord
100
AcDbLayerTableRecord
  2
05__ASM_DEF_DTM_CSYS
 70
0
 62
7
  6
CONTINUOUS
370
-3
390
F
  0
LAYER
  5
20E
100
AcDbSymbolTableRecord
100
AcDbLayerTableRecord
  2
05___PRT_ALL_DTM_CSYS
 70
0
 62
7
  6
CONTINUOUS
370
-3
390
F
  0
LAYER
  5
20F
100
AcDbSymbolTableRecord
100
AcDbLayerTableRecord
  2
05___PRT_DEF_DTM_CSYS
 70
0
 62
7
  6
CONTINUOUS
370
-3
390
F
  0
LAYER
  5
210
100
AcDbSymbolTableRecord
100
AcDbLayerTableRecord
  2
06_ALL_SURFS
 70
0
 62
7
  6
CONTINUOUS
370
-3
390
F
  0
LAYER
  5
211
100
AcDbSymbolTableRecord
100
AcDbLayerTableRecord
  2
06__ASM_ALL_SURFS
 70
0
 62
7
  6
CONTINUOUS
370
-3
390
F
  0
LAYER
  5
212
100
AcDbSymbolTableRecord
100
AcDbLayerTableRecord
  2
06___PRT_ALL_SURFS
 70
0
 62
7
  6
CONTINUOUS
370
-3
390
F
  0
LAYER
  5
213
100
AcDbSymbolTableRecord
100
AcDbLayerTableRecord
  2
07__ASM_ALL_SKELETONS
 70
0
 62
7
  6
CONTINUOUS
370
-3
390
F
  0
LAYER
  5
214
100
AcDbSymbolTableRecord
100
AcDbLayerTableRecord
  2
LAYER_AXIS
 70
0
 62
7
  6
CONTINUOUS
370
-3
390
F
  0
LAYER
  5
215
100
AcDbSymbolTableRecord
100
AcDbLayerTableRecord
  2
LAYER_CHAMFER_FEAT
 70
0
 62
7
  6
CONTINUOUS
370
-3
390
F
  0
LAYER
  5
216
100
AcDbSymbolTableRecord
100
AcDbLayerTableRecord
  2
LAYER_CUT_FEAT
 70
0
 62
7
  6
CONTINUOUS
370
-3
390
F
  0
LAYER
  5
217
100
AcDbSymbolTableRecord
100
AcDbLayerTableRecord
  2
LAYER_DATUM
 70
0
 62
7
  6
CONTINUOUS
370
-3
390
F
  0
LAYER
  5
218
100
AcDbSymbolTableRecord
100
AcDbLayerTableRecord
  2
LAYER_DIM
 70
0
 62
7
  6
CONTINUOUS
370
-3
390
F
  0
LAYER
  5
219
100
AcDbSymbolTableRecord
100
AcDbLayerTableRecord
  2
LAYER_FEATURE
 70
0
 62
7
  6
CONTINUOUS
370
-3
390
F
  0
LAYER
  5
21A
100
AcDbSymbolTableRecord
100
AcDbLayerTableRecord
  2
LAYER_GEOM_FEAT
 70
0
 62
7
  6
CONTINUOUS
370
-3
390
F
  0
LAYER
  5
21B
100
AcDbSymbolTableRecord
100
AcDbLayerTableRecord
  2
LAYER_NOGEOM_FEAT
 70
0
 62
7
  6
CONTINUOUS
370
-3
390
F
  0
LAYER
  5
21C
100
AcDbSymbolTableRecord
100
AcDbLayerTableRecord
  2
LAYER_PARAMETER_DIM
 70
0
 62
7
  6
CONTINUOUS
370
-3
390
F
  0
LAYER
  5
21D
100
AcDbSymbolTableRecord
100
AcDbLayerTableRecord
  2
LAYER_PROTRUSION_FEAT
 70
0
 62
7
  6
CONTINUOUS
370
-3
390
F
  0
LAYER
  5
21E
100
AcDbSymbolTableRecord
100
AcDbLayerTableRecord
  2
LAYER_QUILT
 70
0
 62
7
  6
CONTINUOUS
370
-3
390
F
  0
LAYER
  5
21F
100
AcDbSymbolTableRecord
100
AcDbLayerTableRecord
  2
LAYER_ROUND_FEAT
 70
0
 62
7
  6
CONTINUOUS
370
-3
390
F
  0
ENDTAB
  0
TABLE
  2
STYLE
  5
3
100
AcDbSymbolTable
 70
1
  0
STYLE
  5
11
100
AcDbSymbolTableRecord
100
AcDbTextStyleTableRecord
  2
STANDARD
 70
0
 40
0.0
 41
0.8
 50
0.0
 71
0
 42
0.2
  3
txt
  4

  0
STYLE
  5
220
100
AcDbSymbolTableRecord
100
AcDbTextStyleTableRecord
  2
TEXTSTYLE_1
 70
0
 40
0.0
 41
0.8
 50
0.0
 71
0
 42
0.2
  3
gdt
  4

  0
ENDTAB
  0
TABLE
  2
VIEW
  5
6
100
AcDbSymbolTable
 70
0
  0
ENDTAB
  0
TABLE
  2
UCS
  5
7
100
AcDbSymbolTable
 70
0
  0
ENDTAB
  0
TABLE
  2
APPID
  5
9
100
AcDbSymbolTable
 70
1
  0
APPID
  5
221
100
AcDbSymbolTableRecord
100
AcDbRegAppTableRecord
  2
ACAD
 70
0
  0
ENDTAB
  0
TABLE
  2
BLOCK_RECORD
  5
1
100
AcDbSymbolTable
 70
0
  0
BLOCK_RECORD
  5
222
100
AcDbSymbolTableRecord
100
AcDbBlockTableRecord
  2
*Model_Space
  0
BLOCK_RECORD
  5
223
100
AcDbSymbolTableRecord
100
AcDbBlockTableRecord
  2
*Paper_Space
  0
ENDTAB
  0
TABLE
  2
DIMSTYLE
  5
A
100
AcDbSymbolTable
 70
1
100
AcDbDimStyleTable
 71
0
  0
DIMSTYLE
105
224
100
AcDbSymbolTableRecord
100
AcDbDimStyleTableRecord
  2
STANDARD
 70
0
  3

  4

 40
1.0
 41
0.1875
 42
0.0625
 43
0.38
 44
0.125
 45
0.0
 46
0.0
 47
0.0001
 48
0.0001
140
0.15625
141
0.09
142
0.0
143
25.4
144
1.0
145
0.0
146
1.0
147
0.09
 71
0.0
 72
0.0
 73
1
 74
1
 75
0
 76
0
 77
0
 78
4
 79
1
170
0
171
3
172
0
173
0
174
0
175
0
176
0
177
0
178
0
270
2
179
4
271
4
272
4
273
2
274
2
275
0
280
0
281
0
282
0
283
1
284
4
285
0
286
0
287
3
288
0
340
11
278
46
  0
ENDTAB
  0
ENDSEC
  0
SECTION
  2
BLOCKS
  0
BLOCK
  5
20
100
AcDbEntity
  8
0
100
AcDbBlockBegin
  2
*Model_Space
 70
0
 10
0.0
 20
0.0
 30
0.0
  3
*Model_Space
  1

  0
ENDBLK
  5
21
100
AcDbEntity
  8
0
100
AcDbBlockEnd
  0
BLOCK
  5
1C
100
AcDbEntity
  8
0
100
AcDbBlockBegin
  2
*Paper_Space
 70
0
 10
0.0
 20
0.0
 30
0.0
  3
*Paper_Space
  1

  0
ENDBLK
  5
1D
100
AcDbEntity
  8
0
100
AcDbBlockEnd
  0
ENDSEC
  0
SECTION
  2
ENTITIES
  0
MTEXT
  5
225
100
AcDbEntity
  8
0
100
AcDbMText
 62
7
  6
CONTINUOUS
  7
STANDARD
 71
1
 72
1
 10
15.9560215477
 20
0.9479130325
 30
0.0
 11
1.0
 21
0.0
 31
0.0
 44
0.9
  1
SCALE: 1:0.500
 40
0.3
 41
3.36
  0
LINE
  5
226
100
AcDbEntity
  8
0
100
AcDbLine
 62
7
  6
CONTINUOUS
 10
0.0
 20
0.0
 11
0.0
 21
17.0
  0
LINE
  5
227
100
AcDbEntity
  8
0
100
AcDbLine
 62
7
  6
CONTINUOUS
 10
0.0
 20
0.0
 11
22.0
 21
0.0
  0
LINE
  5
228
100
AcDbEntity
  8
0
100
AcDbLine
 62
7
  6
CONTINUOUS
 10
0.0
 20
17.0
 11
22.0
 21
17.0
  0
LINE
  5
229
100
AcDbEntity
  8
0
100
AcDbLine
 62
7
  6
CONTINUOUS
 10
22.0
 20
0.0
 11
22.0
 21
17.0
  0
LINE
  5
22A
100
AcDbEntity
  8
LAYER_FEATURE
100
AcDbLine
 62
7
  6
CONTINUOUS
 10
6.6533672762
 20
3.8151198968
 11
6.5920268405
 21
3.8151198968
  0
LINE
  5
22B
100
AcDbEntity
  8
LAYER_FEATURE
100
AcDbLine
 62
7
  6
CONTINUOUS
 10
5.6073672762
 20
3.8151198968
 11
5.6687077119
 21
3.8151198968
  0
LINE
  5
22C
100
AcDbEntity
  8
02___PRT_ALL_AXES
100
AcDbLine
 62
7
  6
CONTINUOUS
 10
5.6953672762
 20
3.9686198968
 11
6.5653672762
 21
3.9686198968
  0
LINE
  5
22D
100
AcDbEntity
  8
LAYER_FEATURE
100
AcDbLine
 62
7
  6
CONTINUOUS
 10
5.6073672762
 20
7.2251198968
 11
5.6073672762
 21
3.8151198968
  0
LINE
  5
22E
100
AcDbEntity
  8
LAYER_FEATURE
100
AcDbLine
 62
7
  6
CONTINUOUS
 10
5.6687077119
 20
7.2251198968
 11
5.6687077119
 21
3.8151198968
  0
LINE
  5
22F
100
AcDbEntity
  8
LAYER_FEATURE
100
AcDbLine
 62
7
  6
CONTINUOUS
 10
5.6953672762
 20
7.0996965078
 11
5.6953672762
 21
3.9405432857
  0
LINE
  5
230
100
AcDbEntity
  8
LAYER_FEATURE
100
AcDbLine
 62
7
  6
CONTINUOUS
 10
5.6687077119
 20
3.8151198968
 11
5.6953672762
 21
3.9405432857
  0
LINE
  5
231
100
AcDbEntity
  8
LAYER_FEATURE
100
AcDbLine
 62
7
  6
CONTINUOUS
 10
5.6687077119
 20
7.2251198968
 11
5.6953672762
 21
7.0996965078
  0
LINE
  5
232
100
AcDbEntity
  8
LAYER_FEATURE
100
AcDbLine
 62
7
  6
CONTINUOUS
 10
6.5920268405
 20
7.2251198968
 11
6.5653672762
 21
7.0996965078
  0
LINE
  5
233
100
AcDbEntity
  8
LAYER_FEATURE
100
AcDbLine
 62
7
  6
CONTINUOUS
 10
6.5920268405
 20
3.8151198968
 11
6.5653672762
 21
3.9405432857
  0
LINE
  5
234
100
AcDbEntity
  8
LAYER_FEATURE
100
AcDbLine
 62
7
  6
CONTINUOUS
 10
6.5653672762
 20
7.0996965078
 11
6.5653672762
 21
3.9405432857
  0
LINE
  5
235
100
AcDbEntity
  8
LAYER_FEATURE
100
AcDbLine
 62
7
  6
CONTINUOUS
 10
6.5920268405
 20
7.2251198968
 11
6.5920268405
 21
3.8151198968
  0
LINE
  5
236
100
AcDbEntity
  8
LAYER_FEATURE
100
AcDbLine
 62
7
  6
CONTINUOUS
 10
6.6533672762
 20
7.2251198968
 11
6.6533672762
 21
3.8151198968
  0
LINE
  5
237
100
AcDbEntity
  8
LAYER_FEATURE
100
AcDbLine
 62
7
  6
CONTINUOUS
 10
5.6953672762
 20
6.8032672438
 11
6.5653672762
 21
6.8032672438
  0
LINE
  5
238
100
AcDbEntity
  8
0
100
AcDbLine
 62
7
  6
CONTINUOUS
 10
5.6953672762
 20
6.8058585462
 11
6.5653672762
 21
6.8058585462
  0
LINE
  5
239
100
AcDbEntity
  8
LAYER_FEATURE
100
AcDbLine
 62
7
  6
CONTINUOUS
 10
5.6953672762
 20
6.9170172438
 11
6.5653672762
 21
6.9170172438
  0
LINE
  5
23A
100
AcDbEntity
  8
LAYER_FEATURE
100
AcDbLine
 62
7
  6
CONTINUOUS
 10
5.6953672762
 20
6.9352245441
 11
6.5653672762
 21
6.9352245441
  0
LINE
  5
23B
100
AcDbEntity
  8
0
100
AcDbLine
 62
7
  6
CONTINUOUS
 10
5.6953672762
 20
6.936390994
 11
6.5653672762
 21
6.936390994
  0
LINE
  5
23C
100
AcDbEntity
  8
LAYER_FEATURE
100
AcDbLine
 62
7
  6
CONTINUOUS
 10
5.6953672762
 20
7.0130341267
 11
6.5653672762
 21
7.0130341267
  0
LINE
  5
23D
100
AcDbEntity
  8
LAYER_FEATURE
100
AcDbLine
 62
7
  6
CONTINUOUS
 10
5.6953672762
 20
7.0241846058
 11
6.5653672762
 21
7.0241846058
  0
LINE
  5
23E
100
AcDbEntity
  8
0
100
AcDbLine
 62
7
  6
CONTINUOUS
 10
5.6953672762
 20
7.0244784503
 11
6.5653672762
 21
7.0244784503
  0
LINE
  5
23F
100
AcDbEntity
  8
LAYER_FEATURE
100
AcDbLine
 62
7
  6
CONTINUOUS
 10
5.6953672762
 20
7.0636895662
 11
6.5653672762
 21
7.0636895662
  0
LINE
  5
240
100
AcDbEntity
  8
LAYER_FEATURE
100
AcDbLine
 62
7
  6
CONTINUOUS
 10
5.6953672762
 20
7.0674444223
 11
6.5653672762
 21
7.0674444223
  0
LINE
  5
241
100
AcDbEntity
  8
LAYER_FEATURE
100
AcDbLine
 62
7
  6
CONTINUOUS
 10
6.6533672762
 20
7.2251198968
 11
6.5920268405
 21
7.2251198968
  0
LINE
  5
242
100
AcDbEntity
  8
LAYER_FEATURE
100
AcDbLine
 62
7
  6
CONTINUOUS
 10
5.6073672762
 20
7.2251198968
 11
5.6687077119
 21
7.2251198968
  0
LINE
  5
243
100
AcDbEntity
  8
LAYER_FEATURE
100
AcDbLine
 62
7
  6
CONTINUOUS
 10
5.5478720839
 20
10.8950477814
 11
5.6092125196
 21
10.8950477814
  0
LINE
  5
244
100
AcDbEntity
  8
LAYER_FEATURE
100
AcDbLine
 62
7
  6
CONTINUOUS
 10
6.5325316482
 20
10.8950477814
 11
6.5938720839
 21
10.8950477814
  0
LINE
  5
245
100
AcDbEntity
  8
02___PRT_ALL_AXES
100
AcDbLine
 62
7
  6
CONTINUOUS
 10
5.6358720839
 20
11.0485477814
 11
6.5058720839
 21
11.0485477814
  0
LINE
  5
246
100
AcDbEntity
  8
LAYER_FEATURE
100
AcDbLine
 62
7
  6
CONTINUOUS
 10
5.6358720839
 20
11.7278751289
 11
6.5058720839
 21
11.7278751289
  0
LINE
  5
247
100
AcDbEntity
  8
LAYER_FEATURE
100
AcDbLine
 62
7
  6
CONTINUOUS
 10
6.5058720839
 20
11.8565920193
 11
5.6358720839
 21
11.8565920193
  0
LINE
  5
248
100
AcDbEntity
  8
LAYER_FEATURE
100
AcDbLine
 62
7
  6
CONTINUOUS
 10
6.5058720839
 20
11.9085535435
 11
5.6358720839
 21
11.9085535435
  0
LINE
  5
249
100
AcDbEntity
  8
0
100
AcDbLine
 62
7
  6
CONTINUOUS
 10
5.6358720839
 20
11.9152250359
 11
6.5058720839
 21
11.9152250359
  0
LINE
  5
24A
100
AcDbEntity
  8
LAYER_FEATURE
100
AcDbLine
 62
7
  6
CONTINUOUS
 10
5.6358720839
 20
11.9248959083
 11
6.5058720839
 21
11.9248959083
  0
LINE
  5
24B
100
AcDbEntity
  8
LAYER_FEATURE
100
AcDbLine
 62
7
  6
CONTINUOUS
 10
5.6358720839
 20
11.9639415897
 11
6.5058720839
 21
11.9639415897
  0
LINE
  5
24C
100
AcDbEntity
  8
LAYER_FEATURE
100
AcDbLine
 62
7
  6
CONTINUOUS
 10
5.5478720839
 20
10.8950477814
 11
5.5478720839
 21
14.3050477814
  0
LINE
  5
24D
100
AcDbEntity
  8
LAYER_FEATURE
100
AcDbLine
 62
7
  6
CONTINUOUS
 10
5.6092125196
 20
10.8950477814
 11
5.6092125196
 21
14.3050477814
  0
LINE
  5
24E
100
AcDbEntity
  8
LAYER_FEATURE
100
AcDbLine
 62
7
  6
CONTINUOUS
 10
6.5058720839
 20
12.0810751981
 11
5.6358720839
 21
12.0810751981
  0
LINE
  5
24F
100
AcDbEntity
  8
LAYER_FEATURE
100
AcDbLine
 62
7
  6
CONTINUOUS
 10
6.5058720839
 20
12.1374567553
 11
5.6358720839
 21
12.1374567553
  0
LINE
  5
250
100
AcDbEntity
  8
LAYER_FEATURE
100
AcDbLine
 62
7
  6
CONTINUOUS
 10
5.6358720839
 20
11.0204711703
 11
5.6358720839
 21
14.1796243924
  0
LINE
  5
251
100
AcDbEntity
  8
LAYER_FEATURE
100
AcDbLine
 62
7
  6
CONTINUOUS
 10
5.6358720839
 20
12.177721661
 11
6.5058720839
 21
12.177721661
  0
LINE
  5
252
100
AcDbEntity
  8
LAYER_FEATURE
100
AcDbLine
 62
7
  6
CONTINUOUS
 10
5.6358720839
 20
12.2193358153
 11
6.5058720839
 21
12.2193358153
  0
LINE
  5
253
100
AcDbEntity
  8
LAYER_FEATURE
100
AcDbLine
 62
7
  6
CONTINUOUS
 10
6.5058720839
 20
12.3213270962
 11
5.6358720839
 21
12.3213270962
  0
LINE
  5
254
100
AcDbEntity
  8
LAYER_FEATURE
100
AcDbLine
 62
7
  6
CONTINUOUS
 10
6.5058720839
 20
12.3804155614
 11
5.6358720839
 21
12.3804155614
  0
LINE
  5
255
100
AcDbEntity
  8
LAYER_FEATURE
100
AcDbLine
 62
7
  6
CONTINUOUS
 10
5.6358720839
 20
12.4433795791
 11
6.5058720839
 21
12.4433795791
  0
LINE
  5
256
100
AcDbEntity
  8
LAYER_FEATURE
100
AcDbLine
 62
7
  6
CONTINUOUS
 10
5.6358720839
 20
12.4862977814
 11
6.5058720839
 21
12.4862977814
  0
LINE
  5
257
100
AcDbEntity
  8
LAYER_FEATURE
100
AcDbLine
 62
7
  6
CONTINUOUS
 10
5.6092125196
 20
10.8950477814
 11
5.6358720839
 21
11.0204711703
  0
LINE
  5
258
100
AcDbEntity
  8
LAYER_FEATURE
100
AcDbLine
 62
7
  6
CONTINUOUS
 10
6.5058720839
 20
12.5700477814
 11
5.6358720839
 21
12.5700477814
  0
LINE
  5
259
100
AcDbEntity
  8
LAYER_FEATURE
100
AcDbLine
 62
7
  6
CONTINUOUS
 10
5.6092125196
 20
14.3050477814
 11
5.6358720839
 21
14.1796243924
  0
LINE
  5
25A
100
AcDbEntity
  8
LAYER_FEATURE
100
AcDbLine
 62
7
  6
CONTINUOUS
 10
6.5058720839
 20
14.1796243924
 11
6.5325316482
 21
14.3050477814
  0
LINE
  5
25B
100
AcDbEntity
  8
LAYER_FEATURE
100
AcDbLine
 62
7
  6
CONTINUOUS
 10
6.5058720839
 20
12.6300477814
 11
5.6358720839
 21
12.6300477814
  0
LINE
  5
25C
100
AcDbEntity
  8
LAYER_FEATURE
100
AcDbLine
 62
7
  6
CONTINUOUS
 10
5.6358720839
 20
12.7137977814
 11
6.5058720839
 21
12.7137977814
  0
LINE
  5
25D
100
AcDbEntity
  8
LAYER_FEATURE
100
AcDbLine
 62
7
  6
CONTINUOUS
 10
6.5058720839
 20
11.0204711703
 11
6.5325316482
 21
10.8950477814
  0
LINE
  5
25E
100
AcDbEntity
  8
LAYER_FEATURE
100
AcDbLine
 62
7
  6
CONTINUOUS
 10
6.5058720839
 20
11.0204711703
 11
6.5058720839
 21
14.1796243924
  0
LINE
  5
25F
100
AcDbEntity
  8
LAYER_FEATURE
100
AcDbLine
 62
7
  6
CONTINUOUS
 10
6.5325316482
 20
10.8950477814
 11
6.5325316482
 21
14.3050477814
  0
LINE
  5
260
100
AcDbEntity
  8
LAYER_FEATURE
100
AcDbLine
 62
7
  6
CONTINUOUS
 10
6.5938720839
 20
10.8950477814
 11
6.5938720839
 21
14.3050477814
  0
LINE
  5
261
100
AcDbEntity
  8
02___PRT_ALL_AXES
100
AcDbLine
 62
7
  6
CONTINUOUS
 10
5.6358720839
 20
14.1515477814
 11
6.5058720839
 21
14.1515477814
  0
LINE
  5
262
100
AcDbEntity
  8
LAYER_FEATURE
100
AcDbLine
 62
7
  6
CONTINUOUS
 10
5.5478720839
 20
14.3050477814
 11
5.6092125196
 21
14.3050477814
  0
LINE
  5
263
100
AcDbEntity
  8
LAYER_FEATURE
100
AcDbLine
 62
7
  6
CONTINUOUS
 10
6.5325316482
 20
14.3050477814
 11
6.5938720839
 21
14.3050477814
  0
LINE
  5
264
100
AcDbEntity
  8
LAYER_FEATURE
100
AcDbLine
 62
7
  6
CONTINUOUS
 10
14.9893671613
 20
10.8058049929
 11
15.045865444
 21
10.8058049929
  0
LINE
  5
265
100
AcDbEntity
  8
LAYER_FEATURE
100
AcDbLine
 62
7
  6
CONTINUOUS
 10
15.8962986784
 20
10.8058049929
 11
15.9527969611
 21
10.8058049929
  0
LINE
  5
266
100
AcDbEntity
  8
02___PRT_ALL_AXES
100
AcDbLine
 62
7
  6
CONTINUOUS
 10
15.0704205288
 20
10.9593049929
 11
15.6211711772
 21
10.9593049929
  0
LINE
  5
267
100
AcDbEntity
  8
02___PRT_ALL_AXES
100
AcDbLine
 62
7
  6
CONTINUOUS
 10
15.8754577939
 20
13.8351717682
 11
15.8585818327
 21
13.8292922259
  0
LINE
  5
268
100
AcDbEntity
  8
02___PRT_ALL_AXES
100
AcDbLine
 62
7
  6
CONTINUOUS
 10
15.8754577939
 20
11.1864382176
 11
15.8585818327
 21
11.19231776
  0
LINE
  5
269
100
AcDbEntity
  8
LAYER_FEATURE
100
AcDbLine
 62
7
  6
CONTINUOUS
 10
14.5159540643
 20
12.6915886064
 11
14.5193809435
 21
12.7509397656
  0
LINE
  5
26A
100
AcDbEntity
  8
LAYER_FEATURE
100
AcDbLine
 62
7
  6
CONTINUOUS
 10
14.5366025666
 20
12.9360880038
 11
14.543990815
 21
12.9930093826
  0
LINE
  5
26B
100
AcDbEntity
  8
LAYER_FEATURE
100
AcDbLine
 62
7
  6
CONTINUOUS
 10
14.5734708574
 20
13.1676653921
 11
14.5845959871
 21
13.2204274632
  0
LINE
  5
26C
100
AcDbEntity
  8
LAYER_FEATURE
100
AcDbLine
 62
7
  6
CONTINUOUS
 10
14.6290135629
 20
13.3908526296
 11
14.639962692
 21
13.4262840242
  0
LINE
  5
26D
100
AcDbEntity
  8
LAYER_FEATURE
100
AcDbLine
 62
7
  6
CONTINUOUS
 10
14.4735795945
 20
12.6411989302
 11
14.4947013574
 21
12.6541885656
  0
LINE
  5
26E
100
AcDbEntity
  8
LAYER_FEATURE
100
AcDbLine
 62
7
  6
CONTINUOUS
 10
14.5032685552
 20
12.8025664637
 11
14.4845232475
 21
12.8307353765
  0
LINE
  5
26F
100
AcDbEntity
  8
LAYER_FEATURE
100
AcDbLine
 62
7
  6
CONTINUOUS
 10
14.5316142997
 20
13.0510365396
 11
14.5150586075
 21
13.0871363508
  0
LINE
  5
270
100
AcDbEntity
  8
LAYER_FEATURE
100
AcDbLine
 62
7
  6
CONTINUOUS
 10
14.5763313987
 20
13.2830919533
 11
14.5624683584
 21
13.3260257884
  0
LINE
  5
271
100
AcDbEntity
  8
LAYER_FEATURE
100
AcDbLine
 62
7
  6
CONTINUOUS
 10
14.636061146
 20
13.4916818186
 11
14.625311979
 21
13.5401451546
  0
LINE
  5
272
100
AcDbEntity
  8
02___PRT_ALL_AXES
100
AcDbLine
 62
7
  6
CONTINUOUS
 10
15.493631264
 20
12.1550065833
 11
15.504753332
 21
12.1549021361
  0
LINE
  5
273
100
AcDbEntity
  8
02___PRT_ALL_AXES
100
AcDbLine
 62
7
  6
CONTINUOUS
 10
15.4936247785
 20
12.1550393959
 11
15.504753332
 21
12.1549021361
  0
LINE
  5
274
100
AcDbEntity
  8
LAYER_FEATURE
100
AcDbLine
 62
7
  6
CONTINUOUS
 10
14.4678832395
 20
12.6252258661
 11
15.2339569597
 21
12.6252258661
  0
LINE
  5
275
100
AcDbEntity
  8
LAYER_FEATURE
100
AcDbLine
 62
7
  6
CONTINUOUS
 10
15.236204086
 20
12.6915886064
 11
14.5159540643
 21
12.6915886064
  0
LINE
  5
276
100
AcDbEntity
  8
LAYER_FEATURE
100
AcDbLine
 62
7
  6
CONTINUOUS
 10
15.2390877527
 20
12.7509397656
 11
14.5193809435
 21
12.7509397656
  0
LINE
  5
277
100
AcDbEntity
  8
LAYER_FEATURE
100
AcDbLine
 62
7
  6
CONTINUOUS
 10
14.4808768229
 20
12.8502656782
 11
15.2456444925
 21
12.8502656782
  0
LINE
  5
278
100
AcDbEntity
  8
LAYER_FEATURE
100
AcDbLine
 62
7
  6
CONTINUOUS
 10
14.4847744786
 20
12.8921690506
 11
15.2492796661
 21
12.8921690506
  0
LINE
  5
279
100
AcDbEntity
  8
LAYER_FEATURE
100
AcDbLine
 62
7
  6
CONTINUOUS
 10
15.2534451916
 20
12.9360880038
 11
14.5366025666
 21
12.9360880038
  0
LINE
  5
27A
100
AcDbEntity
  8
LAYER_FEATURE
100
AcDbLine
 62
7
  6
CONTINUOUS
 10
14.4914644202
 20
12.9053593476
 11
14.5131436784
 21
12.9087330925
  0
LINE
  5
27B
100
AcDbEntity
  8
LAYER_FEATURE
100
AcDbLine
 62
7
  6
CONTINUOUS
 10
15.2595392462
 20
12.9930093826
 11
14.543990815
 21
12.9930093826
  0
LINE
  5
27C
100
AcDbEntity
  8
LAYER_FEATURE
100
AcDbLine
 62
7
  6
CONTINUOUS
 10
14.5127882541
 20
13.1079959453
 11
15.2744165895
 21
13.1079959453
  0
LINE
  5
27D
100
AcDbEntity
  8
LAYER_FEATURE
100
AcDbLine
 62
7
  6
CONTINUOUS
 10
14.5194602765
 20
13.1475246811
 11
15.2804983935
 21
13.1475246811
  0
LINE
  5
27E
100
AcDbEntity
  8
0
100
AcDbLine
 62
7
  6
CONTINUOUS
 10
14.5260837017
 20
13.157656989
 11
15.2820573281
 21
13.157656989
  0
LINE
  5
27F
100
AcDbEntity
  8
LAYER_FEATURE
100
AcDbLine
 62
7
  6
CONTINUOUS
 10
15.2835971989
 20
13.1676653921
 11
14.5734708574
 21
13.1676653921
  0
LINE
  5
280
100
AcDbEntity
  8
02___PRT_ALL_AXES
100
AcDbLine
 62
7
  6
CONTINUOUS
 10
15.7844174706
 20
13.3532529656
 11
15.7929499343
 21
13.3541860848
  0
LINE
  5
281
100
AcDbEntity
  8
LAYER_FEATURE
100
AcDbLine
 62
7
  6
CONTINUOUS
 10
15.2926511211
 20
13.2204274632
 11
14.5845959871
 21
13.2204274632
  0
LINE
  5
282
100
AcDbEntity
  8
LAYER_FEATURE
100
AcDbLine
 62
7
  6
CONTINUOUS
 10
14.5616430599
 20
13.3475808675
 11
15.3178125605
 21
13.3475808675
  0
LINE
  5
283
100
AcDbEntity
  8
LAYER_FEATURE
100
AcDbLine
 62
7
  6
CONTINUOUS
 10
14.5708867229
 20
13.3835339062
 11
15.3260570071
 21
13.3835339062
  0
LINE
  5
284
100
AcDbEntity
  8
0
100
AcDbLine
 62
7
  6
CONTINUOUS
 10
14.5767867648
 20
13.3908526296
 11
15.327739754
 21
13.3908526296
  0
LINE
  5
285
100
AcDbEntity
  8
LAYER_FEATURE
100
AcDbLine
 62
7
  6
CONTINUOUS
 10
15.336307905
 20
13.4262840242
 11
14.639962692
 21
13.4262840242
  0
LINE
  5
286
100
AcDbEntity
  8
LAYER_FEATURE
100
AcDbLine
 62
7
  6
CONTINUOUS
 10
14.6259568115
 20
13.5617407781
 11
15.3735584715
 21
13.5617407781
  0
LINE
  5
287
100
AcDbEntity
  8
02___PRT_ALL_AXES
100
AcDbLine
 62
7
  6
CONTINUOUS
 10
15.0704205288
 20
14.0623049929
 11
15.6210108177
 21
14.0623049929
  0
LINE
  5
288
100
AcDbEntity
  8
LAYER_FEATURE
100
AcDbLine
 62
7
  6
CONTINUOUS
 10
14.9893671613
 20
14.2158049929
 11
15.045865444
 21
14.2158049929
  0
LINE
  5
289
100
AcDbEntity
  8
LAYER_FEATURE
100
AcDbLine
 62
7
  6
CONTINUOUS
 10
15.8962986784
 20
14.2158049929
 11
15.9527969611
 21
14.2158049929
  0
CIRCLE
  5
28A
100
AcDbEntity
  8
LAYER_FEATURE
100
AcDbCircle
 62
7
  6
CONTINUOUS
 10
15.5603552569
 20
5.4606247044
 40
1.705
  0
CIRCLE
  5
28B
100
AcDbEntity
  8
LAYER_FEATURE
100
AcDbCircle
 62
7
  6
CONTINUOUS
 10
15.5603552569
 20
5.4606247044
 40
1.5795766111
  0
CIRCLE
  5
28C
100
AcDbEntity
  8
02___PRT_ALL_AXES
100
AcDbCircle
 62
7
  6
CONTINUOUS
 10
15.5603552569
 20
5.4606247044
 40
1.3365
  0
CIRCLE
  5
28D
100
AcDbEntity
  8
LAYER_CHAMFER_FEAT
100
AcDbCircle
 62
7
  6
CONTINUOUS
 10
15.5603552569
 20
5.4606247044
 40
1.269
  0
CIRCLE
  5
28E
100
AcDbEntity
  8
LAYER_CHAMFER_FEAT
100
AcDbCircle
 62
7
  6
CONTINUOUS
 10
15.5603552569
 20
5.4606247044
 40
1.2375
  0
ARC
  5
28F
100
AcDbEntity
  8
02___PRT_ALL_AXES
100
AcDbCircle
 62
7
  6
CONTINUOUS
 10
15.5603552569
 20
5.4606247044
 40
0.84375
100
AcDbArc
 50
153.3827617612
 51
231.6172382388
  0
ARC
  5
290
100
AcDbEntity
  8
02___PRT_ALL_AXES
100
AcDbCircle
 62
7
  6
CONTINUOUS
 10
15.5603552569
 20
5.4606247044
 40
0.84375
100
AcDbArc
 50
58.3827617612
 51
136.6172382388
  0
ARC
  5
291
100
AcDbEntity
  8
02___PRT_ALL_AXES
100
AcDbCircle
 62
7
  6
CONTINUOUS
 10
15.5603552569
 20
5.4606247044
 40
0.84375
100
AcDbArc
 50
248.3827617612
 51
41.6172382388
  0
ARC
  5
292
100
AcDbEntity
  8
02___PRT_ALL_AXES
100
AcDbCircle
 62
7
  6
CONTINUOUS
 10
15.5603552569
 20
5.4606247044
 40
0.8131570198
100
AcDbArc
 50
136.1802428979
 51
153.8197571021
  0
ARC
  5
293
100
AcDbEntity
  8
02___PRT_ALL_AXES
100
AcDbCircle
 62
7
  6
CONTINUOUS
 10
15.5603552569
 20
5.4606247044
 40
0.7825640395
100
AcDbArc
 50
58.7288156508
 51
231.2711843492
  0
ARC
  5
294
100
AcDbEntity
  8
02___PRT_ALL_AXES
100
AcDbCircle
 62
7
  6
CONTINUOUS
 10
15.5603552569
 20
5.4606247044
 40
0.7825640395
100
AcDbArc
 50
248.7288156508
 51
41.2711843492
  0
ARC
  5
295
100
AcDbEntity
  8
02___PRT_ALL_AXES
100
AcDbCircle
 62
7
  6
CONTINUOUS
 10
14.894794221
 20
5.926655559
 40
0.125
100
AcDbArc
 50
50.8903869362
 51
239.1096130638
  0
ARC
  5
296
100
AcDbEntity
  8
02___PRT_ALL_AXES
100
AcDbCircle
 62
7
  6
CONTINUOUS
 10
16.0826201898
 20
6.0830358145
 40
0.125
100
AcDbArc
 50
301.820265907
 51
158.179734093
  0
ARC
  5
297
100
AcDbEntity
  8
02___PRT_ALL_AXES
100
AcDbCircle
 62
7
  6
CONTINUOUS
 10
15.1541052569
 20
4.7569790639
 40
0.125
100
AcDbArc
 50
131.820265907
 51
348.179734093
  0
ARC
  5
298
100
AcDbEntity
  8
02___PRT_ALL_AXES
100
AcDbCircle
 62
7
  6
CONTINUOUS
 10
20.9459059465
 20
87.3467020701
 40
75.8269832601
100
AcDbArc
 50
266.0412259646
 51
266.167470697
  0
ARC
  5
299
100
AcDbEntity
  8
02___PRT_ALL_AXES
100
AcDbCircle
 62
7
  6
CONTINUOUS
 10
12.8894509611
 20
-27.6805588756
 40
39.5800845415
100
AcDbArc
 50
85.5409068629
 51
86.0400146284
  0
ARC
  5
29A
100
AcDbEntity
  8
LAYER_FEATURE
100
AcDbCircle
 62
7
  6
CONTINUOUS
 10
18.1751258956
 20
12.5277768664
 40
3.7082981602
100
AcDbArc
 50
174.3607877801
 51
175.0110221751
  0
ARC
  5
29B
100
AcDbEntity
  8
LAYER_FEATURE
100
AcDbCircle
 62
7
  6
CONTINUOUS
 10
17.6731086875
 20
12.594895542
 40
3.201702245
100
AcDbArc
 50
170.0606983633
 51
170.7780918766
  0
ARC
  5
29C
100
AcDbEntity
  8
LAYER_FEATURE
100
AcDbCircle
 62
7
  6
CONTINUOUS
 10
17.0256597213
 20
12.733237616
 40
2.53944792
100
AcDbArc
 50
165.1625395032
 51
166.0001116859
  0
SPLINE
  5
29D
100
AcDbEntity
  8
02___PRT_ALL_AXES
100
AcDbSpline
 62
7
  6
CONTINUOUS
 70
0
 71
3
 72
39
 73
35
 74
0
 42
0.0000001
 43
0.0000001
 44
0.0000000001
 40
0.0
 40
0.0
 40
0.0
 40
0.0
 40
0.0461783307
 40
0.0913991069
 40
0.135631557
 40
0.1788496002
 40
0.2210282928
 40
0.2621457526
 40
0.3021829177
 40
0.341123823
 40
0.3789559125
 40
0.4156703282
 40
0.4512622889
 40
0.4857314714
 40
0.5190824442
 40
0.5513251624
 40
0.5824755269
 40
0.612555998
 40
0.6415962312
 40
0.6696337631
 40
0.6967147154
 40
0.7228944887
 40
0.7482383589
 40
0.7728219197
 40
0.7967312939
 40
0.8200630028
 40
0.8429233909
 40
0.865427506
 40
0.8876974334
 40
0.9098601183
 40
0.932044798
 40
0.9543802356
 40
0.9769919976
 40
1.0
 40
1.0
 40
1.0
 40
1.0
 10
16.3531169279
 20
11.6800232703
 30
0.0
 10
16.3496645961
 20
11.6688515208
 30
0.0
 10
16.3426263969
 20
11.6468023736
 30
0.0
 10
16.3315461973
 20
11.614292706
 30
0.0
 10
16.3200626425
 20
11.5827195018
 30
0.0
 10
16.3081879086
 20
11.5521160116
 30
0.0
 10
16.2959342644
 20
11.5225139534
 30
0.0
 10
16.283314523
 20
11.4939442389
 30
0.0
 10
16.2703418233
 20
11.4664365979
 30
0.0
 10
16.2570296552
 20
11.4400196593
 30
0.0
 10
16.2433918427
 20
11.4147209052
 30
0.0
 10
16.2294425104
 20
11.3905666407
 30
0.0
 10
16.2151960876
 20
11.3675819571
 30
0.0
 10
16.2006672685
 20
11.3457907163
 30
0.0
 10
16.185870986
 20
11.3252155408
 30
0.0
 10
16.1708223863
 20
11.3058778016
 30
0.0
 10
16.1555368057
 20
11.2877976042
 30
0.0
 10
16.1400297623
 20
11.2709937727
 30
0.0
 10
16.1243169139
 20
11.2554838784
 30
0.0
 10
16.1084140517
 20
11.2412842573
 30
0.0
 10
16.092337093
 20
11.2284100396
 30
0.0
 10
16.0761021135
 20
11.2168751569
 30
0.0
 10
16.0597253798
 20
11.2066923743
 30
0.0
 10
16.0432234063
 20
11.197873324
 30
0.0
 10
16.0266130506
 20
11.1904284914
 30
0.0
 10
16.0099116165
 20
11.1843671564
 30
0.0
 10
15.9931369609
 20
11.1796972384
 30
0.0
 10
15.9763075255
 20
11.1764251557
 30
0.0
 10
15.9594423238
 20
11.1745556089
 30
0.0
 10
15.9425607793
 20
11.1740913933
 30
0.0
 10
15.9256826472
 20
11.1750331829
 30
0.0
 10
15.9088272329
 20
11.1773796522
 30
0.0
 10
15.892015053
 20
11.1811269518
 30
0.0
 10
15.8809594133
 20
11.1845214648
 30
0.0
 10
15.8754577939
 20
11.1864382178
 30
0.0
  0
SPLINE
  5
29E
100
AcDbEntity
  8
02___PRT_ALL_AXES
100
AcDbSpline
 62
7
  6
CONTINUOUS
 70
0
 71
3
 72
15
 73
11
 74
0
 42
0.0000001
 43
0.0000001
 44
0.0000000001
 40
0.0
 40
0.0
 40
0.0
 40
0.0
 40
0.0986372057
 40
0.2052998214
 40
0.3199222338
 40
0.4422698184
 40
0.5719743322
 40
0.7085568445
 40
0.8514473609
 40
1.0
 40
1.0
 40
1.0
 40
1.0
 10
15.4774380027
 20
12.3907032109
 30
0.0
 10
15.4762435839
 20
12.3891530052
 30
0.0
 10
15.4739155367
 20
12.3858030655
 30
0.0
 10
15.4707202548
 20
12.3803125183
 30
0.0
 10
15.4677037614
 20
12.3741930117
 30
0.0
 10
15.4648847181
 20
12.3674823677
 30
0.0
 10
15.4622802526
 20
12.3602215032
 30
0.0
 10
15.4599065604
 20
12.3524551801
 30
0.0
 10
15.4577784763
 20
12.3442316134
 30
0.0
 10
15.4565541198
 20
12.3385787214
 30
0.0
 10
15.455983
 20
12.3356872731
 30
0.0
  0
SPLINE
  5
29F
100
AcDbEntity
  8
02___PRT_ALL_AXES
100
AcDbSpline
 62
7
  6
CONTINUOUS
 70
0
 71
3
 72
22
 73
18
 74
0
 42
0.0000001
 43
0.0000001
 44
0.0000000001
 40
0.0
 40
0.0
 40
0.0
 40
0.0
 40
0.1654325987
 40
0.243358523
 40
0.3180498076
 40
0.3895126926
 40
0.4577799098
 40
0.5229161118
 40
0.5850213419
 40
0.644235844
 40
0.7007459201
 40
0.754787318
 40
0.8066504438
 40
0.8566809965
 40
0.9052789336
 40
0.9528910925
 40
1.0
 40
1.0
 40
1.0
 40
1.0
 10
15.467962824
 20
12.1836967652
 30
0.0
 10
15.4690097691
 20
12.1814231951
 30
0.0
 10
15.4706588939
 20
12.178126141
 30
0.0
 10
15.4730661842
 20
12.1739581262
 30
0.0
 10
15.4748864359
 20
12.1710964111
 30
0.0
 10
15.4767539134
 20
12.1684419912
 30
0.0
 10
15.478665268
 20
12.1659998817
 30
0.0
 10
15.4806169489
 20
12.163774729
 30
0.0
 10
15.482605424
 20
12.1617707896
 30
0.0
 10
15.4846271598
 20
12.1599919881
 30
0.0
 10
15.4866785263
 20
12.1584418255
 30
0.0
 10
15.4887559407
 20
12.1571236038
 30
0.0
 10
15.4908556358
 20
12.1560402052
 30
0.0
 10
15.4929737147
 20
12.1551943136
 30
0.0
 10
15.4951061136
 20
12.1545882464
 30
0.0
 10
15.4972479691
 20
12.1542237703
 30
0.0
 10
15.4986824134
 20
12.1541425492
 30
0.0
 10
15.4993951843
 20
12.1541425478
 30
0.0
  0
SPLINE
  5
2A0
100
AcDbEntity
  8
02___PRT_ALL_AXES
100
AcDbSpline
 62
7
  6
CONTINUOUS
 70
0
 71
3
 72
25
 73
21
 74
0
 42
0.0000001
 43
0.0000001
 44
0.0000000001
 40
0.0
 40
0.0
 40
0.0
 40
0.0
 40
0.089059623
 40
0.1750072221
 40
0.2576012476
 40
0.3366383278
 40
0.4119409331
 40
0.4833712709
 40
0.550834774
 40
0.6142892695
 40
0.6737551232
 40
0.729328095
 40
0.7811950462
 40
0.829651933
 40
0.875122012
 40
0.9181693398
 40
0.9390149463
 40
0.9595302821
 40
0.9798217084
 40
1.0
 40
1.0
 40
1.0
 40
1.0
 10
15.8776011976
 20
11.6892921402
 30
0.0
 10
15.8781352338
 20
11.6870814488
 30
0.0
 10
15.8792537201
 20
11.6827535809
 30
0.0
 10
15.8811187376
 20
11.6764438317
 30
0.0
 10
15.8831354922
 20
11.6704501221
 30
0.0
 10
15.8852957874
 20
11.6647965225
 30
0.0
 10
15.8875910715
 20
11.6595054471
 30
0.0
 10
15.8900122105
 20
11.654597907
 30
0.0
 10
15.8925497186
 20
11.6500932712
 30
0.0
 10
15.8951937859
 20
11.6460092432
 30
0.0
 10
15.8979344119
 20
11.6423618156
 30
0.0
 10
15.9007615683
 20
11.6391653057
 30
0.0
 10
15.9036652321
 20
11.6364325052
 30
0.0
 10
15.9066357248
 20
11.6341749237
 30
0.0
 10
15.9096624477
 20
11.6324033398
 30
0.0
 10
15.9122517546
 20
11.6313288859
 30
0.0
 10
15.9143253101
 20
11.6307335059
 30
0.0
 10
15.9158693753
 20
11.6304173839
 30
0.0
 10
15.9174167166
 20
11.6302275325
 30
0.0
 10
15.9184506697
 20
11.6301853019
 30
0.0
 10
15.9189659548
 20
11.630185302
 30
0.0
  0
SPLINE
  5
2A1
100
AcDbEntity
  8
LAYER_CHAMFER_FEAT
100
AcDbSpline
 62
7
  6
CONTINUOUS
 70
0
 71
3
 72
15
 73
11
 74
0
 42
0.0000001
 43
0.0000001
 44
0.0000000001
 40
0.0
 40
0.0
 40
0.0
 40
0.0
 40
0.1375061211
 40
0.2714667129
 40
0.4018485709
 40
0.5286396893
 40
0.651835306
 40
0.7714433908
 40
0.887486038
 40
1.0
 40
1.0
 40
1.0
 40
1.0
 10
15.6382463087
 20
11.5167631446
 30
0.0
 10
15.6419769081
 20
11.5091609823
 30
0.0
 10
15.6495183652
 20
11.4942383793
 30
0.0
 10
15.6612307411
 20
11.4724350075
 30
0.0
 10
15.6731869033
 20
11.4515207441
 30
0.0
 10
15.6853764573
 20
11.4315137606
 30
0.0
 10
15.6977891584
 20
11.4124309492
 30
0.0
 10
15.7104145469
 20
11.3942885313
 30
0.0
 10
15.7232417074
 20
11.3771023014
 30
0.0
 10
15.7320558177
 20
11.3661234865
 30
0.0
 10
15.7364959566
 20
11.3608039766
 30
0.0
  0
SPLINE
  5
2A2
100
AcDbEntity
  8
02___PRT_ALL_AXES
100
AcDbSpline
 62
7
  6
CONTINUOUS
 70
0
 71
3
 72
64
 73
60
 74
0
 42
0.0000001
 43
0.0000001
 44
0.0000000001
 40
0.0
 40
0.0
 40
0.0
 40
0.0
 40
0.008204725
 40
0.0162541195
 40
0.0242052971
 40
0.0321180463
 40
0.0400532359
 40
0.0480711018
 40
0.056229603
 40
0.0645830213
 40
0.0731809164
 40
0.0820674736
 40
0.0866319921
 40
0.0912826413
 40
0.1008564433
 40
0.1108177403
 40
0.1211888835
 40
0.1319875531
 40
0.1432271932
 40
0.1549174352
 40
0.1670644946
 40
0.1796715309
 40
0.1927389689
 40
0.2062647811
 40
0.2202447369
 40
0.2346726186
 40
0.249540412
 40
0.2648384724
 40
0.2805556707
 40
0.2966795234
 40
0.3131963079
 40
0.3300911674
 40
0.3473482035
 40
0.364950563
 40
0.3828805157
 40
0.4011195278
 40
0.4196483303
 40
0.4384469828
 40
0.4574949349
 40
0.4767710839
 40
0.4962538317
 40
0.5357494202
 40
0.5758022276
 40
0.6162269578
 40
0.6568352905
 40
0.6974374251
 40
0.7378436116
 40
0.77786568
 40
0.8173185851
 40
0.836775621
 40
0.8560232138
 40
0.8750398273
 40
0.8938044276
 40
0.9122965429
 40
0.930496309
 40
0.9483845728
 40
0.9659428363
 40
0.983153625
 40
1.0
 40
1.0
 40
1.0
 40
1.0
 10
15.8754577945
 20
13.8351717581
 30
0.0
 10
15.8817655582
 20
13.8373693676
 30
0.0
 10
15.8944561638
 20
13.8411898854
 30
0.0
 10
15.9137891198
 20
13.8451422838
 30
0.0
 10
15.9331732989
 20
13.8472432525
 30
0.0
 10
15.9525765411
 20
13.847487698
 30
0.0
 10
15.9719685329
 20
13.8458752455
 30
0.0
 10
15.9913186248
 20
13.8424093213
 30
0.0
 10
16.0105971593
 20
13.8370971498
 30
0.0
 10
16.0297758447
 20
13.8299490337
 30
0.0
 10
16.0488270671
 20
13.8209783188
 30
0.0
 10
16.0644356788
 20
13.8120760937
 30
0.0
 10
16.0768245633
 20
13.8040906575
 30
0.0
 10
16.0893847119
 20
13.7953550483
 30
0.0
 10
16.1049646485
 20
13.7832898426
 30
0.0
 10
16.1232556519
 20
13.7671989685
 30
0.0
 10
16.1412968049
 20
13.749379851
 30
0.0
 10
16.1590638498
 20
13.729857762
 30
0.0
 10
16.1765335695
 20
13.7086594585
 30
0.0
 10
16.1936827259
 20
13.6858140242
 30
0.0
 10
16.2104884137
 20
13.6613526702
 30
0.0
 10
16.226928028
 20
13.6353088033
 30
0.0
 10
16.2429793453
 20
13.6077179933
 30
0.0
 10
16.2586205718
 20
13.578617949
 30
0.0
 10
16.2738303961
 20
13.548048476
 30
0.0
 10
16.2885880362
 20
13.5160514292
 30
0.0
 10
16.3028732828
 20
13.4826706566
 30
0.0
 10
16.3166665386
 20
13.4479519401
 30
0.0
 10
16.3299488553
 20
13.4119429316
 30
0.0
 10
16.3427019676
 20
13.3746930859
 30
0.0
 10
16.3549083227
 20
13.3362535894
 30
0.0
 10
16.3665511089
 20
13.2966772868
 30
0.0
 10
16.3776142822
 20
13.2560186064
 30
0.0
 10
16.3880825912
 20
13.2143334833
 30
0.0
 10
16.3979415995
 20
13.17167928
 30
0.0
 10
16.4071777077
 20
13.1281147057
 30
0.0
 10
16.4157781717
 20
13.0836997369
 30
0.0
 10
16.4237311275
 20
13.0384955203
 30
0.0
 10
16.4310255842
 20
12.9925643399
 30
0.0
 10
16.4376515343
 20
12.9459693308
 30
0.0
 10
16.4456182243
 20
12.8827587113
 30
0.0
 10
16.4538243143
 20
12.8025403846
 30
0.0
 10
16.4608388734
 20
12.7051062014
 30
0.0
 10
16.4650257267
 20
12.6066027345
 30
0.0
 10
16.4663616931
 20
12.507572443
 30
0.0
 10
16.4648393617
 20
12.4085599337
 30
0.0
 10
16.4604671833
 20
12.3101097116
 30
0.0
 10
16.4532693613
 20
12.2127639403
 30
0.0
 10
16.4449117822
 20
12.1326423514
 30
0.0
 10
16.4368253739
 20
12.0695265
 30
0.0
 10
16.4301116631
 20
12.0230144612
 30
0.0
 10
16.4227307077
 20
11.9771745586
 30
0.0
 10
16.4146926355
 20
11.9320697977
 30
0.0
 10
16.4060085535
 20
11.8877623309
 30
0.0
 10
16.3966904428
 20
11.8443131342
 30
0.0
 10
16.386751159
 20
11.8017820858
 30
0.0
 10
16.3762043978
 20
11.7602275655
 30
0.0
 10
16.365064764
 20
11.7197071142
 30
0.0
 10
16.3571662326
 20
11.6931268253
 30
0.0
 10
16.3531169279
 20
11.6800232703
 30
0.0
  0
SPLINE
  5
2A3
100
AcDbEntity
  8
02___PRT_ALL_AXES
100
AcDbSpline
 62
7
  6
CONTINUOUS
 70
0
 71
3
 72
31
 73
27
 74
0
 42
0.0000001
 43
0.0000001
 44
0.0000000001
 40
0.0
 40
0.0
 40
0.0
 40
0.0
 40
0.0166407225
 40
0.033509537
 40
0.0508233709
 40
0.0687788062
 40
0.0875462625
 40
0.107267745
 40
0.128056885
 40
0.1500009344
 40
0.1731636946
 40
0.197588137
 40
0.2232993164
 40
0.2503070328
 40
0.2786076117
 40
0.3081858815
 40
0.3390168221
 40
0.3710664759
 40
0.4386406677
 40
0.510507936
 40
0.586171195
 40
0.6650646041
 40
0.7465685532
 40
0.8300224753
 40
0.9147350616
 40
1.0
 40
1.0
 40
1.0
 40
1.0
 10
15.7392253244
 20
13.4318061154
 30
0.0
 10
15.7384158487
 20
13.4318061224
 30
0.0
 10
15.7367839273
 20
13.4317010326
 30
0.0
 10
15.7343507327
 20
13.4312301134
 30
0.0
 10
15.7319319385
 20
13.4304476653
 30
0.0
 10
15.7295345845
 20
13.4293569424
 30
0.0
 10
15.7271643838
 20
13.4279618644
 30
0.0
 10
15.7248268467
 20
13.4262667393
 30
0.0
 10
15.7225271695
 20
13.4242763374
 30
0.0
 10
15.7202704588
 20
13.4219958783
 30
0.0
 10
15.7180618367
 20
13.4194310603
 30
0.0
 10
15.7159063689
 20
13.4165882126
 30
0.0
 10
15.7138090838
 20
13.4134742876
 30
0.0
 10
15.7117749952
 20
13.4100968573
 30
0.0
 10
15.7098089759
 20
13.4064641733
 30
0.0
 10
15.7079157966
 20
13.4025851279
 30
0.0
 10
15.7061000597
 20
13.3984691956
 30
0.0
 10
15.7037468232
 20
13.3925745708
 30
0.0
 10
15.7010451071
 20
13.3846758565
 30
0.0
 10
15.6982318794
 20
13.3745924671
 30
0.0
 10
15.6958205154
 20
13.3638408574
 30
0.0
 10
15.6938350113
 20
13.3525268885
 30
0.0
 10
15.6922951905
 20
13.3407617287
 30
0.0
 10
15.6912164803
 20
13.3286613439
 30
0.0
 10
15.6906096198
 20
13.3163452978
 30
0.0
 10
15.6905237363
 20
13.3080748645
 30
0.0
 10
15.6905609419
 20
13.3039273816
 30
0.0
  0
SPLINE
  5
2A4
100
AcDbEntity
  8
LAYER_FEATURE
100
AcDbSpline
 62
7
  6
CONTINUOUS
 70
0
 71
3
 72
68
 73
64
 74
0
 42
0.0000001
 43
0.0000001
 44
0.0000000001
 40
0.0
 40
0.0
 40
0.0
 40
0.0
 40
0.0163580858
 40
0.0330510049
 40
0.0500641651
 40
0.0673825756
 40
0.0849903746
 40
0.1028711641
 40
0.1210079486
 40
0.1393832211
 40
0.1579789974
 40
0.176776863
 40
0.1957580148
 40
0.2149033029
 40
0.2536072195
 40
0.2927309867
 40
0.3321129044
 40
0.3715894139
 40
0.4109962794
 40
0.450169764
 40
0.4889478082
 40
0.5081391481
 40
0.5271722354
 40
0.5460278227
 40
0.5646869974
 40
0.5831312226
 40
0.6013423791
 40
0.6193028086
 40
0.6369953594
 40
0.6544034334
 40
0.6715110358
 40
0.6883028277
 40
0.7047641825
 40
0.7208812464
 40
0.7366410033
 40
0.7520313453
 40
0.767041151
 40
0.7816603709
 40
0.7958801233
 40
0.8096928013
 40
0.8230921932
 40
0.836073619
 40
0.8486340848
 40
0.8607724581
 40
0.8724896662
 40
0.8837889208
 40
0.8946759706
 40
0.9051593824
 40
0.9152508473
 40
0.9249655082
 40
0.9343222939
 40
0.9433442428
 40
0.9520587819
 40
0.9604979211
 40
0.9686983093
 40
0.9727225116
 40
0.9767028171
 40
0.9806450085
 40
0.9845550798
 40
0.9884392169
 40
0.9923037608
 40
0.9961551735
 40
1.0
 40
1.0
 40
1.0
 40
1.0
 10
15.3762022958
 20
13.5706499888
 30
0.0
 10
15.3713326699
 20
13.5548918735
 30
0.0
 10
15.3618197094
 20
13.5229514618
 30
0.0
 10
15.3483535622
 20
13.4742995859
 30
0.0
 10
15.3355585166
 20
13.4244665642
 30
0.0
 10
15.3234503371
 20
13.3735138135
 30
0.0
 10
15.3120438659
 20
13.3215035627
 30
0.0
 10
15.3013531026
 20
13.2684995943
 30
0.0
 10
15.2913911729
 20
13.2145668232
 30
0.0
 10
15.2821703064
 20
13.1597713454
 30
0.0
 10
15.2737018218
 20
13.1041802993
 30
0.0
 10
15.2659961325
 20
13.0478618527
 30
0.0
 10
15.2590626449
 20
12.990884899
 30
0.0
 10
15.2508297423
 20
12.9138555634
 30
0.0
 10
15.2425430217
 20
12.8164179264
 30
0.0
 10
15.235827151
 20
12.6984151803
 30
0.0
 10
15.232337267
 20
12.5794934305
 30
0.0
 10
15.2320905495
 20
12.4602355925
 30
0.0
 10
15.2350882107
 20
12.34122514
 30
0.0
 10
15.2413155004
 20
12.2230454227
 30
0.0
 10
15.2491974027
 20
12.1254024329
 30
0.0
 10
15.2571093595
 20
12.0481650411
 30
0.0
 10
15.2638063656
 20
11.9910017517
 30
0.0
 10
15.2712782639
 20
11.9344758214
 30
0.0
 10
15.2795159322
 20
11.8786563987
 30
0.0
 10
15.2885092408
 20
11.8236119323
 30
0.0
 10
15.2982471511
 20
11.76940987
 30
0.0
 10
15.3087177066
 20
11.7161166324
 30
0.0
 10
15.3199080543
 20
11.663797516
 30
0.0
 10
15.3318044591
 20
11.6125166155
 30
0.0
 10
15.3443923221
 20
11.5623367438
 30
0.0
 10
15.3576561991
 20
11.5133193533
 30
0.0
 10
15.3715798211
 20
11.4655244592
 30
0.0
 10
15.386146114
 20
11.4190105626
 30
0.0
 10
15.4013372231
 20
11.3738345786
 30
0.0
 10
15.4171345384
 20
11.3300517645
 30
0.0
 10
15.4335187203
 20
11.2877156508
 30
0.0
 10
15.4504697278
 20
11.2468779735
 30
0.0
 10
15.4679668488
 20
11.2075886096
 30
0.0
 10
15.4859887324
 20
11.169895514
 30
0.0
 10
15.5045134239
 20
11.133844661
 30
0.0
 10
15.5235184037
 20
11.0994799879
 30
0.0
 10
15.5429806257
 20
11.0668433432
 30
0.0
 10
15.5628765635
 20
11.0359744419
 30
0.0
 10
15.5831822588
 20
11.0069108299
 30
0.0
 10
15.6038733711
 20
10.9796878573
 30
0.0
 10
15.6249252294
 20
10.9543386634
 30
0.0
 10
15.6463128805
 20
10.9308941795
 30
0.0
 10
15.6680111345
 20
10.9093831479
 30
0.0
 10
15.6899945781
 20
10.8898321669
 30
0.0
 10
15.7122376185
 20
10.8722657401
 30
0.0
 10
15.7347142818
 20
10.8567063875
 30
0.0
 10
15.7573986654
 20
10.8431745646
 30
0.0
 10
15.7802628156
 20
10.8316892109
 30
0.0
 10
15.7995667235
 20
10.8237872849
 30
0.0
 10
15.8150420598
 20
10.8185335082
 30
0.0
 10
15.8266025665
 20
10.81513686
 30
0.0
 10
15.8381848689
 20
10.8122608511
 30
0.0
 10
15.8497855663
 20
10.8099064206
 30
0.0
 10
15.8614009352
 20
10.8080743496
 30
0.0
 10
15.8730274193
 20
10.8067652707
 30
0.0
 10
15.8846610329
 20
10.8059796625
 30
0.0
 10
15.8924220531
 20
10.8058049907
 30
0.0
 10
15.8962986784
 20
10.8058049939
 30
0.0
  0
SPLINE
  5
2A5
100
AcDbEntity
  8
02___PRT_ALL_AXES
100
AcDbSpline
 62
7
  6
CONTINUOUS
 70
0
 71
3
 72
37
 73
33
 74
0
 42
0.0000001
 43
0.0000001
 44
0.0000000001
 40
0.0
 40
0.0
 40
0.0
 40
0.0
 40
0.0190924132
 40
0.0384165397
 40
0.0580906145
 40
0.0782250812
 40
0.0989209023
 40
0.1202685267
 40
0.1423474306
 40
0.16522614
 40
0.1889626503
 40
0.2136050451
 40
0.2391921985
 40
0.2657545596
 40
0.2933149582
 40
0.3218893345
 40
0.3514873731
 40
0.3821131445
 40
0.4137656748
 40
0.4464394165
 40
0.4801246412
 40
0.514807861
 40
0.5504721727
 40
0.5870975273
 40
0.6246609762
 40
0.6631369452
 40
0.7024974485
 40
0.7427122486
 40
0.7837489958
 40
0.8255735394
 40
0.9114368898
 40
1.0
 40
1.0
 40
1.0
 40
1.0
 10
15.7929499334
 20
11.6674238301
 30
0.0
 10
15.7891532264
 20
11.667712201
 30
0.0
 10
15.7815354284
 20
11.668632247
 30
0.0
 10
15.7701848285
 20
11.6710179947
 30
0.0
 10
15.7588763089
 20
11.6744110913
 30
0.0
 10
15.7476252284
 20
11.6788059861
 30
0.0
 10
15.7364448914
 20
11.6841960674
 30
0.0
 10
15.7253485612
 20
11.6905736779
 30
0.0
 10
15.7143490204
 20
11.6979302145
 30
0.0
 10
15.7034588006
 20
11.7062561318
 30
0.0
 10
15.6926902531
 20
11.7155409952
 30
0.0
 10
15.6820556142
 20
11.7257734447
 30
0.0
 10
15.6715670001
 20
11.7369411249
 30
0.0
 10
15.6612364171
 20
11.7490306682
 30
0.0
 10
15.6510757745
 20
11.7620277021
 30
0.0
 10
15.641096868
 20
11.7759168279
 30
0.0
 10
15.6313113187
 20
11.7906815853
 30
0.0
 10
15.6217305787
 20
11.8063044837
 30
0.0
 10
15.6123659158
 20
11.8227670231
 30
0.0
 10
15.6032283877
 20
11.8400496989
 30
0.0
 10
15.5943287858
 20
11.8581320011
 30
0.0
 10
15.5856776549
 20
11.8769924623
 30
0.0
 10
15.5772852737
 20
11.8966086855
 30
0.0
 10
15.5691616266
 20
11.9169573564
 30
0.0
 10
15.5613163686
 20
11.9380142651
 30
0.0
 10
15.5537588462
 20
11.9597543535
 30
0.0
 10
15.5464980762
 20
11.9821517509
 30
0.0
 10
15.5395427363
 20
12.0051797651
 30
0.0
 10
15.5329010522
 20
12.0288110144
 30
0.0
 10
15.5244002704
 20
12.0613703791
 30
0.0
 10
15.514637642
 20
12.1033877266
 30
0.0
 10
15.5079019053
 20
12.1375227029
 30
0.0
 10
15.504753332
 20
12.1549021361
 30
0.0
  0
SPLINE
  5
2A6
100
AcDbEntity
  8
LAYER_FEATURE
100
AcDbSpline
 62
7
  6
CONTINUOUS
 70
0
 71
3
 72
23
 73
19
 74
0
 42
0.0000001
 43
0.0000001
 44
0.0000000001
 40
0.0
 40
0.0
 40
0.0
 40
0.0
 40
0.0545663296
 40
0.1093498201
 40
0.1645644464
 40
0.2204180208
 40
0.2771095628
 40
0.3348270539
 40
0.3937458324
 40
0.4540274676
 40
0.5158190255
 40
0.5792529583
 40
0.6444472402
 40
0.7115056581
 40
0.7805185376
 40
0.8515634412
 40
0.9247058251
 40
1.0
 40
1.0
 40
1.0
 40
1.0
 10
15.045865444
 20
14.2158049833
 30
0.0
 10
15.0517817944
 20
14.2158049776
 30
0.0
 10
15.0636420419
 20
14.2153973306
 30
0.0
 10
15.0814037404
 20
14.2135645624
 30
0.0
 10
15.0991390439
 20
14.2105118643
 30
0.0
 10
15.1168334419
 20
14.2062419845
 30
0.0
 10
15.1344740298
 20
14.200758635
 30
0.0
 10
15.1520478039
 20
14.1940665635
 30
0.0
 10
15.1695421058
 20
14.1861713192
 30
0.0
 10
15.1869444555
 20
14.1770792183
 30
0.0
 10
15.204242632
 20
14.1667974351
 30
0.0
 10
15.2214245595
 20
14.1553338268
 30
0.0
 10
15.2384782778
 20
14.1426969573
 30
0.0
 10
15.2553920061
 20
14.1288961924
 30
0.0
 10
15.2721540116
 20
14.1139416056
 30
0.0
 10
15.2887527101
 20
14.0978439053
 30
0.0
 10
15.3051763643
 20
14.080614973
 30
0.0
 10
15.3158450078
 20
14.0685594654
 30
0.0
 10
15.3211492005
 20
14.0623536128
 30
0.0
  0
SPLINE
  5
2A7
100
AcDbEntity
  8
LAYER_FEATURE
100
AcDbSpline
 62
7
  6
CONTINUOUS
 70
0
 71
3
 72
23
 73
19
 74
0
 42
0.0000001
 43
0.0000001
 44
0.0000000001
 40
0.0
 40
0.0
 40
0.0
 40
0.0
 40
0.0545741066
 40
0.1093651209
 40
0.1645867919
 40
0.2204466962
 40
0.2771436304
 40
0.3348654366
 40
0.3937872726
 40
0.4540705579
 40
0.5158623231
 40
0.5792949063
 40
0.6444862083
 40
0.7115400673
 40
0.7805467479
 40
0.8515837992
 40
0.9247167884
 40
1.0
 40
1.0
 40
1.0
 40
1.0
 10
15.045865444
 20
10.8058050025
 30
0.0
 10
15.0517779749
 20
10.8058049967
 30
0.0
 10
15.0636305285
 20
10.8062121527
 30
0.0
 10
15.0813807492
 20
10.8080425029
 30
0.0
 10
15.0991046228
 20
10.8110912753
 30
0.0
 10
15.1167876696
 20
10.8153556521
 30
0.0
 10
15.134417029
 20
10.8208318948
 30
0.0
 10
15.1519796904
 20
10.8275153666
 30
0.0
 10
15.1694630353
 20
10.8354004713
 30
0.0
 10
15.1868546284
 20
10.8444808805
 30
0.0
 10
15.2041422252
 20
10.8547495222
 30
0.0
 10
15.2213138005
 20
10.8661985022
 30
0.0
 10
15.2383574357
 20
10.8788192594
 30
0.0
 10
15.2552613187
 20
10.8926025199
 30
0.0
 10
15.2720137744
 20
10.9075381857
 30
0.0
 10
15.2886032578
 20
10.9236155627
 30
0.0
 10
15.3050179911
 20
10.9408228589
 30
0.0
 10
15.3156811134
 20
10.9528633652
 30
0.0
 10
15.3209825874
 20
10.9590615158
 30
0.0
  0
SPLINE
  5
2A8
100
AcDbEntity
  8
LAYER_FEATURE
100
AcDbSpline
 62
7
  6
CONTINUOUS
 70
0
 71
3
 72
68
 73
64
 74
0
 42
0.0000001
 43
0.0000001
 44
0.0000000001
 40
0.0
 40
0.0
 40
0.0
 40
0.0
 40
0.0038448265
 40
0.0076962392
 40
0.0115607831
 40
0.0154449202
 40
0.0193549915
 40
0.0232971829
 40
0.0272774884
 40
0.0313016907
 40
0.0395020789
 40
0.0479412181
 40
0.0566557572
 40
0.0656777061
 40
0.0750344918
 40
0.0847491527
 40
0.0948406176
 40
0.1053240294
 40
0.1162110792
 40
0.1275103338
 40
0.1392275419
 40
0.1513659152
 40
0.163926381
 40
0.1769078068
 40
0.1903071987
 40
0.2041198767
 40
0.2183396291
 40
0.232958849
 40
0.2479686547
 40
0.2633589967
 40
0.2791187536
 40
0.2952358175
 40
0.3116971723
 40
0.3284889642
 40
0.3455965666
 40
0.3630046406
 40
0.3806971914
 40
0.3986576209
 40
0.4168687774
 40
0.4353130026
 40
0.4539721773
 40
0.4728277646
 40
0.4918608519
 40
0.5110521918
 40
0.549830236
 40
0.5890037206
 40
0.6284105861
 40
0.6678870956
 40
0.7072690133
 40
0.7463927805
 40
0.7850966971
 40
0.8042419852
 40
0.823223137
 40
0.8420210026
 40
0.8606167789
 40
0.8789920514
 40
0.8971288359
 40
0.9150096254
 40
0.9326174244
 40
0.9499358349
 40
0.9669489951
 40
0.9836419142
 40
1.0
 40
1.0
 40
1.0
 40
1.0
 10
15.9527969611
 20
14.215804992
 30
0.0
 10
15.9566735864
 20
14.2158049951
 30
0.0
 10
15.9644346066
 20
14.2156303233
 30
0.0
 10
15.9760682201
 20
14.2148447151
 30
0.0
 10
15.9876947043
 20
14.2135356362
 30
0.0
 10
15.9993100731
 20
14.2117035652
 30
0.0
 10
16.0109107706
 20
14.2093491347
 30
0.0
 10
16.022493073
 20
14.2064731258
 30
0.0
 10
16.0340535796
 20
14.2030764776
 30
0.0
 10
16.049528916
 20
14.197822701
 30
0.0
 10
16.0688328238
 20
14.1899207749
 30
0.0
 10
16.0916969741
 20
14.1784354212
 30
0.0
 10
16.1143813577
 20
14.1649035983
 30
0.0
 10
16.136858021
 20
14.1493442457
 30
0.0
 10
16.1591010613
 20
14.1317778189
 30
0.0
 10
16.1810845049
 20
14.1122268379
 30
0.0
 10
16.2027827589
 20
14.0907158063
 30
0.0
 10
16.22417041
 20
14.0672713224
 30
0.0
 10
16.2452222684
 20
14.0419221285
 30
0.0
 10
16.2659133806
 20
14.0146991559
 30
0.0
 10
16.2862190759
 20
13.9856355439
 30
0.0
 10
16.3061150137
 20
13.9547666426
 30
0.0
 10
16.3255772357
 20
13.9221299979
 30
0.0
 10
16.3445822155
 20
13.8877653248
 30
0.0
 10
16.3631069071
 20
13.8517144718
 30
0.0
 10
16.3811287907
 20
13.8140213762
 30
0.0
 10
16.3986259117
 20
13.7747320123
 30
0.0
 10
16.4155769192
 20
13.7338943351
 30
0.0
 10
16.431961101
 20
13.6915582213
 30
0.0
 10
16.4477584163
 20
13.6477754072
 30
0.0
 10
16.4629495255
 20
13.6025994232
 30
0.0
 10
16.4775158183
 20
13.5560855267
 30
0.0
 10
16.4914394404
 20
13.5082906325
 30
0.0
 10
16.5047033174
 20
13.459273242
 30
0.0
 10
16.5172911804
 20
13.4090933703
 30
0.0
 10
16.5291875852
 20
13.3578124698
 30
0.0
 10
16.5403779329
 20
13.3054933534
 30
0.0
 10
16.5508484884
 20
13.2522001158
 30
0.0
 10
16.5605863986
 20
13.1979980535
 30
0.0
 10
16.5695797072
 20
13.1429535871
 30
0.0
 10
16.5778173755
 20
13.0871341644
 30
0.0
 10
16.5852892739
 20
13.0306082341
 30
0.0
 10
16.5919862799
 20
12.9734449447
 30
0.0
 10
16.5998982367
 20
12.8962075529
 30
0.0
 10
16.607780139
 20
12.7985645631
 30
0.0
 10
16.6140074288
 20
12.6803848459
 30
0.0
 10
16.6170050899
 20
12.5613743933
 30
0.0
 10
16.6167583725
 20
12.4421165553
 30
0.0
 10
16.6132684885
 20
12.3231948055
 30
0.0
 10
16.6065526177
 20
12.2051920594
 30
0.0
 10
16.5982658972
 20
12.1077544224
 30
0.0
 10
16.5900329945
 20
12.0307250868
 30
0.0
 10
16.583099507
 20
11.9737481331
 30
0.0
 10
16.5753938176
 20
11.9174296865
 30
0.0
 10
16.566925333
 20
11.8618386404
 30
0.0
 10
16.5577044666
 20
11.8070431626
 30
0.0
 10
16.5477425368
 20
11.7531103915
 30
0.0
 10
16.5370517736
 20
11.7001064231
 30
0.0
 10
16.5256453023
 20
11.6480961724
 30
0.0
 10
16.5135371229
 20
11.5971434216
 30
0.0
 10
16.5007420772
 20
11.5473103999
 30
0.0
 10
16.4872759301
 20
11.498658524
 30
0.0
 10
16.4777629696
 20
11.4667181123
 30
0.0
 10
16.4728933437
 20
11.450959997
 30
0.0
  0
SPLINE
  5
2A9
100
AcDbEntity
  8
LAYER_FEATURE
100
AcDbSpline
 62
7
  6
CONTINUOUS
 70
0
 71
3
 72
39
 73
35
 74
0
 42
0.0000001
 43
0.0000001
 44
0.0000000001
 40
0.0
 40
0.0
 40
0.0
 40
0.0
 40
0.0212769805
 40
0.0426477427
 40
0.0642045486
 40
0.0860367268
 40
0.1082294314
 40
0.1308626295
 40
0.1540103791
 40
0.1777403604
 40
0.2021136227
 40
0.2271845602
 40
0.2530010567
 40
0.2796047186
 40
0.307031172
 40
0.3353104562
 40
0.3644674123
 40
0.3945220379
 40
0.4254898696
 40
0.4573823626
 40
0.4902072078
 40
0.5239686095
 40
0.5586675988
 40
0.5943022926
 40
0.630868091
 40
0.6683578902
 40
0.7067623015
 40
0.7460698034
 40
0.7862668444
 40
0.8273381134
 40
0.8692665
 40
0.9120330868
 40
0.9556186933
 40
1.0
 40
1.0
 40
1.0
 40
1.0
 10
15.9527969611
 20
10.8058049939
 30
0.0
 10
15.9590248066
 20
10.8058049989
 30
0.0
 10
15.9715126111
 20
10.8062569082
 30
0.0
 10
15.9902107604
 20
10.8082883314
 30
0.0
 10
16.0088779008
 20
10.8116716499
 30
0.0
 10
16.0274970392
 20
10.8164034365
 30
0.0
 10
16.046053122
 20
10.8224790224
 30
0.0
 10
16.064531007
 20
10.8298925558
 30
0.0
 10
16.0829160001
 20
10.8386371822
 30
0.0
 10
16.1011936563
 20
10.8487051136
 30
0.0
 10
16.119349809
 20
10.8600876074
 30
0.0
 10
16.1373705007
 20
10.8727750288
 30
0.0
 10
16.1552419243
 20
10.8867568916
 30
0.0
 10
16.1729504009
 20
10.9020218251
 30
0.0
 10
16.1904823988
 20
10.9185575218
 30
0.0
 10
16.20782448
 20
10.9363507878
 30
0.0
 10
16.2249632972
 20
10.9553875267
 30
0.0
 10
16.2418856392
 20
10.975652688
 30
0.0
 10
16.2585784269
 20
10.9971302828
 30
0.0
 10
16.2750286999
 20
11.0198034098
 30
0.0
 10
16.2912236421
 20
11.0436542406
 30
0.0
 10
16.307150636
 20
11.0686639983
 30
0.0
 10
16.3227972292
 20
11.0948130063
 30
0.0
 10
16.3381511477
 20
11.122080699
 30
0.0
 10
16.353200345
 20
11.1504456085
 30
0.0
 10
16.3679330068
 20
11.1798853881
 30
0.0
 10
16.3823375352
 20
11.2103768502
 30
0.0
 10
16.3964025671
 20
11.2418959673
 30
0.0
 10
16.4101170399
 20
11.2744178866
 30
0.0
 10
16.4234701297
 20
11.3079169604
 30
0.0
 10
16.4364512587
 20
11.3423666993
 30
0.0
 10
16.449050288
 20
11.3777401442
 30
0.0
 10
16.4612570767
 20
11.4140090009
 30
0.0
 10
16.4690579145
 20
11.4385485438
 30
0.0
 10
16.4728933437
 20
11.450959997
 30
0.0
  0
SPLINE
  5
2AA
100
AcDbEntity
  8
LAYER_CHAMFER_FEAT
100
AcDbSpline
 62
7
  6
CONTINUOUS
 70
0
 71
3
 72
54
 73
50
 74
0
 42
0.0000001
 43
0.0000001
 44
0.0000000001
 40
0.0
 40
0.0
 40
0.0
 40
0.0
 40
0.0101614495
 40
0.0206687043
 40
0.031525463
 40
0.0427337368
 40
0.0542940018
 40
0.0662053269
 40
0.078465502
 40
0.0910711534
 40
0.1040178404
 40
0.1173001334
 40
0.1309116967
 40
0.1448453643
 40
0.1590932009
 40
0.1736465507
 40
0.1884960945
 40
0.2036319017
 40
0.2190434723
 40
0.2347197695
 40
0.2668189655
 40
0.2998330583
 40
0.3336581978
 40
0.368185192
 40
0.4033003584
 40
0.4388863698
 40
0.4748230265
 40
0.5109880331
 40
0.5472577365
 40
0.5835078681
 40
0.6196142747
 40
0.6554536493
 40
0.6909042772
 40
0.7258467768
 40
0.7601648851
 40
0.7937462384
 40
0.8264832335
 40
0.842503487
 40
0.8582749297
 40
0.8737858622
 40
0.8890250614
 40
0.9039818192
 40
0.9186459915
 40
0.933008025
 40
0.9470590228
 40
0.9607907771
 40
0.9741957387
 40
0.9872675693
 40
1.0
 40
1.0
 40
1.0
 40
1.0
 10
15.736495955
 20
13.6608060178
 30
0.0
 10
15.7316701289
 20
13.65502443
 30
0.0
 10
15.722097131
 20
13.6430598832
 30
0.0
 10
15.7082027725
 20
13.6242695254
 30
0.0
 10
15.6945483848
 20
13.6043560103
 30
0.0
 10
15.6811478612
 20
13.5833397178
 30
0.0
 10
15.6680144572
 20
13.5612416088
 30
0.0
 10
15.6551613046
 20
13.5380838999
 30
0.0
 10
15.6426012499
 20
13.5138898445
 30
0.0
 10
15.6303468886
 20
13.4886837525
 30
0.0
 10
15.6184105378
 20
13.4624909563
 30
0.0
 10
15.6068041937
 20
13.4353378084
 30
0.0
 10
15.5955395325
 20
13.4072516423
 30
0.0
 10
15.5846279045
 20
13.3782607355
 30
0.0
 10
15.5740803222
 20
13.3483942835
 30
0.0
 10
15.5639074206
 20
13.3176823864
 30
0.0
 10
15.5541194563
 20
13.286156
 30
0.0
 10
15.5447263301
 20
13.2538469293
 30
0.0
 10
15.5357374754
 20
13.2207876716
 30
0.0
 10
15.524213102
 20
13.1753960814
 30
0.0
 10
15.5109091047
 20
13.1170059011
 30
0.0
 10
15.496815281
 20
13.045036127
 30
0.0
 10
15.4845262725
 20
12.9709121067
 30
0.0
 10
15.4740919592
 20
12.8949329883
 30
0.0
 10
15.4655545833
 20
12.8174047821
 30
0.0
 10
15.4589488144
 20
12.7386400619
 30
0.0
 10
15.4543013925
 20
12.6589564143
 30
0.0
 10
15.4516312159
 20
12.5786752017
 30
0.0
 10
15.450949066
 20
12.4981202292
 30
0.0
 10
15.4522577585
 20
12.4176164223
 30
0.0
 10
15.4555519364
 20
12.3374884957
 30
0.0
 10
15.4608182876
 20
12.2580596316
 30
0.0
 10
15.4680354037
 20
12.1796501343
 30
0.0
 10
15.4771740661
 20
12.1025761903
 30
0.0
 10
15.4881971746
 20
12.0271483106
 30
0.0
 10
15.5010600801
 20
11.9536709642
 30
0.0
 10
15.5133556866
 20
11.8938882851
 30
0.0
 10
15.5240925914
 20
11.8472831901
 30
0.0
 10
15.532512718
 20
11.8132502967
 30
0.0
 10
15.5413494483
 20
11.7799216992
 30
0.0
 10
15.5505939142
 20
11.7473309408
 30
0.0
 10
15.5602367742
 20
11.7155109155
 30
0.0
 10
15.570268286
 20
11.6844937021
 30
0.0
 10
15.580678316
 20
11.6543105622
 30
0.0
 10
15.5914563707
 20
11.6249919048
 30
0.0
 10
15.6025915731
 20
11.5965673484
 30
0.0
 10
15.6140727448
 20
11.5690652771
 30
0.0
 10
15.6258882055
 20
11.5425138309
 30
0.0
 10
15.6340891749
 20
11.5252344926
 30
0.0
 10
15.6382463087
 20
11.5167631446
 30
0.0
  0
SPLINE
  5
2AB
100
AcDbEntity
  8
LAYER_CHAMFER_FEAT
100
AcDbSpline
 62
7
  6
CONTINUOUS
 70
0
 71
3
 72
22
 73
18
 74
0
 42
0.0000001
 43
0.0000001
 44
0.0000000001
 40
0.0
 40
0.0
 40
0.0
 40
0.0
 40
0.0745589735
 40
0.1470718759
 40
0.2175952704
 40
0.2861960432
 40
0.3529522146
 40
0.4179533029
 40
0.5430699026
 40
0.6034677091
 40
0.6625945491
 40
0.7206033547
 40
0.7776591545
 40
0.8339378401
 40
0.8896247559
 40
0.9449127788
 40
1.0
 40
1.0
 40
1.0
 40
1.0
 10
15.724727922
 20
11.3754167678
 30
0.0
 10
15.7284441106
 20
11.3712795059
 30
0.0
 10
15.7359153351
 20
11.3632434855
 30
0.0
 10
15.7473987431
 20
11.3517689883
 30
0.0
 10
15.7589938191
 20
11.3410510425
 30
0.0
 10
15.770692818
 20
11.3310970598
 30
0.0
 10
15.7824890775
 20
11.321913088
 30
0.0
 10
15.7981344889
 20
11.3108457086
 30
0.0
 10
15.8141551498
 20
11.3011537885
 30
0.0
 10
15.8304873657
 20
11.2929991757
 30
0.0
 10
15.8426527822
 20
11.2877506492
 30
0.0
 10
15.8548683466
 20
11.2833028835
 30
0.0
 10
15.8671263444
 20
11.2796589179
 30
0.0
 10
15.8794184022
 20
11.2768216907
 30
0.0
 10
15.8917363566
 20
11.2747934551
 30
0.0
 10
15.9040709923
 20
11.2735758046
 30
0.0
 10
15.9123062064
 20
11.2733050063
 30
0.0
 10
15.9164150518
 20
11.2733050033
 30
0.0
  0
SPLINE
  5
2AC
100
AcDbEntity
  8
LAYER_FEATURE
100
AcDbSpline
 62
7
  6
CONTINUOUS
 70
0
 71
3
 72
39
 73
35
 74
0
 42
0.0000001
 43
0.0000001
 44
0.0000000001
 40
0.0
 40
0.0
 40
0.0
 40
0.0
 40
0.0443813067
 40
0.0879669132
 40
0.1307335
 40
0.1726618866
 40
0.2137331556
 40
0.2539301966
 40
0.2932376985
 40
0.3316421098
 40
0.369131909
 40
0.4056977074
 40
0.4413324012
 40
0.4760313905
 40
0.5097927922
 40
0.5426176374
 40
0.5745101304
 40
0.6054779621
 40
0.6355325877
 40
0.6646895438
 40
0.692968828
 40
0.7203952814
 40
0.7469989433
 40
0.7728154398
 40
0.7978863773
 40
0.8222596396
 40
0.8459896209
 40
0.8691373705
 40
0.8917705686
 40
0.9139632732
 40
0.9357954514
 40
0.9573522573
 40
0.9787230195
 40
1.0
 40
1.0
 40
1.0
 40
1.0
 10
15.3762022958
 20
13.5706499888
 30
0.0
 10
15.3800377249
 20
13.583061442
 30
0.0
 10
15.3878385627
 20
13.6076009849
 30
0.0
 10
15.4000453514
 20
13.6438698416
 30
0.0
 10
15.4126443807
 20
13.6792432865
 30
0.0
 10
15.4256255097
 20
13.7136930254
 30
0.0
 10
15.4389785995
 20
13.7471920992
 30
0.0
 10
15.4526930724
 20
13.7797140185
 30
0.0
 10
15.4667581042
 20
13.8112331356
 30
0.0
 10
15.4811626327
 20
13.8417245977
 30
0.0
 10
15.4958952945
 20
13.8711643773
 30
0.0
 10
15.5109444917
 20
13.8995292868
 30
0.0
 10
15.5262984102
 20
13.9267969796
 30
0.0
 10
15.5419450035
 20
13.9529459875
 30
0.0
 10
15.5578719974
 20
13.9779557452
 30
0.0
 10
15.5740669396
 20
14.001806576
 30
0.0
 10
15.5905172126
 20
14.024479703
 30
0.0
 10
15.6072100002
 20
14.0459572978
 30
0.0
 10
15.6241323423
 20
14.0662224591
 30
0.0
 10
15.6412711595
 20
14.085259198
 30
0.0
 10
15.6586132407
 20
14.103052464
 30
0.0
 10
15.6761452385
 20
14.1195881607
 30
0.0
 10
15.6938537151
 20
14.1348530942
 30
0.0
 10
15.7117251388
 20
14.148834957
 30
0.0
 10
15.7297458304
 20
14.1615223784
 30
0.0
 10
15.7479019831
 20
14.1729048722
 30
0.0
 10
15.7661796393
 20
14.1829728036
 30
0.0
 10
15.7845646325
 20
14.1917174301
 30
0.0
 10
15.8030425174
 20
14.1991309634
 30
0.0
 10
15.8215986003
 20
14.2052065493
 30
0.0
 10
15.8402177387
 20
14.2099383359
 30
0.0
 10
15.8588848791
 20
14.2133216544
 30
0.0
 10
15.8775830284
 20
14.2153530776
 30
0.0
 10
15.8900708329
 20
14.2158049869
 30
0.0
 10
15.8962986784
 20
14.215804992
 30
0.0
  0
SPLINE
  5
2AD
100
AcDbEntity
  8
LAYER_CHAMFER_FEAT
100
AcDbSpline
 62
7
  6
CONTINUOUS
 70
0
 71
3
 72
22
 73
18
 74
0
 42
0.0000001
 43
0.0000001
 44
0.0000000001
 40
0.0
 40
0.0
 40
0.0
 40
0.0
 40
0.0551644338
 40
0.1105272598
 40
0.1662842408
 40
0.2226260215
 40
0.2797359464
 40
0.3377880797
 40
0.3969458854
 40
0.4573610208
 40
0.582467642
 40
0.6474397657
 40
0.7141505471
 40
0.7826893643
 40
0.8531341917
 40
0.9255521395
 40
1.0
 40
1.0
 40
1.0
 40
1.0
 10
15.9164150518
 20
13.7483049825
 30
0.0
 10
15.912333879
 20
13.7483049854
 30
0.0
 10
15.9041543615
 20
13.7480378166
 30
0.0
 10
15.8919028948
 20
13.7468365782
 30
0.0
 10
15.8796677681
 20
13.7448355941
 30
0.0
 10
15.8674579905
 20
13.7420365116
 30
0.0
 10
15.8552815785
 20
13.738441433
 30
0.0
 10
15.8431467282
 20
13.7340532672
 30
0.0
 10
15.8310609966
 20
13.7288749609
 30
0.0
 10
15.8148367004
 20
13.7208302096
 30
0.0
 10
15.7989179236
 20
13.7112676266
 30
0.0
 10
15.7833681512
 20
13.7003456958
 30
0.0
 10
15.7716441953
 20
13.6912832003
 30
0.0
 10
15.7600155924
 20
13.6814604861
 30
0.0
 10
15.7484888401
 20
13.6708834783
 30
0.0
 10
15.7370715836
 20
13.659559355
 30
0.0
 10
15.7296416508
 20
13.6516276097
 30
0.0
 10
15.7259457681
 20
13.6475439477
 30
0.0
  0
SPLINE
  5
2AE
100
AcDbEntity
  8
LAYER_FEATURE
100
AcDbSpline
 62
7
  6
CONTINUOUS
 70
0
 71
3
 72
67
 73
63
 74
0
 42
0.0000001
 43
0.0000001
 44
0.0000000001
 40
0.0
 40
0.0
 40
0.0
 40
0.0
 40
0.0163581013
 40
0.0330510694
 40
0.0500642491
 40
0.0673826926
 40
0.0849905208
 40
0.1028713409
 40
0.1210081566
 40
0.1393834611
 40
0.15797927
 40
0.1767771682
 40
0.1957583526
 40
0.2149036734
 40
0.2536076561
 40
0.292731491
 40
0.3321134768
 40
0.371590054
 40
0.4109969877
 40
0.45017054
 40
0.4889486503
 40
0.5081400228
 40
0.5271731428
 40
0.546028763
 40
0.5646879707
 40
0.5831322282
 40
0.601343416
 40
0.6193038759
 40
0.6369964566
 40
0.65440456
 40
0.6715121917
 40
0.6883040129
 40
0.7047653969
 40
0.720882489
 40
0.7366422729
 40
0.7520326412
 40
0.7670424724
 40
0.7816617173
 40
0.7958814943
 40
0.8096941963
 40
0.8230936114
 40
0.8360750592
 40
0.8486355463
 40
0.8607739405
 40
0.872491169
 40
0.8837904436
 40
0.8946775128
 40
0.905160943
 40
0.9152524249
 40
0.9249671014
 40
0.9343239024
 40
0.9433458667
 40
0.9520604213
 40
0.9604995757
 40
0.9686999787
 40
0.9767027777
 40
0.9806449746
 40
0.9845550535
 40
0.9884391969
 40
0.9923037475
 40
0.9961551669
 40
1.0
 40
1.0
 40
1.0
 40
1.0
 10
14.4692707787
 20
13.5706499888
 30
0.0
 10
14.4644011566
 20
13.5548918857
 30
0.0
 10
14.4548881959
 20
13.5229514662
 30
0.0
 10
14.441422046
 20
13.4742995934
 30
0.0
 10
14.4286270006
 20
13.4244665575
 30
0.0
 10
14.4165188205
 20
13.3735138151
 30
0.0
 10
14.4051123487
 20
13.3215035625
 30
0.0
 10
14.3944215842
 20
13.2684995958
 30
0.0
 10
14.3844596538
 20
13.2145668247
 30
0.0
 10
14.3752387883
 20
13.1597713458
 30
0.0
 10
14.3667703064
 20
13.1041802982
 30
0.0
 10
14.3590646185
 20
13.0478618507
 30
0.0
 10
14.3521311309
 20
12.9908848972
 30
0.0
 10
14.3438982264
 20
12.9138555629
 30
0.0
 10
14.3356115011
 20
12.816417927
 30
0.0
 10
14.3288956304
 20
12.6984151808
 30
0.0
 10
14.3254057552
 20
12.5794934305
 30
0.0
 10
14.3251590366
 20
12.4602355925
 30
0.0
 10
14.3281566897
 20
12.3412251395
 30
0.0
 10
14.3343839791
 20
12.2230454223
 30
0.0
 10
14.3422658879
 20
12.125402434
 30
0.0
 10
14.3501778469
 20
12.0481650437
 30
0.0
 10
14.3568748525
 20
11.9910017543
 30
0.0
 10
14.3643467482
 20
11.9344758225
 30
0.0
 10
14.3725844132
 20
11.8786563975
 30
0.0
 10
14.3815777201
 20
11.8236119296
 30
0.0
 10
14.3913156314
 20
11.7694098675
 30
0.0
 10
14.4017861888
 20
11.7161166316
 30
0.0
 10
14.4129765384
 20
11.6637975174
 30
0.0
 10
14.4248729445
 20
11.6125166186
 30
0.0
 10
14.4374608076
 20
11.5623367473
 30
0.0
 10
14.4507246836
 20
11.5133193555
 30
0.0
 10
14.4646483033
 20
11.4655244589
 30
0.0
 10
14.4792145953
 20
11.4190105608
 30
0.0
 10
14.4944057051
 20
11.373834577
 30
0.0
 10
14.5102030212
 20
11.3300517641
 30
0.0
 10
14.5265872037
 20
11.2877156515
 30
0.0
 10
14.5435382114
 20
11.2468779748
 30
0.0
 10
14.5610353321
 20
11.2075886106
 30
0.0
 10
14.5790572152
 20
11.1698955143
 30
0.0
 10
14.5975819064
 20
11.1338446611
 30
0.0
 10
14.6165868869
 20
11.0994799891
 30
0.0
 10
14.6360491094
 20
11.0668433456
 30
0.0
 10
14.6559450474
 20
11.0359744446
 30
0.0
 10
14.6762507423
 20
11.0069108316
 30
0.0
 10
14.6969418539
 20
10.9796878566
 30
0.0
 10
14.7179937113
 20
10.9543386602
 30
0.0
 10
14.7393813621
 20
10.9308941747
 30
0.0
 10
14.7610796148
 20
10.9093831455
 30
0.0
 10
14.7830630665
 20
10.8898321689
 30
0.0
 10
14.8053060867
 20
10.8722657518
 30
0.0
 10
14.8277828244
 20
10.8567063815
 30
0.0
 10
14.8504669425
 20
10.8431746199
 30
0.0
 10
14.8733320338
 20
10.8316890313
 30
0.0
 10
14.896349334
 20
10.8222664872
 30
0.0
 10
14.9157341833
 20
10.8161142595
 30
0.0
 10
14.9312532566
 20
10.8122609221
 30
0.0
 10
14.9428540723
 20
10.8099063909
 30
0.0
 10
14.9544694125
 20
10.8080743616
 30
0.0
 10
14.9660959039
 20
10.8067652731
 30
0.0
 10
14.9777295149
 20
10.8059796491
 30
0.0
 10
14.9854905361
 20
10.8058050063
 30
0.0
 10
14.9893671613
 20
10.8058050025
 30
0.0
  0
SPLINE
  5
2AF
100
AcDbEntity
  8
LAYER_FEATURE
100
AcDbSpline
 62
7
  6
CONTINUOUS
 70
0
 71
3
 72
39
 73
35
 74
0
 42
0.0000001
 43
0.0000001
 44
0.0000000001
 40
0.0
 40
0.0
 40
0.0
 40
0.0
 40
0.0443812481
 40
0.0879669295
 40
0.1307335086
 40
0.172661876
 40
0.2137331571
 40
0.2539301992
 40
0.2932376968
 40
0.3316421073
 40
0.369131911
 40
0.4056977099
 40
0.4413323968
 40
0.4760313903
 40
0.5097927974
 40
0.5426176342
 40
0.5745101269
 40
0.6054779669
 40
0.6355325892
 40
0.664689538
 40
0.6929688298
 40
0.7203952869
 40
0.7469989387
 40
0.7728154376
 40
0.7978863828
 40
0.8222596394
 40
0.8459896168
 40
0.869137373
 40
0.8917705712
 40
0.9139632708
 40
0.935795451
 40
0.9573522592
 40
0.9787230199
 40
1.0
 40
1.0
 40
1.0
 40
1.0
 10
14.4692707787
 20
13.5706499888
 30
0.0
 10
14.4731062028
 20
13.5830614256
 30
0.0
 10
14.4809070443
 20
13.6076009723
 30
0.0
 10
14.4931138305
 20
13.6438698324
 30
0.0
 10
14.5057128631
 20
13.6792432911
 30
0.0
 10
14.5186939956
 20
13.7136930241
 30
0.0
 10
14.5320470826
 20
13.747192097
 30
0.0
 10
14.5457615528
 20
13.7797140202
 30
0.0
 10
14.5598265882
 20
13.8112331345
 30
0.0
 10
14.5742311187
 20
13.8417245953
 30
0.0
 10
14.5889637757
 20
13.8711643786
 30
0.0
 10
14.6040129711
 20
13.8995292885
 30
0.0
 10
14.6193668988
 20
13.9267969754
 30
0.0
 10
14.6350134872
 20
13.9529459868
 30
0.0
 10
14.6509404735
 20
13.9779557499
 30
0.0
 10
14.6671354269
 20
14.001806572
 30
0.0
 10
14.6835856999
 20
14.0244796986
 30
0.0
 10
14.7002784774
 20
14.045957303
 30
0.0
 10
14.7172008232
 20
14.0662224606
 30
0.0
 10
14.7343396504
 20
14.085259189
 30
0.0
 10
14.7516817217
 20
14.1030524658
 30
0.0
 10
14.7692137139
 20
14.1195881699
 30
0.0
 10
14.7869222054
 20
14.1348530843
 30
0.0
 10
14.8047936247
 20
14.1488349515
 30
0.0
 10
14.8228143055
 20
14.1615223912
 30
0.0
 10
14.8409704675
 20
14.1729048701
 30
0.0
 10
14.8592481287
 20
14.182972789
 30
0.0
 10
14.8776331113
 20
14.191717439
 30
0.0
 10
14.8961109975
 20
14.199130973
 30
0.0
 10
14.914667088
 20
14.2052065322
 30
0.0
 10
14.9332862213
 20
14.2099383333
 30
0.0
 10
14.9519533598
 20
14.2133216739
 30
0.0
 10
14.9706515126
 20
14.2153530618
 30
0.0
 10
14.9831393159
 20
14.2158049894
 30
0.0
 10
14.9893671613
 20
14.2158049833
 30
0.0
  0
SPLINE
  5
2B0
100
AcDbEntity
  8
02___PRT_ALL_AXES
100
AcDbSpline
 62
7
  6
CONTINUOUS
 70
0
 71
3
 72
35
 73
31
 74
0
 42
0.0000001
 43
0.0000001
 44
0.0000000001
 40
0.0
 40
0.0
 40
0.0
 40
0.0
 40
0.0746744516
 40
0.1496605215
 40
0.2244955044
 40
0.298718103
 40
0.3354586415
 40
0.371876386
 40
0.4079163531
 40
0.4435246069
 40
0.4786484286
 40
0.5132364895
 40
0.5472390322
 40
0.5806080602
 40
0.6132975378
 40
0.6452636043
 40
0.6764648035
 40
0.7068623339
 40
0.7364203246
 40
0.7651061406
 40
0.792890729
 40
0.8197490088
 40
0.8456603192
 40
0.8706089349
 40
0.894584673
 40
0.9175835771
 40
0.93960879
 40
0.9606713458
 40
0.9807916558
 40
1.0
 40
1.0
 40
1.0
 40
1.0
 10
15.4774380027
 20
12.3907032109
 30
0.0
 10
15.4761020717
 20
12.4145586302
 30
0.0
 10
15.4742349293
 20
12.462418108
 30
0.0
 10
15.4738216772
 20
12.5342589686
 30
0.0
 10
15.4757871912
 20
12.605929963
 30
0.0
 10
15.4794074004
 20
12.6652799624
 30
0.0
 10
15.4834926173
 20
12.7122605563
 30
0.0
 10
15.4871265181
 20
12.7470119723
 30
0.0
 10
15.4913338436
 20
12.7813336265
 30
0.0
 10
15.4961069724
 20
12.8151632191
 30
0.0
 10
15.5014371877
 20
12.848439205
 30
0.0
 10
15.5073147749
 20
12.8811010937
 30
0.0
 10
15.5137290189
 20
12.9130895118
 30
0.0
 10
15.5206682297
 20
12.9443463256
 30
0.0
 10
15.5281197637
 20
12.9748147458
 30
0.0
 10
15.5360700489
 20
13.0044394334
 30
0.0
 10
15.5445046113
 20
13.0331666032
 30
0.0
 10
15.5534081049
 20
13.0609441249
 30
0.0
 10
15.5627643433
 20
13.0877216208
 30
0.0
 10
15.5725563358
 20
13.1134505619
 30
0.0
 10
15.5827663245
 20
13.1380843599
 30
0.0
 10
15.5933758277
 20
13.1615784566
 30
0.0
 10
15.6043656884
 20
13.1838904044
 30
0.0
 10
15.6157161273
 20
13.2049799493
 30
0.0
 10
15.6274067989
 20
13.2248090834
 30
0.0
 10
15.6394168802
 20
13.2433421583
 30
0.0
 10
15.651725048
 20
13.2605457583
 30
0.0
 10
15.6643099434
 20
13.276389239
 30
0.0
 10
15.6771488474
 20
13.2908431574
 30
0.0
 10
15.6860651043
 20
13.299736985
 30
0.0
 10
15.6905609419
 20
13.3039273816
 30
0.0
  0
LINE
  5
2B1
100
AcDbEntity
  8
02___PRT_ALL_AXES
100
AcDbLine
 62
7
  6
CONTINUOUS
 10
15.7844174706
 20
13.3532529656
 11
15.6931851103
 21
13.3463787857
  0
SPLINE
  5
2B2
100
AcDbEntity
  8
02___PRT_ALL_AXES
100
AcDbSpline
 62
7
  6
CONTINUOUS
 70
0
 71
3
 72
9
 73
5
 74
0
 42
0.0000001
 43
0.0000001
 44
0.0000000001
 40
0.0
 40
0.0
 40
0.0
 40
0.0
 40
0.4958633623
 40
1.0
 40
1.0
 40
1.0
 40
1.0
 10
15.4993951843
 20
12.1541425478
 30
0.0
 10
15.500291842
 20
12.1541425459
 30
0.0
 10
15.5021023626
 20
12.1542717978
 30
0.0
 10
15.503876484
 20
12.1546527666
 30
0.0
 10
15.504753332
 20
12.1549021361
 30
0.0
  0
SPLINE
  5
2B3
100
AcDbEntity
  8
02___PRT_ALL_AXES
100
AcDbSpline
 62
7
  6
CONTINUOUS
 70
0
 71
3
 72
33
 73
29
 74
0
 42
0.0000001
 43
0.0000001
 44
0.0000000001
 40
0.0
 40
0.0
 40
0.0
 40
0.0
 40
0.0160810763
 40
0.0324327378
 40
0.0493094099
 40
0.0669367286
 40
0.0760960604
 40
0.0855110139
 40
0.1051713113
 40
0.126040145
 40
0.1482010098
 40
0.1717092674
 40
0.1965962737
 40
0.2228728957
 40
0.2505326464
 40
0.2795543514
 40
0.3099042102
 40
0.3415373777
 40
0.3743995027
 40
0.4084279743
 40
0.4435528711
 40
0.5167737757
 40
0.5933950414
 40
0.6726718875
 40
0.7538086245
 40
0.83597515
 40
0.9183223009
 40
1.0
 40
1.0
 40
1.0
 40
1.0
 10
15.9189659548
 20
11.630185302
 30
0.0
 10
15.9198644092
 20
11.6301853021
 30
0.0
 10
15.9216789807
 20
11.6303151177
 30
0.0
 10
15.9243803534
 20
11.6308963789
 30
0.0
 10
15.9270612516
 20
11.631861026
 30
0.0
 10
15.9292427606
 20
11.6329661438
 30
0.0
 10
15.9309659104
 20
11.6340266791
 30
0.0
 10
15.9327240379
 20
11.6352416397
 30
0.0
 10
15.9348958868
 20
11.6370009257
 30
0.0
 10
15.9374138529
 20
11.6394411708
 30
0.0
 10
15.9398739034
 20
11.6422328597
 30
0.0
 10
15.9422690064
 20
11.645367359
 30
0.0
 10
15.9445924193
 20
11.6488353357
 30
0.0
 10
15.9468373956
 20
11.6526264053
 30
0.0
 10
15.9489973412
 20
11.6567292151
 30
0.0
 10
15.9510658181
 20
11.661131451
 30
0.0
 10
15.953036599
 20
11.6658198645
 30
0.0
 10
15.9549037418
 20
11.670780295
 30
0.0
 10
15.9566615748
 20
11.6759977202
 30
0.0
 10
15.9583047901
 20
11.6814563565
 30
0.0
 10
15.9603645836
 20
11.6891405907
 30
0.0
 10
15.9626047419
 20
11.6992348494
 30
0.0
 10
15.9647312386
 20
11.7118629938
 30
0.0
 10
15.9663057945
 20
11.7250170838
 30
0.0
 10
15.9673089889
 20
11.7385373127
 30
0.0
 10
15.9677284572
 20
11.7522597766
 30
0.0
 10
15.9675590222
 20
11.7660175093
 30
0.0
 10
15.9670509985
 20
11.7751710051
 30
0.0
 10
15.9666963505
 20
11.7797205598
 30
0.0
  0
SPLINE
  5
2B4
100
AcDbEntity
  8
LAYER_FEATURE
100
AcDbSpline
 62
7
  6
CONTINUOUS
 70
0
 71
3
 72
32
 73
28
 74
0
 42
0.0000001
 43
0.0000001
 44
0.0000000001
 40
0.0
 40
0.0
 40
0.0
 40
0.0
 40
0.0836608617
 40
0.1647030251
 40
0.2430169821
 40
0.3185065024
 40
0.3910920446
 40
0.4607121783
 40
0.4943986523
 40
0.5273304612
 40
0.5595062246
 40
0.5909263113
 40
0.6215928783
 40
0.6515100297
 40
0.6806840018
 40
0.7091232239
 40
0.7368386133
 40
0.7638436232
 40
0.7901545257
 40
0.8157905558
 40
0.8407740895
 40
0.8651308981
 40
0.9120729728
 40
0.9347400086
 40
0.9569198886
 40
0.978657121
 40
1.0
 40
1.0
 40
1.0
 40
1.0
 10
15.5223633593
 20
13.33789845
 30
0.0
 10
15.527420733
 20
13.3542641171
 30
0.0
 10
15.537816843
 20
13.3863496506
 30
0.0
 10
15.5545409309
 20
13.4332195113
 30
0.0
 10
15.5721171586
 20
13.477985016
 30
0.0
 10
15.5905055527
 20
13.5205443195
 30
0.0
 10
15.6096642027
 20
13.560800391
 30
0.0
 10
15.6264148537
 20
13.5926938089
 30
0.0
 10
15.6401838143
 20
13.6169553024
 30
0.0
 10
15.650562018
 20
13.6343198918
 30
0.0
 10
15.6610989797
 20
13.6510426819
 30
0.0
 10
15.671788768
 20
13.6671142207
 30
0.0
 10
15.6826253182
 20
13.6825253377
 30
0.0
 10
15.6936025233
 20
13.6972672494
 30
0.0
 10
15.7047141445
 20
13.7113315838
 30
0.0
 10
15.7159539727
 20
13.724710288
 30
0.0
 10
15.7273156331
 20
13.7373957728
 30
0.0
 10
15.7387927771
 20
13.7493807509
 30
0.0
 10
15.7503789989
 20
13.7606584088
 30
0.0
 10
15.7620676446
 20
13.7712221599
 30
0.0
 10
15.7738528182
 20
13.7810663004
 30
0.0
 10
15.7894910959
 20
13.7930751168
 30
0.0
 10
15.8054940695
 20
13.8038116426
 30
0.0
 10
15.8218195741
 20
13.8131337981
 30
0.0
 10
15.8339851354
 20
13.8193001063
 30
0.0
 10
15.8462057315
 20
13.8247176122
 30
0.0
 10
15.8544552264
 20
13.8278545161
 30
0.0
 10
15.8585818333
 20
13.8292922158
 30
0.0
  0
SPLINE
  5
2B5
100
AcDbEntity
  8
LAYER_FEATURE
100
AcDbSpline
 62
7
  6
CONTINUOUS
 70
0
 71
3
 72
99
 73
95
 74
0
 42
0.0000001
 43
0.0000001
 44
0.0000000001
 40
0.0
 40
0.0
 40
0.0
 40
0.0
 40
0.0178412071
 40
0.0361831519
 40
0.0549943238
 40
0.0742409385
 40
0.0938874902
 40
0.1138968377
 40
0.1342304219
 40
0.1548484491
 40
0.1757100653
 40
0.1967735239
 40
0.2179963484
 40
0.2393354938
 40
0.2607475032
 40
0.2821886636
 40
0.3036151592
 40
0.3249832258
 40
0.3462493049
 40
0.367370198
 40
0.388303223
 40
0.4090063738
 40
0.4294384831
 40
0.4495593875
 40
0.4693300999
 40
0.4887129906
 40
0.5076719791
 40
0.526172735
 40
0.5441828959
 40
0.5616723064
 40
0.5786132867
 40
0.5949809318
 40
0.6107534497
 40
0.6184110076
 40
0.6259132495
 40
0.6332585109
 40
0.6404454203
 40
0.6474728993
 40
0.6543401936
 40
0.6610469005
 40
0.6675929778
 40
0.673978793
 40
0.6802051366
 40
0.686273259
 40
0.6921849161
 40
0.6979423874
 40
0.7035485368
 40
0.7090068425
 40
0.7143214394
 40
0.7245373784
 40
0.7294529549
 40
0.7342488484
 40
0.738933111
 40
0.7435146696
 40
0.7480033129
 40
0.7524096819
 40
0.7567452282
 40
0.7610221427
 40
0.7652532713
 40
0.7694519891
 40
0.7736320618
 40
0.7778074851
 40
0.781992312
 40
0.7862004788
 40
0.7904456363
 40
0.7947409961
 40
0.799099192
 40
0.8035321769
 40
0.8080511314
 40
0.8126664113
 40
0.8173875178
 40
0.822223075
 40
0.8322653857
 40
0.837487551
 40
0.8428503033
 40
0.8483582374
 40
0.8540152668
 40
0.8598246554
 40
0.8657890608
 40
0.8719105884
 40
0.8781908109
 40
0.8846308237
 40
0.8912312714
 40
0.8979923736
 40
0.9049139714
 40
0.9119955335
 40
0.9192361955
 40
0.9266347807
 40
0.9341898098
 40
0.9418995372
 40
0.9497619477
 40
0.9659350457
 40
0.9826889852
 40
1.0
 40
1.0
 40
1.0
 40
1.0
 10
15.4464048783
 20
13.49268556
 30
0.0
 10
15.4400560207
 20
13.4721406493
 30
0.0
 10
15.4277798896
 20
13.4302866944
 30
0.0
 10
15.4108333407
 20
13.3661991936
 30
0.0
 10
15.3951296604
 20
13.3000536097
 30
0.0
 10
15.3807069295
 20
13.2320094136
 30
0.0
 10
15.367599887
 20
13.162230009
 30
0.0
 10
15.3558401794
 20
13.0908831842
 30
0.0
 10
15.3454561775
 20
13.0181405042
 30
0.0
 10
15.3364729495
 20
12.9441769449
 30
0.0
 10
15.3289121854
 20
12.8691704443
 30
0.0
 10
15.3227921482
 20
12.793301477
 30
0.0
 10
15.3181276103
 20
12.7167526148
 30
0.0
 10
15.3149298317
 20
12.6397080806
 30
0.0
 10
15.3132065345
 20
12.5623532996
 30
0.0
 10
15.3129618854
 20
12.4848744497
 30
0.0
 10
15.3141964784
 20
12.4074580108
 30
0.0
 10
15.3169073248
 20
12.3302903107
 30
0.0
 10
15.3210878773
 20
12.2535570733
 30
0.0
 10
15.3267280417
 20
12.1774429686
 30
0.0
 10
15.3338142062
 20
12.1021311643
 30
0.0
 10
15.3423292573
 20
12.0278028774
 30
0.0
 10
15.3522526314
 20
11.9546369334
 30
0.0
 10
15.3635603719
 20
11.882809333
 30
0.0
 10
15.3762251883
 20
11.8124928224
 30
0.0
 10
15.3902165231
 20
11.743856468
 30
0.0
 10
15.405500615
 20
11.6770652338
 30
0.0
 10
15.4220406036
 20
11.612279585
 30
0.0
 10
15.4397966301
 20
11.5496550702
 30
0.0
 10
15.4587259316
 20
11.4893420124
 30
0.0
 10
15.4787830162
 20
11.4314848373
 30
0.0
 10
15.4999195603
 20
11.3762227248
 30
0.0
 10
15.5185699779
 20
11.3320179096
 30
0.0
 10
15.5340115472
 20
11.2980821286
 30
0.0
 10
15.5457162022
 20
11.2736107439
 30
0.0
 10
15.557651128
 20
11.2498841004
 30
0.0
 10
15.5698091951
 20
11.2269163658
 30
0.0
 10
15.5821831185
 20
11.2047213543
 30
0.0
 10
15.5947655007
 20
11.1833123883
 30
0.0
 10
15.6075487772
 20
11.1627022973
 30
0.0
 10
15.620525358
 20
11.1429034714
 30
0.0
 10
15.6336874614
 20
11.1239277662
 30
0.0
 10
15.6470272556
 20
11.10578657
 30
0.0
 10
15.6605368328
 20
11.08849078
 30
0.0
 10
15.674208116
 20
11.0720507593
 30
0.0
 10
15.6880331012
 20
11.0564763755
 30
0.0
 10
15.7020034175
 20
11.0417771367
 30
0.0
 10
15.7161114295
 20
11.0279613353
 30
0.0
 10
15.7348454061
 20
11.0109557128
 30
0.0
 10
15.7540650967
 20
10.9954761789
 30
0.0
 10
15.7737468199
 20
10.9816985132
 30
0.0
 10
15.7884149804
 20
10.9724177432
 30
0.0
 10
15.8031693003
 20
10.9640637426
 30
0.0
 10
15.8180013482
 20
10.9566416048
 30
0.0
 10
15.8329022102
 20
10.9501563026
 30
0.0
 10
15.8478629304
 20
10.9446121767
 30
0.0
 10
15.8628743753
 20
10.9400129957
 30
0.0
 10
15.8779273125
 20
10.9363620791
 30
0.0
 10
15.8930123183
 20
10.9336619858
 30
0.0
 10
15.9081198724
 20
10.9319147364
 30
0.0
 10
15.9232403379
 20
10.9311216591
 30
0.0
 10
15.9383640162
 20
10.9312832831
 30
0.0
 10
15.9534811924
 20
10.9323995729
 30
0.0
 10
15.9685821864
 20
10.9344696229
 30
0.0
 10
15.9836573984
 20
10.9374919075
 30
0.0
 10
15.9986973242
 20
10.9414642577
 30
0.0
 10
16.0136926341
 20
10.9463837565
 30
0.0
 10
16.0286340888
 20
10.9522470358
 30
0.0
 10
16.043512662
 20
10.9590500686
 30
0.0
 10
16.058319335
 20
10.9667882567
 30
0.0
 10
16.0730456366
 20
10.9754568336
 30
0.0
 10
16.0928085241
 20
10.9884096222
 30
0.0
 10
16.1121276863
 20
11.0030881274
 30
0.0
 10
16.1309701147
 20
11.0193134976
 30
0.0
 10
16.1451643612
 20
11.0325400706
 30
0.0
 10
16.1592263666
 20
11.0466556571
 30
0.0
 10
16.173148481
 20
11.0616523206
 30
0.0
 10
16.1869222995
 20
11.0775208663
 30
0.0
 10
16.200539758
 20
11.0942517727
 30
0.0
 10
16.2139927203
 20
11.1118350142
 30
0.0
 10
16.2272732433
 20
11.1302600109
 30
0.0
 10
16.2403734049
 20
11.149515721
 30
0.0
 10
16.2532853813
 20
11.1695906014
 30
0.0
 10
16.2660015043
 20
11.1904725884
 30
0.0
 10
16.2785141249
 20
11.2121491778
 30
0.0
 10
16.2908157879
 20
11.2346073443
 30
0.0
 10
16.3028991184
 20
11.2578336086
 30
0.0
 10
16.3147568494
 20
11.2818140407
 30
0.0
 10
16.3263818909
 20
11.306534205
 30
0.0
 10
16.3377672869
 20
11.3319793282
 30
0.0
 10
16.3527598719
 20
11.3671831601
 30
0.0
 10
16.370827949
 20
11.4129161149
 30
0.0
 10
16.391247308
 20
11.469929438
 30
0.0
 10
16.4039186874
 20
11.5089900542
 30
0.0
 10
16.4100788742
 20
11.5289244258
 30
0.0
  0
SPLINE
  5
2B6
100
AcDbEntity
  8
LAYER_FEATURE
100
AcDbSpline
 62
7
  6
CONTINUOUS
 70
0
 71
3
 72
68
 73
64
 74
0
 42
0.0000001
 43
0.0000001
 44
0.0000000001
 40
0.0
 40
0.0
 40
0.0
 40
0.0
 40
0.0163580858
 40
0.0330510049
 40
0.0500641651
 40
0.0673825756
 40
0.0849903746
 40
0.1028711641
 40
0.1210079486
 40
0.1393832211
 40
0.1579789974
 40
0.176776863
 40
0.1957580148
 40
0.2149033029
 40
0.2536072195
 40
0.2927309867
 40
0.3321129044
 40
0.3715894139
 40
0.4109962794
 40
0.450169764
 40
0.4889478082
 40
0.5081391481
 40
0.5271722354
 40
0.5460278227
 40
0.5646869974
 40
0.5831312226
 40
0.6013423791
 40
0.6193028086
 40
0.6369953594
 40
0.6544034334
 40
0.6715110358
 40
0.6883028277
 40
0.7047641825
 40
0.7208812464
 40
0.7366410033
 40
0.7520313453
 40
0.767041151
 40
0.7816603709
 40
0.7958801233
 40
0.8096928013
 40
0.8230921932
 40
0.836073619
 40
0.8486340848
 40
0.8607724581
 40
0.8724896662
 40
0.8837889208
 40
0.8946759706
 40
0.9051593824
 40
0.9152508473
 40
0.9249655082
 40
0.9343222939
 40
0.9433442428
 40
0.9520587819
 40
0.9604979211
 40
0.9686983093
 40
0.9727225116
 40
0.9767028171
 40
0.9806450085
 40
0.9845550798
 40
0.9884392169
 40
0.9923037608
 40
0.9961551735
 40
1.0
 40
1.0
 40
1.0
 40
1.0
 10
15.4327005784
 20
13.5706499888
 30
0.0
 10
15.4278309525
 20
13.5548918735
 30
0.0
 10
15.418317992
 20
13.5229514618
 30
0.0
 10
15.4048518449
 20
13.4742995859
 30
0.0
 10
15.3920567992
 20
13.4244665642
 30
0.0
 10
15.3799486198
 20
13.3735138135
 30
0.0
 10
15.3685421486
 20
13.3215035627
 30
0.0
 10
15.3578513853
 20
13.2684995943
 30
0.0
 10
15.3478894556
 20
13.2145668232
 30
0.0
 10
15.3386685891
 20
13.1597713454
 30
0.0
 10
15.3302001045
 20
13.1041802993
 30
0.0
 10
15.3224944151
 20
13.0478618527
 30
0.0
 10
15.3155609276
 20
12.990884899
 30
0.0
 10
15.3073280249
 20
12.9138555634
 30
0.0
 10
15.2990413044
 20
12.8164179264
 30
0.0
 10
15.2923254336
 20
12.6984151803
 30
0.0
 10
15.2888355497
 20
12.5794934305
 30
0.0
 10
15.2885888322
 20
12.4602355925
 30
0.0
 10
15.2915864934
 20
12.34122514
 30
0.0
 10
15.2978137831
 20
12.2230454227
 30
0.0
 10
15.3056956854
 20
12.1254024329
 30
0.0
 10
15.3136076422
 20
12.0481650411
 30
0.0
 10
15.3203046482
 20
11.9910017517
 30
0.0
 10
15.3277765466
 20
11.9344758214
 30
0.0
 10
15.3360142149
 20
11.8786563987
 30
0.0
 10
15.3450075235
 20
11.8236119323
 30
0.0
 10
15.3547454337
 20
11.76940987
 30
0.0
 10
15.3652159893
 20
11.7161166324
 30
0.0
 10
15.3764063369
 20
11.663797516
 30
0.0
 10
15.3883027418
 20
11.6125166155
 30
0.0
 10
15.4008906047
 20
11.5623367438
 30
0.0
 10
15.4141544817
 20
11.5133193533
 30
0.0
 10
15.4280781038
 20
11.4655244592
 30
0.0
 10
15.4426443966
 20
11.4190105626
 30
0.0
 10
15.4578355058
 20
11.3738345786
 30
0.0
 10
15.4736328211
 20
11.3300517645
 30
0.0
 10
15.490017003
 20
11.2877156508
 30
0.0
 10
15.5069680105
 20
11.2468779735
 30
0.0
 10
15.5244651314
 20
11.2075886096
 30
0.0
 10
15.542487015
 20
11.169895514
 30
0.0
 10
15.5610117066
 20
11.133844661
 30
0.0
 10
15.5800166864
 20
11.0994799879
 30
0.0
 10
15.5994789084
 20
11.0668433432
 30
0.0
 10
15.6193748462
 20
11.0359744419
 30
0.0
 10
15.6396805415
 20
11.0069108299
 30
0.0
 10
15.6603716538
 20
10.9796878573
 30
0.0
 10
15.6814235121
 20
10.9543386634
 30
0.0
 10
15.7028111632
 20
10.9308941795
 30
0.0
 10
15.7245094172
 20
10.9093831479
 30
0.0
 10
15.7464928608
 20
10.8898321669
 30
0.0
 10
15.7687359011
 20
10.8722657401
 30
0.0
 10
15.7912125645
 20
10.8567063875
 30
0.0
 10
15.8138969481
 20
10.8431745646
 30
0.0
 10
15.8367610983
 20
10.8316892109
 30
0.0
 10
15.8560650061
 20
10.8237872849
 30
0.0
 10
15.8715403425
 20
10.8185335082
 30
0.0
 10
15.8831008491
 20
10.81513686
 30
0.0
 10
15.8946831515
 20
10.8122608511
 30
0.0
 10
15.906283849
 20
10.8099064206
 30
0.0
 10
15.9178992178
 20
10.8080743496
 30
0.0
 10
15.929525702
 20
10.8067652707
 30
0.0
 10
15.9411593156
 20
10.8059796625
 30
0.0
 10
15.9489203358
 20
10.8058049907
 30
0.0
 10
15.9527969611
 20
10.8058049939
 30
0.0
  0
SPLINE
  5
2B7
100
AcDbEntity
  8
02___PRT_ALL_AXES
100
AcDbSpline
 62
7
  6
CONTINUOUS
 70
0
 71
3
 72
67
 73
63
 74
0
 42
0.0000001
 43
0.0000001
 44
0.0000000001
 40
0.0
 40
0.0
 40
0.0
 40
0.0
 40
0.003924645
 40
0.0078451824
 40
0.0117710107
 40
0.0157115411
 40
0.0196759916
 40
0.0236733424
 40
0.0317988034
 40
0.0401560973
 40
0.048803955
 40
0.0577935358
 40
0.0671682072
 40
0.0769637534
 40
0.0872088556
 40
0.0979257102
 40
0.1091306908
 40
0.1208349945
 40
0.1330452391
 40
0.1457639954
 40
0.1589902574
 40
0.1727198482
 40
0.1869457705
 40
0.2016585071
 40
0.2168462817
 40
0.2324952837
 40
0.2485898652
 40
0.2651127136
 40
0.2820450052
 40
0.2993665444
 40
0.3170558892
 40
0.3350904656
 40
0.3534466738
 40
0.3720999869
 40
0.3910250445
 40
0.4101957412
 40
0.4295853108
 40
0.4689097937
 40
0.5087756904
 40
0.5489531934
 40
0.5892093617
 40
0.6293104674
 40
0.6690243353
 40
0.7081226972
 40
0.7273721351
 40
0.7463851188
 40
0.765135305
 40
0.783597066
 40
0.8017455762
 40
0.8195569044
 40
0.8370081103
 40
0.8540773477
 40
0.8707439767
 40
0.8869886841
 40
0.9027936183
 40
0.918142537
 40
0.9330209756
 40
0.9474164223
 40
0.9613185767
 40
0.9747194669
 40
0.9876140667
 40
1.0
 40
1.0
 40
1.0
 40
1.0
 10
15.7929499336
 20
13.3541861421
 30
0.0
 10
15.7952119509
 20
13.3543579503
 30
0.0
 10
15.7997436224
 20
13.3545819883
 30
0.0
 10
15.8065505334
 20
13.3545562654
 30
0.0
 10
15.8133558285
 20
13.3541685027
 30
0.0
 10
15.8201562224
 20
13.3534188435
 30
0.0
 10
15.8269489703
 20
13.3523076471
 30
0.0
 10
15.8360395524
 20
13.3503345612
 30
0.0
 10
15.8474029871
 20
13.3469411243
 30
0.0
 10
15.8608749005
 20
13.3414536081
 30
0.0
 10
15.8742375156
 20
13.3345407753
 30
0.0
 10
15.8874676102
 20
13.3262174233
 30
0.0
 10
15.9005441752
 20
13.3164998618
 30
0.0
 10
15.913446316
 20
13.3054060901
 30
0.0
 10
15.9261535282
 20
13.2929558338
 30
0.0
 10
15.9386454448
 20
13.2791706871
 30
0.0
 10
15.9509018529
 20
13.2640742221
 30
0.0
 10
15.96290271
 20
13.2476920703
 30
0.0
 10
15.9746282023
 20
13.2300519655
 30
0.0
 10
15.9860588138
 20
13.2111837566
 30
0.0
 10
15.9971753912
 20
13.1911193904
 30
0.0
 10
16.0079592068
 20
13.1698928763
 30
0.0
 10
16.0183920169
 20
13.1475402392
 30
0.0
 10
16.028456114
 20
13.124099462
 30
0.0
 10
16.0381343732
 20
13.0996104218
 30
0.0
 10
16.0474102945
 20
13.0741148201
 30
0.0
 10
16.0562680395
 20
13.0476561093
 30
0.0
 10
16.0646924678
 20
13.0202794171
 30
0.0
 10
16.0726691692
 20
12.9920314659
 30
0.0
 10
16.0801844897
 20
12.9629604886
 30
0.0
 10
16.0872255585
 20
12.9331161432
 30
0.0
 10
16.0937803127
 20
12.902549425
 30
0.0
 10
16.0998375178
 20
12.8713125802
 30
0.0
 10
16.1053867941
 20
12.8394590031
 30
0.0
 10
16.1104186134
 20
12.8070431883
 30
0.0
 10
16.1149243996
 20
12.7741204656
 30
0.0
 10
16.1202449602
 20
12.7294149304
 30
0.0
 10
16.1255141139
 20
12.672665714
 30
0.0
 10
16.1296110667
 20
12.6037781288
 30
0.0
 10
16.1314828395
 20
12.5342552872
 30
0.0
 10
16.1311165586
 20
12.4645724911
 30
0.0
 10
16.1285147521
 20
12.3952051977
 30
0.0
 10
16.1236953238
 20
12.326627639
 30
0.0
 10
16.1178289455
 20
12.2702380096
 30
0.0
 10
16.112036583
 20
12.2258965238
 30
0.0
 10
16.1071856973
 20
12.1932990562
 30
0.0
 10
16.1018143258
 20
12.1612448686
 30
0.0
 10
16.0959316219
 20
12.1297886673
 30
0.0
 10
16.0895476853
 20
12.0989842605
 30
0.0
 10
16.0826734538
 20
12.068884296
 30
0.0
 10
16.0753207071
 20
12.0395402134
 30
0.0
 10
16.067502039
 20
12.0110021427
 30
0.0
 10
16.0592308354
 20
11.9833188196
 30
0.0
 10
16.0505212483
 20
11.9565374983
 30
0.0
 10
16.0413881689
 20
11.9307038675
 30
0.0
 10
16.0318471987
 20
11.9058619652
 30
0.0
 10
16.0219146124
 20
11.882054115
 30
0.0
 10
16.0116073209
 20
11.8593208068
 30
0.0
 10
16.0009428546
 20
11.8377007651
 30
0.0
 10
15.9899391891
 20
11.8172304748
 30
0.0
 10
15.9786152116
 20
11.7979452567
 30
0.0
 10
15.9707054041
 20
11.7856521477
 30
0.0
 10
15.9666963505
 20
11.7797205598
 30
0.0
  0
SPLINE
  5
2B8
100
AcDbEntity
  8
LAYER_FEATURE
100
AcDbSpline
 62
7
  6
CONTINUOUS
 70
0
 71
3
 72
57
 73
53
 74
0
 42
0.0000001
 43
0.0000001
 44
0.0000000001
 40
0.0
 40
0.0
 40
0.0
 40
0.0
 40
0.0079087119
 40
0.0160273379
 40
0.0243881902
 40
0.0330198605
 40
0.0419472238
 40
0.0511915529
 40
0.0607707039
 40
0.0706993513
 40
0.0809892408
 40
0.0916494418
 40
0.1026865887
 40
0.1141051035
 40
0.1259074082
 40
0.1380941133
 40
0.1506641861
 40
0.1636150978
 40
0.1769429528
 40
0.1906426115
 40
0.2047077958
 40
0.2191311822
 40
0.2339044829
 40
0.2490185178
 40
0.2644632873
 40
0.2802280338
 40
0.2963012974
 40
0.3126709651
 40
0.3293243173
 40
0.346248076
 40
0.3634284464
 40
0.3808511563
 40
0.416363344
 40
0.4526632933
 40
0.4896231833
 40
0.5271107737
 40
0.5649903768
 40
0.6031237827
 40
0.6413711654
 40
0.6795919796
 40
0.7176458468
 40
0.7553934471
 40
0.7926974138
 40
0.8294232548
 40
0.8654402805
 40
0.900622597
 40
0.9178634934
 40
0.9348512168
 40
0.9515718793
 40
0.9680119616
 40
0.9841589091
 40
1.0
 40
1.0
 40
1.0
 40
1.0
 10
15.8585818328
 20
11.1923177601
 30
0.0
 10
15.8528821749
 20
11.1943035093
 30
0.0
 10
15.8414838944
 20
11.1987783469
 30
0.0
 10
15.8246894323
 20
11.2068353133
 30
0.0
 10
15.8080124854
 20
11.2163062802
 30
0.0
 10
15.7914719859
 20
11.2271792638
 30
0.0
 10
15.775084741
 20
11.2394416685
 30
0.0
 10
15.7588678243
 20
11.2530795203
 30
0.0
 10
15.742837977
 20
11.2680776344
 30
0.0
 10
15.7270118357
 20
11.2844195414
 30
0.0
 10
15.71140589
 20
11.3020874736
 30
0.0
 10
15.6960364883
 20
11.3210623353
 30
0.0
 10
15.680919818
 20
11.3413236838
 30
0.0
 10
15.6660718646
 20
11.362849711
 30
0.0
 10
15.651508401
 20
11.3856172637
 30
0.0
 10
15.6372449573
 20
11.4096018561
 30
0.0
 10
15.6232967936
 20
11.4347776871
 30
0.0
 10
15.6096788746
 20
11.4611176565
 30
0.0
 10
15.5964058302
 20
11.4885933836
 30
0.0
 10
15.5834919501
 20
11.5171752472
 30
0.0
 10
15.5709511587
 20
11.5468324196
 30
0.0
 10
15.5587969972
 20
11.5775328989
 30
0.0
 10
15.5470426024
 20
11.6092435381
 30
0.0
 10
15.5357006782
 20
11.6419300787
 30
0.0
 10
15.5247834955
 20
11.6755571961
 30
0.0
 10
15.5143028727
 20
11.710088541
 30
0.0
 10
15.5042701636
 20
11.7454867789
 30
0.0
 10
15.4946962405
 20
11.7817136237
 30
0.0
 10
15.4855914677
 20
11.8187298884
 30
0.0
 10
15.4769657268
 20
11.8564954966
 30
0.0
 10
15.4688283118
 20
11.8949696713
 30
0.0
 10
15.4585766572
 20
11.9474899689
 30
0.0
 10
15.4470677759
 20
12.0146227676
 30
0.0
 10
15.4354191666
 20
12.0968235663
 30
0.0
 10
15.4258971633
 20
12.1808150241
 30
0.0
 10
15.418543171
 20
12.2662335034
 30
0.0
 10
15.4133891834
 20
12.3527098253
 30
0.0
 10
15.4104576453
 20
12.4398699597
 30
0.0
 10
15.4097612808
 20
12.5273369257
 30
0.0
 10
15.4113031546
 20
12.6147323823
 30
0.0
 10
15.4150765316
 20
12.7016783024
 30
0.0
 10
15.421065001
 20
12.7877986468
 30
0.0
 10
15.4292425191
 20
12.8727209469
 30
0.0
 10
15.4395734843
 20
12.9560782148
 30
0.0
 10
15.4520129884
 20
13.0375095805
 30
0.0
 10
15.4641716474
 20
13.1039116644
 30
0.0
 10
15.4749327578
 20
13.155781162
 30
0.0
 10
15.483440108
 20
13.1937237053
 30
0.0
 10
15.492428763
 20
13.2309266558
 30
0.0
 10
15.5018890531
 20
13.2673500705
 30
0.0
 10
15.5118106725
 20
13.3029541363
 30
0.0
 10
15.5187939958
 20
13.3263479855
 30
0.0
 10
15.5223633593
 20
13.33789845
 30
0.0
  0
SPLINE
  5
2B9
100
AcDbEntity
  8
LAYER_CHAMFER_FEAT
100
AcDbSpline
 62
7
  6
CONTINUOUS
 70
0
 71
3
 72
41
 73
37
 74
0
 42
0.0000001
 43
0.0000001
 44
0.0000000001
 40
0.0
 40
0.0
 40
0.0
 40
0.0
 40
0.0439501712
 40
0.0865552352
 40
0.1278034947
 40
0.1676910387
 40
0.2062191662
 40
0.2433966268
 40
0.2792398852
 40
0.3137740872
 40
0.3470339812
 40
0.3790649119
 40
0.409923867
 40
0.4249369009
 40
0.439684215
 40
0.4684217792
 40
0.4962378025
 40
0.5232444185
 40
0.5495681417
 40
0.5753489258
 40
0.6007383777
 40
0.6258970849
 40
0.6509911761
 40
0.6761883667
 40
0.7016538493
 40
0.7275464261
 40
0.7540152264
 40
0.7811972411
 40
0.8092157353
 40
0.8235752975
 40
0.8381835113
 40
0.8681867194
 40
0.8993094304
 40
0.9316182996
 40
0.9651675491
 40
1.0
 40
1.0
 40
1.0
 40
1.0
 10
16.2526106375
 20
13.5048468412
 30
0.0
 10
16.2482126371
 20
13.5138090238
 30
0.0
 10
16.239306594
 20
13.5313405377
 30
0.0
 10
16.2253902714
 20
13.5568227117
 30
0.0
 10
16.2111386184
 20
13.5810549146
 30
0.0
 10
16.1965687543
 20
13.6040079949
 30
0.0
 10
16.1816976731
 20
13.6256548442
 30
0.0
 10
16.1665428603
 20
13.6459696996
 30
0.0
 10
16.1511219593
 20
13.6649284461
 30
0.0
 10
16.1354528952
 20
13.6825084896
 30
0.0
 10
16.1195535989
 20
13.6986889299
 30
0.0
 10
16.1034427443
 20
13.7134499227
 30
0.0
 10
16.0897319367
 20
13.7246542941
 30
0.0
 10
16.0786778681
 20
13.7328678633
 30
0.0
 10
16.0677657549
 20
13.7404530409
 30
0.0
 10
16.0540220458
 20
13.7490462967
 30
0.0
 10
16.0372492247
 20
13.7579652101
 30
0.0
 10
16.0203585371
 20
13.7653894064
 30
0.0
 10
16.0033705528
 20
13.7713077611
 30
0.0
 10
15.9863061411
 20
13.7757111077
 30
0.0
 10
15.9691871323
 20
13.77859217
 30
0.0
 10
15.952036083
 20
13.7799459721
 30
0.0
 10
15.9348760798
 20
13.7797700967
 30
0.0
 10
15.9177303674
 20
13.77806486
 30
0.0
 10
15.9006219339
 20
13.7748332769
 30
0.0
 10
15.8835732125
 20
13.770080902
 30
0.0
 10
15.8666057047
 20
13.7638154269
 30
0.0
 10
15.8497406084
 20
13.7560467193
 30
0.0
 10
15.8359018004
 20
13.7483921477
 30
0.0
 10
15.8249094293
 20
13.7415530879
 30
0.0
 10
15.81377632
 20
13.7341004816
 30
0.0
 10
15.7999541221
 20
13.7238388015
 30
0.0
 10
15.783692636
 20
13.7101830422
 30
0.0
 10
15.7676284527
 20
13.6950937743
 30
0.0
 10
15.7517807986
 20
13.6785901247
 30
0.0
 10
15.7415660028
 20
13.6668801958
 30
0.0
 10
15.736495955
 20
13.6608060178
 30
0.0
  0
SPLINE
  5
2BA
100
AcDbEntity
  8
LAYER_CHAMFER_FEAT
100
AcDbSpline
 62
7
  6
CONTINUOUS
 70
0
 71
3
 72
27
 73
23
 74
0
 42
0.0000001
 43
0.0000001
 44
0.0000000001
 40
0.0
 40
0.0
 40
0.0
 40
0.0
 40
0.0835111206
 40
0.1639083481
 40
0.2411670914
 40
0.3152835272
 40
0.3862766056
 40
0.4541914541
 40
0.5191027288
 40
0.5811185578
 40
0.6403847105
 40
0.6970888413
 40
0.751464346
 40
0.8037931679
 40
0.8292988679
 40
0.8544212625
 40
0.8792091176
 40
0.9037137705
 40
0.9279888845
 40
0.9520900431
 40
0.9760743651
 40
1.0
 40
1.0
 40
1.0
 40
1.0
 10
16.215972127
 20
13.4801720436
 30
0.0
 10
16.2107927759
 20
13.4907264515
 30
0.0
 10
16.2002804312
 20
13.5112742199
 30
0.0
 10
16.1837172846
 20
13.5409206538
 30
0.0
 10
16.1666841005
 20
13.5687618734
 30
0.0
 10
16.1492103781
 20
13.5947490522
 30
0.0
 10
16.1313258472
 20
13.6188371963
 30
0.0
 10
16.113060766
 20
13.6409844195
 30
0.0
 10
16.0944457061
 20
13.6611521083
 30
0.0
 10
16.0755114546
 20
13.6793048125
 30
0.0
 10
16.0562891615
 20
13.6954100518
 30
0.0
 10
16.036809724
 20
13.709438352
 30
0.0
 10
16.0171063814
 20
13.7213622377
 30
0.0
 10
16.0003826959
 20
13.7295953938
 30
0.0
 10
15.9869557695
 20
13.7350670927
 30
0.0
 10
15.9769383532
 20
13.7385979444
 30
0.0
 10
15.9668935571
 20
13.7415885382
 30
0.0
 10
15.9568256536
 20
13.7440374499
 30
0.0
 10
15.9467392839
 20
13.745943491
 30
0.0
 10
15.9366388986
 20
13.7473056152
 30
0.0
 10
15.9265295198
 20
13.7481232128
 30
0.0
 10
15.9197833187
 20
13.7483049801
 30
0.0
 10
15.9164150518
 20
13.7483049825
 30
0.0
  0
SPLINE
  5
2BB
100
AcDbEntity
  8
02___PRT_ALL_AXES
100
AcDbSpline
 62
7
  6
CONTINUOUS
 70
0
 71
3
 72
57
 73
53
 74
0
 42
0.0000001
 43
0.0000001
 44
0.0000000001
 40
0.0
 40
0.0
 40
0.0
 40
0.0
 40
0.0079087119
 40
0.0160273379
 40
0.0243881902
 40
0.0330198605
 40
0.0419472238
 40
0.0511915529
 40
0.0607707039
 40
0.0706993513
 40
0.0809892408
 40
0.0916494418
 40
0.1026865887
 40
0.1141051035
 40
0.1259074082
 40
0.1380941133
 40
0.1506641861
 40
0.1636150978
 40
0.1769429528
 40
0.1906426115
 40
0.2047077958
 40
0.2191311822
 40
0.2339044829
 40
0.2490185178
 40
0.2644632873
 40
0.2802280338
 40
0.2963012974
 40
0.3126709651
 40
0.3293243173
 40
0.346248076
 40
0.3634284464
 40
0.3808511563
 40
0.416363344
 40
0.4526632933
 40
0.4896231833
 40
0.5271107737
 40
0.5649903768
 40
0.6031237827
 40
0.6413711654
 40
0.6795919796
 40
0.7176458468
 40
0.7553934471
 40
0.7926974138
 40
0.8294232548
 40
0.8654402805
 40
0.900622597
 40
0.9178634934
 40
0.9348512168
 40
0.9515718793
 40
0.9680119616
 40
0.9841589091
 40
1.0
 40
1.0
 40
1.0
 40
1.0
 10
15.8754577939
 20
11.1864382178
 30
0.0
 10
15.8697327196
 20
11.188432822
 30
0.0
 10
15.8582836106
 20
11.1929276143
 30
0.0
 10
15.8414142567
 20
11.2010205092
 30
0.0
 10
15.8246629423
 20
11.21053371
 30
0.0
 10
15.8080486835
 20
11.2214551797
 30
0.0
 10
15.7915883628
 20
11.2337722662
 30
0.0
 10
15.7752991299
 20
11.2474709335
 30
0.0
 10
15.7591978005
 20
11.2625359288
 30
0.0
 10
15.7433010856
 20
11.2789507093
 30
0.0
 10
15.7276255481
 20
11.2966974283
 30
0.0
 10
15.7121876095
 20
11.3157569048
 30
0.0
 10
15.6970035293
 20
11.3361086049
 30
0.0
 10
15.6820893643
 20
11.3577306234
 30
0.0
 10
15.6674609577
 20
11.3805997037
 30
0.0
 10
15.6531339089
 20
11.4046912508
 30
0.0
 10
15.639123546
 20
11.4299793486
 30
0.0
 10
15.6254449005
 20
11.4564367761
 30
0.0
 10
15.6121126675
 20
11.4840350259
 30
0.0
 10
15.5991412004
 20
11.5127443449
 30
0.0
 10
15.5865444858
 20
11.5425337678
 30
0.0
 10
15.5743361251
 20
11.57337115
 30
0.0
 10
15.5625293138
 20
11.6052231968
 30
0.0
 10
15.5511368125
 20
11.6380554967
 30
0.0
 10
15.5401709467
 20
11.6718325679
 30
0.0
 10
15.5296435875
 20
11.7065178987
 30
0.0
 10
15.5195661395
 20
11.7420739883
 30
0.0
 10
15.5099495233
 20
11.7784623798
 30
0.0
 10
15.5008041495
 20
11.8156437115
 30
0.0
 10
15.4921399437
 20
11.8535777282
 30
0.0
 10
15.4839662415
 20
11.8922234712
 30
0.0
 10
15.4736688716
 20
11.944977973
 30
0.0
 10
15.4621086686
 20
12.0124101376
 30
0.0
 10
15.4504081145
 20
12.094977495
 30
0.0
 10
15.4408436497
 20
12.1793434967
 30
0.0
 10
15.4334568637
 20
12.2651428835
 30
0.0
 10
15.4282798929
 20
12.3520048301
 30
0.0
 10
15.4253352822
 20
12.4395536384
 30
0.0
 10
15.4246358124
 20
12.5274106467
 30
0.0
 10
15.4261845618
 20
12.6151958266
 30
0.0
 10
15.4299747655
 20
12.7025294655
 30
0.0
 10
15.4359899393
 20
12.7890338472
 30
0.0
 10
15.4442039235
 20
12.8743348421
 30
0.0
 10
15.4545809576
 20
12.9580638258
 30
0.0
 10
15.4670759334
 20
13.0398583192
 30
0.0
 10
15.4792888116
 20
13.1065565104
 30
0.0
 10
15.490097909
 20
13.1586573102
 30
0.0
 10
15.4986431962
 20
13.1967690511
 30
0.0
 10
15.5076719343
 20
13.234137901
 30
0.0
 10
15.5171744108
 20
13.270723739
 30
0.0
 10
15.5271402738
 20
13.3064865743
 30
0.0
 10
15.534154738
 20
13.3299847439
 30
0.0
 10
15.5377400184
 20
13.3415867155
 30
0.0
  0
SPLINE
  5
2BC
100
AcDbEntity
  8
LAYER_FEATURE
100
AcDbSpline
 62
7
  6
CONTINUOUS
 70
0
 71
3
 72
11
 73
7
 74
0
 42
0.0000001
 43
0.0000001
 44
0.0000000001
 40
0.0
 40
0.0
 40
0.0
 40
0.0
 40
0.2285615567
 40
0.4712438258
 40
0.7283774601
 40
1.0
 40
1.0
 40
1.0
 40
1.0
 10
14.5663820931
 20
13.1576073535
 30
0.0
 10
14.5670263709
 20
13.158291564
 30
0.0
 10
14.5682974149
 20
13.1597569798
 30
0.0
 10
14.5700973608
 20
13.1621532722
 30
0.0
 10
14.5718415052
 20
13.1648049181
 30
0.0
 10
14.5729337969
 20
13.1666861282
 30
0.0
 10
14.5734708574
 20
13.1676653921
 30
0.0
  0
SPLINE
  5
2BD
100
AcDbEntity
  8
LAYER_FEATURE
100
AcDbSpline
 62
7
  6
CONTINUOUS
 70
0
 71
3
 72
18
 73
14
 74
0
 42
0.0000001
 43
0.0000001
 44
0.0000000001
 40
0.0
 40
0.0
 40
0.0
 40
0.0
 40
0.0394517649
 40
0.0798729652
 40
0.1221592589
 40
0.1670570175
 40
0.2667191005
 40
0.3223341722
 40
0.3820172235
 40
0.5137089594
 40
0.6615359735
 40
0.8242517229
 40
1.0
 40
1.0
 40
1.0
 40
1.0
 10
14.5260837017
 20
13.1576569869
 30
0.0
 10
14.5259145809
 20
13.1576569975
 30
0.0
 10
14.525571482
 20
13.1576270313
 30
0.0
 10
14.5250628525
 20
13.1574933584
 30
0.0
 10
14.5245602515
 20
13.1572721848
 30
0.0
 10
14.5238780212
 20
13.1568483982
 30
0.0
 10
14.5232419941
 20
13.1562604774
 30
0.0
 10
14.5226534083
 20
13.1555510131
 30
0.0
 10
14.5220440798
 20
13.1546837154
 30
0.0
 10
14.5213377523
 20
13.1534081032
 30
0.0
 10
14.520600246
 20
13.1516587826
 30
0.0
 10
14.5199593418
 20
13.149672845
 30
0.0
 10
14.5196157152
 20
13.148261865
 30
0.0
 10
14.5194602765
 20
13.1475246811
 30
0.0
  0
SPLINE
  5
2BE
100
AcDbEntity
  8
LAYER_FEATURE
100
AcDbSpline
 62
7
  6
CONTINUOUS
 70
0
 71
3
 72
17
 73
13
 74
0
 42
0.0000001
 43
0.0000001
 44
0.0000000001
 40
0.0
 40
0.0
 40
0.0
 40
0.0
 40
0.0426455307
 40
0.0860340479
 40
0.130862184
 40
0.1777466722
 40
0.2795083499
 40
0.3943797033
 40
0.5238234907
 40
0.668238905
 40
0.8272721358
 40
1.0
 40
1.0
 40
1.0
 40
1.0
 10
14.5767867648
 20
13.3908526153
 30
0.0
 10
14.5766452446
 20
13.3908526135
 30
0.0
 10
14.57635932
 20
13.3908318069
 30
0.0
 10
14.575933809
 20
13.3907385546
 30
0.0
 10
14.5755116147
 20
13.390583861
 30
0.0
 10
14.5749397823
 20
13.390288769
 30
0.0
 10
14.5742382779
 20
13.3897554107
 30
0.0
 10
14.5734582444
 20
13.3889066769
 30
0.0
 10
14.5727224237
 20
13.3878430868
 30
0.0
 10
14.5720384834
 20
13.3865771674
 30
0.0
 10
14.5714139358
 20
13.3851237756
 30
0.0
 10
14.5710559592
 20
13.384081555
 30
0.0
 10
14.5708867229
 20
13.3835339062
 30
0.0
  0
SPLINE
  5
2BF
100
AcDbEntity
  8
LAYER_CHAMFER_FEAT
100
AcDbSpline
 62
7
  6
CONTINUOUS
 70
0
 71
3
 72
79
 73
75
 74
0
 42
0.0000001
 43
0.0000001
 44
0.0000000001
 40
0.0
 40
0.0
 40
0.0
 40
0.0
 40
0.011388478
 40
0.022228381
 40
0.0325469708
 40
0.0423804756
 40
0.0517750326
 40
0.0607873888
 40
0.065172405
 40
0.069488112
 40
0.0737445449
 40
0.0779522951
 40
0.082122421
 40
0.0862663647
 40
0.0903958381
 40
0.094522707
 40
0.0986588653
 40
0.1028161073
 40
0.1070060066
 40
0.1112398034
 40
0.1155283014
 40
0.1198817908
 40
0.1243099717
 40
0.1288219209
 40
0.1381276235
 40
0.1478607809
 40
0.1580698045
 40
0.1687930154
 40
0.1800595517
 40
0.1918903748
 40
0.2042992566
 40
0.2172936852
 40
0.2308756643
 40
0.245042403
 40
0.2597869042
 40
0.275098464
 40
0.2909630957
 40
0.3073638918
 40
0.3242813351
 40
0.3416935685
 40
0.3595766319
 40
0.377904672
 40
0.3966501319
 40
0.4157839222
 40
0.4352755798
 40
0.4550934153
 40
0.4752046514
 40
0.4955755553
 40
0.5161715652
 40
0.5369574122
 40
0.5578972394
 40
0.5789547182
 40
0.6000931625
 40
0.6212756416
 40
0.6424650926
 40
0.6636244313
 40
0.6847166642
 40
0.705705
 40
0.7265529624
 40
0.7472245035
 40
0.7676841197
 40
0.7878969692
 40
0.8078289932
 40
0.8274470401
 40
0.8467189957
 40
0.8656139192
 40
0.884102187
 40
0.9021556466
 40
0.9197477827
 40
0.936853902
 40
0.9534513243
 40
0.9695196422
 40
0.9850408829
 40
1.0
 40
1.0
 40
1.0
 40
1.0
 10
15.7364959566
 20
11.3608039766
 30
0.0
 10
15.7431127363
 20
11.3528767415
 30
0.0
 10
15.7564711271
 20
11.3377658427
 30
0.0
 10
15.777410041
 20
11.3169409227
 30
0.0
 10
15.7987073884
 20
11.2985695626
 30
0.0
 10
15.8203227018
 20
11.2826922052
 30
0.0
 10
15.8422134168
 20
11.2693453595
 30
0.0
 10
15.8608228318
 20
11.2602759034
 30
0.0
 10
15.8757635422
 20
11.2543676405
 30
0.0
 10
15.8869056645
 20
11.250625028
 30
0.0
 10
15.8980791086
 20
11.2475337558
 30
0.0
 10
15.9092781807
 20
11.2450954024
 30
0.0
 10
15.9204968564
 20
11.2433115968
 30
0.0
 10
15.9317290881
 20
11.2421833321
 30
0.0
 10
15.9429687866
 20
11.2417113951
 30
0.0
 10
15.9542098254
 20
11.2418960219
 30
0.0
 10
15.9654460776
 20
11.2427371324
 30
0.0
 10
15.9766714317
 20
11.2442341893
 30
0.0
 10
15.9878798228
 20
11.2463862502
 30
0.0
 10
15.9990652235
 20
11.2491920343
 30
0.0
 10
16.0102217224
 20
11.2526498039
 30
0.0
 10
16.021343366
 20
11.256757558
 30
0.0
 10
16.0324246144
 20
11.2615129696
 30
0.0
 10
16.0472891652
 20
11.2687873639
 30
0.0
 10
16.065767506
 20
11.2795547936
 30
0.0
 10
16.0874455611
 20
11.2948809997
 30
0.0
 10
16.108816143
 20
11.3127099362
 30
0.0
 10
16.1298371965
 20
11.3330020029
 30
0.0
 10
16.1504692624
 20
11.3557147744
 30
0.0
 10
16.170672454
 20
11.3808013814
 30
0.0
 10
16.1904073538
 20
11.4082106219
 30
0.0
 10
16.2096349179
 20
11.4378867182
 30
0.0
 10
16.228316722
 20
11.4697693064
 30
0.0
 10
16.2464151161
 20
11.503793462
 30
0.0
 10
16.2638933911
 20
11.5398897879
 30
0.0
 10
16.2807159217
 20
11.5779845354
 30
0.0
 10
16.2968482924
 20
11.6179997498
 30
0.0
 10
16.3122574089
 20
11.6598534341
 30
0.0
 10
16.3269115954
 20
11.7034597238
 30
0.0
 10
16.3407806826
 20
11.748729073
 30
0.0
 10
16.3538360847
 20
11.7955684469
 30
0.0
 10
16.366050871
 20
11.8438815224
 30
0.0
 10
16.3773998289
 20
11.8935688936
 30
0.0
 10
16.3878595223
 20
11.9445282839
 30
0.0
 10
16.3974083441
 20
11.9966547622
 30
0.0
 10
16.4060265639
 20
12.0498409643
 30
0.0
 10
16.4136963713
 20
12.1039773184
 30
0.0
 10
16.4204019139
 20
12.1589522752
 30
0.0
 10
16.4261293309
 20
12.2146525409
 30
0.0
 10
16.4308667827
 20
12.2709633137
 30
0.0
 10
16.4346044754
 20
12.3277685233
 30
0.0
 10
16.4373346818
 20
12.3849510722
 30
0.0
 10
16.4390517575
 20
12.4423930789
 30
0.0
 10
16.4397521524
 20
12.4999761235
 30
0.0
 10
16.4394344184
 20
12.5575814931
 30
0.0
 10
16.4380992124
 20
12.6150904282
 30
0.0
 10
16.4357492948
 20
12.6723843699
 30
0.0
 10
16.4323895237
 20
12.7293452054
 30
0.0
 10
16.4280268451
 20
12.7858555136
 30
0.0
 10
16.422670278
 20
12.8417988095
 30
0.0
 10
16.4163308956
 20
12.8970597861
 30
0.0
 10
16.4090218027
 20
12.9515245552
 30
0.0
 10
16.4007581072
 20
13.0050808843
 30
0.0
 10
16.3915568879
 20
13.0576184315
 30
0.0
 10
16.3814371584
 20
13.1090289764
 30
0.0
 10
16.3704198254
 20
13.159206647
 30
0.0
 10
16.3585276435
 20
13.2080481431
 30
0.0
 10
16.3457851628
 20
13.255452955
 30
0.0
 10
16.3322186784
 20
13.3013235735
 30
0.0
 10
16.3178561522
 20
13.3455657143
 30
0.0
 10
16.3027271969
 20
13.3880884555
 30
0.0
 10
16.2868628331
 20
13.4288046906
 30
0.0
 10
16.2702959797
 20
13.4676302809
 30
0.0
 10
16.2585858506
 20
13.4926706372
 30
0.0
 10
16.2526106375
 20
13.5048468412
 30
0.0
  0
SPLINE
  5
2C0
100
AcDbEntity
  8
LAYER_CHAMFER_FEAT
100
AcDbSpline
 62
7
  6
CONTINUOUS
 70
0
 71
3
 72
68
 73
64
 74
0
 42
0.0000001
 43
0.0000001
 44
0.0000000001
 40
0.0
 40
0.0
 40
0.0
 40
0.0
 40
0.0038601928
 40
0.0077284175
 40
0.0116126426
 40
0.0155207181
 40
0.0194603125
 40
0.0234388694
 40
0.0315391808
 40
0.0398773208
 40
0.048500988
 40
0.0574517061
 40
0.0667647874
 40
0.0764695585
 40
0.0865897491
 40
0.0971439638
 40
0.1081461762
 40
0.1196062115
 40
0.1315301941
 40
0.1439209527
 40
0.156778378
 40
0.170099737
 40
0.1838799467
 40
0.1981118125
 40
0.2127862356
 40
0.2278923942
 40
0.2434179018
 40
0.2593489483
 40
0.2756704242
 40
0.2923660329
 40
0.3094183925
 40
0.3268091273
 40
0.3445189544
 40
0.3625277629
 40
0.3808146887
 40
0.3993581845
 40
0.4181360872
 40
0.4371256817
 40
0.4563037632
 40
0.4951292862
 40
0.5344206999
 40
0.5739806736
 40
0.6136095303
 40
0.6531069947
 40
0.692273933
 40
0.7116725664
 40
0.7309153179
 40
0.7499784069
 40
0.7688384602
 40
0.7874725717
 40
0.8058583635
 40
0.8239740494
 40
0.8417985005
 40
0.8593113146
 40
0.876492889
 40
0.8933244987
 40
0.909788378
 40
0.9258678134
 40
0.9415472304
 40
0.9568123383
 40
0.971650142
 40
0.9860493464
 40
1.0
 40
1.0
 40
1.0
 40
1.0
 10
15.9164150518
 20
11.2733050033
 30
0.0
 10
15.9195165655
 20
11.2733050011
 30
0.0
 10
15.9257271447
 20
11.2734590644
 30
0.0
 10
15.9350352858
 20
11.2741521141
 30
0.0
 10
15.9443364659
 20
11.2753067938
 30
0.0
 10
15.9536267281
 20
11.2769226945
 30
0.0
 10
15.9629027982
 20
11.2789991392
 30
0.0
 10
15.9753195954
 20
11.2824002941
 30
0.0
 10
15.9908239812
 20
11.2878332999
 30
0.0
 10
16.0091924518
 20
11.2961412735
 30
0.0
 10
16.0274121926
 20
11.3062615827
 30
0.0
 10
16.0454558445
 20
11.3181762384
 30
0.0
 10
16.0632983615
 20
11.3318656001
 30
0.0
 10
16.0809147096
 20
11.3473079967
 30
0.0
 10
16.0982802666
 20
11.3644797385
 30
0.0
 10
16.1153705787
 20
11.3833549772
 30
0.0
 10
16.1321613942
 20
11.4039056177
 30
0.0
 10
16.1486286821
 20
11.4261012502
 30
0.0
 10
16.1647486899
 20
11.4499091158
 30
0.0
 10
16.1804980069
 20
11.4752941007
 30
0.0
 10
16.1958536293
 20
11.5022187521
 30
0.0
 10
16.2107930251
 20
11.5306433111
 30
0.0
 10
16.2252941923
 20
11.5605257601
 30
0.0
 10
16.2393357104
 20
11.5918218807
 30
0.0
 10
16.2528967902
 20
11.624485318
 30
0.0
 10
16.2659573172
 20
11.65846765
 30
0.0
 10
16.2784978919
 20
11.6937184611
 30
0.0
 10
16.2904998667
 20
11.73018542
 30
0.0
 10
16.3019453795
 20
11.7678143598
 30
0.0
 10
16.3128173847
 20
11.8065493616
 30
0.0
 10
16.3230996825
 20
11.8463328397
 30
0.0
 10
16.3327769469
 20
11.8871056289
 30
0.0
 10
16.3418347495
 20
11.928807076
 30
0.0
 10
16.3502595823
 20
11.9713751327
 30
0.0
 10
16.3580388777
 20
12.0147464466
 30
0.0
 10
16.3651610343
 20
12.058856471
 30
0.0
 10
16.3716154102
 20
12.103639508
 30
0.0
 10
16.3773924325
 20
12.1490290141
 30
0.0
 10
16.3842078548
 20
12.2105156877
 30
0.0
 10
16.3909596837
 20
12.2884103731
 30
0.0
 10
16.3962163717
 20
12.3828272108
 30
0.0
 10
16.3986285695
 20
12.4780053617
 30
0.0
 10
16.3981818697
 20
12.5733785003
 30
0.0
 10
16.3948788941
 20
12.668379165
 30
0.0
 10
16.3897466312
 20
12.7470152964
 30
0.0
 10
16.3842156506
 20
12.8092882285
 30
0.0
 10
16.3793841713
 20
12.8554011423
 30
0.0
 10
16.3738637404
 20
12.90100075
 30
0.0
 10
16.3676625446
 20
12.9460192853
 30
0.0
 10
16.3607898506
 20
12.9903896873
 30
0.0
 10
16.3532559092
 20
13.0340459105
 30
0.0
 10
16.3450719609
 20
13.0769229688
 30
0.0
 10
16.3362502135
 20
13.1189570485
 30
0.0
 10
16.3268038234
 20
13.1600856005
 30
0.0
 10
16.3167468774
 20
13.2002474379
 30
0.0
 10
16.3060943684
 20
13.2393828269
 30
0.0
 10
16.2948621721
 20
13.2774335815
 30
0.0
 10
16.2830670182
 20
13.3143431391
 30
0.0
 10
16.2707264656
 20
13.3500566895
 30
0.0
 10
16.25785888
 20
13.3845211294
 30
0.0
 10
16.2444833318
 20
13.4176855158
 30
0.0
 10
16.2306198595
 20
13.4495001451
 30
0.0
 10
16.2209100837
 20
13.4701095458
 30
0.0
 10
16.215972127
 20
13.4801720436
 30
0.0
  0
SPLINE
  5
2C1
100
AcDbEntity
  8
LAYER_FEATURE
100
AcDbSpline
 62
7
  6
CONTINUOUS
 70
0
 71
3
 72
99
 73
95
 74
0
 42
0.0000001
 43
0.0000001
 44
0.0000000001
 40
0.0
 40
0.0
 40
0.0
 40
0.0
 40
0.0173110148
 40
0.0340649543
 40
0.0502380523
 40
0.0581004628
 40
0.0658101902
 40
0.0733652193
 40
0.0807638045
 40
0.0880044665
 40
0.0950860286
 40
0.1020076264
 40
0.1087687286
 40
0.1153691763
 40
0.1218091891
 40
0.1280894116
 40
0.1342109392
 40
0.1401753446
 40
0.1459847332
 40
0.1516417626
 40
0.1571496967
 40
0.162512449
 40
0.1677346143
 40
0.177776925
 40
0.1826124822
 40
0.1873335887
 40
0.1919488686
 40
0.1964678231
 40
0.200900808
 40
0.2052590039
 40
0.2095543637
 40
0.2137995212
 40
0.218007688
 40
0.2221925149
 40
0.2263679382
 40
0.2305480109
 40
0.2347467287
 40
0.2389778573
 40
0.2432547718
 40
0.2475903181
 40
0.2519966871
 40
0.2564853304
 40
0.261066889
 40
0.2657511516
 40
0.2705470451
 40
0.2754626216
 40
0.2856785606
 40
0.2909931575
 40
0.2964514632
 40
0.3020576126
 40
0.3078150839
 40
0.313726741
 40
0.3197948634
 40
0.326021207
 40
0.3324070222
 40
0.3389530995
 40
0.3456598064
 40
0.3525271007
 40
0.3595545797
 40
0.3667414891
 40
0.3740867505
 40
0.3815889924
 40
0.3892465503
 40
0.4050190682
 40
0.4213867133
 40
0.4383276936
 40
0.4558171041
 40
0.473827265
 40
0.4923280209
 40
0.5112870094
 40
0.5306699001
 40
0.5504406125
 40
0.5705615169
 40
0.5909936262
 40
0.611696777
 40
0.632629802
 40
0.6537506951
 40
0.6750167742
 40
0.6963848408
 40
0.7178113364
 40
0.7392524968
 40
0.7606645062
 40
0.7820036516
 40
0.8032264761
 40
0.8242899347
 40
0.8451515509
 40
0.8657695781
 40
0.8861031623
 40
0.9061125098
 40
0.9257590615
 40
0.9450056762
 40
0.9638168481
 40
0.9821587929
 40
1.0
 40
1.0
 40
1.0
 40
1.0
 10
15.4464048783
 20
13.49268556
 30
0.0
 10
15.4525650651
 20
13.5126199316
 30
0.0
 10
15.4652364445
 20
13.5516805478
 30
0.0
 10
15.4856558035
 20
13.6086938709
 30
0.0
 10
15.5037238806
 20
13.6544268257
 30
0.0
 10
15.5187164656
 20
13.6896306576
 30
0.0
 10
15.5301018616
 20
13.7150757808
 30
0.0
 10
15.5417269031
 20
13.7397959451
 30
0.0
 10
15.5535846341
 20
13.7637763772
 30
0.0
 10
15.5656679646
 20
13.7870026415
 30
0.0
 10
15.5779696276
 20
13.809460808
 30
0.0
 10
15.5904822482
 20
13.8311373974
 30
0.0
 10
15.6031983712
 20
13.8520193844
 30
0.0
 10
15.6161103476
 20
13.8720942648
 30
0.0
 10
15.6292105092
 20
13.8913499749
 30
0.0
 10
15.6424910322
 20
13.9097749717
 30
0.0
 10
15.6559439946
 20
13.9273582131
 30
0.0
 10
15.669561453
 20
13.9440891195
 30
0.0
 10
15.6833352715
 20
13.9599576652
 30
0.0
 10
15.6972573859
 20
13.9749543287
 30
0.0
 10
15.7113193913
 20
13.9890699152
 30
0.0
 10
15.7255136378
 20
14.0022964882
 30
0.0
 10
15.7443560662
 20
14.0185218584
 30
0.0
 10
15.7636752284
 20
14.0332003636
 30
0.0
 10
15.7834381159
 20
14.0461531522
 30
0.0
 10
15.7981644175
 20
14.0548217291
 30
0.0
 10
15.8129710905
 20
14.0625599172
 30
0.0
 10
15.8278496637
 20
14.06936295
 30
0.0
 10
15.8427911184
 20
14.0752262293
 30
0.0
 10
15.8577864283
 20
14.0801457281
 30
0.0
 10
15.8728263541
 20
14.0841180784
 30
0.0
 10
15.8879015661
 20
14.0871403629
 30
0.0
 10
15.9030025601
 20
14.0892104129
 30
0.0
 10
15.9181197363
 20
14.0903267027
 30
0.0
 10
15.9332434147
 20
14.0904883267
 30
0.0
 10
15.9483638801
 20
14.0896952494
 30
0.0
 10
15.9634714342
 20
14.087948
 30
0.0
 10
15.97855644
 20
14.0852479067
 30
0.0
 10
15.9936093773
 20
14.0815969901
 30
0.0
 10
16.0086208221
 20
14.0769978091
 30
0.0
 10
16.0235815423
 20
14.0714536832
 30
0.0
 10
16.0384824043
 20
14.064968381
 30
0.0
 10
16.0533144522
 20
14.0575462432
 30
0.0
 10
16.0680687721
 20
14.0491922426
 30
0.0
 10
16.0827369326
 20
14.0399114726
 30
0.0
 10
16.1024186558
 20
14.0261338069
 30
0.0
 10
16.1216383465
 20
14.010654273
 30
0.0
 10
16.140372323
 20
13.9936486505
 30
0.0
 10
16.154480335
 20
13.9798328491
 30
0.0
 10
16.1684506513
 20
13.9651336103
 30
0.0
 10
16.1822756366
 20
13.9495592265
 30
0.0
 10
16.1959469197
 20
13.9331192058
 30
0.0
 10
16.2094564969
 20
13.9158234158
 30
0.0
 10
16.2227962911
 20
13.8976822196
 30
0.0
 10
16.2359583945
 20
13.8787065144
 30
0.0
 10
16.2489349753
 20
13.8589076885
 30
0.0
 10
16.2617182518
 20
13.8382975975
 30
0.0
 10
16.2743006341
 20
13.8168886315
 30
0.0
 10
16.2866745574
 20
13.79469362
 30
0.0
 10
16.2988326245
 20
13.7717258855
 30
0.0
 10
16.3107675503
 20
13.7479992419
 30
0.0
 10
16.3224722053
 20
13.7235278572
 30
0.0
 10
16.3379137746
 20
13.6895920762
 30
0.0
 10
16.3565641922
 20
13.645387261
 30
0.0
 10
16.3777007363
 20
13.5901251485
 30
0.0
 10
16.3977578209
 20
13.5322679734
 30
0.0
 10
16.4166871224
 20
13.4719549157
 30
0.0
 10
16.4344431489
 20
13.4093304008
 30
0.0
 10
16.4509831376
 20
13.344544752
 30
0.0
 10
16.4662672294
 20
13.2777535178
 30
0.0
 10
16.4802585642
 20
13.2091171634
 30
0.0
 10
16.4929233806
 20
13.1388006529
 30
0.0
 10
16.5042311212
 20
13.0669730524
 30
0.0
 10
16.5141544952
 20
12.9938071084
 30
0.0
 10
16.5226695464
 20
12.9194788215
 30
0.0
 10
16.5297557108
 20
12.8441670172
 30
0.0
 10
16.5353958753
 20
12.7680529126
 30
0.0
 10
16.5395764277
 20
12.6913196752
 30
0.0
 10
16.5422872742
 20
12.614151975
 30
0.0
 10
16.5435218671
 20
12.5367355361
 30
0.0
 10
16.543277218
 20
12.4592566863
 30
0.0
 10
16.5415539209
 20
12.3819019052
 30
0.0
 10
16.5383561422
 20
12.304857371
 30
0.0
 10
16.5336916043
 20
12.2283085088
 30
0.0
 10
16.5275715671
 20
12.1524395415
 30
0.0
 10
16.520010803
 20
12.0774330409
 30
0.0
 10
16.5110275751
 20
12.0034694816
 30
0.0
 10
16.5006435731
 20
11.9307268016
 30
0.0
 10
16.4888838655
 20
11.8593799769
 30
0.0
 10
16.475776823
 20
11.7896005723
 30
0.0
 10
16.4613540921
 20
11.7215563761
 30
0.0
 10
16.4456504118
 20
11.6554107922
 30
0.0
 10
16.4287038629
 20
11.5913232914
 30
0.0
 10
16.4164277318
 20
11.5494693365
 30
0.0
 10
16.4100788742
 20
11.5289244258
 30
0.0
  0
SPLINE
  5
2C2
100
AcDbEntity
  8
LAYER_FEATURE
100
AcDbSpline
 62
7
  6
CONTINUOUS
 70
0
 71
3
 72
39
 73
35
 74
0
 42
0.0000001
 43
0.0000001
 44
0.0000000001
 40
0.0
 40
0.0
 40
0.0
 40
0.0
 40
0.0443813067
 40
0.0879669132
 40
0.1307335
 40
0.1726618866
 40
0.2137331556
 40
0.2539301966
 40
0.2932376985
 40
0.3316421098
 40
0.369131909
 40
0.4056977074
 40
0.4413324012
 40
0.4760313905
 40
0.5097927922
 40
0.5426176374
 40
0.5745101304
 40
0.6054779621
 40
0.6355325877
 40
0.6646895438
 40
0.692968828
 40
0.7203952814
 40
0.7469989433
 40
0.7728154398
 40
0.7978863773
 40
0.8222596396
 40
0.8459896209
 40
0.8691373705
 40
0.8917705686
 40
0.9139632732
 40
0.9357954514
 40
0.9573522573
 40
0.9787230195
 40
1.0
 40
1.0
 40
1.0
 40
1.0
 10
15.4327005784
 20
13.5706499888
 30
0.0
 10
15.4365360076
 20
13.583061442
 30
0.0
 10
15.4443368454
 20
13.6076009849
 30
0.0
 10
15.4565436341
 20
13.6438698416
 30
0.0
 10
15.4691426634
 20
13.6792432865
 30
0.0
 10
15.4821237924
 20
13.7136930254
 30
0.0
 10
15.4954768822
 20
13.7471920992
 30
0.0
 10
15.5091913551
 20
13.7797140185
 30
0.0
 10
15.5232563869
 20
13.8112331356
 30
0.0
 10
15.5376609153
 20
13.8417245977
 30
0.0
 10
15.5523935771
 20
13.8711643773
 30
0.0
 10
15.5674427744
 20
13.8995292868
 30
0.0
 10
15.5827966929
 20
13.9267969796
 30
0.0
 10
15.5984432862
 20
13.9529459875
 30
0.0
 10
15.61437028
 20
13.9779557452
 30
0.0
 10
15.6305652222
 20
14.001806576
 30
0.0
 10
15.6470154953
 20
14.024479703
 30
0.0
 10
15.6637082829
 20
14.0459572978
 30
0.0
 10
15.6806306249
 20
14.0662224591
 30
0.0
 10
15.6977694421
 20
14.085259198
 30
0.0
 10
15.7151115233
 20
14.103052464
 30
0.0
 10
15.7326435212
 20
14.1195881607
 30
0.0
 10
15.7503519978
 20
14.1348530942
 30
0.0
 10
15.7682234214
 20
14.148834957
 30
0.0
 10
15.7862441131
 20
14.1615223784
 30
0.0
 10
15.8044002658
 20
14.1729048722
 30
0.0
 10
15.822677922
 20
14.1829728036
 30
0.0
 10
15.8410629151
 20
14.1917174301
 30
0.0
 10
15.8595408001
 20
14.1991309634
 30
0.0
 10
15.878096883
 20
14.2052065493
 30
0.0
 10
15.8967160213
 20
14.2099383359
 30
0.0
 10
15.9153831618
 20
14.2133216544
 30
0.0
 10
15.9340813111
 20
14.2153530776
 30
0.0
 10
15.9465691155
 20
14.2158049869
 30
0.0
 10
15.9527969611
 20
14.215804992
 30
0.0
  0
SPLINE
  5
2C3
100
AcDbEntity
  8
02___PRT_ALL_AXES
100
AcDbSpline
 62
7
  6
CONTINUOUS
 70
0
 71
3
 72
32
 73
28
 74
0
 42
0.0000001
 43
0.0000001
 44
0.0000000001
 40
0.0
 40
0.0
 40
0.0
 40
0.0
 40
0.0836608617
 40
0.1647030251
 40
0.2430169821
 40
0.3185065024
 40
0.3910920446
 40
0.4607121783
 40
0.4943986523
 40
0.5273304612
 40
0.5595062246
 40
0.5909263113
 40
0.6215928783
 40
0.6515100297
 40
0.6806840018
 40
0.7091232239
 40
0.7368386133
 40
0.7638436232
 40
0.7901545257
 40
0.8157905558
 40
0.8407740895
 40
0.8651308981
 40
0.9120729728
 40
0.9347400086
 40
0.9569198886
 40
0.978657121
 40
1.0
 40
1.0
 40
1.0
 40
1.0
 10
15.5377400184
 20
13.3415867155
 30
0.0
 10
15.5428199444
 20
13.3580253622
 30
0.0
 10
15.5532624138
 20
13.3902539751
 30
0.0
 10
15.5700610796
 20
13.4373328429
 30
0.0
 10
15.5877156852
 20
13.4822979708
 30
0.0
 10
15.6061860788
 20
13.5250470594
 30
0.0
 10
15.6254301631
 20
13.5654826452
 30
0.0
 10
15.6422555105
 20
13.5975182858
 30
0.0
 10
15.6560858712
 20
13.6218879687
 30
0.0
 10
15.6665103545
 20
13.6393299922
 30
0.0
 10
15.6770943037
 20
13.6561273544
 30
0.0
 10
15.6878317611
 20
13.6722705612
 30
0.0
 10
15.6987166348
 20
13.6877504011
 30
0.0
 10
15.7097427907
 20
13.7025580516
 30
0.0
 10
15.720903962
 20
13.7166851031
 30
0.0
 10
15.7321939122
 20
13.7301234671
 30
0.0
 10
15.7436062377
 20
13.7428655204
 30
0.0
 10
15.7551345618
 20
13.7549039432
 30
0.0
 10
15.7667724502
 20
13.7662318918
 30
0.0
 10
15.7785132191
 20
13.7768427499
 30
0.0
 10
15.7903509465
 20
13.7867307885
 30
0.0
 10
15.8060589602
 20
13.7987931559
 30
0.0
 10
15.8221332959
 20
13.8095775591
 30
0.0
 10
15.838531601
 20
13.8189412851
 30
0.0
 10
15.8507514123
 20
13.8251350907
 30
0.0
 10
15.8630265038
 20
13.8305767549
 30
0.0
 10
15.8713127857
 20
13.8337276472
 30
0.0
 10
15.8754577945
 20
13.8351717581
 30
0.0
  0
SPLINE
  5
2C4
100
AcDbEntity
  8
LAYER_FEATURE
100
AcDbSpline
 62
7
  6
CONTINUOUS
 70
0
 71
3
 72
67
 73
63
 74
0
 42
0.0000001
 43
0.0000001
 44
0.0000000001
 40
0.0
 40
0.0
 40
0.0
 40
0.0
 40
0.0163581013
 40
0.0330510694
 40
0.0500642491
 40
0.0673826926
 40
0.0849905208
 40
0.1028713409
 40
0.1210081566
 40
0.1393834611
 40
0.15797927
 40
0.1767771682
 40
0.1957583526
 40
0.2149036734
 40
0.2536076561
 40
0.292731491
 40
0.3321134768
 40
0.371590054
 40
0.4109969877
 40
0.45017054
 40
0.4889486503
 40
0.5081400228
 40
0.5271731428
 40
0.546028763
 40
0.5646879707
 40
0.5831322282
 40
0.601343416
 40
0.6193038759
 40
0.6369964566
 40
0.65440456
 40
0.6715121917
 40
0.6883040129
 40
0.7047653969
 40
0.720882489
 40
0.7366422729
 40
0.7520326412
 40
0.7670424724
 40
0.7816617173
 40
0.7958814943
 40
0.8096941963
 40
0.8230936114
 40
0.8360750592
 40
0.8486355463
 40
0.8607739405
 40
0.872491169
 40
0.8837904436
 40
0.8946775128
 40
0.905160943
 40
0.9152524249
 40
0.9249671014
 40
0.9343239024
 40
0.9433458667
 40
0.9520604213
 40
0.9604995757
 40
0.9686999787
 40
0.9767027777
 40
0.9806449746
 40
0.9845550535
 40
0.9884391969
 40
0.9923037475
 40
0.9961551669
 40
1.0
 40
1.0
 40
1.0
 40
1.0
 10
14.5257690614
 20
13.5706499888
 30
0.0
 10
14.5208994392
 20
13.5548918857
 30
0.0
 10
14.5113864785
 20
13.5229514662
 30
0.0
 10
14.4979203286
 20
13.4742995934
 30
0.0
 10
14.4851252833
 20
13.4244665575
 30
0.0
 10
14.4730171032
 20
13.3735138151
 30
0.0
 10
14.4616106314
 20
13.3215035625
 30
0.0
 10
14.4509198669
 20
13.2684995958
 30
0.0
 10
14.4409579365
 20
13.2145668247
 30
0.0
 10
14.431737071
 20
13.1597713458
 30
0.0
 10
14.423268589
 20
13.1041802982
 30
0.0
 10
14.4155629012
 20
13.0478618507
 30
0.0
 10
14.4086294135
 20
12.9908848972
 30
0.0
 10
14.4003965091
 20
12.9138555629
 30
0.0
 10
14.3921097838
 20
12.816417927
 30
0.0
 10
14.385393913
 20
12.6984151808
 30
0.0
 10
14.3819040378
 20
12.5794934305
 30
0.0
 10
14.3816573192
 20
12.4602355925
 30
0.0
 10
14.3846549723
 20
12.3412251395
 30
0.0
 10
14.3908822617
 20
12.2230454223
 30
0.0
 10
14.3987641705
 20
12.125402434
 30
0.0
 10
14.4066761296
 20
12.0481650437
 30
0.0
 10
14.4133731352
 20
11.9910017543
 30
0.0
 10
14.4208450308
 20
11.9344758225
 30
0.0
 10
14.4290826959
 20
11.8786563975
 30
0.0
 10
14.4380760028
 20
11.8236119296
 30
0.0
 10
14.4478139141
 20
11.7694098675
 30
0.0
 10
14.4582844715
 20
11.7161166316
 30
0.0
 10
14.4694748211
 20
11.6637975174
 30
0.0
 10
14.4813712271
 20
11.6125166186
 30
0.0
 10
14.4939590903
 20
11.5623367473
 30
0.0
 10
14.5072229662
 20
11.5133193555
 30
0.0
 10
14.5211465859
 20
11.4655244589
 30
0.0
 10
14.535712878
 20
11.4190105608
 30
0.0
 10
14.5509039877
 20
11.373834577
 30
0.0
 10
14.5667013039
 20
11.3300517641
 30
0.0
 10
14.5830854864
 20
11.2877156515
 30
0.0
 10
14.6000364941
 20
11.2468779748
 30
0.0
 10
14.6175336148
 20
11.2075886106
 30
0.0
 10
14.6355554978
 20
11.1698955143
 30
0.0
 10
14.6540801891
 20
11.1338446611
 30
0.0
 10
14.6730851696
 20
11.0994799891
 30
0.0
 10
14.6925473921
 20
11.0668433456
 30
0.0
 10
14.7124433301
 20
11.0359744446
 30
0.0
 10
14.732749025
 20
11.0069108316
 30
0.0
 10
14.7534401366
 20
10.9796878566
 30
0.0
 10
14.7744919939
 20
10.9543386602
 30
0.0
 10
14.7958796448
 20
10.9308941747
 30
0.0
 10
14.8175778975
 20
10.9093831455
 30
0.0
 10
14.8395613492
 20
10.8898321689
 30
0.0
 10
14.8618043694
 20
10.8722657518
 30
0.0
 10
14.884281107
 20
10.8567063815
 30
0.0
 10
14.9069652252
 20
10.8431746199
 30
0.0
 10
14.9298303165
 20
10.8316890313
 30
0.0
 10
14.9528476167
 20
10.8222664872
 30
0.0
 10
14.9722324659
 20
10.8161142595
 30
0.0
 10
14.9877515393
 20
10.8122609221
 30
0.0
 10
14.999352355
 20
10.8099063909
 30
0.0
 10
15.0109676952
 20
10.8080743616
 30
0.0
 10
15.0225941866
 20
10.8067652731
 30
0.0
 10
15.0342277976
 20
10.8059796491
 30
0.0
 10
15.0419888187
 20
10.8058050063
 30
0.0
 10
15.045865444
 20
10.8058050025
 30
0.0
  0
SPLINE
  5
2C5
100
AcDbEntity
  8
LAYER_FEATURE
100
AcDbSpline
 62
7
  6
CONTINUOUS
 70
0
 71
3
 72
39
 73
35
 74
0
 42
0.0000001
 43
0.0000001
 44
0.0000000001
 40
0.0
 40
0.0
 40
0.0
 40
0.0
 40
0.0467037637
 40
0.0923870732
 40
0.1370161917
 40
0.1805620118
 40
0.2229972281
 40
0.2642981043
 40
0.3044442466
 40
0.343419048
 40
0.381210025
 40
0.4178092126
 40
0.4532136267
 40
0.4874257782
 40
0.5204542647
 40
0.5523144171
 40
0.5830290161
 40
0.6126290806
 40
0.6411547094
 40
0.668655951
 40
0.6951936559
 40
0.7208402252
 40
0.7456801774
 40
0.7698104075
 40
0.7933399936
 40
0.8163894172
 40
0.839089085
 40
0.8615771321
 40
0.8839965902
 40
0.9064921163
 40
0.9292065679
 40
0.9522777441
 40
0.9758355818
 40
1.0
 40
1.0
 40
1.0
 40
1.0
 10
14.5885835309
 20
13.49268556
 30
0.0
 10
14.5928704968
 20
13.5065581869
 30
0.0
 10
14.6016182228
 20
13.5339186354
 30
0.0
 10
14.6154222285
 20
13.5742206312
 30
0.0
 10
14.6297513934
 20
13.6132952299
 30
0.0
 10
14.6445889807
 20
13.6510970457
 30
0.0
 10
14.6599180206
 20
13.6875827506
 30
0.0
 10
14.6757208155
 20
13.7227102789
 30
0.0
 10
14.6919792163
 20
13.7564392509
 30
0.0
 10
14.7086745509
 20
13.7887309009
 30
0.0
 10
14.7257876904
 20
13.8195481456
 30
0.0
 10
14.7432990757
 20
13.8488556166
 30
0.0
 10
14.7611887501
 20
13.8766196959
 30
0.0
 10
14.7794364023
 20
13.9028085472
 30
0.0
 10
14.7980213915
 20
13.9273921486
 30
0.0
 10
14.8169227963
 20
13.9503423021
 30
0.0
 10
14.8361194563
 20
13.971632628
 30
0.0
 10
14.8555900031
 20
13.991238552
 30
0.0
 10
14.8753128855
 20
14.0091372774
 30
0.0
 10
14.895266373
 20
14.0253077451
 30
0.0
 10
14.915428521
 20
14.0397305972
 30
0.0
 10
14.9357771197
 20
14.0523881105
 30
0.0
 10
14.9562895806
 20
14.0632641642
 30
0.0
 10
14.976942781
 20
14.0723442614
 30
0.0
 10
14.9977128888
 20
14.0796156267
 30
0.0
 10
15.0185752015
 20
14.0850674304
 30
0.0
 10
15.0395040773
 20
14.0886910997
 30
0.0
 10
15.0604730187
 20
14.0904806594
 30
0.0
 10
15.0814549101
 20
14.0904330671
 30
0.0
 10
15.1024224538
 20
14.0885483878
 30
0.0
 10
15.123348467
 20
14.0848298568
 30
0.0
 10
15.144206846
 20
14.0792834383
 30
0.0
 10
15.1649706319
 20
14.0719184856
 30
0.0
 10
15.1785440963
 20
14.0658876037
 30
0.0
 10
15.185295216
 20
14.0625919897
 30
0.0
  0
SPLINE
  5
2C6
100
AcDbEntity
  8
LAYER_FEATURE
100
AcDbSpline
 62
7
  6
CONTINUOUS
 70
0
 71
3
 72
75
 73
71
 74
0
 42
0.0000001
 43
0.0000001
 44
0.0000000001
 40
0.0
 40
0.0
 40
0.0
 40
0.0
 40
0.0170209558
 40
0.0344178455
 40
0.0521728093
 40
0.0702673066
 40
0.0886817601
 40
0.107395866
 40
0.1263885689
 40
0.1456381639
 40
0.1651223492
 40
0.1848182917
 40
0.2047026855
 40
0.2247518098
 40
0.244941586
 40
0.2652476326
 40
0.3061086883
 40
0.3471370797
 40
0.3881323335
 40
0.4085554848
 40
0.4288953997
 40
0.4491273767
 40
0.4692269443
 40
0.4891699147
 40
0.5089324394
 40
0.5284910652
 40
0.5478227919
 40
0.566905131
 40
0.5857161667
 40
0.6042346196
 40
0.6224399127
 40
0.640312241
 40
0.657832646
 40
0.6749830939
 40
0.691746562
 40
0.7081071302
 40
0.7240500836
 40
0.7395620244
 40
0.7546309976
 40
0.7692466312
 40
0.7834002961
 40
0.7970852874
 40
0.8102970317
 40
0.8230333255
 40
0.8352946079
 40
0.847084273
 40
0.8584090252
 40
0.8692792778
 40
0.8797095925
 40
0.8897191499
 40
0.8993322277
 40
0.9085786525
 40
0.9174941671
 40
0.926120637
 40
0.9303412409
 40
0.9345080563
 40
0.9386279597
 40
0.9427081261
 40
0.9467560054
 40
0.9507792703
 40
0.9547857725
 40
0.9587834859
 40
0.96278045
 40
0.9667847095
 40
0.9708042561
 40
0.9748469664
 40
0.9789205535
 40
0.9830325077
 40
0.9913980803
 40
1.0
 40
1.0
 40
1.0
 40
1.0
 10
14.5885835309
 20
13.49268556
 30
0.0
 10
14.5836894193
 20
13.4768482091
 30
0.0
 10
14.5741487214
 20
13.4447127741
 30
0.0
 10
14.5607127452
 20
13.3957080756
 30
0.0
 10
14.5480099748
 20
13.345429116
 30
0.0
 10
14.536058802
 20
13.2939486275
 30
0.0
 10
14.5248764393
 20
13.2413404994
 30
0.0
 10
14.5144790139
 20
13.1876804941
 30
0.0
 10
14.504881525
 20
13.1330458147
 30
0.0
 10
14.496097816
 20
13.0775151086
 30
0.0
 10
14.4881405598
 20
13.0211683119
 30
0.0
 10
14.4810212381
 20
12.9640865508
 30
0.0
 10
14.4747501198
 20
12.9063520009
 30
0.0
 10
14.4693362686
 20
12.8480478401
 30
0.0
 10
14.4647874427
 20
12.7892578602
 30
0.0
 10
14.4598747387
 20
12.7101762803
 30
0.0
 10
14.4559455226
 20
12.6107118313
 30
0.0
 10
14.4547632676
 20
12.4910266732
 30
0.0
 10
14.456722115
 20
12.3912593256
 30
0.0
 10
14.4600615539
 20
12.3117044615
 30
0.0
 10
14.4634417024
 20
12.2523967194
 30
0.0
 10
14.4676953852
 20
12.1934612693
 30
0.0
 10
14.4728165141
 20
12.1349828145
 30
0.0
 10
14.4787976865
 20
12.0770456115
 30
0.0
 10
14.4856302752
 20
12.0197330756
 30
0.0
 10
14.49330442
 20
11.9631277323
 30
0.0
 10
14.5018090483
 20
11.9073110779
 30
0.0
 10
14.5111318896
 20
11.8523634663
 30
0.0
 10
14.5212594948
 20
11.7983639913
 30
0.0
 10
14.5321772551
 20
11.7453903707
 30
0.0
 10
14.5438694247
 20
11.6935188336
 30
0.0
 10
14.556319144
 20
11.6428240084
 30
0.0
 10
14.5695084658
 20
11.5933788135
 30
0.0
 10
14.5834183826
 20
11.54525435
 30
0.0
 10
14.598028857
 20
11.4985197969
 30
0.0
 10
14.6133188535
 20
11.4532423085
 30
0.0
 10
14.6292663733
 20
11.4094869144
 30
0.0
 10
14.6458484908
 20
11.3673164223
 30
0.0
 10
14.6630413951
 20
11.3267913251
 30
0.0
 10
14.680820434
 20
11.2879697114
 30
0.0
 10
14.6991601616
 20
11.2509071802
 30
0.0
 10
14.7180343911
 20
11.2156567611
 30
0.0
 10
14.7374162521
 20
11.1822688407
 30
0.0
 10
14.7572782539
 20
11.1507910983
 30
0.0
 10
14.7775923542
 20
11.1212684532
 30
0.0
 10
14.7983300331
 20
11.0937430269
 30
0.0
 10
14.8194623682
 20
11.0682541271
 30
0.0
 10
14.8409601114
 20
11.0448382558
 30
0.0
 10
14.8627937356
 20
11.0235291564
 30
0.0
 10
14.8849335175
 20
11.0043578744
 30
0.0
 10
14.9073493354
 20
10.9873529242
 30
0.0
 10
14.930011218
 20
10.972540221
 30
0.0
 10
14.9528868543
 20
10.9599438616
 30
0.0
 10
14.9722447917
 20
10.9512478867
 30
0.0
 10
14.9877735231
 20
10.9454552581
 30
0.0
 10
14.9993672872
 20
10.9417063382
 30
0.0
 10
15.0109872583
 20
10.9385234533
 30
0.0
 10
15.0226294097
 20
10.9359078582
 30
0.0
 10
15.0342893688
 20
10.9338605585
 30
0.0
 10
15.0459628377
 20
10.9323824404
 30
0.0
 10
15.0576454562
 20
10.931474086
 30
0.0
 10
15.0693328598
 20
10.9311358669
 30
0.0
 10
15.0810206707
 20
10.9313679605
 30
0.0
 10
15.0927045112
 20
10.9321702014
 30
0.0
 10
15.1043800164
 20
10.9335423583
 30
0.0
 10
15.1160427948
 20
10.9354837241
 30
0.0
 10
15.1276886951
 20
10.9379937352
 30
0.0
 10
15.1432755337
 20
10.9421199036
 30
0.0
 10
15.1627398522
 20
10.9487345727
 30
0.0
 10
15.1778856282
 20
10.9553971149
 30
0.0
 10
15.1854122284
 20
10.9590751434
 30
0.0
  0
SPLINE
  5
2C7
100
AcDbEntity
  8
LAYER_FEATURE
100
AcDbSpline
 62
7
  6
CONTINUOUS
 70
0
 71
3
 72
15
 73
11
 74
0
 42
0.0000001
 43
0.0000001
 44
0.0000000001
 40
0.0
 40
0.0
 40
0.0
 40
0.0
 40
0.1220694044
 40
0.2497303719
 40
0.3806665067
 40
0.5124401608
 40
0.6425916514
 40
0.7687139887
 40
0.8885304367
 40
1.0
 40
1.0
 40
1.0
 40
1.0
 10
14.5616430599
 20
13.3475808675
 30
0.0
 10
14.5614602037
 20
13.3467136532
 30
0.0
 10
14.5611509422
 20
13.344925394
 30
0.0
 10
14.5608536673
 20
13.3421759998
 30
0.0
 10
14.5607165213
 20
13.3393434048
 30
0.0
 10
14.5607426465
 20
13.3364895965
 30
0.0
 10
14.560931436
 20
13.3336768979
 30
0.0
 10
14.561278671
 20
13.330966619
 30
0.0
 10
14.5617764703
 20
13.3284179411
 30
0.0
 10
14.5622196761
 20
13.3267959574
 30
0.0
 10
14.5624683584
 20
13.3260257884
 30
0.0
  0
SPLINE
  5
2C8
100
AcDbEntity
  8
LAYER_FEATURE
100
AcDbSpline
 62
7
  6
CONTINUOUS
 70
0
 71
3
 72
15
 73
11
 74
0
 42
0.0000001
 43
0.0000001
 44
0.0000000001
 40
0.0
 40
0.0
 40
0.0
 40
0.0
 40
0.13320316
 40
0.2658649282
 40
0.3970519656
 40
0.5258431329
 40
0.6513502469
 40
0.7727275145
 40
0.8891828953
 40
1.0
 40
1.0
 40
1.0
 40
1.0
 10
14.5845959871
 20
13.2204274632
 30
0.0
 10
14.5846389945
 20
13.2232452459
 30
0.0
 10
14.5846247195
 20
13.2288713984
 30
0.0
 10
14.5843044982
 20
13.237267225
 30
0.0
 10
14.5836882001
 20
13.2455530956
 30
0.0
 10
14.5827809786
 20
13.2536599625
 30
0.0
 10
14.5815905019
 20
13.2615203988
 30
0.0
 10
14.5801267382
 20
13.2690691701
 30
0.0
 10
14.5784020842
 20
13.2762434355
 30
0.0
 10
14.5770517984
 20
13.2808608757
 30
0.0
 10
14.5763313987
 20
13.2830919533
 30
0.0
  0
SPLINE
  5
2C9
100
AcDbEntity
  8
LAYER_FEATURE
100
AcDbSpline
 62
7
  6
CONTINUOUS
 70
0
 71
3
 72
38
 73
34
 74
0
 42
0.0000001
 43
0.0000001
 44
0.0000000001
 40
0.0
 40
0.0
 40
0.0
 40
0.0
 40
0.0220575275
 40
0.0441971191
 40
0.0664997202
 40
0.089044082
 40
0.1119058353
 40
0.1351566858
 40
0.1588637846
 40
0.1830893346
 40
0.2078902811
 40
0.2333182222
 40
0.259419456
 40
0.2862350299
 40
0.313800991
 40
0.342148618
 40
0.3713046332
 40
0.4012915696
 40
0.4321280003
 40
0.4638288068
 40
0.496405518
 40
0.5298664743
 40
0.5642171079
 40
0.5994601914
 40
0.6355959457
 40
0.6726223141
 40
0.710535104
 40
0.74932806
 40
0.7889931537
 40
0.8295206518
 40
0.870898898
 40
0.913115065
 40
1.0
 40
1.0
 40
1.0
 40
1.0
 10
15.0704205288
 20
14.0623049844
 30
0.0
 10
15.0652158698
 20
14.0623049902
 30
0.0
 10
15.0547838983
 20
14.061958358
 30
0.0
 10
15.03915946
 20
14.0603999984
 30
0.0
 10
15.0235566328
 20
14.0578041423
 30
0.0
 10
15.0079873117
 20
14.0541730359
 30
0.0
 10
14.9924620914
 20
14.0495095968
 30
0.0
 10
14.9769916948
 20
14.0438175203
 30
0.0
 10
14.9615865365
 20
14.0371012593
 30
0.0
 10
14.9462569236
 20
14.0293658043
 30
0.0
 10
14.9310129611
 20
14.0206168501
 30
0.0
 10
14.9158646113
 20
14.0108606833
 30
0.0
 10
14.9008217729
 20
14.0001041077
 30
0.0
 10
14.8858941798
 20
13.98835461
 30
0.0
 10
14.871091517
 20
13.9756202093
 30
0.0
 10
14.8564234162
 20
13.9619095019
 30
0.0
 10
14.8418993674
 20
13.9472317503
 30
0.0
 10
14.8275288542
 20
13.9315967529
 30
0.0
 10
14.8133212604
 20
13.9150149401
 30
0.0
 10
14.7992858489
 20
13.8974973763
 30
0.0
 10
14.7854318651
 20
13.8790556796
 30
0.0
 10
14.7717683965
 20
13.8597021189
 30
0.0
 10
14.7583044303
 20
13.8394495559
 30
0.0
 10
14.7450488921
 20
13.8183114192
 30
0.0
 10
14.732010508
 20
13.7963017714
 30
0.0
 10
14.7191979201
 20
13.7734352286
 30
0.0
 10
14.7066196472
 20
13.7497269784
 30
0.0
 10
14.694283997
 20
13.725192803
 30
0.0
 10
14.6821991789
 20
13.6998489806
 30
0.0
 10
14.6703732771
 20
13.6737124346
 30
0.0
 10
14.6588140156
 20
13.6468004434
 30
0.0
 10
14.6436224543
 20
13.6095515497
 30
0.0
 10
14.6328765237
 20
13.5810389139
 30
0.0
 10
14.6259568115
 20
13.5617407781
 30
0.0
  0
SPLINE
  5
2CA
100
AcDbEntity
  8
LAYER_FEATURE
100
AcDbSpline
 62
7
  6
CONTINUOUS
 70
0
 71
3
 72
15
 73
11
 74
0
 42
0.0000001
 43
0.0000001
 44
0.0000000001
 40
0.0
 40
0.0
 40
0.0
 40
0.0
 40
0.1318455436
 40
0.2666134713
 40
0.4018042628
 40
0.5348903751
 40
0.6634183956
 40
0.7850886497
 40
0.8978446988
 40
1.0
 40
1.0
 40
1.0
 40
1.0
 10
14.5127882541
 20
13.1079959453
 30
0.0
 10
14.5126682484
 20
13.1070713832
 30
0.0
 10
14.5124853203
 20
13.1051935857
 30
0.0
 10
14.5123766235
 20
13.1023528993
 30
0.0
 10
14.5124313115
 20
13.0995017792
 30
0.0
 10
14.5126482028
 20
13.0967025997
 30
0.0
 10
14.5130223976
 20
13.0940164258
 30
0.0
 10
14.5135455585
 20
13.0915014888
 30
0.0
 10
14.5142058618
 20
13.0892123965
 30
0.0
 10
14.5147574793
 20
13.0877929629
 30
0.0
 10
14.5150586075
 20
13.0871363508
 30
0.0
  0
SPLINE
  5
2CB
100
AcDbEntity
  8
LAYER_FEATURE
100
AcDbSpline
 62
7
  6
CONTINUOUS
 70
0
 71
3
 72
15
 73
11
 74
0
 42
0.0000001
 43
0.0000001
 44
0.0000000001
 40
0.0
 40
0.0
 40
0.0
 40
0.0
 40
0.1397663353
 40
0.2770697998
 40
0.4109652612
 40
0.5405453024
 40
0.6649637233
 40
0.7834478568
 40
0.8953148539
 40
1.0
 40
1.0
 40
1.0
 40
1.0
 10
14.543990815
 20
12.9930093826
 30
0.0
 10
14.5438436295
 20
12.9957846058
 30
0.0
 10
14.5434531643
 20
13.0012814766
 30
0.0
 10
14.542572164
 20
13.0094073789
 30
0.0
 10
14.5414071133
 20
13.0172930138
 30
0.0
 10
14.5399677766
 20
13.0248727856
 30
0.0
 10
14.5382662837
 20
13.032083817
 30
0.0
 10
14.5363168138
 20
13.0388665763
 30
0.0
 10
14.5341358169
 20
13.0451648011
 30
0.0
 10
14.532482025
 20
13.049144458
 30
0.0
 10
14.5316142997
 20
13.0510365396
 30
0.0
  0
SPLINE
  5
2CC
100
AcDbEntity
  8
LAYER_FEATURE
100
AcDbSpline
 62
7
  6
CONTINUOUS
 70
0
 71
3
 72
21
 73
17
 74
0
 42
0.0000001
 43
0.0000001
 44
0.0000000001
 40
0.0
 40
0.0
 40
0.0
 40
0.0
 40
0.0447070406
 40
0.0905663448
 40
0.138000303
 40
0.1873901744
 40
0.2390581931
 40
0.2932658124
 40
0.3502200847
 40
0.4100793813
 40
0.4729562933
 40
0.5389256952
 40
0.6080278057
 40
0.6802730859
 40
0.8340783111
 40
1.0
 40
1.0
 40
1.0
 40
1.0
 10
14.5131436784
 20
12.9087330925
 30
0.0
 10
14.5136963975
 20
12.9088191071
 30
0.0
 10
14.5148068581
 20
12.9090588055
 30
0.0
 10
14.516446996
 20
12.9096085137
 30
0.0
 10
14.5180742121
 20
12.9103502595
 30
0.0
 10
14.5196847986
 20
12.911281759
 30
0.0
 10
14.5212757323
 20
12.912400646
 30
0.0
 10
14.5228439202
 20
12.9137043284
 30
0.0
 10
14.5243863989
 20
12.9151898907
 30
0.0
 10
14.5259001541
 20
12.9168542061
 30
0.0
 10
14.5273823026
 20
12.9186937532
 30
0.0
 10
14.5288298435
 20
12.9207047765
 30
0.0
 10
14.5302399683
 20
12.9228831058
 30
0.0
 10
14.5321053101
 20
12.9260715383
 30
0.0
 10
14.5343124686
 20
12.930456966
 30
0.0
 10
14.5358578096
 20
12.9341501897
 30
0.0
 10
14.5366025666
 20
12.9360880038
 30
0.0
  0
SPLINE
  5
2CD
100
AcDbEntity
  8
LAYER_FEATURE
100
AcDbSpline
 62
7
  6
CONTINUOUS
 70
0
 71
3
 72
20
 73
16
 74
0
 42
0.0000001
 43
0.0000001
 44
0.0000000001
 40
0.0
 40
0.0
 40
0.0
 40
0.0
 40
0.0369294094
 40
0.075759187
 40
0.1172997865
 40
0.1621816957
 40
0.2108346212
 40
0.2635224224
 40
0.3203736826
 40
0.3814084934
 40
0.4465609266
 40
0.5156917202
 40
0.6650241089
 40
0.8273418663
 40
1.0
 40
1.0
 40
1.0
 40
1.0
 10
14.4914644202
 20
12.9053593476
 30
0.0
 10
14.4912753631
 20
12.9053299264
 30
0.0
 10
14.490892561
 20
12.9052321749
 30
0.0
 10
14.4903364271
 20
12.9049807919
 30
0.0
 10
14.4897911895
 20
12.904624756
 30
0.0
 10
14.489259571
 20
12.9041669903
 30
0.0
 10
14.4887436882
 20
12.9036103451
 30
0.0
 10
14.4882459495
 20
12.902957858
 30
0.0
 10
14.4877687144
 20
12.9022130391
 30
0.0
 10
14.4873143944
 20
12.9013798436
 30
0.0
 10
14.4868853782
 20
12.900462702
 30
0.0
 10
14.486336027
 20
12.8990991883
 30
0.0
 10
14.4857359032
 20
12.8972167758
 30
0.0
 10
14.4851658539
 20
12.8947710783
 30
0.0
 10
14.4848896228
 20
12.8930561576
 30
0.0
 10
14.4847744786
 20
12.8921690506
 30
0.0
  0
SPLINE
  5
2CE
100
AcDbEntity
  8
LAYER_FEATURE
100
AcDbSpline
 62
7
  6
CONTINUOUS
 70
0
 71
3
 72
17
 73
13
 74
0
 42
0.0000001
 43
0.0000001
 44
0.0000000001
 40
0.0
 40
0.0
 40
0.0
 40
0.0
 40
0.1421763921
 40
0.2843219925
 40
0.4237974883
 40
0.5580351768
 40
0.6846516836
 40
0.8015428887
 40
0.8558053938
 40
0.9070402967
 40
0.9551349985
 40
1.0
 40
1.0
 40
1.0
 40
1.0
 10
14.4808768229
 20
12.8502656782
 30
0.0
 10
14.4808217835
 20
12.8493124349
 30
0.0
 10
14.4807679567
 20
12.8474024706
 30
0.0
 10
14.4808512133
 20
12.8445560395
 30
0.0
 10
14.4810960392
 20
12.8417722736
 30
0.0
 10
14.4814969662
 20
12.8391118689
 30
0.0
 10
14.4820450268
 20
12.8366327974
 30
0.0
 10
14.4826277757
 20
12.8347169207
 30
0.0
 10
14.4831641502
 20
12.8333224382
 30
0.0
 10
14.4835848022
 20
12.8323800013
 30
0.0
 10
14.4840314558
 20
12.8315201134
 30
0.0
 10
14.4843563229
 20
12.8309862171
 30
0.0
 10
14.4845232475
 20
12.8307353765
 30
0.0
  0
SPLINE
  5
2CF
100
AcDbEntity
  8
LAYER_FEATURE
100
AcDbSpline
 62
7
  6
CONTINUOUS
 70
0
 71
3
 72
15
 73
11
 74
0
 42
0.0000001
 43
0.0000001
 44
0.0000000001
 40
0.0
 40
0.0
 40
0.0
 40
0.0
 40
0.1469077605
 40
0.2891791648
 40
0.4258852183
 40
0.5561693486
 40
0.6792767829
 40
0.79457429
 40
0.9015782912
 40
1.0
 40
1.0
 40
1.0
 40
1.0
 10
14.5193809435
 20
12.7509397656
 30
0.0
 10
14.5190506492
 20
12.7535885836
 30
0.0
 10
14.5183012171
 20
12.758790913
 30
0.0
 10
14.5168864054
 20
12.7664010952
 30
0.0
 10
14.5152082343
 20
12.7736482577
 30
0.0
 10
14.5132807274
 20
12.7804723562
 30
0.0
 10
14.511120025
 20
12.7868171248
 30
0.0
 10
14.5087438408
 20
12.7926307898
 30
0.0
 10
14.50617197
 20
12.7978655183
 30
0.0
 10
14.5042593013
 20
12.8010776516
 30
0.0
 10
14.5032685552
 20
12.8025664637
 30
0.0
  0
SPLINE
  5
2D0
100
AcDbEntity
  8
LAYER_FEATURE
100
AcDbSpline
 62
7
  6
CONTINUOUS
 70
0
 71
3
 72
18
 73
14
 74
0
 42
0.0000001
 43
0.0000001
 44
0.0000000001
 40
0.0
 40
0.0
 40
0.0
 40
0.0
 40
0.0896773568
 40
0.1379408298
 40
0.1886656001
 40
0.2419569878
 40
0.2978834302
 40
0.3564838822
 40
0.417772435
 40
0.5483306974
 40
0.6892890624
 40
0.8400935566
 40
1.0
 40
1.0
 40
1.0
 40
1.0
 10
14.4947013574
 20
12.6541885656
 30
0.0
 10
14.4958190577
 20
12.6548759381
 30
0.0
 10
14.4974412322
 20
12.65609668
 30
0.0
 10
14.4994544587
 20
12.6579868062
 30
0.0
 10
14.5009738994
 20
12.6596189902
 30
0.0
 10
14.5024619507
 20
12.6614268248
 30
0.0
 10
14.5039160336
 20
12.6634069201
 30
0.0
 10
14.5053331975
 20
12.6655550818
 30
0.0
 10
14.5072092061
 20
12.6687042332
 30
0.0
 10
14.5094309576
 20
12.6730435599
 30
0.0
 10
14.5118517941
 20
12.678733578
 30
0.0
 10
14.5140614689
 20
12.6849658183
 30
0.0
 10
14.5153465486
 20
12.6893291206
 30
0.0
 10
14.5159540643
 20
12.6915886064
 30
0.0
  0
SPLINE
  5
2D1
100
AcDbEntity
  8
LAYER_FEATURE
100
AcDbSpline
 62
7
  6
CONTINUOUS
 70
0
 71
3
 72
18
 73
14
 74
0
 42
0.0000001
 43
0.0000001
 44
0.0000000001
 40
0.0
 40
0.0
 40
0.0
 40
0.0
 40
0.0790124208
 40
0.123618891
 40
0.1718752691
 40
0.2238599736
 40
0.2795614677
 40
0.3388963136
 40
0.4017224083
 40
0.5370156059
 40
0.683506907
 40
0.8387508091
 40
1.0
 40
1.0
 40
1.0
 40
1.0
 10
14.4735795945
 20
12.6411989302
 30
0.0
 10
14.473188421
 20
12.6409583631
 30
0.0
 10
14.4726343471
 20
12.6404855973
 30
0.0
 10
14.4719814706
 20
12.6397292234
 30
0.0
 10
14.4714904163
 20
12.6390438114
 30
0.0
 10
14.4710209667
 20
12.638267706
 30
0.0
 10
14.4705752223
 20
12.6374046091
 30
0.0
 10
14.4701555967
 20
12.6364592781
 30
0.0
 10
14.4696207342
 20
12.6350611857
 30
0.0
 10
14.4690400778
 20
12.6331414215
 30
0.0
 10
14.4684946374
 20
12.6306585092
 30
0.0
 10
14.4680965057
 20
12.627995374
 30
0.0
 10
14.4679372622
 20
12.6261615015
 30
0.0
 10
14.4678832395
 20
12.6252258661
 30
0.0
  0
SPLINE
  5
2D2
100
AcDbEntity
  8
LAYER_FEATURE
100
AcDbSpline
 62
7
  6
CONTINUOUS
 70
0
 71
3
 72
53
 73
49
 74
0
 42
0.0000001
 43
0.0000001
 44
0.0000000001
 40
0.0
 40
0.0
 40
0.0
 40
0.0
 40
0.0421389658
 40
0.0843189367
 40
0.126445794
 40
0.1684250747
 40
0.2101630997
 40
0.2515670919
 40
0.2925455841
 40
0.333008794
 40
0.3728690156
 40
0.4120410219
 40
0.450442477
 40
0.4879943745
 40
0.5246215134
 40
0.5602530021
 40
0.5948228034
 40
0.6282703496
 40
0.6605412477
 40
0.6762209802
 40
0.6915893913
 40
0.7066417993
 40
0.721374083
 40
0.7357827051
 40
0.7498647898
 40
0.7636181367
 40
0.7770412802
 40
0.7901335663
 40
0.8028951782
 40
0.8153272313
 40
0.8274318441
 40
0.839212194
 40
0.8506726394
 40
0.8618187876
 40
0.8726575902
 40
0.8831974722
 40
0.8934484035
 40
0.9034220188
 40
0.9131317226
 40
0.9318161887
 40
0.9408333028
 40
0.9496590845
 40
0.9583165304
 40
0.9668304504
 40
0.9752273138
 40
0.983535029
 40
0.9917826423
 40
1.0
 40
1.0
 40
1.0
 40
1.0
 10
14.4678832395
 20
12.6252258661
 30
0.0
 10
14.4671189733
 20
12.5986865004
 30
0.0
 10
14.4661239099
 20
12.5455650356
 30
0.0
 10
14.4662254521
 20
12.4658907444
 30
0.0
 10
14.4679189263
 20
12.3863346678
 30
0.0
 10
14.4711999016
 20
12.3071069646
 30
0.0
 10
14.4760596797
 20
12.2284166136
 30
0.0
 10
14.4824853875
 20
12.1504711914
 30
0.0
 10
14.4904600104
 20
12.0734762734
 30
0.0
 10
14.4999624463
 20
11.9976349132
 30
0.0
 10
14.5109675453
 20
11.9231470829
 30
0.0
 10
14.52344617
 20
11.8502091402
 30
0.0
 10
14.5373653015
 20
11.7790133035
 30
0.0
 10
14.5526881317
 20
11.7097471414
 30
0.0
 10
14.5693741459
 20
11.6425930325
 30
0.0
 10
14.5873792337
 20
11.5777277495
 30
0.0
 10
14.6066558955
 20
11.5153216977
 30
0.0
 10
14.6271531886
 20
11.4555394606
 30
0.0
 10
14.6453771142
 20
11.4075883602
 30
0.0
 10
14.6605469244
 20
11.3706877243
 30
0.0
 10
14.6720858752
 20
11.3440296885
 30
0.0
 10
14.6838876043
 20
11.3181415641
 30
0.0
 10
14.6959444
 20
11.2930403245
 30
0.0
 10
14.7082483499
 20
11.2687425265
 30
0.0
 10
14.7207913357
 20
11.24526414
 30
0.0
 10
14.7335651286
 20
11.2226206149
 30
0.0
 10
14.7465613724
 20
11.2008268557
 30
0.0
 10
14.7597715127
 20
11.1798971705
 30
0.0
 10
14.773186939
 20
11.1598453341
 30
0.0
 10
14.7867988866
 20
11.1406845261
 30
0.0
 10
14.800598454
 20
11.1224273226
 30
0.0
 10
14.8145767072
 20
11.1050857582
 30
0.0
 10
14.8287245428
 20
11.0886712258
 30
0.0
 10
14.8430328027
 20
11.0731945329
 30
0.0
 10
14.8574922582
 20
11.0586659448
 30
0.0
 10
14.8720936267
 20
11.0450950041
 30
0.0
 10
14.8868272644
 20
11.0324909298
 30
0.0
 10
14.9016847081
 20
11.0208615968
 30
0.0
 10
14.9213898694
 20
11.0068481808
 30
0.0
 10
14.941571494
 20
10.9945745648
 30
0.0
 10
14.9621493987
 20
10.9842466331
 30
0.0
 10
14.9774766994
 20
10.9775998702
 30
0.0
 10
14.992867813
 20
10.9719670273
 30
0.0
 10
15.0083129721
 20
10.967352109
 30
0.0
 10
15.023801506
 20
10.9637588654
 30
0.0
 10
15.03932301
 20
10.9611901003
 30
0.0
 10
15.0548657709
 20
10.9596479945
 30
0.0
 10
15.0652430437
 20
10.9593050012
 30
0.0
 10
15.0704205288
 20
10.9593050036
 30
0.0
  0
SPLINE
  5
2D3
100
AcDbEntity
  8
LAYER_FEATURE
100
AcDbSpline
 62
7
  6
CONTINUOUS
 70
0
 71
3
 72
15
 73
11
 74
0
 42
0.0000001
 43
0.0000001
 44
0.0000000001
 40
0.0
 40
0.0
 40
0.0
 40
0.0
 40
0.1126204601
 40
0.233296856
 40
0.3599530997
 40
0.4902911285
 40
0.6218950407
 40
0.7523079002
 40
0.8791063589
 40
1.0
 40
1.0
 40
1.0
 40
1.0
 10
14.6259568115
 20
13.5617407781
 30
0.0
 10
14.6257150254
 20
13.5609583581
 30
0.0
 10
14.6252859426
 20
13.5593148974
 30
0.0
 10
14.6248093053
 20
13.556739369
 30
0.0
 10
14.6244845749
 20
13.5540105622
 30
0.0
 10
14.6243191253
 20
13.5511880871
 30
0.0
 10
14.6243166528
 20
13.5483334904
 30
0.0
 10
14.6244772322
 20
13.5455091094
 30
0.0
 10
14.6247971924
 20
13.5427767461
 30
0.0
 10
14.6251216238
 20
13.5410033838
 30
0.0
 10
14.625311979
 20
13.5401451546
 30
0.0
  0
SPLINE
  5
2D4
100
AcDbEntity
  8
LAYER_FEATURE
100
AcDbSpline
 62
7
  6
CONTINUOUS
 70
0
 71
3
 72
15
 73
11
 74
0
 42
0.0000001
 43
0.0000001
 44
0.0000000001
 40
0.0
 40
0.0
 40
0.0
 40
0.0
 40
0.1270541201
 40
0.2553207885
 40
0.383896457
 40
0.511868149
 40
0.6383329274
 40
0.7624063719
 40
0.8832318236
 40
1.0
 40
1.0
 40
1.0
 40
1.0
 10
14.639962692
 20
13.4262840242
 30
0.0
 10
14.640197183
 20
13.4290586753
 30
0.0
 10
14.6405646975
 20
13.4346437251
 30
0.0
 10
14.6408150624
 20
13.4430552377
 30
0.0
 10
14.6407663906
 20
13.4514905526
 30
0.0
 10
14.6404190515
 20
13.4598793256
 30
0.0
 10
14.6397759991
 20
13.4681517181
 30
0.0
 10
14.6388426155
 20
13.4762389173
 30
0.0
 10
14.637626822
 20
13.4840735028
 30
0.0
 10
14.6366152903
 20
13.4891834219
 30
0.0
 10
14.636061146
 20
13.4916818186
 30
0.0
  0
SPLINE
  5
2D5
100
AcDbEntity
  8
LAYER_FEATURE
100
AcDbSpline
 62
7
  6
CONTINUOUS
 70
0
 71
3
 72
39
 73
35
 74
0
 42
0.0000001
 43
0.0000001
 44
0.0000000001
 40
0.0
 40
0.0
 40
0.0
 40
0.0
 40
0.0443812481
 40
0.0879669295
 40
0.1307335086
 40
0.172661876
 40
0.2137331571
 40
0.2539301992
 40
0.2932376968
 40
0.3316421073
 40
0.369131911
 40
0.4056977099
 40
0.4413323968
 40
0.4760313903
 40
0.5097927974
 40
0.5426176342
 40
0.5745101269
 40
0.6054779669
 40
0.6355325892
 40
0.664689538
 40
0.6929688298
 40
0.7203952869
 40
0.7469989387
 40
0.7728154376
 40
0.7978863828
 40
0.8222596394
 40
0.8459896168
 40
0.869137373
 40
0.8917705712
 40
0.9139632708
 40
0.935795451
 40
0.9573522592
 40
0.9787230199
 40
1.0
 40
1.0
 40
1.0
 40
1.0
 10
14.5257690614
 20
13.5706499888
 30
0.0
 10
14.5296044854
 20
13.5830614256
 30
0.0
 10
14.537405327
 20
13.6076009723
 30
0.0
 10
14.5496121132
 20
13.6438698324
 30
0.0
 10
14.5622111457
 20
13.6792432911
 30
0.0
 10
14.5751922783
 20
13.7136930241
 30
0.0
 10
14.5885453653
 20
13.747192097
 30
0.0
 10
14.6022598354
 20
13.7797140202
 30
0.0
 10
14.6163248709
 20
13.8112331345
 30
0.0
 10
14.6307294014
 20
13.8417245953
 30
0.0
 10
14.6454620583
 20
13.8711643786
 30
0.0
 10
14.6605112538
 20
13.8995292885
 30
0.0
 10
14.6758651815
 20
13.9267969754
 30
0.0
 10
14.6915117698
 20
13.9529459868
 30
0.0
 10
14.7074387562
 20
13.9779557499
 30
0.0
 10
14.7236337096
 20
14.001806572
 30
0.0
 10
14.7400839826
 20
14.0244796986
 30
0.0
 10
14.7567767601
 20
14.045957303
 30
0.0
 10
14.7736991059
 20
14.0662224606
 30
0.0
 10
14.7908379331
 20
14.085259189
 30
0.0
 10
14.8081800044
 20
14.1030524658
 30
0.0
 10
14.8257119965
 20
14.1195881699
 30
0.0
 10
14.843420488
 20
14.1348530843
 30
0.0
 10
14.8612919074
 20
14.1488349515
 30
0.0
 10
14.8793125882
 20
14.1615223912
 30
0.0
 10
14.8974687502
 20
14.1729048701
 30
0.0
 10
14.9157464113
 20
14.182972789
 30
0.0
 10
14.9341313939
 20
14.191717439
 30
0.0
 10
14.9526092802
 20
14.199130973
 30
0.0
 10
14.9711653707
 20
14.2052065322
 30
0.0
 10
14.989784504
 20
14.2099383333
 30
0.0
 10
15.0084516425
 20
14.2133216739
 30
0.0
 10
15.0271497953
 20
14.2153530618
 30
0.0
 10
15.0396375986
 20
14.2158049894
 30
0.0
 10
15.045865444
 20
14.2158049833
 30
0.0
  0
SPLINE
  5
2D6
100
AcDbEntity
  8
02___PRT_ALL_AXES
100
AcDbSpline
 62
7
  6
CONTINUOUS
 70
0
 71
3
 72
15
 73
11
 74
0
 42
0.0000001
 43
0.0000001
 44
0.0000000001
 40
0.0
 40
0.0
 40
0.0
 40
0.0
 40
0.1342984648
 40
0.2647984008
 40
0.3920025889
 40
0.5164815083
 40
0.6388502046
 40
0.7597652988
 40
0.8799140996
 40
1.0
 40
1.0
 40
1.0
 40
1.0
 10
15.8776011976
 20
11.6892921402
 30
0.0
 10
15.8741928434
 20
11.6872419465
 30
0.0
 10
15.8673415476
 20
11.6834118185
 30
0.0
 10
15.8568349955
 20
11.6784506089
 30
0.0
 10
15.8462669018
 20
11.6743674908
 30
0.0
 10
15.8356492391
 20
11.6711680709
 30
0.0
 10
15.8249935113
 20
11.6688566201
 30
0.0
 10
15.8143115651
 20
11.6674364961
 30
0.0
 10
15.8036167103
 20
11.6669097549
 30
0.0
 10
15.7964962499
 20
11.667154477
 30
0.0
 10
15.7929499334
 20
11.6674238301
 30
0.0
  0
SPLINE
  5
2D7
100
AcDbEntity
  8
02___PRT_ALL_AXES
100
AcDbSpline
 62
7
  6
CONTINUOUS
 70
0
 71
3
 72
25
 73
21
 74
0
 42
0.0000001
 43
0.0000001
 44
0.0000000001
 40
0.0
 40
0.0
 40
0.0
 40
0.0
 40
0.0894093487
 40
0.1761935074
 40
0.2599832615
 40
0.3404388831
 40
0.4172547951
 40
0.4901665306
 40
0.5589584081
 40
0.6234734151
 40
0.683625767
 40
0.7394172937
 40
0.7909587493
 40
0.8384967711
 40
0.8824453992
 40
0.9234164929
 40
0.9430539301
 40
0.9622739257
 40
0.9812091538
 40
1.0
 40
1.0
 40
1.0
 40
1.0
 10
15.7844174706
 20
13.3532529656
 30
0.0
 10
15.7839749014
 20
13.3560925519
 30
0.0
 10
15.7830122485
 20
13.3616747631
 30
0.0
 10
15.7813082028
 20
13.3698575002
 30
0.0
 10
15.7793728445
 20
13.3776927921
 30
0.0
 10
15.7772169112
 20
13.3851375003
 30
0.0
 10
15.7748522983
 20
13.3921508809
 30
0.0
 10
15.7722920039
 20
13.398694637
 30
0.0
 10
15.7695499915
 20
13.4047332109
 30
0.0
 10
15.7666410294
 20
13.4102339876
 30
0.0
 10
15.7635804842
 20
13.415167474
 30
0.0
 10
15.7603839806
 20
13.4195073984
 30
0.0
 10
15.7570671948
 20
13.4232305937
 30
0.0
 10
15.7536449801
 20
13.4263166675
 30
0.0
 10
15.7501331051
 20
13.4287467563
 30
0.0
 10
15.747099874
 20
13.4302310149
 30
0.0
 10
15.7446657715
 20
13.4310520291
 30
0.0
 10
15.7428569878
 20
13.4314867817
 30
0.0
 10
15.7410427269
 20
13.4317479485
 30
0.0
 10
15.739829315
 20
13.4318061102
 30
0.0
 10
15.7392253244
 20
13.4318061154
 30
0.0
  0
ENDSEC
  0
SECTION
  2
OBJECTS
  0
DICTIONARY
  5
C
100
AcDbDictionary
280
0
281
1
  3
ACAD_GROUP
350
D
  3
ACAD_MLINESTYLE
350
17
  3
ACAD_LAYOUT
350
1A
  3
ACAD_PLOTSETTINGS
350
19
  3
ACAD_PLOTSTYLENAME
350
E
  0
DICTIONARY
  5
D
102
{ACAD_REACTORS
330
C
102
}
100
AcDbDictionary
280
0
281
1
  0
ACDBDICTIONARYWDFLT
  5
E
102
{ACAD_REACTORS
330
C
102
}
100
AcDbDictionary
281
1
  3
Normal
350
F
100
AcDbDictionaryWithDefault
340
F
  0
DICTIONARY
  5
17
102
{ACAD_REACTORS
330
C
102
}
100
AcDbDictionary
280
0
281
1
  3
Standard
350
18
  0
DICTIONARY
  5
19
102
{ACAD_REACTORS
330
C
102
}
100
AcDbDictionary
281
1
  0
DICTIONARY
  5
1A
102
{ACAD_REACTORS
330
C
102
}
100
AcDbDictionary
281
1
  3
Model
350
2D8
  3
Layout1
350
2D9
  0
ACDBPLACEHOLDER
  5
F
102
{ACAD_REACTORS
330
E
102
}
  0
MLINESTYLE
  5
18
102
{ACAD_REACTORS
330
17
102
}
100
AcDbMlineStyle
  2
STANDARD
 70
0
  3

 62
256
 51
90.0
 52
90.0
 71
2
 49
0.5
 62
256
  6
BYLAYER
 49
-0.5
 62
256
  6
BYLAYER
  0
LAYOUT
  5
2D8
102
{ACAD_REACTORS
330
1A
102
}
100
AcDbPlotSettings
  1

  2
none_device
  4
ANSI_C_(22.00_x_17.00_Inches)
  6

 40
0.0
 41
0.0
 42
0.0
 43
0.0
 44
558.8
 45
431.8
 46
0.0
 47
0.0
 48
0.0
 49
0.0
140
0.0
141
0.0
142
1.0
143
1.0
 70
1024
 72
0
 73
0
 74
0
  7

 75
0
147
1.0
148
0.0
149
0.0
100
AcDbLayout
  1
Model
 70
0
 71
0
 10
0.0
 20
0.0
 11
22.0
 21
17.0
 12
0.0
 22
0.0
 32
0.0
 14
0.0
 24
0.0
 34
0.0
 15
0.0
 25
0.0
 35
0.0
146
0.0
 13
0.0
 23
0.0
 33
0.0
 16
1.0
 26
0.0
 36
0.0
 17
0.0
 27
1.0
 37
0.0
 76
0
330
222
345
0
346
0
  0
LAYOUT
  5
2D9
102
{ACAD_REACTORS
330
1A
102
}
100
AcDbPlotSettings
  1

  2
none_device
  4
ANSI_C_(22.00_x_17.00_Inches)
  6

 40
0.0
 41
0.0
 42
0.0
 43
0.0
 44
558.8
 45
431.8
 46
0.0
 47
0.0
 48
0.0
 49
0.0
140
0.0
141
0.0
142
1.0
143
1.0
 70
0
 72
0
 73
0
 74
0
  7

 75
0
147
1.0
148
0.0
149
0.0
100
AcDbLayout
  1
Layout1
 70
0
 71
1
 10
0.0
 20
0.0
 11
22.0
 21
17.0
 12
0.0
 22
0.0
 32
0.0
 14
0.0
 24
0.0
 34
0.0
 15
0.0
 25
0.0
 35
0.0
146
0.0
 13
0.0
 23
0.0
 33
0.0
 16
1.0
 26
0.0
 36
0.0
 17
0.0
 27
1.0
 37
0.0
 76
0
330
223
345
0
346
0
  0
ENDSEC
  0
EOF