999
DXF file: _cgs_temp_output.dxf
999
Pro/ENGINEER 2016360 by Parametric Technology Corporation
  0
SECTION
  2
HEADER
  9
$ACADVER
  1
AC1021
  9
$DWGCODEPAGE
  3
ANSI_1252
  9
$EXTMAX
 10
22.0
 20
17.0
 30
0.0
  9
$EXTMIN
 10
0.0
 20
0.0
 30
0.0
  9
$LIMMIN
 10
0.0
 20
0.0
  9
$LIMMAX
 10
22.0
 20
17.0
  9
$VIEWCTR
 10
11.0
 20
8.5
  9
$VIEWSIZE
 40
17.0
  9
$CLAYER
  8
0
  9
$LTSCALE
 40
1.21
  9
$CELTYPE
  6
BYLAYER
  9
$DIMSCALE
 40
1.0
  9
$DIMASZ
 40
0.1875
  9
$DIMEXO
 40
0.0625
  9
$DIMDLI
 40
0.836
  9
$DIMEXE
 40
0.125
  9
$DIMCEN
 40
0.198
  9
$DIMLFAC
 40
1.0
  9
$DIMBLK
  1
_CLOSED
  9
$DIMALT
 70
0
  9
$DIMALTF
 40
25.4
  9
$DIMTXT
 40
0.15625
  9
$DIMTOL
 70
0
  9
$DIMLIM
 70
0
  9
$DIMTFAC
 40
1.0
  9
$DIMGAP
 40
0.09
  9
$DIMDSEP
 70
46
  9
$AUNITS
 70
0
  9
$PDMODE
 70
3
  9
$PDSIZE
 40
0.3125
  9
$HANDSEED
  5
2D3
  9
$TILEMODE
 70
1
  9
$MEASUREMENT
 70
0
  9
$INSUNITS
 70
1
  0
ENDSEC
  0
SECTION
  2
CLASSES
  0
CLASS
  1
ACDBDICTIONARYWDFLT
  2
AcDbDictionaryWithDefault
  3
AutoCAD 2000
 90
0
 91
1
280
0
281
0
  0
CLASS
  1
ACDBPLACEHOLDER
  2
AcDbPlaceHolder
  3
AutoCAD 2000
 90
0
 91
1
280
0
281
0
  0
CLASS
  1
LAYOUT
  2
AcDbLayout
  3
AutoCAD 2000
 90
0
 91
0
280
0
281
0
  0
ENDSEC
  0
SECTION
  2
TABLES
  0
TABLE
  2
VPORT
  5
8
100
AcDbSymbolTable
 70
2
  0
VPORT
  5
1F4
100
AcDbSymbolTableRecord
100
AcDbViewportTableRecord
  2
*ACTIVE
 70
0
 10
0.0
 20
0.0
 11
1.0
 21
1.0
 12
11.0
 22
8.5
 13
0.0
 23
0.0
 14
1.0
 24
1.0
 15
0.0
 25
0.0
 16
0.0
 26
0.0
 36
1.0
 17
0.0
 27
0.0
 37
0.0
 40
17.0
 41
1.2941176471
 42
50.0
 43
0.0
 44
0.0
 50
0.0
 51
0.0
 71
0
 72
100
 73
1
 74
1
 75
0
 76
0
 77
0
 78
0
  0
ENDTAB
  0
TABLE
  2
LTYPE
  5
5
100
AcDbSymbolTable
 70
6
  0
LTYPE
  5
14
100
AcDbSymbolTableRecord
100
AcDbLinetypeTableRecord
  2
BYBLOCK
 70
0
  3

 72
65
 73
0
 40
0.0
  0
LTYPE
  5
15
100
AcDbSymbolTableRecord
100
AcDbLinetypeTableRecord
  2
BYLAYER
 70
0
  3

 72
65
 73
0
 40
0.0
  0
LTYPE
  5
16
100
AcDbSymbolTableRecord
100
AcDbLinetypeTableRecord
  2
CONTINUOUS
 70
64
  3
Solid line
 72
65
 73
0
 40
0.0
  0
LTYPE
  5
1F5
100
AcDbSymbolTableRecord
100
AcDbLinetypeTableRecord
  2
CENTER
 70
64
  3
____ _ ____ _ ____ _ ____ _ ____ _ ____ _ ____
 72
65
 73
4
 40
0.6
 49
0.375
 74
0
 49
-0.075
 74
0
 49
0.075
 74
0
 49
-0.075
 74
0
  0
LTYPE
  5
1F6
100
AcDbSymbolTableRecord
100
AcDbLinetypeTableRecord
  2
HIDDEN
 70
64
  3
- - - - - - - - - - - - - - - - - - - -
 72
65
 73
2
 40
0.2
 49
0.1
 74
0
 49
-0.1
 74
0
  0
LTYPE
  5
1F7
100
AcDbSymbolTableRecord
100
AcDbLinetypeTableRecord
  2
PHANTOM
 70
64
  3
_____ _ _ _____ _ _ _____ _ _ _____
 72
65
 73
6
 40
0.8
 49
0.45
 74
0
 49
-0.05
 74
0
 49
0.1
 74
0
 49
-0.05
 74
0
 49
0.1
 74
0
 49
-0.05
 74
0
  0
LTYPE
  5
1F8
100
AcDbSymbolTableRecord
100
AcDbLinetypeTableRecord
  2
DOT
 70
64
  3
. . . . . . . . . . . . . . . . . . . .
 72
65
 73
2
 40
0.2
 49
0.1
 74
0
 49
-0.1
 74
0
  0
LTYPE
  5
1F9
100
AcDbSymbolTableRecord
100
AcDbLinetypeTableRecord
  2
DASHED
 70
64
  3
- - - - - - - - - - - - - - - - - - - -
 72
65
 73
2
 40
0.2
 49
0.1
 74
0
 49
-0.1
 74
0
  0
ENDTAB
  0
TABLE
  2
LAYER
  5
2
100
AcDbSymbolTable
 70
36
  0
LAYER
  5
10
100
AcDbSymbolTableRecord
100
AcDbLayerTableRecord
  2
0
 70
0
 62
7
  6
CONTINUOUS
370
-3
390
F
  0
LAYER
  5
1FA
100
AcDbSymbolTableRecord
100
AcDbLayerTableRecord
  2
DEFAULT_1
 70
0
 62
7
  6
CENTER
370
-3
390
F
  0
LAYER
  5
1FB
100
AcDbSymbolTableRecord
100
AcDbLayerTableRecord
  2
DEFAULT_2
 70
0
 62
8
  6
HIDDEN
370
-3
390
F
  0
LAYER
  5
1FC
100
AcDbSymbolTableRecord
100
AcDbLayerTableRecord
  2
DEFAULT_3
 70
0
 62
7
  6
PHANTOM
370
-3
390
F
  0
LAYER
  5
1FD
100
AcDbSymbolTableRecord
100
AcDbLayerTableRecord
  2
01_ALL_DTM_PLN
 70
0
 62
7
  6
CONTINUOUS
370
-3
390
F
  0
LAYER
  5
1FE
100
AcDbSymbolTableRecord
100
AcDbLayerTableRecord
  2
01__ASM_ALL_DTM_PLN
 70
0
 62
7
  6
CONTINUOUS
370
-3
390
F
  0
LAYER
  5
1FF
100
AcDbSymbolTableRecord
100
AcDbLayerTableRecord
  2
01__ASM_DEF_DTM_PLN
 70
0
 62
7
  6
CONTINUOUS
370
-3
390
F
  0
LAYER
  5
200
100
AcDbSymbolTableRecord
100
AcDbLayerTableRecord
  2
01___PRT_ALL_DTM_PLN
 70
0
 62
7
  6
CONTINUOUS
370
-3
390
F
  0
LAYER
  5
201
100
AcDbSymbolTableRecord
100
AcDbLayerTableRecord
  2
01___PRT_DEF_DTM_PLN
 70
0
 62
7
  6
CONTINUOUS
370
-3
390
F
  0
LAYER
  5
202
100
AcDbSymbolTableRecord
100
AcDbLayerTableRecord
  2
02_ALL_AXES
 70
0
 62
7
  6
CONTINUOUS
370
-3
390
F
  0
LAYER
  5
203
100
AcDbSymbolTableRecord
100
AcDbLayerTableRecord
  2
02__ASM_ALL_AXES
 70
0
 62
7
  6
CONTINUOUS
370
-3
390
F
  0
LAYER
  5
204
100
AcDbSymbolTableRecord
100
AcDbLayerTableRecord
  2
02___PRT_ALL_AXES
 70
0
 62
7
  6
CONTINUOUS
370
-3
390
F
  0
LAYER
  5
205
100
AcDbSymbolTableRecord
100
AcDbLayerTableRecord
  2
03_ALL_CURVES
 70
0
 62
7
  6
CONTINUOUS
370
-3
390
F
  0
LAYER
  5
206
100
AcDbSymbolTableRecord
100
AcDbLayerTableRecord
  2
03__ASM_ALL_CURVES
 70
0
 62
7
  6
CONTINUOUS
370
-3
390
F
  0
LAYER
  5
207
100
AcDbSymbolTableRecord
100
AcDbLayerTableRecord
  2
03___PRT_ALL_CURVES
 70
0
 62
7
  6
CONTINUOUS
370
-3
390
F
  0
LAYER
  5
208
100
AcDbSymbolTableRecord
100
AcDbLayerTableRecord
  2
04_ALL_DTM_PNT
 70
0
 62
7
  6
CONTINUOUS
370
-3
390
F
  0
LAYER
  5
209
100
AcDbSymbolTableRecord
100
AcDbLayerTableRecord
  2
04__ASM_ALL_DTM_PNT
 70
0
 62
7
  6
CONTINUOUS
370
-3
390
F
  0
LAYER
  5
20A
100
AcDbSymbolTableRecord
100
AcDbLayerTableRecord
  2
04___PRT_ALL_DTM_PNT
 70
0
 62
7
  6
CONTINUOUS
370
-3
390
F
  0
LAYER
  5
20B
100
AcDbSymbolTableRecord
100
AcDbLayerTableRecord
  2
05_ALL_DTM_CSYS
 70
0
 62
7
  6
CONTINUOUS
370
-3
390
F
  0
LAYER
  5
20C
100
AcDbSymbolTableRecord
100
AcDbLayerTableRecord
  2
05__ASM_ALL_DTM_CSYS
 70
0
 62
7
  6
CONTINUOUS
370
-3
390
F
  0
LAYER
  5
20D
100
AcDbSymbolTableRecord
100
AcDbLayerTableRecord
  2
05__ASM_DEF_DTM_CSYS
 70
0
 62
7
  6
CONTINUOUS
370
-3
390
F
  0
LAYER
  5
20E
100
AcDbSymbolTableRecord
100
AcDbLayerTableRecord
  2
05___PRT_ALL_DTM_CSYS
 70
0
 62
7
  6
CONTINUOUS
370
-3
390
F
  0
LAYER
  5
20F
100
AcDbSymbolTableRecord
100
AcDbLayerTableRecord
  2
05___PRT_DEF_DTM_CSYS
 70
0
 62
7
  6
CONTINUOUS
370
-3
390
F
  0
LAYER
  5
210
100
AcDbSymbolTableRecord
100
AcDbLayerTableRecord
  2
06_ALL_SURFS
 70
0
 62
7
  6
CONTINUOUS
370
-3
390
F
  0
LAYER
  5
211
100
AcDbSymbolTableRecord
100
AcDbLayerTableRecord
  2
06__ASM_ALL_SURFS
 70
0
 62
7
  6
CONTINUOUS
370
-3
390
F
  0
LAYER
  5
212
100
AcDbSymbolTableRecord
100
AcDbLayerTableRecord
  2
06___PRT_ALL_SURFS
 70
0
 62
7
  6
CONTINUOUS
370
-3
390
F
  0
LAYER
  5
213
100
AcDbSymbolTableRecord
100
AcDbLayerTableRecord
  2
07__ASM_ALL_SKELETONS
 70
0
 62
7
  6
CONTINUOUS
370
-3
390
F
  0
LAYER
  5
214
100
AcDbSymbolTableRecord
100
AcDbLayerTableRecord
  2
LAYER_AXIS
 70
0
 62
7
  6
CONTINUOUS
370
-3
390
F
  0
LAYER
  5
215
100
AcDbSymbolTableRecord
100
AcDbLayerTableRecord
  2
LAYER_CHAMFER_FEAT
 70
0
 62
7
  6
CONTINUOUS
370
-3
390
F
  0
LAYER
  5
216
100
AcDbSymbolTableRecord
100
AcDbLayerTableRecord
  2
LAYER_CUT_FEAT
 70
0
 62
7
  6
CONTINUOUS
370
-3
390
F
  0
LAYER
  5
217
100
AcDbSymbolTableRecord
100
AcDbLayerTableRecord
  2
LAYER_DATUM
 70
0
 62
7
  6
CONTINUOUS
370
-3
390
F
  0
LAYER
  5
218
100
AcDbSymbolTableRecord
100
AcDbLayerTableRecord
  2
LAYER_DIM
 70
0
 62
7
  6
CONTINUOUS
370
-3
390
F
  0
LAYER
  5
219
100
AcDbSymbolTableRecord
100
AcDbLayerTableRecord
  2
LAYER_FEATURE
 70
0
 62
7
  6
CONTINUOUS
370
-3
390
F
  0
LAYER
  5
21A
100
AcDbSymbolTableRecord
100
AcDbLayerTableRecord
  2
LAYER_GEOM_FEAT
 70
0
 62
7
  6
CONTINUOUS
370
-3
390
F
  0
LAYER
  5
21B
100
AcDbSymbolTableRecord
100
AcDbLayerTableRecord
  2
LAYER_NOGEOM_FEAT
 70
0
 62
7
  6
CONTINUOUS
370
-3
390
F
  0
LAYER
  5
21C
100
AcDbSymbolTableRecord
100
AcDbLayerTableRecord
  2
LAYER_PARAMETER_DIM
 70
0
 62
7
  6
CONTINUOUS
370
-3
390
F
  0
LAYER
  5
21D
100
AcDbSymbolTableRecord
100
AcDbLayerTableRecord
  2
LAYER_PROTRUSION_FEAT
 70
0
 62
7
  6
CONTINUOUS
370
-3
390
F
  0
LAYER
  5
21E
100
AcDbSymbolTableRecord
100
AcDbLayerTableRecord
  2
LAYER_QUILT
 70
0
 62
7
  6
CONTINUOUS
370
-3
390
F
  0
LAYER
  5
21F
100
AcDbSymbolTableRecord
100
AcDbLayerTableRecord
  2
LAYER_ROUND_FEAT
 70
0
 62
7
  6
CONTINUOUS
370
-3
390
F
  0
ENDTAB
  0
TABLE
  2
STYLE
  5
3
100
AcDbSymbolTable
 70
1
  0
STYLE
  5
11
100
AcDbSymbolTableRecord
100
AcDbTextStyleTableRecord
  2
STANDARD
 70
0
 40
0.0
 41
0.8
 50
0.0
 71
0
 42
0.2
  3
txt
  4

  0
STYLE
  5
220
100
AcDbSymbolTableRecord
100
AcDbTextStyleTableRecord
  2
TEXTSTYLE_1
 70
0
 40
0.0
 41
0.8
 50
0.0
 71
0
 42
0.2
  3
gdt
  4

  0
ENDTAB
  0
TABLE
  2
VIEW
  5
6
100
AcDbSymbolTable
 70
0
  0
ENDTAB
  0
TABLE
  2
UCS
  5
7
100
AcDbSymbolTable
 70
0
  0
ENDTAB
  0
TABLE
  2
APPID
  5
9
100
AcDbSymbolTable
 70
1
  0
APPID
  5
221
100
AcDbSymbolTableRecord
100
AcDbRegAppTableRecord
  2
ACAD
 70
0
  0
ENDTAB
  0
TABLE
  2
BLOCK_RECORD
  5
1
100
AcDbSymbolTable
 70
0
  0
BLOCK_RECORD
  5
222
100
AcDbSymbolTableRecord
100
AcDbBlockTableRecord
  2
*Model_Space
  0
BLOCK_RECORD
  5
223
100
AcDbSymbolTableRecord
100
AcDbBlockTableRecord
  2
*Paper_Space
  0
ENDTAB
  0
TABLE
  2
DIMSTYLE
  5
A
100
AcDbSymbolTable
 70
1
100
AcDbDimStyleTable
 71
0
  0
DIMSTYLE
105
224
100
AcDbSymbolTableRecord
100
AcDbDimStyleTableRecord
  2
STANDARD
 70
0
  3

  4

 40
1.0
 41
0.1875
 42
0.0625
 43
0.38
 44
0.125
 45
0.0
 46
0.0
 47
0.0001
 48
0.0001
140
0.15625
141
0.09
142
0.0
143
25.4
144
1.0
145
0.0
146
1.0
147
0.09
 71
0.0
 72
0.0
 73
1
 74
1
 75
0
 76
0
 77
0
 78
4
 79
1
170
0
171
3
172
0
173
0
174
0
175
0
176
0
177
0
178
0
270
2
179
4
271
4
272
4
273
2
274
2
275
0
280
0
281
0
282
0
283
1
284
4
285
0
286
0
287
3
288
0
340
11
278
46
  0
ENDTAB
  0
ENDSEC
  0
SECTION
  2
BLOCKS
  0
BLOCK
  5
20
100
AcDbEntity
  8
0
100
AcDbBlockBegin
  2
*Model_Space
 70
0
 10
0.0
 20
0.0
 30
0.0
  3
*Model_Space
  1

  0
ENDBLK
  5
21
100
AcDbEntity
  8
0
100
AcDbBlockEnd
  0
BLOCK
  5
1C
100
AcDbEntity
  8
0
100
AcDbBlockBegin
  2
*Paper_Space
 70
0
 10
0.0
 20
0.0
 30
0.0
  3
*Paper_Space
  1

  0
ENDBLK
  5
1D
100
AcDbEntity
  8
0
100
AcDbBlockEnd
  0
ENDSEC
  0
SECTION
  2
ENTITIES
  0
MTEXT
  5
225
100
AcDbEntity
  8
0
100
AcDbMText
 62
7
  6
CONTINUOUS
  7
STANDARD
 71
1
 72
1
 10
15.9560215477
 20
0.9479130325
 30
0.0
 11
1.0
 21
0.0
 31
0.0
 44
0.9
  1
SCALE: 1:0.500
 40
0.3
 41
3.36
  0
LINE
  5
226
100
AcDbEntity
  8
0
100
AcDbLine
 62
7
  6
CONTINUOUS
 10
0.0
 20
0.0
 11
0.0
 21
17.0
  0
LINE
  5
227
100
AcDbEntity
  8
0
100
AcDbLine
 62
7
  6
CONTINUOUS
 10
0.0
 20
0.0
 11
22.0
 21
0.0
  0
LINE
  5
228
100
AcDbEntity
  8
0
100
AcDbLine
 62
7
  6
CONTINUOUS
 10
0.0
 20
17.0
 11
22.0
 21
17.0
  0
LINE
  5
229
100
AcDbEntity
  8
0
100
AcDbLine
 62
7
  6
CONTINUOUS
 10
22.0
 20
0.0
 11
22.0
 21
17.0
  0
LINE
  5
22A
100
AcDbEntity
  8
LAYER_FEATURE
100
AcDbLine
 62
7
  6
CONTINUOUS
 10
6.4783672762
 20
3.8151198968
 11
6.4170268405
 21
3.8151198968
  0
LINE
  5
22B
100
AcDbEntity
  8
LAYER_FEATURE
100
AcDbLine
 62
7
  6
CONTINUOUS
 10
5.7823672762
 20
3.8151198968
 11
5.8437077119
 21
3.8151198968
  0
LINE
  5
22C
100
AcDbEntity
  8
02___PRT_ALL_AXES
100
AcDbLine
 62
7
  6
CONTINUOUS
 10
5.8703672762
 20
4.0123698968
 11
6.3903672762
 21
4.0123698968
  0
LINE
  5
22D
100
AcDbEntity
  8
LAYER_FEATURE
100
AcDbLine
 62
7
  6
CONTINUOUS
 10
5.7823672762
 20
7.2251198968
 11
5.7823672762
 21
3.8151198968
  0
LINE
  5
22E
100
AcDbEntity
  8
LAYER_FEATURE
100
AcDbLine
 62
7
  6
CONTINUOUS
 10
5.8437077119
 20
7.2251198968
 11
5.8437077119
 21
3.8151198968
  0
LINE
  5
22F
100
AcDbEntity
  8
LAYER_FEATURE
100
AcDbLine
 62
7
  6
CONTINUOUS
 10
5.8703672762
 20
7.0996965078
 11
5.8703672762
 21
3.9405432857
  0
LINE
  5
230
100
AcDbEntity
  8
LAYER_FEATURE
100
AcDbLine
 62
7
  6
CONTINUOUS
 10
6.4170268405
 20
7.2251198968
 11
6.3903672762
 21
7.0996965078
  0
LINE
  5
231
100
AcDbEntity
  8
LAYER_FEATURE
100
AcDbLine
 62
7
  6
CONTINUOUS
 10
6.4170268405
 20
3.8151198968
 11
6.3903672762
 21
3.9405432857
  0
LINE
  5
232
100
AcDbEntity
  8
LAYER_FEATURE
100
AcDbLine
 62
7
  6
CONTINUOUS
 10
5.8437077119
 20
3.8151198968
 11
5.8703672762
 21
3.9405432857
  0
LINE
  5
233
100
AcDbEntity
  8
LAYER_FEATURE
100
AcDbLine
 62
7
  6
CONTINUOUS
 10
5.8437077119
 20
7.2251198968
 11
5.8703672762
 21
7.0996965078
  0
LINE
  5
234
100
AcDbEntity
  8
LAYER_FEATURE
100
AcDbLine
 62
7
  6
CONTINUOUS
 10
6.3903672762
 20
7.0996965078
 11
6.3903672762
 21
3.9405432857
  0
LINE
  5
235
100
AcDbEntity
  8
LAYER_FEATURE
100
AcDbLine
 62
7
  6
CONTINUOUS
 10
6.4170268405
 20
7.2251198968
 11
6.4170268405
 21
3.8151198968
  0
LINE
  5
236
100
AcDbEntity
  8
LAYER_FEATURE
100
AcDbLine
 62
7
  6
CONTINUOUS
 10
6.4783672762
 20
7.2251198968
 11
6.4783672762
 21
3.8151198968
  0
LINE
  5
237
100
AcDbEntity
  8
LAYER_FEATURE
100
AcDbLine
 62
7
  6
CONTINUOUS
 10
5.8703672762
 20
6.75241504
 11
6.3903672762
 21
6.75241504
  0
LINE
  5
238
100
AcDbEntity
  8
0
100
AcDbLine
 62
7
  6
CONTINUOUS
 10
5.8703672762
 20
6.7551631193
 11
6.3903672762
 21
6.7551631193
  0
LINE
  5
239
100
AcDbEntity
  8
LAYER_FEATURE
100
AcDbLine
 62
7
  6
CONTINUOUS
 10
5.8703672762
 20
6.8690996256
 11
6.3903672762
 21
6.8690996256
  0
LINE
  5
23A
100
AcDbEntity
  8
LAYER_FEATURE
100
AcDbLine
 62
7
  6
CONTINUOUS
 10
5.8703672762
 20
6.8877361594
 11
6.3903672762
 21
6.8877361594
  0
LINE
  5
23B
100
AcDbEntity
  8
0
100
AcDbLine
 62
7
  6
CONTINUOUS
 10
5.8703672762
 20
6.8889740975
 11
6.3903672762
 21
6.8889740975
  0
LINE
  5
23C
100
AcDbEntity
  8
LAYER_FEATURE
100
AcDbLine
 62
7
  6
CONTINUOUS
 10
5.8703672762
 20
6.9676739319
 11
6.3903672762
 21
6.9676739319
  0
LINE
  5
23D
100
AcDbEntity
  8
LAYER_FEATURE
100
AcDbLine
 62
7
  6
CONTINUOUS
 10
5.8703672762
 20
6.9791009669
 11
6.3903672762
 21
6.9791009669
  0
LINE
  5
23E
100
AcDbEntity
  8
0
100
AcDbLine
 62
7
  6
CONTINUOUS
 10
5.8703672762
 20
6.9794129583
 11
6.3903672762
 21
6.9794129583
  0
LINE
  5
23F
100
AcDbEntity
  8
LAYER_FEATURE
100
AcDbLine
 62
7
  6
CONTINUOUS
 10
5.8703672762
 20
7.0197226604
 11
6.3903672762
 21
7.0197226604
  0
LINE
  5
240
100
AcDbEntity
  8
LAYER_FEATURE
100
AcDbLine
 62
7
  6
CONTINUOUS
 10
5.8703672762
 20
7.0235729223
 11
6.3903672762
 21
7.0235729223
  0
LINE
  5
241
100
AcDbEntity
  8
LAYER_FEATURE
100
AcDbLine
 62
7
  6
CONTINUOUS
 10
6.4783672762
 20
7.2251198968
 11
6.4170268405
 21
7.2251198968
  0
LINE
  5
242
100
AcDbEntity
  8
LAYER_FEATURE
100
AcDbLine
 62
7
  6
CONTINUOUS
 10
5.7823672762
 20
7.2251198968
 11
5.8437077119
 21
7.2251198968
  0
LINE
  5
243
100
AcDbEntity
  8
LAYER_FEATURE
100
AcDbLine
 62
7
  6
CONTINUOUS
 10
5.7228720839
 20
10.8950477814
 11
5.7842125196
 21
10.8950477814
  0
LINE
  5
244
100
AcDbEntity
  8
LAYER_FEATURE
100
AcDbLine
 62
7
  6
CONTINUOUS
 10
6.3575316482
 20
10.8950477814
 11
6.4188720839
 21
10.8950477814
  0
LINE
  5
245
100
AcDbEntity
  8
02___PRT_ALL_AXES
100
AcDbLine
 62
7
  6
CONTINUOUS
 10
5.8108720839
 20
11.0922977814
 11
6.3308720839
 21
11.0922977814
  0
LINE
  5
246
100
AcDbEntity
  8
LAYER_FEATURE
100
AcDbLine
 62
7
  6
CONTINUOUS
 10
5.8108720839
 20
11.7312792607
 11
6.3308720839
 21
11.7312792607
  0
LINE
  5
247
100
AcDbEntity
  8
LAYER_FEATURE
100
AcDbLine
 62
7
  6
CONTINUOUS
 10
6.3308720839
 20
11.8607488428
 11
5.8108720839
 21
11.8607488428
  0
LINE
  5
248
100
AcDbEntity
  8
LAYER_FEATURE
100
AcDbLine
 62
7
  6
CONTINUOUS
 10
6.3308720839
 20
11.9122557704
 11
5.8108720839
 21
11.9122557704
  0
LINE
  5
249
100
AcDbEntity
  8
0
100
AcDbLine
 62
7
  6
CONTINUOUS
 10
5.8108720839
 20
11.9171197734
 11
6.3308720839
 21
11.9171197734
  0
LINE
  5
24A
100
AcDbEntity
  8
LAYER_FEATURE
100
AcDbLine
 62
7
  6
CONTINUOUS
 10
5.8108720839
 20
11.9265763612
 11
6.3308720839
 21
11.9265763612
  0
LINE
  5
24B
100
AcDbEntity
  8
LAYER_FEATURE
100
AcDbLine
 62
7
  6
CONTINUOUS
 10
5.8108720839
 20
11.9652755225
 11
6.3308720839
 21
11.9652755225
  0
LINE
  5
24C
100
AcDbEntity
  8
LAYER_FEATURE
100
AcDbLine
 62
7
  6
CONTINUOUS
 10
6.3308720839
 20
12.08312808
 11
5.8108720839
 21
12.08312808
  0
LINE
  5
24D
100
AcDbEntity
  8
LAYER_FEATURE
100
AcDbLine
 62
7
  6
CONTINUOUS
 10
6.3308720839
 20
12.1393021722
 11
5.8108720839
 21
12.1393021722
  0
LINE
  5
24E
100
AcDbEntity
  8
LAYER_FEATURE
100
AcDbLine
 62
7
  6
CONTINUOUS
 10
5.7228720839
 20
10.8950477814
 11
5.7228720839
 21
14.3050477814
  0
LINE
  5
24F
100
AcDbEntity
  8
LAYER_FEATURE
100
AcDbLine
 62
7
  6
CONTINUOUS
 10
5.8108720839
 20
12.1782689555
 11
6.3308720839
 21
12.1782689555
  0
LINE
  5
250
100
AcDbEntity
  8
LAYER_FEATURE
100
AcDbLine
 62
7
  6
CONTINUOUS
 10
5.8108720839
 20
12.2196738869
 11
6.3308720839
 21
12.2196738869
  0
LINE
  5
251
100
AcDbEntity
  8
LAYER_FEATURE
100
AcDbLine
 62
7
  6
CONTINUOUS
 10
5.7842125196
 20
10.8950477814
 11
5.7842125196
 21
14.3050477814
  0
LINE
  5
252
100
AcDbEntity
  8
LAYER_FEATURE
100
AcDbLine
 62
7
  6
CONTINUOUS
 10
5.8108720839
 20
11.0204712729
 11
5.8108720839
 21
14.1796242898
  0
LINE
  5
253
100
AcDbEntity
  8
LAYER_FEATURE
100
AcDbLine
 62
7
  6
CONTINUOUS
 10
6.3308720839
 20
12.3221215417
 11
5.8108720839
 21
12.3221215417
  0
LINE
  5
254
100
AcDbEntity
  8
LAYER_FEATURE
100
AcDbLine
 62
7
  6
CONTINUOUS
 10
6.3308720839
 20
12.381157317
 11
5.8108720839
 21
12.381157317
  0
LINE
  5
255
100
AcDbEntity
  8
LAYER_FEATURE
100
AcDbLine
 62
7
  6
CONTINUOUS
 10
5.8108720839
 20
12.4435178684
 11
6.3308720839
 21
12.4435178684
  0
LINE
  5
256
100
AcDbEntity
  8
LAYER_FEATURE
100
AcDbLine
 62
7
  6
CONTINUOUS
 10
5.8108720839
 20
12.4862977814
 11
6.3308720839
 21
12.4862977814
  0
LINE
  5
257
100
AcDbEntity
  8
LAYER_FEATURE
100
AcDbLine
 62
7
  6
CONTINUOUS
 10
6.3308720839
 20
14.1796243924
 11
6.3575316482
 21
14.3050477814
  0
LINE
  5
258
100
AcDbEntity
  8
LAYER_FEATURE
100
AcDbLine
 62
7
  6
CONTINUOUS
 10
6.3308720839
 20
12.5700477814
 11
5.8108720839
 21
12.5700477814
  0
LINE
  5
259
100
AcDbEntity
  8
LAYER_FEATURE
100
AcDbLine
 62
7
  6
CONTINUOUS
 10
6.3308720839
 20
11.0204711703
 11
6.3575316482
 21
10.8950477814
  0
LINE
  5
25A
100
AcDbEntity
  8
LAYER_FEATURE
100
AcDbLine
 62
7
  6
CONTINUOUS
 10
5.7842125196
 20
10.8950477814
 11
5.8108720839
 21
11.0204711703
  0
LINE
  5
25B
100
AcDbEntity
  8
LAYER_FEATURE
100
AcDbLine
 62
7
  6
CONTINUOUS
 10
6.3308720839
 20
12.6300477814
 11
5.8108720839
 21
12.6300477814
  0
LINE
  5
25C
100
AcDbEntity
  8
LAYER_FEATURE
100
AcDbLine
 62
7
  6
CONTINUOUS
 10
5.8108720839
 20
12.7137977814
 11
6.3308720839
 21
12.7137977814
  0
LINE
  5
25D
100
AcDbEntity
  8
LAYER_FEATURE
100
AcDbLine
 62
7
  6
CONTINUOUS
 10
5.7842125196
 20
14.3050477814
 11
5.8108720839
 21
14.1796243924
  0
LINE
  5
25E
100
AcDbEntity
  8
LAYER_FEATURE
100
AcDbLine
 62
7
  6
CONTINUOUS
 10
6.3308720839
 20
11.0204712629
 11
6.3308720839
 21
14.1796242998
  0
LINE
  5
25F
100
AcDbEntity
  8
LAYER_FEATURE
100
AcDbLine
 62
7
  6
CONTINUOUS
 10
6.3575316482
 20
10.8950477814
 11
6.3575316482
 21
14.3050477814
  0
LINE
  5
260
100
AcDbEntity
  8
LAYER_FEATURE
100
AcDbLine
 62
7
  6
CONTINUOUS
 10
6.4188720839
 20
10.8950477814
 11
6.4188720839
 21
14.3050477814
  0
LINE
  5
261
100
AcDbEntity
  8
02___PRT_ALL_AXES
100
AcDbLine
 62
7
  6
CONTINUOUS
 10
5.8108720839
 20
14.1077977814
 11
6.3308720839
 21
14.1077977814
  0
LINE
  5
262
100
AcDbEntity
  8
LAYER_FEATURE
100
AcDbLine
 62
7
  6
CONTINUOUS
 10
5.7228720839
 20
14.3050477814
 11
5.7842125196
 21
14.3050477814
  0
LINE
  5
263
100
AcDbEntity
  8
LAYER_FEATURE
100
AcDbLine
 62
7
  6
CONTINUOUS
 10
6.3575316482
 20
14.3050477814
 11
6.4188720839
 21
14.3050477814
  0
LINE
  5
264
100
AcDbEntity
  8
LAYER_FEATURE
100
AcDbLine
 62
7
  6
CONTINUOUS
 10
15.1505728875
 20
10.8058049929
 11
15.2070711702
 21
10.8058049929
  0
LINE
  5
265
100
AcDbEntity
  8
LAYER_FEATURE
100
AcDbLine
 62
7
  6
CONTINUOUS
 10
15.7351330567
 20
10.8058049929
 11
15.7916313393
 21
10.8058049929
  0
LINE
  5
266
100
AcDbEntity
  8
02___PRT_ALL_AXES
100
AcDbLine
 62
7
  6
CONTINUOUS
 10
15.231626255
 20
11.0030549929
 11
15.4253464337
 21
11.0030549929
  0
LINE
  5
267
100
AcDbEntity
  8
02___PRT_ALL_AXES
100
AcDbLine
 62
7
  6
CONTINUOUS
 10
15.7142921722
 20
13.8351717682
 11
15.697416211
 21
13.8292922259
  0
LINE
  5
268
100
AcDbEntity
  8
02___PRT_ALL_AXES
100
AcDbLine
 62
7
  6
CONTINUOUS
 10
15.7142921722
 20
11.1864382176
 11
15.697416211
 21
11.19231776
  0
LINE
  5
269
100
AcDbEntity
  8
LAYER_FEATURE
100
AcDbLine
 62
7
  6
CONTINUOUS
 10
14.6930569931
 20
12.6645001404
 11
14.6961377405
 21
12.723976301
  0
LINE
  5
26A
100
AcDbEntity
  8
LAYER_FEATURE
100
AcDbLine
 62
7
  6
CONTINUOUS
 10
14.7123989581
 20
12.9089760757
 11
14.7195657721
 21
12.9660838393
  0
LINE
  5
26B
100
AcDbEntity
  8
LAYER_FEATURE
100
AcDbLine
 62
7
  6
CONTINUOUS
 10
14.7484293157
 20
13.1406544647
 11
14.759451849
 21
13.1935583409
  0
LINE
  5
26C
100
AcDbEntity
  8
LAYER_FEATURE
100
AcDbLine
 62
7
  6
CONTINUOUS
 10
14.803549984
 20
13.3636090197
 11
14.8145139998
 21
13.3990885881
  0
LINE
  5
26D
100
AcDbEntity
  8
LAYER_FEATURE
100
AcDbLine
 62
7
  6
CONTINUOUS
 10
14.6510486482
 20
12.6125327846
 11
14.672024537
 21
12.6262878672
  0
LINE
  5
26E
100
AcDbEntity
  8
LAYER_FEATURE
100
AcDbLine
 62
7
  6
CONTINUOUS
 10
14.6797264055
 20
12.7749782688
 11
14.6608800509
 21
12.8023354552
  0
LINE
  5
26F
100
AcDbEntity
  8
LAYER_FEATURE
100
AcDbLine
 62
7
  6
CONTINUOUS
 10
14.7069645107
 20
13.0237911434
 11
14.690323261
 21
13.0593501576
  0
LINE
  5
270
100
AcDbEntity
  8
LAYER_FEATURE
100
AcDbLine
 62
7
  6
CONTINUOUS
 10
14.7510656761
 20
13.256116221
 11
14.7371643948
 21
13.298734167
  0
LINE
  5
271
100
AcDbEntity
  8
LAYER_FEATURE
100
AcDbLine
 62
7
  6
CONTINUOUS
 10
14.8106124538
 20
13.4644863824
 11
14.7998979395
 21
13.5127934845
  0
LINE
  5
272
100
AcDbEntity
  8
02___PRT_ALL_AXES
100
AcDbLine
 62
7
  6
CONTINUOUS
 10
15.4886565917
 20
12.2143180184
 11
15.491992208
 21
12.2146539405
  0
LINE
  5
273
100
AcDbEntity
  8
02___PRT_ALL_AXES
100
AcDbLine
 62
7
  6
CONTINUOUS
 10
15.491992208
 20
12.2146539405
 11
15.4851492738
 21
12.2147004058
  0
LINE
  5
274
100
AcDbEntity
  8
LAYER_FEATURE
100
AcDbLine
 62
7
  6
CONTINUOUS
 10
14.6454250426
 20
12.5962821773
 11
15.0720107205
 21
12.5962821773
  0
LINE
  5
275
100
AcDbEntity
  8
LAYER_FEATURE
100
AcDbLine
 62
7
  6
CONTINUOUS
 10
15.0738935389
 20
12.6645001404
 11
14.6930569931
 21
12.6645001404
  0
LINE
  5
276
100
AcDbEntity
  8
LAYER_FEATURE
100
AcDbLine
 62
7
  6
CONTINUOUS
 10
15.0764143752
 20
12.723976301
 11
14.6961377405
 21
12.723976301
  0
LINE
  5
277
100
AcDbEntity
  8
LAYER_FEATURE
100
AcDbLine
 62
7
  6
CONTINUOUS
 10
14.6571062099
 20
12.8217959531
 11
15.0824378267
 21
12.8217959531
  0
LINE
  5
278
100
AcDbEntity
  8
LAYER_FEATURE
100
AcDbLine
 62
7
  6
CONTINUOUS
 10
14.6607890505
 20
12.8636947027
 11
15.0855894901
 21
12.8636947027
  0
LINE
  5
279
100
AcDbEntity
  8
LAYER_FEATURE
100
AcDbLine
 62
7
  6
CONTINUOUS
 10
15.0896210305
 20
12.9089760757
 11
14.7123989581
 21
12.9089760757
  0
LINE
  5
27A
100
AcDbEntity
  8
LAYER_FEATURE
100
AcDbLine
 62
7
  6
CONTINUOUS
 10
14.6674522413
 20
12.8771056089
 11
14.6890474756
 21
12.8810217342
  0
LINE
  5
27B
100
AcDbEntity
  8
LAYER_FEATURE
100
AcDbLine
 62
7
  6
CONTINUOUS
 10
15.0953971342
 20
12.9660838393
 11
14.7195657721
 21
12.9660838393
  0
LINE
  5
27C
100
AcDbEntity
  8
02___PRT_ALL_AXES
100
AcDbLine
 62
7
  6
CONTINUOUS
 10
15.7213837224
 20
13.1975883739
 11
15.7256893172
 21
13.1980043433
  0
LINE
  5
27D
100
AcDbEntity
  8
LAYER_FEATURE
100
AcDbLine
 62
7
  6
CONTINUOUS
 10
14.6879632204
 20
13.0802283066
 11
15.1094297706
 21
13.0802283066
  0
LINE
  5
27E
100
AcDbEntity
  8
LAYER_FEATURE
100
AcDbLine
 62
7
  6
CONTINUOUS
 10
14.6945002358
 20
13.1197650624
 11
15.115025055
 21
13.1197650624
  0
LINE
  5
27F
100
AcDbEntity
  8
0
100
AcDbLine
 62
7
  6
CONTINUOUS
 10
14.7011662823
 20
13.1300204843
 11
15.1166197439
 21
13.1300204843
  0
LINE
  5
280
100
AcDbEntity
  8
LAYER_FEATURE
100
AcDbLine
 62
7
  6
CONTINUOUS
 10
15.1182732976
 20
13.1406544647
 11
14.7484293157
 21
13.1406544647
  0
LINE
  5
281
100
AcDbEntity
  8
LAYER_FEATURE
100
AcDbLine
 62
7
  6
CONTINUOUS
 10
15.1268537314
 20
13.1935583409
 11
14.759451849
 21
13.1935583409
  0
LINE
  5
282
100
AcDbEntity
  8
LAYER_FEATURE
100
AcDbLine
 62
7
  6
CONTINUOUS
 10
14.7362940082
 20
13.3203589262
 11
15.1509328413
 21
13.3203589262
  0
LINE
  5
283
100
AcDbEntity
  8
LAYER_FEATURE
100
AcDbLine
 62
7
  6
CONTINUOUS
 10
14.7454750934
 20
13.3562629444
 11
15.158597445
 21
13.3562629444
  0
LINE
  5
284
100
AcDbEntity
  8
0
100
AcDbLine
 62
7
  6
CONTINUOUS
 10
14.7513971852
 20
13.3636090197
 11
15.1602930337
 21
13.3636090197
  0
LINE
  5
285
100
AcDbEntity
  8
LAYER_FEATURE
100
AcDbLine
 62
7
  6
CONTINUOUS
 10
15.168482271
 20
13.3990885881
 11
14.8145139998
 21
13.3990885881
  0
LINE
  5
286
100
AcDbEntity
  8
LAYER_FEATURE
100
AcDbLine
 62
7
  6
CONTINUOUS
 10
14.800545182
 20
13.5344698164
 11
15.2042947434
 21
13.5344698164
  0
LINE
  5
287
100
AcDbEntity
  8
02___PRT_ALL_AXES
100
AcDbLine
 62
7
  6
CONTINUOUS
 10
15.231626255
 20
14.0185549929
 11
15.4253616125
 21
14.0185549929
  0
LINE
  5
288
100
AcDbEntity
  8
LAYER_FEATURE
100
AcDbLine
 62
7
  6
CONTINUOUS
 10
15.1505728875
 20
14.2158049929
 11
15.2070711702
 21
14.2158049929
  0
LINE
  5
289
100
AcDbEntity
  8
LAYER_FEATURE
100
AcDbLine
 62
7
  6
CONTINUOUS
 10
15.7351330567
 20
14.2158049929
 11
15.7916313393
 21
14.2158049929
  0
CIRCLE
  5
28A
100
AcDbEntity
  8
LAYER_FEATURE
100
AcDbCircle
 62
7
  6
CONTINUOUS
 10
15.5603552569
 20
5.4606247044
 40
1.705
  0
CIRCLE
  5
28B
100
AcDbEntity
  8
LAYER_FEATURE
100
AcDbCircle
 62
7
  6
CONTINUOUS
 10
15.5603552569
 20
5.4606247044
 40
1.5795766111
  0
CIRCLE
  5
28C
100
AcDbEntity
  8
02___PRT_ALL_AXES
100
AcDbCircle
 62
7
  6
CONTINUOUS
 10
15.5603552569
 20
5.4606247044
 40
1.3365
  0
CIRCLE
  5
28D
100
AcDbEntity
  8
LAYER_CUT_FEAT
100
AcDbCircle
 62
7
  6
CONTINUOUS
 10
15.5603552569
 20
5.4606247044
 40
1.2375
  0
ARC
  5
28E
100
AcDbEntity
  8
02___PRT_ALL_AXES
100
AcDbCircle
 62
7
  6
CONTINUOUS
 10
15.5603552569
 20
5.4606247044
 40
0.6875
100
AcDbArc
 50
153.9499278124
 51
231.0500721876
  0
ARC
  5
28F
100
AcDbEntity
  8
02___PRT_ALL_AXES
100
AcDbCircle
 62
7
  6
CONTINUOUS
 10
15.5603552569
 20
5.4606247044
 40
0.6875
100
AcDbArc
 50
58.9499278124
 51
136.0500721876
  0
ARC
  5
290
100
AcDbEntity
  8
02___PRT_ALL_AXES
100
AcDbCircle
 62
7
  6
CONTINUOUS
 10
15.5603552569
 20
5.4606247044
 40
0.6875
100
AcDbArc
 50
248.9499278124
 51
41.0500721876
  0
ARC
  5
291
100
AcDbEntity
  8
02___PRT_ALL_AXES
100
AcDbCircle
 62
7
  6
CONTINUOUS
 10
15.5603552569
 20
5.4606247044
 40
0.6656478713
100
AcDbArc
 50
135.5426864311
 51
154.4573135689
  0
ARC
  5
292
100
AcDbEntity
  8
02___PRT_ALL_AXES
100
AcDbCircle
 62
7
  6
CONTINUOUS
 10
15.5603552569
 20
5.4606247044
 40
0.6437957425
100
AcDbArc
 50
59.5897023119
 51
230.4102976881
  0
ARC
  5
293
100
AcDbEntity
  8
02___PRT_ALL_AXES
100
AcDbCircle
 62
7
  6
CONTINUOUS
 10
15.5603552569
 20
5.4606247044
 40
0.6437957425
100
AcDbArc
 50
249.5897023119
 51
40.4102976881
  0
ARC
  5
294
100
AcDbEntity
  8
02___PRT_ALL_AXES
100
AcDbCircle
 62
7
  6
CONTINUOUS
 10
15.9821846258
 20
5.9633413702
 40
0.109375
100
AcDbArc
 50
308.6898214686
 51
151.3101785314
  0
ARC
  5
295
100
AcDbEntity
  8
02___PRT_ALL_AXES
100
AcDbCircle
 62
7
  6
CONTINUOUS
 10
15.2322302569
 20
4.8922955332
 40
0.109375
100
AcDbArc
 50
138.6898214686
 51
341.3101785314
  0
ARC
  5
296
100
AcDbEntity
  8
02___PRT_ALL_AXES
100
AcDbCircle
 62
7
  6
CONTINUOUS
 10
15.0227867279
 20
5.8370342408
 40
0.109375
100
AcDbArc
 50
55.1836503003
 51
234.8163496997
  0
ARC
  5
297
100
AcDbEntity
  8
02___PRT_ALL_AXES
100
AcDbCircle
 62
7
  6
CONTINUOUS
 10
20.1188940702
 20
76.85107506
 40
65.1549964561
100
AcDbArc
 50
266.0772449461
 51
266.1922997507
  0
ARC
  5
298
100
AcDbEntity
  8
02___PRT_ALL_AXES
100
AcDbCircle
 62
7
  6
CONTINUOUS
 10
13.2459508845
 20
-21.0007095486
 40
33.0236251231
100
AcDbArc
 50
85.4432698437
 51
85.9390441545
  0
ARC
  5
299
100
AcDbEntity
  8
LAYER_FEATURE
100
AcDbCircle
 62
7
  6
CONTINUOUS
 10
18.2752539464
 20
12.5248771358
 40
3.6303104312
100
AcDbArc
 50
174.6447802035
 51
175.3086052377
  0
ARC
  5
29A
100
AcDbEntity
  8
LAYER_FEATURE
100
AcDbCircle
 62
7
  6
CONTINUOUS
 10
17.7853430278
 20
12.5884156786
 40
3.1361826051
100
AcDbArc
 50
170.2455804543
 51
170.9776996973
  0
ARC
  5
29B
100
AcDbEntity
  8
LAYER_FEATURE
100
AcDbCircle
 62
7
  6
CONTINUOUS
 10
17.1409256604
 20
12.724591831
 40
2.4773356282
100
AcDbArc
 50
165.227598146
 51
166.0847127758
  0
SPLINE
  5
29C
100
AcDbEntity
  8
LAYER_CUT_FEAT
100
AcDbSpline
 62
7
  6
CONTINUOUS
 70
0
 71
3
 72
27
 73
23
 74
0
 42
0.0000001
 43
0.0000001
 44
0.0000000001
 40
0.0
 40
0.0
 40
0.0
 40
0.0
 40
0.0835111702
 40
0.1639083199
 40
0.2411671025
 40
0.3152835232
 40
0.3862766078
 40
0.4541914553
 40
0.5191027314
 40
0.5811185612
 40
0.6403847149
 40
0.6970888465
 40
0.751464352
 40
0.8037931746
 40
0.8292988641
 40
0.8544212681
 40
0.8792091144
 40
0.9037137747
 40
0.9279888824
 40
0.9520900454
 40
0.9760743644
 40
1.0
 40
1.0
 40
1.0
 40
1.0
 10
15.4847057762
 20
11.5414379422
 30
0.0
 10
15.4898851304
 20
11.5308835279
 30
0.0
 10
15.5003974719
 20
11.5103357622
 30
0.0
 10
15.5169606229
 20
11.4806893288
 30
0.0
 10
15.5339937995
 20
11.4528481132
 30
0.0
 10
15.5514675263
 20
11.4268609319
 30
0.0
 10
15.5693520549
 20
11.4027727877
 30
0.0
 10
15.587617137
 20
11.3806255636
 30
0.0
 10
15.6062321964
 20
11.360457874
 30
0.0
 10
15.625166448
 20
11.3423051687
 30
0.0
 10
15.6443887411
 20
11.3261999291
 30
0.0
 10
15.6638681779
 20
11.3121716262
 30
0.0
 10
15.6835715231
 20
11.3002477461
 30
0.0
 10
15.7002951999
 20
11.2920145707
 30
0.0
 10
15.7137221407
 20
11.2865429091
 30
0.0
 10
15.7237395428
 20
11.28301202
 30
0.0
 10
15.7337843526
 20
11.2800214689
 30
0.0
 10
15.743852244
 20
11.2775725109
 30
0.0
 10
15.7539386237
 20
11.2756665193
 30
0.0
 10
15.7640390014
 20
11.2743043427
 30
0.0
 10
15.7741483852
 20
11.2734868013
 30
0.0
 10
15.7808945844
 20
11.2733049922
 30
0.0
 10
15.7842628514
 20
11.2733049929
 30
0.0
  0
SPLINE
  5
29D
100
AcDbEntity
  8
02___PRT_ALL_AXES
100
AcDbSpline
 62
7
  6
CONTINUOUS
 70
0
 71
3
 72
39
 73
35
 74
0
 42
0.0000001
 43
0.0000001
 44
0.0000000001
 40
0.0
 40
0.0
 40
0.0
 40
0.0
 40
0.0461783581
 40
0.0913990949
 40
0.1356315581
 40
0.1788496002
 40
0.2210282913
 40
0.2621457539
 40
0.3021829172
 40
0.3411238205
 40
0.3789559097
 40
0.415670329
 40
0.45126229
 40
0.4857314696
 40
0.5190824396
 40
0.5513251599
 40
0.5824755286
 40
0.6125559984
 40
0.6415962276
 40
0.6696337574
 40
0.6967147141
 40
0.7228944901
 40
0.7482383579
 40
0.7728219153
 40
0.7967312891
 40
0.8200630016
 40
0.8429233902
 40
0.8654275039
 40
0.8876974303
 40
0.9098601151
 40
0.9320447942
 40
0.9543802323
 40
0.9769919964
 40
1.0
 40
1.0
 40
1.0
 40
1.0
 10
16.1919513061
 20
11.6800232703
 30
0.0
 10
16.1884989723
 20
11.6688515141
 30
0.0
 10
16.1814607751
 20
11.6468023694
 30
0.0
 10
16.1703805737
 20
11.6142927019
 30
0.0
 10
16.1588970219
 20
11.5827195039
 30
0.0
 10
16.147022286
 20
11.5521160115
 30
0.0
 10
16.1347686428
 20
11.5225139528
 30
0.0
 10
16.1221489025
 20
11.4939442378
 30
0.0
 10
16.1091762018
 20
11.4664365974
 30
0.0
 10
16.0958640327
 20
11.4400196604
 30
0.0
 10
16.0822262194
 20
11.4147209063
 30
0.0
 10
16.0682768903
 20
11.3905666388
 30
0.0
 10
16.0540304672
 20
11.3675819549
 30
0.0
 10
16.0395016468
 20
11.3457907165
 30
0.0
 10
16.0247053622
 20
11.3252155436
 30
0.0
 10
16.0096567635
 20
11.3058778025
 30
0.0
 10
15.9943711867
 20
11.2877976001
 30
0.0
 10
15.9788641417
 20
11.2709937702
 30
0.0
 10
15.9631512914
 20
11.2554838803
 30
0.0
 10
15.9472484269
 20
11.2412842625
 30
0.0
 10
15.9311714721
 20
11.2284100379
 30
0.0
 10
15.9149364944
 20
11.2168751504
 30
0.0
 10
15.8985597585
 20
11.2066923724
 30
0.0
 10
15.882057783
 20
11.1978733291
 30
0.0
 10
15.8654474268
 20
11.1904284984
 30
0.0
 10
15.8487459966
 20
11.1843671499
 30
0.0
 10
15.8319713402
 20
11.1796972306
 30
0.0
 10
15.8151419034
 20
11.1764251561
 30
0.0
 10
15.7982767015
 20
11.1745556182
 30
0.0
 10
15.781395158
 20
11.1740913974
 30
0.0
 10
15.7645170249
 20
11.1750331724
 30
0.0
 10
15.7476616101
 20
11.1773796455
 30
0.0
 10
15.730849432
 20
11.1811269572
 30
0.0
 10
15.7197937915
 20
11.1845214705
 30
0.0
 10
15.7142921726
 20
11.1864382258
 30
0.0
  0
SPLINE
  5
29E
100
AcDbEntity
  8
02___PRT_ALL_AXES
100
AcDbSpline
 62
7
  6
CONTINUOUS
 70
0
 71
3
 72
41
 73
37
 74
0
 42
0.0000001
 43
0.0000001
 44
0.0000000001
 40
0.0
 40
0.0
 40
0.0
 40
0.0
 40
0.0246264459
 40
0.0512704862
 40
0.0798933689
 40
0.110414629
 40
0.1427210355
 40
0.1766721956
 40
0.2121054834
 40
0.2488398814
 40
0.2866793047
 40
0.32541552
 40
0.3648308153
 40
0.4047005012
 40
0.4447953084
 40
0.4848837231
 40
0.5247342946
 40
0.5641179437
 40
0.6028103011
 40
0.6405941098
 40
0.6772617349
 40
0.7126178427
 40
0.7464823417
 40
0.7786937184
 40
0.8091129686
 40
0.8376284218
 40
0.8641618974
 40
0.888676812
 40
0.9111890502
 40
0.9317814354
 40
0.9506220402
 40
0.96798422
 40
0.9762383438
 40
0.9842804283
 40
0.9921770272
 40
1.0
 40
1.0
 40
1.0
 40
1.0
 10
15.4682412746
 20
12.4196851727
 30
0.0
 10
15.4671690292
 20
12.4181814014
 30
0.0
 10
15.4650863286
 20
12.4149425091
 30
0.0
 10
15.4622465706
 20
12.4096610808
 30
0.0
 10
15.4595854127
 20
12.4037986487
 30
0.0
 10
15.4571208429
 20
12.397394606
 30
0.0
 10
15.4548692464
 20
12.3904915013
 30
0.0
 10
15.4528459064
 20
12.3831357067
 30
0.0
 10
15.4510645819
 20
12.3753767769
 30
0.0
 10
15.4495374418
 20
12.3672671487
 30
0.0
 10
15.4482749328
 20
12.3588617306
 30
0.0
 10
15.4472857023
 20
12.3502175097
 30
0.0
 10
15.4465765296
 20
12.3413931439
 30
0.0
 10
15.4461522764
 20
12.3324485478
 30
0.0
 10
15.4460158516
 20
12.3234444739
 30
0.0
 10
15.446168191
 20
12.3144420882
 30
0.0
 10
15.4466082499
 20
12.3055025451
 30
0.0
 10
15.4473330114
 20
12.296686562
 30
0.0
 10
15.448337507
 20
12.2880539956
 30
0.0
 10
15.4496148528
 20
12.2796634226
 30
0.0
 10
15.4511563005
 20
12.271571726
 30
0.0
 10
15.4529513047
 20
12.263833689
 30
0.0
 10
15.4549876089
 20
12.2565015968
 30
0.0
 10
15.4572513556
 20
12.2496248478
 30
0.0
 10
15.4597272275
 20
12.243249577
 30
0.0
 10
15.4623986422
 20
12.2374182933
 30
0.0
 10
15.4652479989
 20
12.2321695559
 30
0.0
 10
15.4682571147
 20
12.2275377097
 30
0.0
 10
15.4714075514
 20
12.2235528658
 30
0.0
 10
15.4746819132
 20
12.2202411106
 30
0.0
 10
15.4780621317
 20
12.2176261455
 30
0.0
 10
15.4810047446
 20
12.2160197362
 30
0.0
 10
15.483371418
 20
12.2151319222
 30
0.0
 10
15.4851273562
 20
12.2146627935
 30
0.0
 10
15.4868900386
 20
12.2143808445
 30
0.0
 10
15.4880698954
 20
12.2143180106
 30
0.0
 10
15.4886565917
 20
12.2143180179
 30
0.0
  0
SPLINE
  5
29F
100
AcDbEntity
  8
02___PRT_ALL_AXES
100
AcDbSpline
 62
7
  6
CONTINUOUS
 70
0
 71
3
 72
23
 73
19
 74
0
 42
0.0000001
 43
0.0000001
 44
0.0000000001
 40
0.0
 40
0.0
 40
0.0
 40
0.0
 40
0.0888369191
 40
0.1745057823
 40
0.2567846093
 40
0.335494363
 40
0.410478706
 40
0.4816207086
 40
0.5488460173
 40
0.612131039
 40
0.6715129204
 40
0.7271015853
 40
0.7790945266
 40
0.8277931635
 40
0.8736186436
 40
0.9171228248
 40
0.9589869561
 40
1.0
 40
1.0
 40
1.0
 40
1.0
 10
15.7920811285
 20
11.8399048432
 30
0.0
 10
15.7925565575
 20
11.8380701168
 30
0.0
 10
15.7935477988
 20
11.8344805973
 30
0.0
 10
15.7951881098
 20
11.8292522765
 30
0.0
 10
15.7969501625
 20
11.8242922218
 30
0.0
 10
15.7988272102
 20
11.8196191508
 30
0.0
 10
15.8008123179
 20
11.8152504115
 30
0.0
 10
15.8028980897
 20
11.8112022858
 30
0.0
 10
15.8050768655
 20
11.80748975
 30
0.0
 10
15.8073407675
 20
11.8041264934
 30
0.0
 10
15.8096817883
 20
11.8011248939
 30
0.0
 10
15.812091902
 20
11.7984960582
 30
0.0
 10
15.8145631224
 20
11.7962499264
 30
0.0
 10
15.8170875359
 20
11.7943954813
 30
0.0
 10
15.819656994
 20
11.7929410576
 30
0.0
 10
15.8222629947
 20
11.7918945316
 30
0.0
 10
15.8248944389
 20
11.7912630326
 30
0.0
 10
15.8266656676
 20
11.7911217873
 30
0.0
 10
15.8275406756
 20
11.791121781
 30
0.0
  0
SPLINE
  5
2A0
100
AcDbEntity
  8
02___PRT_ALL_AXES
100
AcDbSpline
 62
7
  6
CONTINUOUS
 70
0
 71
3
 72
64
 73
60
 74
0
 42
0.0000001
 43
0.0000001
 44
0.0000000001
 40
0.0
 40
0.0
 40
0.0
 40
0.0
 40
0.0082047247
 40
0.016254119
 40
0.0242052964
 40
0.0321180455
 40
0.0400532351
 40
0.0480711007
 40
0.0562296014
 40
0.0645830193
 40
0.0731809141
 40
0.0820674716
 40
0.0866319927
 40
0.0912826399
 40
0.1008564429
 40
0.1108177409
 40
0.1211888848
 40
0.1319875543
 40
0.1432271935
 40
0.1549174341
 40
0.1670644922
 40
0.1796715277
 40
0.1927389657
 40
0.2062647788
 40
0.2202447359
 40
0.234672619
 40
0.2495404133
 40
0.2648384739
 40
0.2805556715
 40
0.296679523
 40
0.3131963065
 40
0.3300911652
 40
0.3473482011
 40
0.364950561
 40
0.3828805145
 40
0.4011195276
 40
0.4196483308
 40
0.4384469835
 40
0.4574949352
 40
0.4767710837
 40
0.4962538311
 40
0.5357494192
 40
0.575802227
 40
0.6162269576
 40
0.6568352902
 40
0.6974374248
 40
0.7378436115
 40
0.7778656801
 40
0.8173185848
 40
0.8367756206
 40
0.8560232134
 40
0.875039827
 40
0.8938044275
 40
0.9122965428
 40
0.9304963096
 40
0.9483845715
 40
0.9659428403
 40
0.9831536185
 40
1.0
 40
1.0
 40
1.0
 40
1.0
 10
15.7142921725
 20
13.8351717629
 30
0.0
 10
15.7205999335
 20
13.8373693798
 30
0.0
 10
15.7332905433
 20
13.8411898837
 30
0.0
 10
15.752623498
 20
13.8451422829
 30
0.0
 10
15.7720076775
 20
13.8472432467
 30
0.0
 10
15.7914109193
 20
13.8474876903
 30
0.0
 10
15.8108029107
 20
13.845875238
 30
0.0
 10
15.8301530025
 20
13.8424093182
 30
0.0
 10
15.8494315374
 20
13.8370971523
 30
0.0
 10
15.8686102242
 20
13.8299490418
 30
0.0
 10
15.8876614448
 20
13.8209783252
 30
0.0
 10
15.9032700652
 20
13.8120761092
 30
0.0
 10
15.9156589337
 20
13.8040906474
 30
0.0
 10
15.9282190984
 20
13.7953550594
 30
0.0
 10
15.9437990246
 20
13.7832898387
 30
0.0
 10
15.9620900298
 20
13.7671989643
 30
0.0
 10
15.980131181
 20
13.7493798429
 30
0.0
 10
15.9978982257
 20
13.7298577542
 30
0.0
 10
16.0153679464
 20
13.708659454
 30
0.0
 10
16.0325171042
 20
13.6858140244
 30
0.0
 10
16.0493227934
 20
13.661352675
 30
0.0
 10
16.0657624089
 20
13.6353088109
 30
0.0
 10
16.0818137264
 20
13.607718001
 30
0.0
 10
16.097454952
 20
13.5786179541
 30
0.0
 10
16.1126647749
 20
13.5480484772
 30
0.0
 10
16.1274224132
 20
13.5160514263
 30
0.0
 10
16.1417076583
 20
13.482670651
 30
0.0
 10
16.1555009136
 20
13.447951934
 30
0.0
 10
16.1687832312
 20
13.4119429274
 30
0.0
 10
16.1815363451
 20
13.3746930848
 30
0.0
 10
16.193742702
 20
13.3362535913
 30
0.0
 10
16.2053854897
 20
13.296677291
 30
0.0
 10
16.216448664
 20
13.2560186114
 30
0.0
 10
16.2269169726
 20
13.2143334873
 30
0.0
 10
16.2367759792
 20
13.1716792818
 30
0.0
 10
16.2460120853
 20
13.128114705
 30
0.0
 10
16.2546125474
 20
13.0836997344
 30
0.0
 10
16.2625655025
 20
13.0384955173
 30
0.0
 10
16.2698599598
 20
12.9925643376
 30
0.0
 10
16.2764859113
 20
12.9459693299
 30
0.0
 10
16.2844526035
 20
12.8827587118
 30
0.0
 10
16.2926586959
 20
12.8025403857
 30
0.0
 10
16.2996732544
 20
12.7051062021
 30
0.0
 10
16.3038601026
 20
12.6066027346
 30
0.0
 10
16.3051960688
 20
12.507572443
 30
0.0
 10
16.3036737398
 20
12.4085599337
 30
0.0
 10
16.2993015634
 20
12.3101097111
 30
0.0
 10
16.2921037417
 20
12.2127639398
 30
0.0
 10
16.2837461601
 20
12.1326423515
 30
0.0
 10
16.275659751
 20
12.0695265008
 30
0.0
 10
16.2689460404
 20
12.0230144621
 30
0.0
 10
16.2615650854
 20
11.9771745592
 30
0.0
 10
16.2535270136
 20
11.932069798
 30
0.0
 10
16.2448429322
 20
11.8877623303
 30
0.0
 10
16.2355248214
 20
11.8443131346
 30
0.0
 10
16.2255855379
 20
11.8017820828
 30
0.0
 10
16.2150387763
 20
11.7602275686
 30
0.0
 10
16.2038991437
 20
11.7197071159
 30
0.0
 10
16.1960006125
 20
11.6931268304
 30
0.0
 10
16.1919513061
 20
11.6800232703
 30
0.0
  0
SPLINE
  5
2A1
100
AcDbEntity
  8
02___PRT_ALL_AXES
100
AcDbSpline
 62
7
  6
CONTINUOUS
 70
0
 71
3
 72
31
 73
27
 74
0
 42
0.0000001
 43
0.0000001
 44
0.0000000001
 40
0.0
 40
0.0
 40
0.0
 40
0.0
 40
0.0167645827
 40
0.0337499517
 40
0.0511665049
 40
0.0692056129
 40
0.0880340548
 40
0.1077917766
 40
0.1285915873
 40
0.1505211512
 40
0.1736454367
 40
0.1980091174
 40
0.2236396978
 40
0.2505494876
 40
0.2787376821
 40
0.3081924404
 40
0.338891812
 40
0.3708053543
 40
0.4381082001
 40
0.5097299293
 40
0.5852038841
 40
0.6639953028
 40
0.7455154528
 40
0.8291340717
 40
0.9141885583
 40
1.0
 40
1.0
 40
1.0
 40
1.0
 10
15.682365551
 20
13.2631039782
 30
0.0
 10
15.6816714824
 20
13.2631039831
 30
0.0
 10
15.6802726596
 20
13.263015727
 30
0.0
 10
15.6781864721
 20
13.2626201882
 30
0.0
 10
15.6761120694
 20
13.2619628688
 30
0.0
 10
15.674055259
 20
13.2610463751
 30
0.0
 10
15.6720207718
 20
13.2598738707
 30
0.0
 10
15.6700131987
 20
13.2584488211
 30
0.0
 10
15.6680368275
 20
13.256775128
 30
0.0
 10
15.6660959074
 20
13.2548570023
 30
0.0
 10
15.664194678
 20
13.2526990679
 30
0.0
 10
15.6623372966
 20
13.250306473
 30
0.0
 10
15.6605279657
 20
13.2476848138
 30
0.0
 10
15.6587708075
 20
13.2448402383
 30
0.0
 10
15.6570698466
 20
13.2417794259
 30
0.0
 10
15.6554290932
 20
13.2385095496
 30
0.0
 10
15.65385232
 20
13.2350383029
 30
0.0
 10
15.6518039975
 20
13.2300639414
 30
0.0
 10
15.6494423623
 20
13.2233916484
 30
0.0
 10
15.6469663947
 20
13.2148633644
 30
0.0
 10
15.6448237829
 20
13.2057562878
 30
0.0
 10
15.64303501
 20
13.1961565156
 30
0.0
 10
15.6416172159
 20
13.1861546025
 30
0.0
 10
15.640584018
 20
13.1758452295
 30
0.0
 10
15.6399452997
 20
13.1653262148
 30
0.0
 10
15.6397868702
 20
13.1582519677
 30
0.0
 10
15.639774596
 20
13.1546993189
 30
0.0
  0
SPLINE
  5
2A2
100
AcDbEntity
  8
LAYER_FEATURE
100
AcDbSpline
 62
7
  6
CONTINUOUS
 70
0
 71
3
 72
67
 73
63
 74
0
 42
0.0000001
 43
0.0000001
 44
0.0000000001
 40
0.0
 40
0.0
 40
0.0
 40
0.0
 40
0.0163581196
 40
0.0330510584
 40
0.0500642524
 40
0.0673826912
 40
0.084990521
 40
0.1028713414
 40
0.1210081573
 40
0.1393834615
 40
0.1579792697
 40
0.1767771674
 40
0.1957583518
 40
0.2149036729
 40
0.2536076563
 40
0.2927314912
 40
0.3321134766
 40
0.371590054
 40
0.4109969877
 40
0.4501705397
 40
0.4889486502
 40
0.5081400228
 40
0.5271731429
 40
0.5460287631
 40
0.5646879706
 40
0.5831322281
 40
0.6013434161
 40
0.6193038763
 40
0.636996457
 40
0.6544045602
 40
0.6715121914
 40
0.6883040119
 40
0.7047653955
 40
0.7208824882
 40
0.7366422733
 40
0.7520326427
 40
0.7670424743
 40
0.7816617187
 40
0.7958814944
 40
0.809694195
 40
0.8230936093
 40
0.8360750575
 40
0.8486355457
 40
0.8607739412
 40
0.8724911706
 40
0.8837904453
 40
0.8946775138
 40
0.9051609428
 40
0.9152524239
 40
0.9249671005
 40
0.934323902
 40
0.9433458667
 40
0.9520604214
 40
0.9604995758
 40
0.9686999786
 40
0.9767027775
 40
0.9806449746
 40
0.9845550535
 40
0.9884391968
 40
0.9923037476
 40
0.9961551669
 40
1.0
 40
1.0
 40
1.0
 40
1.0
 10
15.2150366741
 20
13.5706499888
 30
0.0
 10
15.2101670465
 20
13.5548918681
 30
0.0
 10
15.2006540861
 20
13.52295146
 30
0.0
 10
15.1871879402
 20
13.4742995826
 30
0.0
 10
15.1743928943
 20
13.4244665673
 30
0.0
 10
15.1622847151
 20
13.3735138129
 30
0.0
 10
15.1508782439
 20
13.3215035631
 30
0.0
 10
15.1401874812
 20
13.2684995939
 30
0.0
 10
15.1302255519
 20
13.2145668225
 30
0.0
 10
15.1210046857
 20
13.1597713446
 30
0.0
 10
15.112536201
 20
13.1041802989
 30
0.0
 10
15.1048305104
 20
13.047861853
 30
0.0
 10
15.0978970218
 20
12.9908848999
 30
0.0
 10
15.0896641186
 20
12.9138555643
 30
0.0
 10
15.081377399
 20
12.8164179268
 30
0.0
 10
15.0746615306
 20
12.6984151802
 30
0.0
 10
15.0711716484
 20
12.5794934304
 30
0.0
 10
15.0709249264
 20
12.4602355924
 30
0.0
 10
15.0739225853
 20
12.3412251395
 30
0.0
 10
15.0801498777
 20
12.2230454227
 30
0.0
 10
15.0880317831
 20
12.1254024341
 30
0.0
 10
15.0959437411
 20
12.0481650432
 30
0.0
 10
15.1026407466
 20
11.9910017535
 30
0.0
 10
15.1101126428
 20
11.934475822
 30
0.0
 10
15.1183503087
 20
11.8786563973
 30
0.0
 10
15.1273436156
 20
11.8236119293
 30
0.0
 10
15.1370815258
 20
11.7694098664
 30
0.0
 10
15.1475520825
 20
11.7161166298
 30
0.0
 10
15.1587424321
 20
11.6637975155
 30
0.0
 10
15.1706388389
 20
11.6125166176
 30
0.0
 10
15.1832267034
 20
11.5623367482
 30
0.0
 10
15.1964905809
 20
11.5133193584
 30
0.0
 10
15.2104142015
 20
11.4655244626
 30
0.0
 10
15.2249804922
 20
11.4190105627
 30
0.0
 10
15.2401715992
 20
11.3738345749
 30
0.0
 10
15.2559689132
 20
11.3300517582
 30
0.0
 10
15.2723530953
 20
11.2877156444
 30
0.0
 10
15.2893041043
 20
11.2468779696
 30
0.0
 10
15.3068012271
 20
11.2075886098
 30
0.0
 10
15.3248231125
 20
11.1698955186
 30
0.0
 10
15.3433478052
 20
11.1338446684
 30
0.0
 10
15.3623527846
 20
11.0994799949
 30
0.0
 10
15.3818150051
 20
11.0668433468
 30
0.0
 10
15.4017109413
 20
11.0359744407
 30
0.0
 10
15.4220166352
 20
11.0069108241
 30
0.0
 10
15.4427077467
 20
10.9796878486
 30
0.0
 10
15.4637596052
 20
10.9543386554
 30
0.0
 10
15.4851472582
 20
10.9308941754
 30
0.0
 10
15.5068455119
 20
10.90938315
 30
0.0
 10
15.5288289628
 20
10.8898321728
 30
0.0
 10
15.5510719821
 20
10.8722657531
 30
0.0
 10
15.5735487192
 20
10.8567063803
 30
0.0
 10
15.5962328373
 20
10.8431746173
 30
0.0
 10
15.6190979289
 20
10.8316890294
 30
0.0
 10
15.6421152293
 20
10.8222664863
 30
0.0
 10
15.6615000793
 20
10.8161142618
 30
0.0
 10
15.6770191515
 20
10.8122609197
 30
0.0
 10
15.6886199675
 20
10.8099063892
 30
0.0
 10
15.7002353083
 20
10.8080743643
 30
0.0
 10
15.7118617986
 20
10.8067652645
 30
0.0
 10
15.7234954107
 20
10.805979658
 30
0.0
 10
15.7312564313
 20
10.8058050018
 30
0.0
 10
15.7351330567
 20
10.8058049972
 30
0.0
  0
SPLINE
  5
2A3
100
AcDbEntity
  8
02___PRT_ALL_AXES
100
AcDbSpline
 62
7
  6
CONTINUOUS
 70
0
 71
3
 72
36
 73
32
 74
0
 42
0.0000001
 43
0.0000001
 44
0.0000000001
 40
0.0
 40
0.0
 40
0.0
 40
0.0
 40
0.0191668818
 40
0.038563233
 40
0.0583057207
 40
0.0785034474
 40
0.0992562965
 40
0.1206538692
 40
0.1427750533
 40
0.1656880641
 40
0.1894507752
 40
0.214111284
 40
0.2397086674
 40
0.2662737315
 40
0.293829707
 40
0.3223930098
 40
0.3519739273
 40
0.3825771749
 40
0.4142024228
 40
0.4468448309
 40
0.4804954594
 40
0.515141587
 40
0.5507670928
 40
0.5873527677
 40
0.6248765286
 40
0.6633136445
 40
0.7026370028
 40
0.7428172722
 40
0.8256173698
 40
0.9114444101
 40
1.0
 40
1.0
 40
1.0
 40
1.0
 10
15.7256893158
 20
11.8236055219
 30
0.0
 10
15.7226235165
 20
11.8238383856
 30
0.0
 10
15.7164725963
 20
11.8245787553
 30
0.0
 10
15.7073068632
 20
11.8264941598
 30
0.0
 10
15.698174538
 20
11.8292156991
 30
0.0
 10
15.6890878039
 20
11.8327390524
 30
0.0
 10
15.6800572375
 20
11.8370590519
 30
0.0
 10
15.6710933622
 20
11.8421696384
 30
0.0
 10
15.6622063218
 20
11.8480640231
 30
0.0
 10
15.6534060931
 20
11.8547347248
 30
0.0
 10
15.6447024961
 20
11.8621735276
 30
0.0
 10
15.6361052268
 20
11.8703714496
 30
0.0
 10
15.6276239131
 20
11.8793187694
 30
0.0
 10
15.619268118
 20
11.8890049883
 30
0.0
 10
15.611047288
 20
11.8994187728
 30
0.0
 10
15.602970778
 20
11.9105479848
 30
0.0
 10
15.5950478447
 20
11.9223796863
 30
0.0
 10
15.5872876021
 20
11.9349001157
 30
0.0
 10
15.5796989934
 20
11.9480946935
 30
0.0
 10
15.5722908108
 20
11.9619480625
 30
0.0
 10
15.5650716726
 20
11.9764440924
 30
0.0
 10
15.5580499666
 20
11.9915658741
 30
0.0
 10
15.5512338744
 20
12.0072957625
 30
0.0
 10
15.5446313665
 20
12.0236154002
 30
0.0
 10
15.5382501585
 20
12.0405057278
 30
0.0
 10
15.532097717
 20
12.0579469838
 30
0.0
 10
15.5261811913
 20
12.0759188352
 30
0.0
 10
15.5185401202
 20
12.1008095908
 30
0.0
 10
15.5096493722
 20
12.1331126413
 30
0.0
 10
15.5001291717
 20
12.1732625654
 30
0.0
 10
15.4945882315
 20
12.2006876344
 30
0.0
 10
15.491992208
 20
12.2146539405
 30
0.0
  0
SPLINE
  5
2A4
100
AcDbEntity
  8
LAYER_FEATURE
100
AcDbSpline
 62
7
  6
CONTINUOUS
 70
0
 71
3
 72
22
 73
18
 74
0
 42
0.0000001
 43
0.0000001
 44
0.0000000001
 40
0.0
 40
0.0
 40
0.0
 40
0.0
 40
0.055089003
 40
0.1103787395
 40
0.16606724
 40
0.2223473121
 40
0.2794042551
 40
0.3374139061
 40
0.3965412314
 40
0.4569391764
 40
0.5187480262
 40
0.5820952067
 40
0.7138149969
 40
0.7824137239
 40
0.8529345528
 40
0.925444443
 40
1.0
 40
1.0
 40
1.0
 40
1.0
 10
15.2070711702
 20
14.2158049833
 30
0.0
 10
15.2127312091
 20
14.2158049778
 30
0.0
 10
15.2240754163
 20
14.2154320083
 30
0.0
 10
15.241066688
 20
14.2137549831
 30
0.0
 10
15.2580349845
 20
14.2109615402
 30
0.0
 10
15.2749676334
 20
14.2070539128
 30
0.0
 10
15.2918533512
 20
14.2020351862
 30
0.0
 10
15.3086807389
 20
14.1959093296
 30
0.0
 10
15.3254386826
 20
14.1886808952
 30
0.0
 10
15.3421161051
 20
14.1803552912
 30
0.0
 10
15.3587026968
 20
14.1709382467
 30
0.0
 10
15.3809695044
 20
14.1567529639
 30
0.0
 10
15.4027246931
 20
14.1405339298
 30
0.0
 10
15.423923996
 20
14.1225001812
 30
0.0
 10
15.4398973554
 20
14.1077381514
 30
0.0
 10
15.4557163386
 20
14.0919346124
 30
0.0
 10
15.4660085022
 20
14.0808666429
 30
0.0
 10
15.4711278243
 20
14.0751684243
 30
0.0
  0
SPLINE
  5
2A5
100
AcDbEntity
  8
LAYER_FEATURE
100
AcDbSpline
 62
7
  6
CONTINUOUS
 70
0
 71
3
 72
23
 73
19
 74
0
 42
0.0000001
 43
0.0000001
 44
0.0000000001
 40
0.0
 40
0.0
 40
0.0
 40
0.0
 40
0.0550861349
 40
0.1103730217
 40
0.166058729
 40
0.2223360651
 40
0.2793903514
 40
0.3373974697
 40
0.3965223483
 40
0.4569179865
 40
0.5187246802
 40
0.5820698003
 40
0.6470678642
 40
0.7138206356
 40
0.7824177277
 40
0.8529371152
 40
0.9254456631
 40
1.0
 40
1.0
 40
1.0
 40
1.0
 10
15.2070711702
 20
10.8058050025
 30
0.0
 10
15.2127316826
 20
10.8058049969
 30
0.0
 10
15.2240768411
 20
10.8061780649
 30
0.0
 10
15.2410695405
 20
10.8078553234
 30
0.0
 10
15.2580392495
 20
10.8106492695
 30
0.0
 10
15.2749733066
 20
10.8145575444
 30
0.0
 10
15.2918604266
 20
10.819577089
 30
0.0
 10
15.3086891875
 20
10.8257040047
 30
0.0
 10
15.3254484849
 20
10.8329336082
 30
0.0
 10
15.3421273258
 20
10.841260644
 30
0.0
 10
15.3587149359
 20
10.8506790983
 30
0.0
 10
15.3752006822
 20
10.8611823482
 30
0.0
 10
15.3915740045
 20
10.8727632108
 30
0.0
 10
15.4078245242
 20
10.8854137858
 30
0.0
 10
15.4239418865
 20
10.8991256
 30
0.0
 10
15.4399158796
 20
10.9138896422
 30
0.0
 10
15.455736148
 20
10.9296958742
 30
0.0
 10
15.4660289806
 20
10.9407656044
 30
0.0
 10
15.4711486524
 20
10.946464738
 30
0.0
  0
SPLINE
  5
2A6
100
AcDbEntity
  8
LAYER_FEATURE
100
AcDbSpline
 62
7
  6
CONTINUOUS
 70
0
 71
3
 72
67
 73
63
 74
0
 42
0.0000001
 43
0.0000001
 44
0.0000000001
 40
0.0
 40
0.0
 40
0.0
 40
0.0
 40
0.0038448331
 40
0.0076962524
 40
0.0115608032
 40
0.0154449465
 40
0.0193550254
 40
0.0232972225
 40
0.0313000214
 40
0.0395004242
 40
0.0479395786
 40
0.0566541333
 40
0.065676098
 40
0.0750328995
 40
0.0847475761
 40
0.0948390572
 40
0.1053224862
 40
0.1162095547
 40
0.1275088294
 40
0.1392260588
 40
0.1513644543
 40
0.1639249425
 40
0.1769063907
 40
0.190305805
 40
0.2041185056
 40
0.2183382813
 40
0.2329575257
 40
0.2479673573
 40
0.2633577267
 40
0.2791175118
 40
0.2952346045
 40
0.3116959881
 40
0.3284878086
 40
0.3455954398
 40
0.363003543
 40
0.3806961237
 40
0.3986565839
 40
0.4168677719
 40
0.4353120294
 40
0.4539712369
 40
0.4728268571
 40
0.4918599772
 40
0.5110513498
 40
0.5498294603
 40
0.5890030123
 40
0.628409946
 40
0.6678865234
 40
0.7072685088
 40
0.7463923437
 40
0.7850963271
 40
0.8042416482
 40
0.8232228326
 40
0.8420207303
 40
0.8606165385
 40
0.8789918427
 40
0.8971286586
 40
0.915009479
 40
0.9326173088
 40
0.9499357476
 40
0.9669489416
 40
0.9836418804
 40
1.0
 40
1.0
 40
1.0
 40
1.0
 10
15.7916313393
 20
14.2158049886
 30
0.0
 10
15.7955079647
 20
14.215804984
 30
0.0
 10
15.8032689853
 20
14.2156303278
 30
0.0
 10
15.8149025974
 20
14.2148447213
 30
0.0
 10
15.8265290877
 20
14.2135356215
 30
0.0
 10
15.8381444285
 20
14.2117035967
 30
0.0
 10
15.8497452445
 20
14.2093490661
 30
0.0
 10
15.8652643167
 20
14.205495724
 30
0.0
 10
15.8846491667
 20
14.1993434995
 30
0.0
 10
15.9076664671
 20
14.1899209564
 30
0.0
 10
15.9305315587
 20
14.1784353685
 30
0.0
 10
15.9532156768
 20
14.1649036055
 30
0.0
 10
15.9756924139
 20
14.1493442327
 30
0.0
 10
15.9979354332
 20
14.131777813
 30
0.0
 10
16.0199188841
 20
14.1122268358
 30
0.0
 10
16.0416171378
 20
14.0907158104
 30
0.0
 10
16.0630047908
 20
14.0672713305
 30
0.0
 10
16.0840566493
 20
14.0419221372
 30
0.0
 10
16.1047477608
 20
14.0146991617
 30
0.0
 10
16.1250534547
 20
13.9856355452
 30
0.0
 10
16.1449493909
 20
13.954766639
 30
0.0
 10
16.1644116114
 20
13.9221299909
 30
0.0
 10
16.1834165907
 20
13.8877653174
 30
0.0
 10
16.2019412835
 20
13.8517144672
 30
0.0
 10
16.2199631689
 20
13.814021376
 30
0.0
 10
16.2374602917
 20
13.7747320162
 30
0.0
 10
16.2544113007
 20
13.7338943414
 30
0.0
 10
16.2707954828
 20
13.6915582276
 30
0.0
 10
16.2865927968
 20
13.6477754109
 30
0.0
 10
16.3017839038
 20
13.6025994231
 30
0.0
 10
16.3163501945
 20
13.5560855232
 30
0.0
 10
16.3302738151
 20
13.5082906274
 30
0.0
 10
16.3435376926
 20
13.4592732377
 30
0.0
 10
16.3561255571
 20
13.4090933682
 30
0.0
 10
16.3680219639
 20
13.3578124703
 30
0.0
 10
16.3792123135
 20
13.305493356
 30
0.0
 10
16.3896828702
 20
13.2522001194
 30
0.0
 10
16.3994207804
 20
13.1979980566
 30
0.0
 10
16.4084140873
 20
13.1429535885
 30
0.0
 10
16.4166517532
 20
13.0871341639
 30
0.0
 10
16.4241236494
 20
13.0306082323
 30
0.0
 10
16.4308206549
 20
12.9734449426
 30
0.0
 10
16.4387326129
 20
12.8962075518
 30
0.0
 10
16.4466145183
 20
12.7985645631
 30
0.0
 10
16.4528418107
 20
12.6803848463
 30
0.0
 10
16.4558394696
 20
12.5613743934
 30
0.0
 10
16.4555927476
 20
12.4421165554
 30
0.0
 10
16.4521028654
 20
12.3231948056
 30
0.0
 10
16.445386997
 20
12.205192059
 30
0.0
 10
16.4371002774
 20
12.1077544215
 30
0.0
 10
16.4288673742
 20
12.0307250859
 30
0.0
 10
16.4219338856
 20
11.9737481328
 30
0.0
 10
16.414228195
 20
11.917429687
 30
0.0
 10
16.4057597103
 20
11.8618386412
 30
0.0
 10
16.3965388441
 20
11.8070431633
 30
0.0
 10
16.3865769148
 20
11.7531103919
 30
0.0
 10
16.3758861521
 20
11.7001064227
 30
0.0
 10
16.3644796809
 20
11.6480961729
 30
0.0
 10
16.3523715017
 20
11.5971434185
 30
0.0
 10
16.3395764558
 20
11.5473104032
 30
0.0
 10
16.3261103099
 20
11.4986585259
 30
0.0
 10
16.3165973495
 20
11.4667181177
 30
0.0
 10
16.3117277219
 20
11.450959997
 30
0.0
  0
SPLINE
  5
2A7
100
AcDbEntity
  8
LAYER_FEATURE
100
AcDbSpline
 62
7
  6
CONTINUOUS
 70
0
 71
3
 72
39
 73
35
 74
0
 42
0.0000001
 43
0.0000001
 44
0.0000000001
 40
0.0
 40
0.0
 40
0.0
 40
0.0
 40
0.0212769804
 40
0.0426477414
 40
0.0642045476
 40
0.0860367285
 40
0.1082294312
 40
0.1308626267
 40
0.1540103795
 40
0.1777403627
 40
0.2021136209
 40
0.2271845572
 40
0.2530010594
 40
0.2796047195
 40
0.3070311688
 40
0.3353104555
 40
0.3644674151
 40
0.3945220369
 40
0.4254898666
 40
0.4573823644
 40
0.490207209
 40
0.5239686075
 40
0.5586675976
 40
0.5943022943
 40
0.6308680906
 40
0.6683578886
 40
0.7067623018
 40
0.7460698039
 40
0.786266845
 40
0.8273381089
 40
0.8692665029
 40
0.9120330951
 40
0.9556186664
 40
1.0
 40
1.0
 40
1.0
 40
1.0
 10
15.7916313393
 20
10.8058049972
 30
0.0
 10
15.7978591848
 20
10.8058049897
 30
0.0
 10
15.8103469885
 20
10.8062569245
 30
0.0
 10
15.8290451391
 20
10.8082883218
 30
0.0
 10
15.847712281
 20
10.8116716421
 30
0.0
 10
15.8663314145
 20
10.8164034477
 30
0.0
 10
15.8848874996
 20
10.8224790234
 30
0.0
 10
15.9033653888
 20
10.8298925461
 30
0.0
 10
15.9217503776
 20
10.8386371839
 30
0.0
 10
15.940028031
 20
10.8487051203
 30
0.0
 10
15.9581841888
 20
10.8600876038
 30
0.0
 10
15.9762048831
 20
10.8727750224
 30
0.0
 10
15.9940762982
 20
10.8867568975
 30
0.0
 10
16.0117847781
 20
10.9020218265
 30
0.0
 10
16.0293167805
 20
10.9185575171
 30
0.0
 10
16.0466588588
 20
10.9363507869
 30
0.0
 10
16.0637976717
 20
10.9553875304
 30
0.0
 10
16.0807200184
 20
10.9756526868
 30
0.0
 10
16.0974128086
 20
10.9971302794
 30
0.0
 10
16.1138630754
 20
11.0198034118
 30
0.0
 10
16.1300580192
 20
11.0436542417
 30
0.0
 10
16.1459850161
 20
11.0686639965
 30
0.0
 10
16.1616316087
 20
11.094813005
 30
0.0
 10
16.1769855235
 20
11.1220807004
 30
0.0
 10
16.1920347237
 20
11.1504456082
 30
0.0
 10
16.2067673868
 20
11.1798853867
 30
0.0
 10
16.2211719125
 20
11.2103768504
 30
0.0
 10
16.2352369449
 20
11.2418959679
 30
0.0
 10
16.2489514184
 20
11.2744178854
 30
0.0
 10
16.262304509
 20
11.3079169596
 30
0.0
 10
16.2752856368
 20
11.3423667015
 30
0.0
 10
16.2878846646
 20
11.37774014
 30
0.0
 10
16.3000914545
 20
11.4140089954
 30
0.0
 10
16.3078922905
 20
11.4385485363
 30
0.0
 10
16.3117277219
 20
11.450959997
 30
0.0
  0
SPLINE
  5
2A8
100
AcDbEntity
  8
LAYER_CUT_FEAT
100
AcDbSpline
 62
7
  6
CONTINUOUS
 70
0
 71
3
 72
68
 73
64
 74
0
 42
0.0000001
 43
0.0000001
 44
0.0000000001
 40
0.0
 40
0.0
 40
0.0
 40
0.0
 40
0.003860193
 40
0.0077284172
 40
0.0116126431
 40
0.0155207177
 40
0.0194603129
 40
0.0234388692
 40
0.0315391814
 40
0.039877322
 40
0.0485009893
 40
0.057451707
 40
0.0667647874
 40
0.0764695573
 40
0.0865897471
 40
0.0971439613
 40
0.1081461737
 40
0.1196062096
 40
0.1315301934
 40
0.1439209531
 40
0.1567783789
 40
0.1700997377
 40
0.1838799469
 40
0.1981118122
 40
0.2127862349
 40
0.2278923934
 40
0.2434179011
 40
0.2593489478
 40
0.2756704239
 40
0.2923660327
 40
0.309418392
 40
0.3268091265
 40
0.3445189534
 40
0.362527762
 40
0.3808146881
 40
0.3993581843
 40
0.4181360873
 40
0.4371256821
 40
0.4563037636
 40
0.495129286
 40
0.5344206993
 40
0.5739806734
 40
0.6136095303
 40
0.6531069942
 40
0.6922739323
 40
0.711672566
 40
0.730915318
 40
0.7499784075
 40
0.7688384612
 40
0.7874725728
 40
0.8058583643
 40
0.8239740495
 40
0.8417984998
 40
0.8593113134
 40
0.876492888
 40
0.8933244981
 40
0.9097883779
 40
0.9258678135
 40
0.9415472319
 40
0.9568123362
 40
0.9716501493
 40
0.9860493347
 40
1.0
 40
1.0
 40
1.0
 40
1.0
 10
15.7842628514
 20
13.7483049929
 30
0.0
 10
15.7811613375
 20
13.7483049922
 30
0.0
 10
15.7749507602
 20
13.7481508935
 30
0.0
 10
15.7656426144
 20
13.7474579003
 30
0.0
 10
15.7563414411
 20
13.7463031675
 30
0.0
 10
15.7470511711
 20
13.7446873112
 30
0.0
 10
15.737775108
 20
13.7426108347
 30
0.0
 10
15.7253583044
 20
13.7392097028
 30
0.0
 10
15.7098539229
 20
13.7337766788
 30
0.0
 10
15.6914854521
 20
13.7254687051
 30
0.0
 10
15.6732657123
 20
13.7153483932
 30
0.0
 10
15.6552220599
 20
13.7034337403
 30
0.0
 10
15.6373795423
 20
13.6897443828
 30
0.0
 10
15.6197631933
 20
13.6743019908
 30
0.0
 10
15.6023976354
 20
13.6571302526
 30
0.0
 10
15.5853073227
 20
13.638255016
 30
0.0
 10
15.568516507
 20
13.6177043754
 30
0.0
 10
15.5520492195
 20
13.5955087408
 30
0.0
 10
15.5359292129
 20
13.5717008714
 30
0.0
 10
15.5201798973
 20
13.5463158831
 30
0.0
 10
15.5048242755
 20
13.5193912301
 30
0.0
 10
15.4898848792
 20
13.4909666715
 30
0.0
 10
15.4753837115
 20
13.461084224
 30
0.0
 10
15.4613421927
 20
13.4297881049
 30
0.0
 10
15.4477811124
 20
13.3971246686
 30
0.0
 10
15.4347205853
 20
13.363142337
 30
0.0
 10
15.4221800106
 20
13.3278915257
 30
0.0
 10
15.4101780362
 20
13.2914245662
 30
0.0
 10
15.3987325239
 20
13.2537956259
 30
0.0
 10
15.3878605188
 20
13.2150606241
 30
0.0
 10
15.3775782204
 20
13.1752771468
 30
0.0
 10
15.3679009552
 20
13.1345043583
 30
0.0
 10
15.3588431521
 20
13.0928029116
 30
0.0
 10
15.3504183192
 20
13.0502348548
 30
0.0
 10
15.3426390242
 20
13.0068635403
 30
0.0
 10
15.3355168686
 20
12.9627535149
 30
0.0
 10
15.3290624939
 20
12.917970477
 30
0.0
 10
15.3232854728
 20
12.8725809702
 30
0.0
 10
15.3164700516
 20
12.8110942968
 30
0.0
 10
15.3097182206
 20
12.7331996124
 30
0.0
 10
15.3044615273
 20
12.6387827754
 30
0.0
 10
15.3020493294
 20
12.5436046243
 30
0.0
 10
15.3024960332
 20
12.4482314857
 30
0.0
 10
15.3057990136
 20
12.3532308216
 30
0.0
 10
15.3109312753
 20
12.2745946905
 30
0.0
 10
15.3164622531
 20
12.2123217578
 30
0.0
 10
15.3212937305
 20
12.1662088427
 30
0.0
 10
15.3268141598
 20
12.1206092337
 30
0.0
 10
15.3330153549
 20
12.0755906974
 30
0.0
 10
15.3398880492
 20
12.0312202953
 30
0.0
 10
15.347421992
 20
11.9875640732
 30
0.0
 10
15.3556059423
 20
11.9446870168
 30
0.0
 10
15.3644276916
 20
11.9026529391
 30
0.0
 10
15.3738740821
 20
11.8615243881
 30
0.0
 10
15.3839310275
 20
11.8213625505
 30
0.0
 10
15.3945835356
 20
11.7822271604
 30
0.0
 10
15.4058157311
 20
11.7441764046
 30
0.0
 10
15.4176108841
 20
11.707266845
 30
0.0
 10
15.4299514368
 20
11.6715532963
 30
0.0
 10
15.4428190221
 20
11.6370888501
 30
0.0
 10
15.4561945707
 20
11.6039244753
 30
0.0
 10
15.4700580401
 20
11.5721098428
 30
0.0
 10
15.4797678153
 20
11.5515004484
 30
0.0
 10
15.4847057762
 20
11.5414379422
 30
0.0
  0
SPLINE
  5
2A9
100
AcDbEntity
  8
LAYER_FEATURE
100
AcDbSpline
 62
7
  6
CONTINUOUS
 70
0
 71
3
 72
39
 73
35
 74
0
 42
0.0000001
 43
0.0000001
 44
0.0000000001
 40
0.0
 40
0.0
 40
0.0
 40
0.0
 40
0.0443813336
 40
0.0879669049
 40
0.1307334971
 40
0.1726618911
 40
0.213733155
 40
0.2539301961
 40
0.2932376982
 40
0.3316421114
 40
0.3691319094
 40
0.4056977057
 40
0.4413324024
 40
0.4760313925
 40
0.509792791
 40
0.5426176356
 40
0.5745101334
 40
0.6054779631
 40
0.6355325849
 40
0.6646895445
 40
0.6929688312
 40
0.7203952805
 40
0.7469989406
 40
0.7728154428
 40
0.7978863791
 40
0.8222596373
 40
0.8459896205
 40
0.8691373733
 40
0.8917705688
 40
0.9139632715
 40
0.9357954524
 40
0.9573522586
 40
0.9787230196
 40
1.0
 40
1.0
 40
1.0
 40
1.0
 10
15.2150366741
 20
13.5706499888
 30
0.0
 10
15.2188721055
 20
13.5830614495
 30
0.0
 10
15.2266729415
 20
13.6076009904
 30
0.0
 10
15.2388797314
 20
13.6438698458
 30
0.0
 10
15.2514787592
 20
13.6792432844
 30
0.0
 10
15.264459887
 20
13.7136930262
 30
0.0
 10
15.2778129776
 20
13.7471921004
 30
0.0
 10
15.2915274511
 20
13.7797140179
 30
0.0
 10
15.3055924835
 20
13.8112331354
 30
0.0
 10
15.3199970092
 20
13.8417245991
 30
0.0
 10
15.3347296723
 20
13.8711643776
 30
0.0
 10
15.3497788725
 20
13.8995292854
 30
0.0
 10
15.3651327873
 20
13.9267969808
 30
0.0
 10
15.3807793799
 20
13.9529459893
 30
0.0
 10
15.3967063768
 20
13.9779557441
 30
0.0
 10
15.4129013206
 20
14.001806574
 30
0.0
 10
15.4293515874
 20
14.0244797064
 30
0.0
 10
15.4460443776
 20
14.045957299
 30
0.0
 10
15.4629667243
 20
14.0662224554
 30
0.0
 10
15.4801055371
 20
14.0852591989
 30
0.0
 10
15.4974476155
 20
14.1030524687
 30
0.0
 10
15.5149796179
 20
14.1195881593
 30
0.0
 10
15.5326880978
 20
14.1348530884
 30
0.0
 10
15.5505595129
 20
14.1488349634
 30
0.0
 10
15.5685802072
 20
14.161522382
 30
0.0
 10
15.5867363649
 20
14.1729048655
 30
0.0
 10
15.6050140183
 20
14.1829728019
 30
0.0
 10
15.6233990071
 20
14.1917174397
 30
0.0
 10
15.6418768964
 20
14.1991309624
 30
0.0
 10
15.6604329815
 20
14.2052065381
 30
0.0
 10
15.679052115
 20
14.2099383437
 30
0.0
 10
15.6977192569
 20
14.213321664
 30
0.0
 10
15.7164174075
 20
14.2153530613
 30
0.0
 10
15.7289052112
 20
14.2158049961
 30
0.0
 10
15.7351330567
 20
14.2158049886
 30
0.0
  0
SPLINE
  5
2AA
100
AcDbEntity
  8
LAYER_FEATURE
100
AcDbSpline
 62
7
  6
CONTINUOUS
 70
0
 71
3
 72
67
 73
63
 74
0
 42
0.0000001
 43
0.0000001
 44
0.0000000001
 40
0.0
 40
0.0
 40
0.0
 40
0.0
 40
0.0163581013
 40
0.0330510694
 40
0.0500642491
 40
0.0673826926
 40
0.0849905208
 40
0.1028713409
 40
0.1210081566
 40
0.1393834611
 40
0.15797927
 40
0.1767771682
 40
0.1957583526
 40
0.2149036734
 40
0.2536076561
 40
0.292731491
 40
0.3321134768
 40
0.371590054
 40
0.4109969877
 40
0.45017054
 40
0.4889486503
 40
0.5081400228
 40
0.5271731428
 40
0.546028763
 40
0.5646879707
 40
0.5831322282
 40
0.601343416
 40
0.6193038759
 40
0.6369964566
 40
0.65440456
 40
0.6715121917
 40
0.6883040129
 40
0.7047653969
 40
0.720882489
 40
0.7366422729
 40
0.7520326412
 40
0.7670424724
 40
0.7816617173
 40
0.7958814943
 40
0.8096941963
 40
0.8230936114
 40
0.8360750592
 40
0.8486355463
 40
0.8607739405
 40
0.872491169
 40
0.8837904436
 40
0.8946775128
 40
0.905160943
 40
0.9152524249
 40
0.9249671014
 40
0.9343239024
 40
0.9433458667
 40
0.9520604213
 40
0.9604995757
 40
0.9686999787
 40
0.9767027777
 40
0.9806449746
 40
0.9845550535
 40
0.9884391969
 40
0.9923037475
 40
0.9961551669
 40
1.0
 40
1.0
 40
1.0
 40
1.0
 10
14.6304765049
 20
13.5706499888
 30
0.0
 10
14.6256068827
 20
13.5548918857
 30
0.0
 10
14.616093922
 20
13.5229514662
 30
0.0
 10
14.6026277721
 20
13.4742995934
 30
0.0
 10
14.5898327268
 20
13.4244665575
 30
0.0
 10
14.5777245467
 20
13.3735138151
 30
0.0
 10
14.5663180749
 20
13.3215035625
 30
0.0
 10
14.5556273104
 20
13.2684995958
 30
0.0
 10
14.54566538
 20
13.2145668247
 30
0.0
 10
14.5364445145
 20
13.1597713458
 30
0.0
 10
14.5279760325
 20
13.1041802982
 30
0.0
 10
14.5202703447
 20
13.0478618507
 30
0.0
 10
14.513336857
 20
12.9908848972
 30
0.0
 10
14.5051039526
 20
12.9138555629
 30
0.0
 10
14.4968172273
 20
12.816417927
 30
0.0
 10
14.4901013565
 20
12.6984151808
 30
0.0
 10
14.4866114813
 20
12.5794934305
 30
0.0
 10
14.4863647627
 20
12.4602355925
 30
0.0
 10
14.4893624158
 20
12.3412251395
 30
0.0
 10
14.4955897052
 20
12.2230454223
 30
0.0
 10
14.503471614
 20
12.125402434
 30
0.0
 10
14.5113835731
 20
12.0481650437
 30
0.0
 10
14.5180805787
 20
11.9910017543
 30
0.0
 10
14.5255524743
 20
11.9344758225
 30
0.0
 10
14.5337901394
 20
11.8786563975
 30
0.0
 10
14.5427834463
 20
11.8236119296
 30
0.0
 10
14.5525213576
 20
11.7694098675
 30
0.0
 10
14.562991915
 20
11.7161166316
 30
0.0
 10
14.5741822646
 20
11.6637975174
 30
0.0
 10
14.5860786706
 20
11.6125166186
 30
0.0
 10
14.5986665338
 20
11.5623367473
 30
0.0
 10
14.6119304097
 20
11.5133193555
 30
0.0
 10
14.6258540295
 20
11.4655244589
 30
0.0
 10
14.6404203215
 20
11.4190105608
 30
0.0
 10
14.6556114313
 20
11.373834577
 30
0.0
 10
14.6714087474
 20
11.3300517641
 30
0.0
 10
14.6877929299
 20
11.2877156515
 30
0.0
 10
14.7047439376
 20
11.2468779748
 30
0.0
 10
14.7222410583
 20
11.2075886106
 30
0.0
 10
14.7402629413
 20
11.1698955143
 30
0.0
 10
14.7587876326
 20
11.1338446611
 30
0.0
 10
14.7777926131
 20
11.0994799891
 30
0.0
 10
14.7972548356
 20
11.0668433456
 30
0.0
 10
14.8171507736
 20
11.0359744446
 30
0.0
 10
14.8374564685
 20
11.0069108316
 30
0.0
 10
14.8581475801
 20
10.9796878566
 30
0.0
 10
14.8791994375
 20
10.9543386602
 30
0.0
 10
14.9005870883
 20
10.9308941747
 30
0.0
 10
14.922285341
 20
10.9093831455
 30
0.0
 10
14.9442687927
 20
10.8898321689
 30
0.0
 10
14.9665118129
 20
10.8722657518
 30
0.0
 10
14.9889885505
 20
10.8567063815
 30
0.0
 10
15.0116726687
 20
10.8431746199
 30
0.0
 10
15.03453776
 20
10.8316890313
 30
0.0
 10
15.0575550602
 20
10.8222664872
 30
0.0
 10
15.0769399095
 20
10.8161142595
 30
0.0
 10
15.0924589828
 20
10.8122609221
 30
0.0
 10
15.1040597985
 20
10.8099063909
 30
0.0
 10
15.1156751387
 20
10.8080743616
 30
0.0
 10
15.1273016301
 20
10.8067652731
 30
0.0
 10
15.1389352411
 20
10.8059796491
 30
0.0
 10
15.1466962622
 20
10.8058050063
 30
0.0
 10
15.1505728875
 20
10.8058050025
 30
0.0
  0
SPLINE
  5
2AB
100
AcDbEntity
  8
LAYER_FEATURE
100
AcDbSpline
 62
7
  6
CONTINUOUS
 70
0
 71
3
 72
39
 73
35
 74
0
 42
0.0000001
 43
0.0000001
 44
0.0000000001
 40
0.0
 40
0.0
 40
0.0
 40
0.0
 40
0.0443812481
 40
0.0879669295
 40
0.1307335086
 40
0.172661876
 40
0.2137331571
 40
0.2539301992
 40
0.2932376968
 40
0.3316421073
 40
0.369131911
 40
0.4056977099
 40
0.4413323968
 40
0.4760313903
 40
0.5097927974
 40
0.5426176342
 40
0.5745101269
 40
0.6054779669
 40
0.6355325892
 40
0.664689538
 40
0.6929688298
 40
0.7203952869
 40
0.7469989387
 40
0.7728154376
 40
0.7978863828
 40
0.8222596394
 40
0.8459896168
 40
0.869137373
 40
0.8917705712
 40
0.9139632708
 40
0.935795451
 40
0.9573522592
 40
0.9787230199
 40
1.0
 40
1.0
 40
1.0
 40
1.0
 10
14.6304765049
 20
13.5706499888
 30
0.0
 10
14.6343119289
 20
13.5830614256
 30
0.0
 10
14.6421127705
 20
13.6076009723
 30
0.0
 10
14.6543195567
 20
13.6438698324
 30
0.0
 10
14.6669185893
 20
13.6792432911
 30
0.0
 10
14.6798997218
 20
13.7136930241
 30
0.0
 10
14.6932528088
 20
13.747192097
 30
0.0
 10
14.7069672789
 20
13.7797140202
 30
0.0
 10
14.7210323144
 20
13.8112331345
 30
0.0
 10
14.7354368449
 20
13.8417245953
 30
0.0
 10
14.7501695018
 20
13.8711643786
 30
0.0
 10
14.7652186973
 20
13.8995292885
 30
0.0
 10
14.780572625
 20
13.9267969754
 30
0.0
 10
14.7962192133
 20
13.9529459868
 30
0.0
 10
14.8121461997
 20
13.9779557499
 30
0.0
 10
14.8283411531
 20
14.001806572
 30
0.0
 10
14.8447914261
 20
14.0244796986
 30
0.0
 10
14.8614842036
 20
14.045957303
 30
0.0
 10
14.8784065494
 20
14.0662224606
 30
0.0
 10
14.8955453766
 20
14.085259189
 30
0.0
 10
14.9128874479
 20
14.1030524658
 30
0.0
 10
14.93041944
 20
14.1195881699
 30
0.0
 10
14.9481279315
 20
14.1348530843
 30
0.0
 10
14.9659993509
 20
14.1488349515
 30
0.0
 10
14.9840200317
 20
14.1615223912
 30
0.0
 10
15.0021761937
 20
14.1729048701
 30
0.0
 10
15.0204538549
 20
14.182972789
 30
0.0
 10
15.0388388374
 20
14.191717439
 30
0.0
 10
15.0573167237
 20
14.199130973
 30
0.0
 10
15.0758728142
 20
14.2052065322
 30
0.0
 10
15.0944919475
 20
14.2099383333
 30
0.0
 10
15.113159086
 20
14.2133216739
 30
0.0
 10
15.1318572388
 20
14.2153530618
 30
0.0
 10
15.1443450421
 20
14.2158049894
 30
0.0
 10
15.1505728875
 20
14.2158049833
 30
0.0
  0
SPLINE
  5
2AC
100
AcDbEntity
  8
02___PRT_ALL_AXES
100
AcDbSpline
 62
7
  6
CONTINUOUS
 70
0
 71
3
 72
33
 73
29
 74
0
 42
0.0000001
 43
0.0000001
 44
0.0000000001
 40
0.0
 40
0.0
 40
0.0
 40
0.0
 40
0.0746188227
 40
0.1494980697
 40
0.2241890474
 40
0.2982447058
 40
0.37122464
 40
0.4426998082
 40
0.4777448686
 40
0.5122605667
 40
0.5461987078
 40
0.5795127843
 40
0.6121581655
 40
0.6440923015
 40
0.6752749376
 40
0.7056683491
 40
0.7352375994
 40
0.7639508263
 40
0.7917795636
 40
0.8186991053
 40
0.8446889225
 40
0.8697331456
 40
0.893821122
 40
0.9169480418
 40
0.9391157622
 40
0.9603334585
 40
0.9806192023
 40
1.0
 40
1.0
 40
1.0
 40
1.0
 10
15.4682412746
 20
12.4196851727
 30
0.0
 10
15.4672428139
 20
12.4388597598
 30
0.0
 10
15.4658823479
 20
12.477312092
 30
0.0
 10
15.465730625
 20
12.5350089157
 30
0.0
 10
15.4674611828
 20
12.5925357144
 30
0.0
 10
15.4710617418
 20
12.6494863217
 30
0.0
 10
15.476506702
 20
12.7054590071
 30
0.0
 10
15.4825879615
 20
12.751256102
 30
0.0
 10
15.4883626392
 20
12.7870862376
 30
0.0
 10
15.4930983423
 20
12.8132953889
 30
0.0
 10
15.4982584492
 20
12.8389701413
 30
0.0
 10
15.5038338849
 20
12.8640652643
 30
0.0
 10
15.5098147697
 20
12.8885364488
 30
0.0
 10
15.5161905263
 20
12.9123405314
 30
0.0
 10
15.5229498792
 20
12.9354355344
 30
0.0
 10
15.5300808836
 20
12.9577807514
 30
0.0
 10
15.5375709471
 20
12.9793368187
 30
0.0
 10
15.5454068572
 20
13.0000657883
 30
0.0
 10
15.5535748097
 20
13.019931197
 30
0.0
 10
15.5620604409
 20
13.0388981339
 30
0.0
 10
15.5708488634
 20
13.0569333036
 30
0.0
 10
15.579924702
 20
13.0740050918
 30
0.0
 10
15.5892721395
 20
13.0900836028
 30
0.0
 10
15.5988749795
 20
13.1051407527
 30
0.0
 10
15.6087166334
 20
13.1191501547
 30
0.0
 10
15.6187804588
 20
13.1320875843
 30
0.0
 10
15.6290487873
 20
13.143929692
 30
0.0
 10
15.6361787342
 20
13.1512439307
 30
0.0
 10
15.639774596
 20
13.1546993189
 30
0.0
  0
LINE
  5
2AD
100
AcDbEntity
  8
02___PRT_ALL_AXES
100
AcDbLine
 62
7
  6
CONTINUOUS
 10
15.7213837224
 20
13.1975883739
 11
15.6425481204
 21
13.1916323421
  0
SPLINE
  5
2AE
100
AcDbEntity
  8
LAYER_FEATURE
100
AcDbSpline
 62
7
  6
CONTINUOUS
 70
0
 71
3
 72
33
 73
29
 74
0
 42
0.0000001
 43
0.0000001
 44
0.0000000001
 40
0.0
 40
0.0
 40
0.0
 40
0.0
 40
0.0836605556
 40
0.1647024167
 40
0.2430160821
 40
0.3185053264
 40
0.3910905999
 40
0.4262760513
 40
0.4607141719
 40
0.4944005226
 40
0.5273322052
 40
0.5595078559
 40
0.5909278203
 40
0.6215942793
 40
0.6515113174
 40
0.6806851793
 40
0.7091243016
 40
0.736839581
 40
0.7638444996
 40
0.7901552984
 40
0.8157912365
 40
0.8407746787
 40
0.8651313914
 40
0.9120732923
 40
0.9347402507
 40
0.9569200455
 40
0.9786571962
 40
1.0
 40
1.0
 40
1.0
 40
1.0
 10
15.3611977376
 20
13.33789845
 30
0.0
 10
15.3662551115
 20
13.3542641177
 30
0.0
 10
15.3766512242
 20
13.3863496599
 30
0.0
 10
15.3933753009
 20
13.4332194838
 30
0.0
 10
15.4109515674
 20
13.4779851156
 30
0.0
 10
15.4293398232
 20
13.5205439707
 30
0.0
 10
15.4454684065
 20
13.5544337554
 30
0.0
 10
15.4587617426
 20
13.5803408977
 30
0.0
 10
15.4688047516
 20
13.5989589405
 30
0.0
 10
15.4790182276
 20
13.6169553293
 30
0.0
 10
15.4893963909
 20
13.634319883
 30
0.0
 10
15.4999333553
 20
13.6510426864
 30
0.0
 10
15.5106231502
 20
13.667114218
 30
0.0
 10
15.5214596933
 20
13.6825253403
 30
0.0
 10
15.5324369015
 20
13.6972672497
 30
0.0
 10
15.543548526
 20
13.7113315814
 30
0.0
 10
15.5547883453
 20
13.7247102922
 30
0.0
 10
15.5661500185
 20
13.7373957672
 30
0.0
 10
15.5776271485
 20
13.7493807571
 30
0.0
 10
15.5892133815
 20
13.7606584054
 30
0.0
 10
15.6009020217
 20
13.7712221613
 30
0.0
 10
15.6126871943
 20
13.7810663028
 30
0.0
 10
15.6283254774
 20
13.7930751107
 30
0.0
 10
15.644328453
 20
13.8038116319
 30
0.0
 10
15.660653948
 20
13.8131338059
 30
0.0
 10
15.6728195149
 20
13.8193001044
 30
0.0
 10
15.685040111
 20
13.8247176096
 30
0.0
 10
15.6932896054
 20
13.8278545157
 30
0.0
 10
15.6974162113
 20
13.8292922206
 30
0.0
  0
SPLINE
  5
2AF
100
AcDbEntity
  8
02___PRT_ALL_AXES
100
AcDbSpline
 62
7
  6
CONTINUOUS
 70
0
 71
3
 72
33
 73
29
 74
0
 42
0.0000001
 43
0.0000001
 44
0.0000000001
 40
0.0
 40
0.0
 40
0.0
 40
0.0
 40
0.0161690675
 40
0.0326006068
 40
0.0495419621
 40
0.0672133775
 40
0.0763858107
 40
0.0858075733
 40
0.1054621633
 40
0.1262993349
 40
0.1484034912
 40
0.1718318045
 40
0.196617997
 40
0.22277568
 40
0.2503015951
 40
0.2791780639
 40
0.3093747877
 40
0.3408507424
 40
0.3735556341
 40
0.4074308477
 40
0.4424105087
 40
0.5153822349
 40
0.5918375317
 40
0.6710656345
 40
0.7523037764
 40
0.8347532959
 40
0.9175934925
 40
1.0
 40
1.0
 40
1.0
 40
1.0
 10
15.8275406756
 20
11.791121781
 30
0.0
 10
15.8283125849
 20
11.7911217756
 30
0.0
 10
15.8298710434
 20
11.7912312406
 30
0.0
 10
15.8321918341
 20
11.7917214031
 30
0.0
 10
15.8344957623
 20
11.7925350594
 30
0.0
 10
15.836372017
 20
11.7934677734
 30
0.0
 10
15.8378545874
 20
11.7943631332
 30
0.0
 10
15.8393665978
 20
11.7953882472
 30
0.0
 10
15.8412354266
 20
11.79687285
 30
0.0
 10
15.8434043671
 20
11.7989333241
 30
0.0
 10
15.8455252377
 20
11.8012912245
 30
0.0
 10
15.8475921779
 20
11.8039395095
 30
0.0
 10
15.8495995801
 20
11.8068705604
 30
0.0
 10
15.8515418483
 20
11.8100758944
 30
0.0
 10
15.8534134776
 20
11.8135462645
 30
0.0
 10
15.8552090778
 20
11.8172716348
 30
0.0
 10
15.8569234693
 20
11.82124118
 30
0.0
 10
15.858551669
 20
11.8254433445
 30
0.0
 10
15.8600888898
 20
11.8298658708
 30
0.0
 10
15.8615306662
 20
11.8344958555
 30
0.0
 10
15.863345589
 20
11.8410197655
 30
0.0
 10
15.8653346237
 20
11.8496006446
 30
0.0
 10
15.8672498536
 20
11.8603515798
 30
0.0
 10
15.8687031442
 20
11.8715725054
 30
0.0
 10
15.8696772845
 20
11.8831319725
 30
0.0
 10
15.8701606444
 20
11.8948948513
 30
0.0
 10
15.8701475157
 20
11.9067231398
 30
0.0
 10
15.8698057937
 20
11.9146074325
 30
0.0
 10
15.8695501944
 20
11.9185331968
 30
0.0
  0
SPLINE
  5
2B0
100
AcDbEntity
  8
LAYER_FEATURE
100
AcDbSpline
 62
7
  6
CONTINUOUS
 70
0
 71
3
 72
99
 73
95
 74
0
 42
0.0000001
 43
0.0000001
 44
0.0000000001
 40
0.0
 40
0.0
 40
0.0
 40
0.0
 40
0.017841207
 40
0.0361831526
 40
0.0549943232
 40
0.0742409384
 40
0.0938874904
 40
0.1138968378
 40
0.1342304217
 40
0.1548484488
 40
0.1757100653
 40
0.196773524
 40
0.2179963484
 40
0.2393354936
 40
0.2607475031
 40
0.2821886635
 40
0.3036151591
 40
0.3249832259
 40
0.3462493051
 40
0.3673701977
 40
0.3883032224
 40
0.4090063738
 40
0.4294384837
 40
0.4495593874
 40
0.4693300988
 40
0.4887129901
 40
0.50767198
 40
0.5261727357
 40
0.5441828948
 40
0.5616723051
 40
0.5786132872
 40
0.5949809332
 40
0.6107534493
 40
0.6184110087
 40
0.6259132477
 40
0.6332585121
 40
0.64044542
 40
0.6474728982
 40
0.6543401952
 40
0.6610468988
 40
0.6675929783
 40
0.6739787934
 40
0.680205135
 40
0.6862732606
 40
0.6921849149
 40
0.6979423873
 40
0.7035485378
 40
0.7090068409
 40
0.7143214405
 40
0.7245373778
 40
0.729452956
 40
0.7342488473
 40
0.7389331114
 40
0.7435146697
 40
0.7480033123
 40
0.7524096825
 40
0.7567452277
 40
0.7610221427
 40
0.7652532714
 40
0.7694519889
 40
0.7736320618
 40
0.7778074851
 40
0.7819923119
 40
0.7862004784
 40
0.7904456366
 40
0.7947409957
 40
0.799099192
 40
0.8035321771
 40
0.8080511306
 40
0.812666412
 40
0.8173875174
 40
0.8222230747
 40
0.8322653849
 40
0.8374875517
 40
0.8428503032
 40
0.8483582368
 40
0.8540152675
 40
0.8598246548
 40
0.8657890611
 40
0.8719105886
 40
0.8781908103
 40
0.8846308243
 40
0.8912312711
 40
0.8979923735
 40
0.9049139717
 40
0.911995533
 40
0.9192361959
 40
0.9266347806
 40
0.9341898094
 40
0.9418995374
 40
0.9497619478
 40
0.965935045
 40
0.9826889853
 40
1.0
 40
1.0
 40
1.0
 40
1.0
 10
15.2852392566
 20
13.49268556
 30
0.0
 10
15.2788903991
 20
13.4721406494
 30
0.0
 10
15.266614268
 20
13.4302866937
 30
0.0
 10
15.2496677186
 20
13.3661991937
 30
0.0
 10
15.2339640382
 20
13.3000536097
 30
0.0
 10
15.2195413067
 20
13.2320094143
 30
0.0
 10
15.2064342667
 20
13.1622300084
 30
0.0
 10
15.1946745584
 20
13.0908831838
 30
0.0
 10
15.184290555
 20
13.0181405046
 30
0.0
 10
15.1753073254
 20
12.9441769456
 30
0.0
 10
15.1677465646
 20
12.8691704442
 30
0.0
 10
15.1616265288
 20
12.7933014765
 30
0.0
 10
15.1569619885
 20
12.7167526147
 30
0.0
 10
15.1537642071
 20
12.6397080809
 30
0.0
 10
15.1520409111
 20
12.5623532998
 30
0.0
 10
15.1517962673
 20
12.4848744499
 30
0.0
 10
15.1530308582
 20
12.4074580107
 30
0.0
 10
15.1557417008
 20
12.3302903101
 30
0.0
 10
15.1599222513
 20
12.2535570728
 30
0.0
 10
15.1655624225
 20
12.1774429694
 30
0.0
 10
15.1726485882
 20
12.1021311653
 30
0.0
 10
15.1811636349
 20
12.0278028767
 30
0.0
 10
15.1910870046
 20
11.9546369315
 30
0.0
 10
15.2023947493
 20
11.882809333
 30
0.0
 10
15.2150595718
 20
11.8124928249
 30
0.0
 10
15.2290509031
 20
11.7438564686
 30
0.0
 10
15.244334989
 20
11.6770652308
 30
0.0
 10
15.2608749776
 20
11.6122795827
 30
0.0
 10
15.2786310123
 20
11.5496550729
 30
0.0
 10
15.2975603142
 20
11.4893420155
 30
0.0
 10
15.3176173933
 20
11.4314848354
 30
0.0
 10
15.3387539295
 20
11.3762227182
 30
0.0
 10
15.3574043654
 20
11.3320179103
 30
0.0
 10
15.3728459151
 20
11.2980821245
 30
0.0
 10
15.3845505938
 20
11.2736107491
 30
0.0
 10
15.3964854964
 20
11.249884096
 30
0.0
 10
15.408643575
 20
11.2269163662
 30
0.0
 10
15.4210175041
 20
11.2047213577
 30
0.0
 10
15.4335998656
 20
11.1833123811
 30
0.0
 10
15.4463831681
 20
11.1627023039
 30
0.0
 10
15.4593597306
 20
11.1429034682
 30
0.0
 10
15.4725218357
 20
11.1239277633
 30
0.0
 10
15.4858616454
 20
11.1057865775
 30
0.0
 10
15.4993711972
 20
11.0884907699
 30
0.0
 10
15.5130425036
 20
11.072050766
 30
0.0
 10
15.5268674792
 20
11.0564763754
 30
0.0
 10
15.540837787
 20
11.0417771283
 30
0.0
 10
15.5549458203
 20
11.0279613473
 30
0.0
 10
15.5736797684
 20
11.0109556956
 30
0.0
 10
15.5928994879
 20
10.9954761929
 30
0.0
 10
15.6125811873
 20
10.9816984975
 30
0.0
 10
15.6272493695
 20
10.9724177597
 30
0.0
 10
15.6420036727
 20
10.9640637331
 30
0.0
 10
15.656835726
 20
10.9566416024
 30
0.0
 10
15.6717365937
 20
10.9501563155
 30
0.0
 10
15.6866973018
 20
10.944612157
 30
0.0
 10
15.7017087586
 20
10.9400130119
 30
0.0
 10
15.7167616893
 20
10.936362075
 30
0.0
 10
15.7318466955
 20
10.9336619752
 30
0.0
 10
15.7469542521
 20
10.9319147542
 30
0.0
 10
15.7620747155
 20
10.9311216408
 30
0.0
 10
15.7771983945
 20
10.9312832933
 30
0.0
 10
15.7923155698
 20
10.9323995757
 30
0.0
 10
15.8074165677
 20
10.9344696077
 30
0.0
 10
15.8224917724
 20
10.9374919245
 30
0.0
 10
15.8375317058
 20
10.9414642459
 30
0.0
 10
15.852527012
 20
10.9463837586
 30
0.0
 10
15.8674684635
 20
10.9522470425
 30
0.0
 10
15.8823470472
 20
10.9590500553
 30
0.0
 10
15.8971537063
 20
10.9667882685
 30
0.0
 10
15.9118800183
 20
10.975456828
 30
0.0
 10
15.9316429002
 20
10.9884096226
 30
0.0
 10
15.9509620715
 20
11.0030881179
 30
0.0
 10
15.9698044883
 20
11.0193135025
 30
0.0
 10
15.9839987396
 20
11.0325400701
 30
0.0
 10
15.9980607497
 20
11.0466556525
 30
0.0
 10
16.0119828528
 20
11.0616523255
 30
0.0
 10
16.0257566832
 20
11.0775208621
 30
0.0
 10
16.0393741339
 20
11.0942517743
 30
0.0
 10
16.0528270969
 20
11.1118350149
 30
0.0
 10
16.0661076265
 20
11.1302600076
 30
0.0
 10
16.0792077782
 20
11.1495157237
 30
0.0
 10
16.0921197624
 20
11.1695905998
 30
0.0
 10
16.1048358829
 20
11.190472588
 30
0.0
 10
16.1173485008
 20
11.2121491786
 30
0.0
 10
16.1296501698
 20
11.2346073425
 30
0.0
 10
16.1417334938
 20
11.2578336097
 30
0.0
 10
16.1535912286
 20
11.2818140402
 30
0.0
 10
16.1652162703
 20
11.3065342041
 30
0.0
 10
16.1766016637
 20
11.3319793288
 30
0.0
 10
16.191594252
 20
11.3671831588
 30
0.0
 10
16.2096623269
 20
11.4129161145
 30
0.0
 10
16.2300816859
 20
11.4699294373
 30
0.0
 10
16.2427530658
 20
11.5089900544
 30
0.0
 10
16.2489132525
 20
11.5289244258
 30
0.0
  0
SPLINE
  5
2B1
100
AcDbEntity
  8
LAYER_FEATURE
100
AcDbSpline
 62
7
  6
CONTINUOUS
 70
0
 71
3
 72
67
 73
63
 74
0
 42
0.0000001
 43
0.0000001
 44
0.0000000001
 40
0.0
 40
0.0
 40
0.0
 40
0.0
 40
0.0163581196
 40
0.0330510584
 40
0.0500642524
 40
0.0673826912
 40
0.084990521
 40
0.1028713414
 40
0.1210081573
 40
0.1393834615
 40
0.1579792697
 40
0.1767771674
 40
0.1957583518
 40
0.2149036729
 40
0.2536076563
 40
0.2927314912
 40
0.3321134766
 40
0.371590054
 40
0.4109969877
 40
0.4501705397
 40
0.4889486502
 40
0.5081400228
 40
0.5271731429
 40
0.5460287631
 40
0.5646879706
 40
0.5831322281
 40
0.6013434161
 40
0.6193038763
 40
0.636996457
 40
0.6544045602
 40
0.6715121914
 40
0.6883040119
 40
0.7047653955
 40
0.7208824882
 40
0.7366422733
 40
0.7520326427
 40
0.7670424743
 40
0.7816617187
 40
0.7958814944
 40
0.809694195
 40
0.8230936093
 40
0.8360750575
 40
0.8486355457
 40
0.8607739412
 40
0.8724911706
 40
0.8837904453
 40
0.8946775138
 40
0.9051609428
 40
0.9152524239
 40
0.9249671005
 40
0.934323902
 40
0.9433458667
 40
0.9520604214
 40
0.9604995758
 40
0.9686999786
 40
0.9767027775
 40
0.9806449746
 40
0.9845550535
 40
0.9884391968
 40
0.9923037476
 40
0.9961551669
 40
1.0
 40
1.0
 40
1.0
 40
1.0
 10
15.2715349567
 20
13.5706499888
 30
0.0
 10
15.2666653291
 20
13.5548918681
 30
0.0
 10
15.2571523688
 20
13.52295146
 30
0.0
 10
15.2436862228
 20
13.4742995826
 30
0.0
 10
15.230891177
 20
13.4244665673
 30
0.0
 10
15.2187829977
 20
13.3735138129
 30
0.0
 10
15.2073765266
 20
13.3215035631
 30
0.0
 10
15.1966857638
 20
13.2684995939
 30
0.0
 10
15.1867238346
 20
13.2145668225
 30
0.0
 10
15.1775029684
 20
13.1597713446
 30
0.0
 10
15.1690344837
 20
13.1041802989
 30
0.0
 10
15.1613287931
 20
13.047861853
 30
0.0
 10
15.1543953045
 20
12.9908848999
 30
0.0
 10
15.1461624013
 20
12.9138555643
 30
0.0
 10
15.1378756817
 20
12.8164179268
 30
0.0
 10
15.1311598133
 20
12.6984151802
 30
0.0
 10
15.1276699311
 20
12.5794934304
 30
0.0
 10
15.1274232091
 20
12.4602355924
 30
0.0
 10
15.130420868
 20
12.3412251395
 30
0.0
 10
15.1366481603
 20
12.2230454227
 30
0.0
 10
15.1445300658
 20
12.1254024341
 30
0.0
 10
15.1524420238
 20
12.0481650432
 30
0.0
 10
15.1591390293
 20
11.9910017535
 30
0.0
 10
15.1666109255
 20
11.934475822
 30
0.0
 10
15.1748485913
 20
11.8786563973
 30
0.0
 10
15.1838418982
 20
11.8236119293
 30
0.0
 10
15.1935798085
 20
11.7694098664
 30
0.0
 10
15.2040503652
 20
11.7161166298
 30
0.0
 10
15.2152407148
 20
11.6637975155
 30
0.0
 10
15.2271371216
 20
11.6125166176
 30
0.0
 10
15.2397249861
 20
11.5623367482
 30
0.0
 10
15.2529888635
 20
11.5133193584
 30
0.0
 10
15.2669124842
 20
11.4655244626
 30
0.0
 10
15.2814787749
 20
11.4190105627
 30
0.0
 10
15.2966698819
 20
11.3738345749
 30
0.0
 10
15.3124671959
 20
11.3300517582
 30
0.0
 10
15.328851378
 20
11.2877156444
 30
0.0
 10
15.3458023869
 20
11.2468779696
 30
0.0
 10
15.3632995098
 20
11.2075886098
 30
0.0
 10
15.3813213952
 20
11.1698955186
 30
0.0
 10
15.3998460879
 20
11.1338446684
 30
0.0
 10
15.4188510673
 20
11.0994799949
 30
0.0
 10
15.4383132878
 20
11.0668433468
 30
0.0
 10
15.458209224
 20
11.0359744407
 30
0.0
 10
15.4785149179
 20
11.0069108241
 30
0.0
 10
15.4992060294
 20
10.9796878486
 30
0.0
 10
15.5202578879
 20
10.9543386554
 30
0.0
 10
15.5416455409
 20
10.9308941754
 30
0.0
 10
15.5633437946
 20
10.90938315
 30
0.0
 10
15.5853272455
 20
10.8898321728
 30
0.0
 10
15.6075702648
 20
10.8722657531
 30
0.0
 10
15.6300470019
 20
10.8567063803
 30
0.0
 10
15.65273112
 20
10.8431746173
 30
0.0
 10
15.6755962115
 20
10.8316890294
 30
0.0
 10
15.698613512
 20
10.8222664863
 30
0.0
 10
15.717998362
 20
10.8161142618
 30
0.0
 10
15.7335174341
 20
10.8122609197
 30
0.0
 10
15.7451182502
 20
10.8099063892
 30
0.0
 10
15.756733591
 20
10.8080743643
 30
0.0
 10
15.7683600813
 20
10.8067652645
 30
0.0
 10
15.7799936934
 20
10.805979658
 30
0.0
 10
15.787754714
 20
10.8058050018
 30
0.0
 10
15.7916313393
 20
10.8058049972
 30
0.0
  0
SPLINE
  5
2B2
100
AcDbEntity
  8
02___PRT_ALL_AXES
100
AcDbSpline
 62
7
  6
CONTINUOUS
 70
0
 71
3
 72
62
 73
58
 74
0
 42
0.0000001
 43
0.0000001
 44
0.0000000001
 40
0.0
 40
0.0
 40
0.0
 40
0.0
 40
0.0078361085
 40
0.0156930238
 40
0.0236444757
 40
0.0317607354
 40
0.0401068375
 40
0.0487411614
 40
0.0577145982
 40
0.0670703459
 40
0.0768440999
 40
0.087064518
 40
0.0977538276
 40
0.1089284796
 40
0.1205997859
 40
0.1327745094
 40
0.1454553932
 40
0.1586416211
 40
0.1723292208
 40
0.1865114151
 40
0.2011789207
 40
0.2163202067
 40
0.2319217182
 40
0.2479680693
 40
0.2644422149
 40
0.281325607
 40
0.2985983321
 40
0.3162392348
 40
0.3342260315
 40
0.3525354137
 40
0.3711431456
 40
0.3900241589
 40
0.4285006373
 40
0.4677524697
 40
0.5075576329
 40
0.5476885
 40
0.5879141956
 40
0.6280029004
 40
0.6677241575
 40
0.7068511845
 40
0.7451632353
 40
0.7639477117
 40
0.7824496903
 40
0.8006443962
 40
0.8185079195
 40
0.8360173115
 40
0.8531506871
 40
0.8698873299
 40
0.8862078092
 40
0.9020941083
 40
0.9175297672
 40
0.9325000443
 40
0.9469920896
 40
0.9609951973
 40
0.9745008581
 40
0.9875035398
 40
1.0
 40
1.0
 40
1.0
 40
1.0
 10
15.725689316
 20
13.1980044503
 30
0.0
 10
15.7293586052
 20
13.1982831275
 30
0.0
 10
15.7367424316
 20
13.1984539089
 30
0.0
 10
15.7478272167
 20
13.1975303669
 30
0.0
 10
15.758884713
 20
13.1954298824
 30
0.0
 10
15.769892146
 20
13.192158051
 30
0.0
 10
15.7808298682
 20
13.1877231783
 30
0.0
 10
15.7916789063
 20
13.1821355037
 30
0.0
 10
15.8024214237
 20
13.1754067904
 30
0.0
 10
15.8130402196
 20
13.1675501615
 30
0.0
 10
15.823518509
 20
13.1585800572
 30
0.0
 10
15.8338397377
 20
13.1485123261
 30
0.0
 10
15.8439874909
 20
13.1373643138
 30
0.0
 10
15.8539454697
 20
13.1251549512
 30
0.0
 10
15.8636975137
 20
13.1119048192
 30
0.0
 10
15.873227645
 20
13.0976361838
 30
0.0
 10
15.8825201184
 20
13.0823730061
 30
0.0
 10
15.8915594819
 20
13.0661409367
 30
0.0
 10
15.9003306257
 20
13.048967287
 30
0.0
 10
15.908818824
 20
13.0308809871
 30
0.0
 10
15.9170097792
 20
13.0119125403
 30
0.0
 10
15.9248896588
 20
12.9920939723
 30
0.0
 10
15.9324451276
 20
12.971458777
 30
0.0
 10
15.9396633824
 20
12.950041861
 30
0.0
 10
15.9465321815
 20
12.9278794818
 30
0.0
 10
15.9530398636
 20
12.9050091807
 30
0.0
 10
15.9591753728
 20
12.881469715
 30
0.0
 10
15.9649282787
 20
12.8573009932
 30
0.0
 10
15.9702888001
 20
12.8325439964
 30
0.0
 10
15.9752478035
 20
12.8072407452
 30
0.0
 10
15.9797969078
 20
12.7814340911
 30
0.0
 10
15.9853399641
 20
12.746192213
 30
0.0
 10
15.9911738948
 20
12.7011905536
 30
0.0
 10
15.9963922111
 20
12.6462336449
 30
0.0
 10
15.999835571
 20
12.5903586444
 30
0.0
 10
16.0014804645
 20
12.5339446461
 30
0.0
 10
16.0013156199
 20
12.4773737887
 30
0.0
 10
15.9993421606
 20
12.4210295368
 30
0.0
 10
15.9955736091
 20
12.3652935414
 30
0.0
 10
15.9900357053
 20
12.3105439427
 30
0.0
 10
15.9839386436
 20
12.2657598594
 30
0.0
 10
15.9781887969
 20
12.2307256035
 30
0.0
 10
15.9734895208
 20
12.2050971604
 30
0.0
 10
15.9683833396
 20
12.1799878535
 30
0.0
 10
15.9628788824
 20
12.1554402023
 30
0.0
 10
15.9569855246
 20
12.131495869
 30
0.0
 10
15.9507132857
 20
12.1081954501
 30
0.0
 10
15.9440728273
 20
12.0855784424
 30
0.0
 10
15.9370754285
 20
12.0636831671
 30
0.0
 10
15.9297329661
 20
12.0425467046
 30
0.0
 10
15.9220578888
 20
12.0222048275
 30
0.0
 10
15.9140631932
 20
12.0026919447
 30
0.0
 10
15.905762399
 20
11.9840409975
 30
0.0
 10
15.8971695267
 20
11.9662835404
 30
0.0
 10
15.888298968
 20
11.9494492934
 30
0.0
 10
15.8791658334
 20
11.9335671294
 30
0.0
 10
15.8727850445
 20
11.9234294715
 30
0.0
 10
15.8695501944
 20
11.9185331968
 30
0.0
  0
SPLINE
  5
2B3
100
AcDbEntity
  8
LAYER_CUT_FEAT
100
AcDbSpline
 62
7
  6
CONTINUOUS
 70
0
 71
3
 72
27
 73
23
 74
0
 42
0.0000001
 43
0.0000001
 44
0.0000000001
 40
0.0
 40
0.0
 40
0.0
 40
0.0
 40
0.0835111702
 40
0.1639083199
 40
0.2411671025
 40
0.3152835232
 40
0.3862766078
 40
0.4541914553
 40
0.5191027314
 40
0.5811185612
 40
0.6403847149
 40
0.6970888465
 40
0.751464352
 40
0.8037931746
 40
0.8292988641
 40
0.8544212681
 40
0.8792091144
 40
0.9037137747
 40
0.9279888824
 40
0.9520900454
 40
0.9760743644
 40
1.0
 40
1.0
 40
1.0
 40
1.0
 10
16.0838199266
 20
13.4801720436
 30
0.0
 10
16.0786405723
 20
13.4907264579
 30
0.0
 10
16.0681282309
 20
13.5112742237
 30
0.0
 10
16.0515650798
 20
13.5409206571
 30
0.0
 10
16.0345319033
 20
13.5687618726
 30
0.0
 10
16.0170581765
 20
13.5947490539
 30
0.0
 10
15.9991736478
 20
13.6188371981
 30
0.0
 10
15.9809085658
 20
13.6409844222
 30
0.0
 10
15.9622935064
 20
13.6611521118
 30
0.0
 10
15.9433592548
 20
13.6793048171
 30
0.0
 10
15.9241369617
 20
13.6954100568
 30
0.0
 10
15.9046575248
 20
13.7094383596
 30
0.0
 10
15.8849541797
 20
13.7213622398
 30
0.0
 10
15.8682305029
 20
13.7295954151
 30
0.0
 10
15.8548035621
 20
13.7350670767
 30
0.0
 10
15.84478616
 20
13.7385979658
 30
0.0
 10
15.8347413502
 20
13.7415885169
 30
0.0
 10
15.8246734588
 20
13.7440374749
 30
0.0
 10
15.8145870791
 20
13.7459434665
 30
0.0
 10
15.8044867013
 20
13.7473056431
 30
0.0
 10
15.7943773176
 20
13.7481231846
 30
0.0
 10
15.7876311184
 20
13.7483049936
 30
0.0
 10
15.7842628514
 20
13.7483049929
 30
0.0
  0
SPLINE
  5
2B4
100
AcDbEntity
  8
LAYER_FEATURE
100
AcDbSpline
 62
7
  6
CONTINUOUS
 70
0
 71
3
 72
57
 73
53
 74
0
 42
0.0000001
 43
0.0000001
 44
0.0000000001
 40
0.0
 40
0.0
 40
0.0
 40
0.0
 40
0.0079087107
 40
0.0160273354
 40
0.0243881885
 40
0.0330198606
 40
0.0419472248
 40
0.051191552
 40
0.0607707008
 40
0.0706993491
 40
0.0809892413
 40
0.0916494434
 40
0.102686588
 40
0.1141051002
 40
0.1259074057
 40
0.1380941138
 40
0.1506641879
 40
0.1636150972
 40
0.1769429497
 40
0.1906426091
 40
0.2047077962
 40
0.2191311839
 40
0.2339044825
 40
0.2490185152
 40
0.2644632851
 40
0.2802280341
 40
0.2963012987
 40
0.3126709648
 40
0.3293243153
 40
0.3462480741
 40
0.3634284465
 40
0.3808511571
 40
0.4163633426
 40
0.4526632932
 40
0.489623183
 40
0.5271107729
 40
0.5649903767
 40
0.6031237822
 40
0.6413711652
 40
0.6795919792
 40
0.7176458469
 40
0.7553934466
 40
0.7926974139
 40
0.8294232546
 40
0.8654402802
 40
0.9006225971
 40
0.9178634937
 40
0.9348512163
 40
0.9515718784
 40
0.9680119659
 40
0.9841589004
 40
1.0
 40
1.0
 40
1.0
 40
1.0
 10
15.6974162115
 20
11.1923177681
 30
0.0
 10
15.6917165552
 20
11.1943035193
 30
0.0
 10
15.6803182725
 20
11.1987783451
 30
0.0
 10
15.6635238074
 20
11.2068353034
 30
0.0
 10
15.6468468619
 20
11.2163062749
 30
0.0
 10
15.6303063655
 20
11.2271792683
 30
0.0
 10
15.6139191235
 20
11.2394416774
 30
0.0
 10
15.5977022029
 20
11.2530795203
 30
0.0
 10
15.5816723508
 20
11.2680776259
 30
0.0
 10
15.5658462115
 20
11.2844195364
 30
0.0
 10
15.5502402701
 20
11.3020874773
 30
0.0
 10
15.5348708715
 20
11.3210623427
 30
0.0
 10
15.5197541966
 20
11.3413236841
 30
0.0
 10
15.5049062381
 20
11.3628497042
 30
0.0
 10
15.4903427762
 20
11.3856172591
 30
0.0
 10
15.4760793376
 20
11.409601859
 30
0.0
 10
15.4621311769
 20
11.4347776932
 30
0.0
 10
15.4485132533
 20
11.4611176571
 30
0.0
 10
15.4352402039
 20
11.4885933782
 30
0.0
 10
15.4223263248
 20
11.5171752431
 30
0.0
 10
15.4097855391
 20
11.5468324218
 30
0.0
 10
15.3976313804
 20
11.5775329037
 30
0.0
 10
15.3858769812
 20
11.6092435388
 30
0.0
 10
15.3745350524
 20
11.6419300747
 30
0.0
 10
15.36361787
 20
11.6755571927
 30
0.0
 10
15.3531372529
 20
11.7100885425
 30
0.0
 10
15.3431045465
 20
11.7454867826
 30
0.0
 10
15.3335306195
 20
11.7817136244
 30
0.0
 10
15.3244258424
 20
11.8187298856
 30
0.0
 10
15.3158001011
 20
11.856495494
 30
0.0
 10
15.3076626919
 20
11.8949696722
 30
0.0
 10
15.297411041
 20
11.9474899706
 30
0.0
 10
15.2859021472
 20
12.0146227671
 30
0.0
 10
15.2742535477
 20
12.0968235663
 30
0.0
 10
15.2647315435
 20
12.1808150243
 30
0.0
 10
15.257377543
 20
12.266233503
 30
0.0
 10
15.2522235684
 20
12.3527098254
 30
0.0
 10
15.2492920188
 20
12.4398699597
 30
0.0
 10
15.2485956607
 20
12.5273369257
 30
0.0
 10
15.2501375345
 20
12.6147323824
 30
0.0
 10
15.2539109055
 20
12.7016783025
 30
0.0
 10
15.2598993835
 20
12.7877986467
 30
0.0
 10
15.2680768946
 20
12.8727209472
 30
0.0
 10
15.2784078633
 20
12.9560782148
 30
0.0
 10
15.2908473675
 20
13.0375095804
 30
0.0
 10
15.303006024
 20
13.103911665
 30
0.0
 10
15.3137671364
 20
13.155781162
 30
0.0
 10
15.3222744867
 20
13.1937237045
 30
0.0
 10
15.3312631414
 20
13.2309266582
 30
0.0
 10
15.3407234307
 20
13.2673500666
 30
0.0
 10
15.3506450488
 20
13.3029541334
 30
0.0
 10
15.3576283722
 20
13.3263479791
 30
0.0
 10
15.3611977376
 20
13.33789845
 30
0.0
  0
SPLINE
  5
2B5
100
AcDbEntity
  8
02___PRT_ALL_AXES
100
AcDbSpline
 62
7
  6
CONTINUOUS
 70
0
 71
3
 72
57
 73
53
 74
0
 42
0.0000001
 43
0.0000001
 44
0.0000000001
 40
0.0
 40
0.0
 40
0.0
 40
0.0
 40
0.0079087107
 40
0.0160273354
 40
0.0243881885
 40
0.0330198606
 40
0.0419472248
 40
0.051191552
 40
0.0607707008
 40
0.0706993491
 40
0.0809892413
 40
0.0916494434
 40
0.102686588
 40
0.1141051002
 40
0.1259074057
 40
0.1380941138
 40
0.1506641879
 40
0.1636150972
 40
0.1769429497
 40
0.1906426091
 40
0.2047077962
 40
0.2191311839
 40
0.2339044825
 40
0.2490185152
 40
0.2644632851
 40
0.2802280341
 40
0.2963012987
 40
0.3126709648
 40
0.3293243153
 40
0.3462480741
 40
0.3634284465
 40
0.3808511571
 40
0.4163633426
 40
0.4526632932
 40
0.489623183
 40
0.5271107729
 40
0.5649903767
 40
0.6031237822
 40
0.6413711652
 40
0.6795919792
 40
0.7176458469
 40
0.7553934466
 40
0.7926974139
 40
0.8294232546
 40
0.8654402802
 40
0.9006225971
 40
0.9178634937
 40
0.9348512163
 40
0.9515718784
 40
0.9680119659
 40
0.9841589004
 40
1.0
 40
1.0
 40
1.0
 40
1.0
 10
15.7142921726
 20
11.1864382258
 30
0.0
 10
15.7085670999
 20
11.1884328321
 30
0.0
 10
15.6971179887
 20
11.1929276125
 30
0.0
 10
15.6802486319
 20
11.2010204993
 30
0.0
 10
15.6634973187
 20
11.2105337048
 30
0.0
 10
15.6468830632
 20
11.2214551842
 30
0.0
 10
15.6304227453
 20
11.2337722752
 30
0.0
 10
15.6141335084
 20
11.2474709334
 30
0.0
 10
15.5980321743
 20
11.2625359202
 30
0.0
 10
15.5821354614
 20
11.2789507044
 30
0.0
 10
15.5664599282
 20
11.2966974321
 30
0.0
 10
15.5510219927
 20
11.3157569123
 30
0.0
 10
15.5358379079
 20
11.3361086052
 30
0.0
 10
15.5209237378
 20
11.3577306165
 30
0.0
 10
15.5062953329
 20
11.380599699
 30
0.0
 10
15.4919682892
 20
11.4046912537
 30
0.0
 10
15.4779579293
 20
11.4299793547
 30
0.0
 10
15.4642792792
 20
11.4564367767
 30
0.0
 10
15.4509470412
 20
11.4840350205
 30
0.0
 10
15.4379755751
 20
11.5127443408
 30
0.0
 10
15.4253788661
 20
11.54253377
 30
0.0
 10
15.4131705083
 20
11.5733711548
 30
0.0
 10
15.4013636926
 20
11.6052231975
 30
0.0
 10
15.3899711867
 20
11.6380554927
 30
0.0
 10
15.3790053211
 20
11.6718325645
 30
0.0
 10
15.3684779678
 20
11.7065179002
 30
0.0
 10
15.3584005224
 20
11.742073992
 30
0.0
 10
15.3487839023
 20
11.7784623805
 30
0.0
 10
15.3396385242
 20
11.8156437087
 30
0.0
 10
15.330974318
 20
11.8535777256
 30
0.0
 10
15.3228006216
 20
11.892223472
 30
0.0
 10
15.3125032554
 20
11.9449779747
 30
0.0
 10
15.3009430399
 20
12.0124101371
 30
0.0
 10
15.2892424957
 20
12.0949774951
 30
0.0
 10
15.27967803
 20
12.1793434969
 30
0.0
 10
15.2722912357
 20
12.2651428831
 30
0.0
 10
15.2671142778
 20
12.3520048302
 30
0.0
 10
15.2641696556
 20
12.4395536385
 30
0.0
 10
15.2634701922
 20
12.5274106467
 30
0.0
 10
15.2650189417
 20
12.6151958268
 30
0.0
 10
15.2688091394
 20
12.7025294657
 30
0.0
 10
15.2748243218
 20
12.789033847
 30
0.0
 10
15.283038299
 20
12.8743348424
 30
0.0
 10
15.2934153367
 20
12.9580638258
 30
0.0
 10
15.3059103125
 20
13.0398583191
 30
0.0
 10
15.3181231881
 20
13.1065565111
 30
0.0
 10
15.3289322877
 20
13.1586573102
 30
0.0
 10
15.3374775749
 20
13.1967690502
 30
0.0
 10
15.3465063128
 20
13.2341379034
 30
0.0
 10
15.3560087885
 20
13.270723735
 30
0.0
 10
15.3659746501
 20
13.3064865714
 30
0.0
 10
15.3729891143
 20
13.3299847375
 30
0.0
 10
15.3765743966
 20
13.3415867155
 30
0.0
  0
SPLINE
  5
2B6
100
AcDbEntity
  8
LAYER_FEATURE
100
AcDbSpline
 62
7
  6
CONTINUOUS
 70
0
 71
3
 72
11
 73
7
 74
0
 42
0.0000001
 43
0.0000001
 44
0.0000000001
 40
0.0
 40
0.0
 40
0.0
 40
0.0
 40
0.2272050822
 40
0.4694025482
 40
0.7269813218
 40
1.0
 40
1.0
 40
1.0
 40
1.0
 10
14.7408869924
 20
13.1300062779
 30
0.0
 10
14.7415758268
 20
13.1307187834
 30
0.0
 10
14.7429339838
 20
13.1322545283
 30
0.0
 10
14.7448508763
 20
13.1347836328
 30
0.0
 10
14.7467048687
 20
13.1376014183
 30
0.0
 10
14.7478613041
 20
13.1396077856
 30
0.0
 10
14.7484293157
 20
13.1406544647
 30
0.0
  0
SPLINE
  5
2B7
100
AcDbEntity
  8
LAYER_FEATURE
100
AcDbSpline
 62
7
  6
CONTINUOUS
 70
0
 71
3
 72
18
 73
14
 74
0
 42
0.0000001
 43
0.0000001
 44
0.0000000001
 40
0.0
 40
0.0
 40
0.0
 40
0.0
 40
0.039371051
 40
0.0797178029
 40
0.1219419494
 40
0.1667934565
 40
0.2664148178
 40
0.3220343136
 40
0.3817356027
 40
0.5134949765
 40
0.6614101705
 40
0.8242069564
 40
1.0
 40
1.0
 40
1.0
 40
1.0
 10
14.7011662823
 20
13.1300204797
 30
0.0
 10
14.7009957346
 20
13.1300204921
 30
0.0
 10
14.7006496987
 20
13.1299901261
 30
0.0
 10
14.7001367808
 20
13.1298546823
 30
0.0
 10
14.6996300141
 20
13.1296305953
 30
0.0
 10
14.6989420951
 20
13.1292011872
 30
0.0
 10
14.6983011735
 20
13.1286056602
 30
0.0
 10
14.6977083277
 20
13.1278872588
 30
0.0
 10
14.6970946606
 20
13.1270089264
 30
0.0
 10
14.6963838637
 20
13.1257174284
 30
0.0
 10
14.6956425964
 20
13.1239469479
 30
0.0
 10
14.6949995216
 20
13.1219377108
 30
0.0
 10
14.6946555593
 20
13.1205105546
 30
0.0
 10
14.6945002358
 20
13.1197650624
 30
0.0
  0
SPLINE
  5
2B8
100
AcDbEntity
  8
LAYER_FEATURE
100
AcDbSpline
 62
7
  6
CONTINUOUS
 70
0
 71
3
 72
17
 73
13
 74
0
 42
0.0000001
 43
0.0000001
 44
0.0000000001
 40
0.0
 40
0.0
 40
0.0
 40
0.0
 40
0.0426455307
 40
0.0860340479
 40
0.130862184
 40
0.1777466722
 40
0.2795083499
 40
0.3943797033
 40
0.5238234907
 40
0.668238905
 40
0.8272721358
 40
1.0
 40
1.0
 40
1.0
 40
1.0
 10
14.7513971852
 20
13.3636090054
 30
0.0
 10
14.7512551361
 20
13.3636090036
 30
0.0
 10
14.7509681429
 20
13.3635881193
 30
0.0
 10
14.7505410417
 20
13.3634945185
 30
0.0
 10
14.7501172696
 20
13.3633392467
 30
0.0
 10
14.7495433
 20
13.3630430519
 30
0.0
 10
14.7488391739
 20
13.3625077003
 30
0.0
 10
14.7480562252
 20
13.3616557946
 30
0.0
 10
14.7473176546
 20
13.3605882296
 30
0.0
 10
14.7466311582
 20
13.3593175791
 30
0.0
 10
14.7460042766
 20
13.3578587556
 30
0.0
 10
14.7456449622
 20
13.35681264
 30
0.0
 10
14.7454750934
 20
13.3562629444
 30
0.0
  0
SPLINE
  5
2B9
100
AcDbEntity
  8
LAYER_CUT_FEAT
100
AcDbSpline
 62
7
  6
CONTINUOUS
 70
0
 71
3
 72
68
 73
64
 74
0
 42
0.0000001
 43
0.0000001
 44
0.0000000001
 40
0.0
 40
0.0
 40
0.0
 40
0.0
 40
0.003860193
 40
0.0077284172
 40
0.0116126431
 40
0.0155207177
 40
0.0194603129
 40
0.0234388692
 40
0.0315391814
 40
0.039877322
 40
0.0485009893
 40
0.057451707
 40
0.0667647874
 40
0.0764695573
 40
0.0865897471
 40
0.0971439613
 40
0.1081461737
 40
0.1196062096
 40
0.1315301934
 40
0.1439209531
 40
0.1567783789
 40
0.1700997377
 40
0.1838799469
 40
0.1981118122
 40
0.2127862349
 40
0.2278923934
 40
0.2434179011
 40
0.2593489478
 40
0.2756704239
 40
0.2923660327
 40
0.309418392
 40
0.3268091265
 40
0.3445189534
 40
0.362527762
 40
0.3808146881
 40
0.3993581843
 40
0.4181360873
 40
0.4371256821
 40
0.4563037636
 40
0.495129286
 40
0.5344206993
 40
0.5739806734
 40
0.6136095303
 40
0.6531069942
 40
0.6922739323
 40
0.711672566
 40
0.730915318
 40
0.7499784075
 40
0.7688384612
 40
0.7874725728
 40
0.8058583643
 40
0.8239740495
 40
0.8417984998
 40
0.8593113134
 40
0.876492888
 40
0.8933244981
 40
0.9097883779
 40
0.9258678135
 40
0.9415472319
 40
0.9568123362
 40
0.9716501493
 40
0.9860493347
 40
1.0
 40
1.0
 40
1.0
 40
1.0
 10
15.7842628514
 20
11.2733049929
 30
0.0
 10
15.7873643652
 20
11.2733049936
 30
0.0
 10
15.7935749426
 20
11.2734590923
 30
0.0
 10
15.8028830884
 20
11.2741520855
 30
0.0
 10
15.8121842617
 20
11.2753068183
 30
0.0
 10
15.8214745317
 20
11.2769226746
 30
0.0
 10
15.8307505948
 20
11.2789991511
 30
0.0
 10
15.8431673983
 20
11.282400283
 30
0.0
 10
15.8586717798
 20
11.287833307
 30
0.0
 10
15.8770402506
 20
11.2961412807
 30
0.0
 10
15.8952599904
 20
11.3062615926
 30
0.0
 10
15.9133036428
 20
11.3181762455
 30
0.0
 10
15.9311461605
 20
11.331865603
 30
0.0
 10
15.9487625095
 20
11.347307995
 30
0.0
 10
15.9661280674
 20
11.3644797332
 30
0.0
 10
15.9832183801
 20
11.3833549698
 30
0.0
 10
16.0000091958
 20
11.4039056104
 30
0.0
 10
16.0164764833
 20
11.4261012451
 30
0.0
 10
16.0325964899
 20
11.4499091144
 30
0.0
 10
16.0483458054
 20
11.4752941027
 30
0.0
 10
16.0637014273
 20
11.5022187557
 30
0.0
 10
16.0786408236
 20
11.5306433143
 30
0.0
 10
16.0931419913
 20
11.5605257618
 30
0.0
 10
16.1071835101
 20
11.591821881
 30
0.0
 10
16.1207445903
 20
11.6244853172
 30
0.0
 10
16.1338051175
 20
11.6584676488
 30
0.0
 10
16.1463456921
 20
11.6937184601
 30
0.0
 10
16.1583476666
 20
11.7301854196
 30
0.0
 10
16.1697931789
 20
11.7678143599
 30
0.0
 10
16.180665184
 20
11.8065493617
 30
0.0
 10
16.1909474824
 20
11.846332839
 30
0.0
 10
16.2006247475
 20
11.8871056275
 30
0.0
 10
16.2096825506
 20
11.9288070742
 30
0.0
 10
16.2181073835
 20
11.971375131
 30
0.0
 10
16.2258866785
 20
12.0147464455
 30
0.0
 10
16.2330088342
 20
12.0588564709
 30
0.0
 10
16.2394632089
 20
12.1036395089
 30
0.0
 10
16.24524023
 20
12.1490290156
 30
0.0
 10
16.2520556511
 20
12.210515689
 30
0.0
 10
16.2588074821
 20
12.2884103734
 30
0.0
 10
16.2640641754
 20
12.3828272104
 30
0.0
 10
16.2664763734
 20
12.4780053615
 30
0.0
 10
16.2660296696
 20
12.5733785001
 30
0.0
 10
16.2627266891
 20
12.6683791642
 30
0.0
 10
16.2575944274
 20
12.7470152953
 30
0.0
 10
16.2520634496
 20
12.8092882281
 30
0.0
 10
16.2472319723
 20
12.8554011431
 30
0.0
 10
16.241711543
 20
12.9010007521
 30
0.0
 10
16.2355103479
 20
12.9460192884
 30
0.0
 10
16.2286376536
 20
12.9903896905
 30
0.0
 10
16.2211037107
 20
13.0340459126
 30
0.0
 10
16.2129197605
 20
13.076922969
 30
0.0
 10
16.2040980112
 20
13.1189570467
 30
0.0
 10
16.1946516207
 20
13.1600855977
 30
0.0
 10
16.1845946752
 20
13.2002474353
 30
0.0
 10
16.1739421672
 20
13.2393828254
 30
0.0
 10
16.1627099717
 20
13.2774335812
 30
0.0
 10
16.1509148187
 20
13.3143431409
 30
0.0
 10
16.1385742659
 20
13.3500566895
 30
0.0
 10
16.1257066807
 20
13.3845211357
 30
0.0
 10
16.112331132
 20
13.4176855105
 30
0.0
 10
16.0984676627
 20
13.449500143
 30
0.0
 10
16.0887578874
 20
13.4701095374
 30
0.0
 10
16.0838199266
 20
13.4801720436
 30
0.0
  0
SPLINE
  5
2BA
100
AcDbEntity
  8
LAYER_FEATURE
100
AcDbSpline
 62
7
  6
CONTINUOUS
 70
0
 71
3
 72
99
 73
95
 74
0
 42
0.0000001
 43
0.0000001
 44
0.0000000001
 40
0.0
 40
0.0
 40
0.0
 40
0.0
 40
0.0173110147
 40
0.034064955
 40
0.0502380522
 40
0.0581004626
 40
0.0658101906
 40
0.0733652194
 40
0.0807638041
 40
0.088004467
 40
0.0950860283
 40
0.1020076265
 40
0.1087687289
 40
0.1153691757
 40
0.1218091897
 40
0.1280894114
 40
0.1342109389
 40
0.1401753452
 40
0.1459847325
 40
0.1516417632
 40
0.1571496968
 40
0.1625124483
 40
0.1677346151
 40
0.1777769253
 40
0.1826124826
 40
0.187333588
 40
0.1919488694
 40
0.1964678229
 40
0.200900808
 40
0.2052590043
 40
0.2095543634
 40
0.2137995216
 40
0.2180076881
 40
0.2221925149
 40
0.2263679382
 40
0.2305480111
 40
0.2347467286
 40
0.2389778573
 40
0.2432547723
 40
0.2475903175
 40
0.2519966877
 40
0.2564853303
 40
0.2610668886
 40
0.2657511527
 40
0.270547044
 40
0.2754626222
 40
0.2856785595
 40
0.2909931591
 40
0.2964514622
 40
0.3020576127
 40
0.3078150851
 40
0.3137267394
 40
0.319794865
 40
0.3260212066
 40
0.3324070217
 40
0.3389531012
 40
0.3456598048
 40
0.3525271018
 40
0.35955458
 40
0.3667414879
 40
0.3740867523
 40
0.3815889913
 40
0.3892465507
 40
0.4050190668
 40
0.4213867128
 40
0.4383276949
 40
0.4558171052
 40
0.4738272643
 40
0.49232802
 40
0.5112870099
 40
0.5306699012
 40
0.5504406126
 40
0.5705615163
 40
0.5909936262
 40
0.6116967776
 40
0.6326298023
 40
0.6537506949
 40
0.6750167741
 40
0.6963848409
 40
0.7178113365
 40
0.7392524969
 40
0.7606645064
 40
0.7820036516
 40
0.803226476
 40
0.8242899347
 40
0.8451515512
 40
0.8657695783
 40
0.8861031622
 40
0.9061125096
 40
0.9257590616
 40
0.9450056768
 40
0.9638168474
 40
0.982158793
 40
1.0
 40
1.0
 40
1.0
 40
1.0
 10
15.2852392566
 20
13.49268556
 30
0.0
 10
15.2913994433
 20
13.5126199315
 30
0.0
 10
15.3040708231
 20
13.5516805485
 30
0.0
 10
15.3244901822
 20
13.6086938713
 30
0.0
 10
15.3425582571
 20
13.654426827
 30
0.0
 10
15.3575508454
 20
13.689630657
 30
0.0
 10
15.3689362387
 20
13.7150757817
 30
0.0
 10
15.3805612805
 20
13.7397959456
 30
0.0
 10
15.3924190152
 20
13.7637763761
 30
0.0
 10
15.4045023392
 20
13.7870026433
 30
0.0
 10
15.4168040083
 20
13.8094608072
 30
0.0
 10
15.4293166262
 20
13.8311373979
 30
0.0
 10
15.4420327467
 20
13.852019386
 30
0.0
 10
15.4549447309
 20
13.8720942621
 30
0.0
 10
15.4680448826
 20
13.8913499782
 30
0.0
 10
15.4813254122
 20
13.9097749709
 30
0.0
 10
15.4947783751
 20
13.9273582115
 30
0.0
 10
15.5083958259
 20
13.9440891237
 30
0.0
 10
15.5221696563
 20
13.9599576603
 30
0.0
 10
15.5360917593
 20
13.9749543333
 30
0.0
 10
15.5501537694
 20
13.9890699157
 30
0.0
 10
15.5643480208
 20
14.0022964834
 30
0.0
 10
15.5831904376
 20
14.0185218679
 30
0.0
 10
15.6025096088
 20
14.0332003632
 30
0.0
 10
15.6222724908
 20
14.0461531578
 30
0.0
 10
15.6369988027
 20
14.0548217173
 30
0.0
 10
15.6518054618
 20
14.0625599305
 30
0.0
 10
15.6666840456
 20
14.0693629433
 30
0.0
 10
15.6816254971
 20
14.0752262273
 30
0.0
 10
15.6966208032
 20
14.0801457399
 30
0.0
 10
15.7116607366
 20
14.0841180613
 30
0.0
 10
15.7267359414
 20
14.0871403781
 30
0.0
 10
15.7418369393
 20
14.0892104101
 30
0.0
 10
15.7569541146
 20
14.0903266925
 30
0.0
 10
15.7720777935
 20
14.090488345
 30
0.0
 10
15.7871982569
 20
14.0896952316
 30
0.0
 10
15.8023058136
 20
14.0879480106
 30
0.0
 10
15.8173908198
 20
14.0852479108
 30
0.0
 10
15.8324437505
 20
14.081596974
 30
0.0
 10
15.8474552073
 20
14.0769978289
 30
0.0
 10
15.8624159153
 20
14.0714536704
 30
0.0
 10
15.8773167831
 20
14.0649683834
 30
0.0
 10
15.8921488364
 20
14.0575462527
 30
0.0
 10
15.9069031396
 20
14.0491922262
 30
0.0
 10
15.9215713217
 20
14.0399114883
 30
0.0
 10
15.9412530212
 20
14.0261337929
 30
0.0
 10
15.9604727407
 20
14.0106542903
 30
0.0
 10
15.9792066887
 20
13.9936486385
 30
0.0
 10
15.9933147221
 20
13.9798328575
 30
0.0
 10
16.0072850298
 20
13.9651336104
 30
0.0
 10
16.0211100055
 20
13.9495592198
 30
0.0
 10
16.0347813118
 20
13.9331192159
 30
0.0
 10
16.0482908637
 20
13.9158234083
 30
0.0
 10
16.0616306734
 20
13.8976822225
 30
0.0
 10
16.0747927785
 20
13.8787065176
 30
0.0
 10
16.087769341
 20
13.8589076819
 30
0.0
 10
16.1005526435
 20
13.8382976047
 30
0.0
 10
16.1131350049
 20
13.8168886281
 30
0.0
 10
16.1255089341
 20
13.7946936196
 30
0.0
 10
16.1376670127
 20
13.7717258898
 30
0.0
 10
16.1496019153
 20
13.7479992367
 30
0.0
 10
16.161306594
 20
13.7235278614
 30
0.0
 10
16.1767481437
 20
13.6895920755
 30
0.0
 10
16.1953985796
 20
13.6453872676
 30
0.0
 10
16.2165351158
 20
13.5901251504
 30
0.0
 10
16.2365921949
 20
13.5322679703
 30
0.0
 10
16.2555214967
 20
13.4719549129
 30
0.0
 10
16.2732775314
 20
13.4093304031
 30
0.0
 10
16.2898175201
 20
13.344544755
 30
0.0
 10
16.3051016059
 20
13.2777535172
 30
0.0
 10
16.3190929372
 20
13.2091171609
 30
0.0
 10
16.3317577598
 20
13.1388006528
 30
0.0
 10
16.3430655045
 20
13.0669730544
 30
0.0
 10
16.3529888742
 20
12.9938071092
 30
0.0
 10
16.3615039209
 20
12.9194788205
 30
0.0
 10
16.3685900866
 20
12.8441670165
 30
0.0
 10
16.3742302578
 20
12.768052913
 30
0.0
 10
16.3784108082
 20
12.6913196757
 30
0.0
 10
16.3811216509
 20
12.6141519752
 30
0.0
 10
16.3823562418
 20
12.5367355359
 30
0.0
 10
16.382111598
 20
12.459256686
 30
0.0
 10
16.380388302
 20
12.3819019049
 30
0.0
 10
16.3771905206
 20
12.3048573711
 30
0.0
 10
16.3725259802
 20
12.2283085093
 30
0.0
 10
16.3664059445
 20
12.1524395416
 30
0.0
 10
16.3588451837
 20
12.0774330402
 30
0.0
 10
16.3498619541
 20
12.0034694812
 30
0.0
 10
16.3394779506
 20
11.930726802
 30
0.0
 10
16.3277182424
 20
11.8593799774
 30
0.0
 10
16.3146112024
 20
11.7896005715
 30
0.0
 10
16.3001884709
 20
11.7215563761
 30
0.0
 10
16.2844847904
 20
11.6554107922
 30
0.0
 10
16.2675382411
 20
11.5913232921
 30
0.0
 10
16.25526211
 20
11.5494693364
 30
0.0
 10
16.2489132525
 20
11.5289244258
 30
0.0
  0
SPLINE
  5
2BB
100
AcDbEntity
  8
LAYER_FEATURE
100
AcDbSpline
 62
7
  6
CONTINUOUS
 70
0
 71
3
 72
39
 73
35
 74
0
 42
0.0000001
 43
0.0000001
 44
0.0000000001
 40
0.0
 40
0.0
 40
0.0
 40
0.0
 40
0.0443813336
 40
0.0879669049
 40
0.1307334971
 40
0.1726618911
 40
0.213733155
 40
0.2539301961
 40
0.2932376982
 40
0.3316421114
 40
0.3691319094
 40
0.4056977057
 40
0.4413324024
 40
0.4760313925
 40
0.509792791
 40
0.5426176356
 40
0.5745101334
 40
0.6054779631
 40
0.6355325849
 40
0.6646895445
 40
0.6929688312
 40
0.7203952805
 40
0.7469989406
 40
0.7728154428
 40
0.7978863791
 40
0.8222596373
 40
0.8459896205
 40
0.8691373733
 40
0.8917705688
 40
0.9139632715
 40
0.9357954524
 40
0.9573522586
 40
0.9787230196
 40
1.0
 40
1.0
 40
1.0
 40
1.0
 10
15.2715349567
 20
13.5706499888
 30
0.0
 10
15.2753703882
 20
13.5830614495
 30
0.0
 10
15.2831712242
 20
13.6076009904
 30
0.0
 10
15.2953780141
 20
13.6438698458
 30
0.0
 10
15.3079770419
 20
13.6792432844
 30
0.0
 10
15.3209581697
 20
13.7136930262
 30
0.0
 10
15.3343112603
 20
13.7471921004
 30
0.0
 10
15.3480257338
 20
13.7797140179
 30
0.0
 10
15.3620907662
 20
13.8112331354
 30
0.0
 10
15.3764952919
 20
13.8417245991
 30
0.0
 10
15.391227955
 20
13.8711643776
 30
0.0
 10
15.4062771551
 20
13.8995292854
 30
0.0
 10
15.4216310699
 20
13.9267969808
 30
0.0
 10
15.4372776626
 20
13.9529459893
 30
0.0
 10
15.4532046595
 20
13.9779557441
 30
0.0
 10
15.4693996033
 20
14.001806574
 30
0.0
 10
15.4858498701
 20
14.0244797064
 30
0.0
 10
15.5025426603
 20
14.045957299
 30
0.0
 10
15.519465007
 20
14.0662224554
 30
0.0
 10
15.5366038198
 20
14.0852591989
 30
0.0
 10
15.5539458982
 20
14.1030524687
 30
0.0
 10
15.5714779006
 20
14.1195881593
 30
0.0
 10
15.5891863805
 20
14.1348530884
 30
0.0
 10
15.6070577956
 20
14.1488349634
 30
0.0
 10
15.6250784899
 20
14.161522382
 30
0.0
 10
15.6432346476
 20
14.1729048655
 30
0.0
 10
15.661512301
 20
14.1829728019
 30
0.0
 10
15.6798972898
 20
14.1917174397
 30
0.0
 10
15.6983751791
 20
14.1991309624
 30
0.0
 10
15.7169312642
 20
14.2052065381
 30
0.0
 10
15.7355503977
 20
14.2099383437
 30
0.0
 10
15.7542175395
 20
14.213321664
 30
0.0
 10
15.7729156902
 20
14.2153530613
 30
0.0
 10
15.7854034938
 20
14.2158049961
 30
0.0
 10
15.7916313393
 20
14.2158049886
 30
0.0
  0
SPLINE
  5
2BC
100
AcDbEntity
  8
LAYER_FEATURE
100
AcDbSpline
 62
7
  6
CONTINUOUS
 70
0
 71
3
 72
37
 73
33
 74
0
 42
0.0000001
 43
0.0000001
 44
0.0000000001
 40
0.0
 40
0.0
 40
0.0
 40
0.0
 40
0.0220814818
 40
0.0442446942
 40
0.0665702583
 40
0.0891366301
 40
0.1120191524
 40
0.1352892974
 40
0.1590140135
 40
0.1832553188
 40
0.2080700523
 40
0.2335097063
 40
0.2864294926
 40
0.3140007062
 40
0.3423514448
 40
0.3715084834
 40
0.4014943934
 40
0.4323278462
 40
0.4640238045
 40
0.4965938863
 40
0.5300465636
 40
0.564387371
 40
0.5996192083
 40
0.6357424387
 40
0.6727551295
 40
0.7106532398
 40
0.7494306571
 40
0.7890795057
 40
0.8295902085
 40
0.8709512409
 40
0.9131499861
 40
1.0
 40
1.0
 40
1.0
 40
1.0
 10
15.231626255
 20
14.0185549926
 30
0.0
 10
15.2265814241
 20
14.0185549956
 30
0.0
 10
15.2164699177
 20
14.0182198722
 30
0.0
 10
15.2013253354
 20
14.0167132847
 30
0.0
 10
15.1862015788
 20
14.0142036919
 30
0.0
 10
15.1711101351
 20
14.0106931707
 30
0.0
 10
15.1560611949
 20
14.0061846235
 30
0.0
 10
15.1410651199
 20
14.0006815449
 30
0.0
 10
15.1261319366
 20
13.9941881947
 30
0.0
 10
15.1112716588
 20
13.9867094996
 30
0.0
 10
15.0964936674
 20
13.9782506097
 30
0.0
 10
15.0766539292
 20
13.9655073501
 30
0.0
 10
15.0572765908
 20
13.9509396659
 30
0.0
 10
15.0384000861
 20
13.9347456219
 30
0.0
 10
15.0241772285
 20
13.9214884419
 30
0.0
 10
15.0100939057
 20
13.9072964746
 30
0.0
 10
14.9961584756
 20
13.8921785443
 30
0.0
 10
14.982380237
 20
13.8761448323
 30
0.0
 10
14.9687680546
 20
13.8592059458
 30
0.0
 10
14.95533085
 20
13.8413730855
 30
0.0
 10
14.9420774173
 20
13.8226580302
 30
0.0
 10
14.9290164058
 20
13.8030731705
 30
0.0
 10
14.9161564334
 20
13.782631422
 30
0.0
 10
14.9035059354
 20
13.7613463073
 30
0.0
 10
14.8910732325
 20
13.7392318988
 30
0.0
 10
14.8788665644
 20
13.7163028014
 30
0.0
 10
14.8668939464
 20
13.6925742015
 30
0.0
 10
14.8551632984
 20
13.668061764
 30
0.0
 10
14.8436824407
 20
13.6427817722
 30
0.0
 10
14.8324588195
 20
13.6167508506
 30
0.0
 10
14.8177060331
 20
13.5807200169
 30
0.0
 10
14.8072678669
 20
13.5531383895
 30
0.0
 10
14.800545182
 20
13.5344698164
 30
0.0
  0
SPLINE
  5
2BD
100
AcDbEntity
  8
LAYER_FEATURE
100
AcDbSpline
 62
7
  6
CONTINUOUS
 70
0
 71
3
 72
67
 73
63
 74
0
 42
0.0000001
 43
0.0000001
 44
0.0000000001
 40
0.0
 40
0.0
 40
0.0
 40
0.0
 40
0.0163581013
 40
0.0330510694
 40
0.0500642491
 40
0.0673826926
 40
0.0849905208
 40
0.1028713409
 40
0.1210081566
 40
0.1393834611
 40
0.15797927
 40
0.1767771682
 40
0.1957583526
 40
0.2149036734
 40
0.2536076561
 40
0.292731491
 40
0.3321134768
 40
0.371590054
 40
0.4109969877
 40
0.45017054
 40
0.4889486503
 40
0.5081400228
 40
0.5271731428
 40
0.546028763
 40
0.5646879707
 40
0.5831322282
 40
0.601343416
 40
0.6193038759
 40
0.6369964566
 40
0.65440456
 40
0.6715121917
 40
0.6883040129
 40
0.7047653969
 40
0.720882489
 40
0.7366422729
 40
0.7520326412
 40
0.7670424724
 40
0.7816617173
 40
0.7958814943
 40
0.8096941963
 40
0.8230936114
 40
0.8360750592
 40
0.8486355463
 40
0.8607739405
 40
0.872491169
 40
0.8837904436
 40
0.8946775128
 40
0.905160943
 40
0.9152524249
 40
0.9249671014
 40
0.9343239024
 40
0.9433458667
 40
0.9520604213
 40
0.9604995757
 40
0.9686999787
 40
0.9767027777
 40
0.9806449746
 40
0.9845550535
 40
0.9884391969
 40
0.9923037475
 40
0.9961551669
 40
1.0
 40
1.0
 40
1.0
 40
1.0
 10
14.6869747876
 20
13.5706499888
 30
0.0
 10
14.6821051654
 20
13.5548918857
 30
0.0
 10
14.6725922047
 20
13.5229514662
 30
0.0
 10
14.6591260548
 20
13.4742995934
 30
0.0
 10
14.6463310095
 20
13.4244665575
 30
0.0
 10
14.6342228293
 20
13.3735138151
 30
0.0
 10
14.6228163575
 20
13.3215035625
 30
0.0
 10
14.6121255931
 20
13.2684995958
 30
0.0
 10
14.6021636627
 20
13.2145668247
 30
0.0
 10
14.5929427972
 20
13.1597713458
 30
0.0
 10
14.5844743152
 20
13.1041802982
 30
0.0
 10
14.5767686273
 20
13.0478618507
 30
0.0
 10
14.5698351397
 20
12.9908848972
 30
0.0
 10
14.5616022353
 20
12.9138555629
 30
0.0
 10
14.5533155099
 20
12.816417927
 30
0.0
 10
14.5465996392
 20
12.6984151808
 30
0.0
 10
14.543109764
 20
12.5794934305
 30
0.0
 10
14.5428630454
 20
12.4602355925
 30
0.0
 10
14.5458606985
 20
12.3412251395
 30
0.0
 10
14.5520879879
 20
12.2230454223
 30
0.0
 10
14.5599698967
 20
12.125402434
 30
0.0
 10
14.5678818557
 20
12.0481650437
 30
0.0
 10
14.5745788614
 20
11.9910017543
 30
0.0
 10
14.582050757
 20
11.9344758225
 30
0.0
 10
14.590288422
 20
11.8786563975
 30
0.0
 10
14.599281729
 20
11.8236119296
 30
0.0
 10
14.6090196403
 20
11.7694098675
 30
0.0
 10
14.6194901977
 20
11.7161166316
 30
0.0
 10
14.6306805473
 20
11.6637975174
 30
0.0
 10
14.6425769533
 20
11.6125166186
 30
0.0
 10
14.6551648164
 20
11.5623367473
 30
0.0
 10
14.6684286924
 20
11.5133193555
 30
0.0
 10
14.6823523121
 20
11.4655244589
 30
0.0
 10
14.6969186041
 20
11.4190105608
 30
0.0
 10
14.7121097139
 20
11.373834577
 30
0.0
 10
14.7279070301
 20
11.3300517641
 30
0.0
 10
14.7442912126
 20
11.2877156515
 30
0.0
 10
14.7612422202
 20
11.2468779748
 30
0.0
 10
14.778739341
 20
11.2075886106
 30
0.0
 10
14.796761224
 20
11.1698955143
 30
0.0
 10
14.8152859152
 20
11.1338446611
 30
0.0
 10
14.8342908958
 20
11.0994799891
 30
0.0
 10
14.8537531183
 20
11.0668433456
 30
0.0
 10
14.8736490562
 20
11.0359744446
 30
0.0
 10
14.8939547512
 20
11.0069108316
 30
0.0
 10
14.9146458628
 20
10.9796878566
 30
0.0
 10
14.9356977201
 20
10.9543386602
 30
0.0
 10
14.957085371
 20
10.9308941747
 30
0.0
 10
14.9787836236
 20
10.9093831455
 30
0.0
 10
15.0007670754
 20
10.8898321689
 30
0.0
 10
15.0230100956
 20
10.8722657518
 30
0.0
 10
15.0454868332
 20
10.8567063815
 30
0.0
 10
15.0681709514
 20
10.8431746199
 30
0.0
 10
15.0910360426
 20
10.8316890313
 30
0.0
 10
15.1140533429
 20
10.8222664872
 30
0.0
 10
15.1334381921
 20
10.8161142595
 30
0.0
 10
15.1489572654
 20
10.8122609221
 30
0.0
 10
15.1605580811
 20
10.8099063909
 30
0.0
 10
15.1721734214
 20
10.8080743616
 30
0.0
 10
15.1837999128
 20
10.8067652731
 30
0.0
 10
15.1954335237
 20
10.8059796491
 30
0.0
 10
15.2031945449
 20
10.8058050063
 30
0.0
 10
15.2070711702
 20
10.8058050025
 30
0.0
  0
SPLINE
  5
2BE
100
AcDbEntity
  8
LAYER_FEATURE
100
AcDbSpline
 62
7
  6
CONTINUOUS
 70
0
 71
3
 72
48
 73
44
 74
0
 42
0.0000001
 43
0.0000001
 44
0.0000000001
 40
0.0
 40
0.0
 40
0.0
 40
0.0
 40
0.0474235445
 40
0.0936964264
 40
0.1387782881
 40
0.1826332484
 40
0.2252290848
 40
0.2665382621
 40
0.3065381276
 40
0.345211518
 40
0.3825473177
 40
0.4185411427
 40
0.4531961098
 40
0.4865237186
 40
0.5185448492
 40
0.5492908789
 40
0.5788049041
 40
0.607143035
 40
0.6343757002
 40
0.6605888543
 40
0.6858849255
 40
0.7103832903
 40
0.7223780729
 40
0.734225809
 40
0.7459459092
 40
0.7575585956
 40
0.7690848152
 40
0.7805461102
 40
0.7919644819
 40
0.8033622424
 40
0.8147618532
 40
0.8261857611
 40
0.8376562403
 40
0.8491952225
 40
0.8608241669
 40
0.8725639015
 40
0.8844345303
 40
0.8964553076
 40
0.9210144007
 40
0.9463816636
 40
0.9594081061
 40
0.972679392
 40
1.0
 40
1.0
 40
1.0
 40
1.0
 10
14.7497892571
 20
13.49268556
 30
0.0
 10
14.7545208916
 20
13.507997135
 30
0.0
 10
14.7641947612
 20
13.5381495187
 30
0.0
 10
14.7795374049
 20
13.5824709842
 30
0.0
 10
14.7955168973
 20
13.6252825415
 30
0.0
 10
14.8121106033
 20
13.6665236856
 30
0.0
 10
14.8292952748
 20
13.706136629
 30
0.0
 10
14.8470467619
 20
13.7440657397
 30
0.0
 10
14.8653402144
 20
13.7802578519
 30
0.0
 10
14.8841500652
 20
13.8146622653
 30
0.0
 10
14.9034501134
 20
13.8472308348
 30
0.0
 10
14.9232135746
 20
13.877918023
 30
0.0
 10
14.9434131505
 20
13.9066809496
 30
0.0
 10
14.9640210981
 20
13.9334794225
 30
0.0
 10
14.9850093006
 20
13.9582759492
 30
0.0
 10
15.0063493379
 20
13.9810357249
 30
0.0
 10
15.0280125256
 20
14.0017265831
 30
0.0
 10
15.0499699893
 20
14.0203189314
 30
0.0
 10
15.0721924568
 20
14.0367855941
 30
0.0
 10
15.0946507825
 20
14.0511018784
 30
0.0
 10
15.1173135097
 20
14.0632448535
 30
0.0
 10
15.1364810094
 20
14.071595268
 30
0.0
 10
15.1518534844
 20
14.0771357145
 30
0.0
 10
15.1633319984
 20
14.0807093092
 30
0.0
 10
15.1748351734
 20
14.0837283717
 30
0.0
 10
15.1863590908
 20
14.0861917934
 30
0.0
 10
15.197899524
 20
14.0880985849
 30
0.0
 10
15.209452294
 20
14.0894480046
 30
0.0
 10
15.2210131845
 20
14.0902394654
 30
0.0
 10
15.2325779632
 20
14.0904727174
 30
0.0
 10
15.2441423922
 20
14.0901475718
 30
0.0
 10
15.2557022388
 20
14.0892642731
 30
0.0
 10
15.2672532645
 20
14.0878230541
 30
0.0
 10
15.2787912708
 20
14.0858246227
 30
0.0
 10
15.2903120594
 20
14.0832696485
 30
0.0
 10
15.3018114435
 20
14.0801592762
 30
0.0
 10
15.3132854559
 20
14.0764945293
 30
0.0
 10
15.3286526935
 20
14.0708314649
 30
0.0
 10
15.3478106794
 20
14.06232833
 30
0.0
 10
15.366516928
 20
14.0521498863
 30
0.0
 10
15.381365912
 20
14.0429600486
 30
0.0
 10
15.396420332
 20
14.0328710169
 30
0.0
 10
15.4074072513
 20
14.0246352036
 30
0.0
 10
15.414616107
 20
14.0188669878
 30
0.0
  0
SPLINE
  5
2BF
100
AcDbEntity
  8
LAYER_FEATURE
100
AcDbSpline
 62
7
  6
CONTINUOUS
 70
0
 71
3
 72
81
 73
77
 74
0
 42
0.0000001
 43
0.0000001
 44
0.0000000001
 40
0.0
 40
0.0
 40
0.0
 40
0.0
 40
0.0173483577
 40
0.0350967247
 40
0.0532252162
 40
0.0717129157
 40
0.0905378555
 40
0.1096771712
 40
0.1291071616
 40
0.1488033801
 40
0.1687407086
 40
0.1888934336
 40
0.2092353178
 40
0.2297396704
 40
0.2503794159
 40
0.2711271605
 40
0.2919552592
 40
0.312835881
 40
0.3337410735
 40
0.3546428281
 40
0.3755131437
 40
0.3963240919
 40
0.4170478813
 40
0.4376569223
 40
0.4581238933
 40
0.4784218068
 40
0.498524077
 40
0.5184045885
 40
0.5380377672
 40
0.5573986528
 40
0.5764629743
 40
0.5952072284
 40
0.6136087618
 40
0.6316458591
 40
0.6492978351
 40
0.6665451357
 40
0.6833694464
 40
0.699753812
 40
0.7156827687
 40
0.7311424921
 40
0.7461209636
 40
0.7606081601
 40
0.7745962702
 40
0.7880799437
 40
0.801056579
 40
0.8135266547
 40
0.8254941123
 40
0.8369667922
 40
0.8479569272
 40
0.858481686
 40
0.8685637522
 40
0.8782319066
 40
0.8875215585
 40
0.8964751412
 40
0.9008422059
 40
0.9051444578
 40
0.909389181
 40
0.9135840467
 40
0.9177370871
 40
0.9218566417
 40
0.925951312
 40
0.9300298932
 40
0.9341013126
 40
0.9381745548
 40
0.9422585892
 40
0.9463622992
 40
0.9504944077
 40
0.9546634188
 40
0.9588775509
 40
0.9631446978
 40
0.9674723741
 40
0.9718676983
 40
0.9808856374
 40
0.9855222433
 40
0.9902505706
 40
1.0
 40
1.0
 40
1.0
 40
1.0
 10
14.7497892571
 20
13.49268556
 30
0.0
 10
14.7446626765
 20
13.4760959391
 30
0.0
 10
14.7346816552
 20
13.4424123636
 30
0.0
 10
14.7206697964
 20
13.3910118982
 30
0.0
 10
14.7074634288
 20
13.338222278
 30
0.0
 10
14.6950835243
 20
13.2841271043
 30
0.0
 10
14.6835496221
 20
13.2288115423
 30
0.0
 10
14.6728799623
 20
13.1723628647
 30
0.0
 10
14.6630914147
 20
13.1148700977
 30
0.0
 10
14.6541994588
 20
13.0564239446
 30
0.0
 10
14.6462181578
 20
12.9971166202
 30
0.0
 10
14.6391601355
 20
12.93704171
 30
0.0
 10
14.6330365561
 20
12.8762940187
 30
0.0
 10
14.6278571062
 20
12.8149694202
 30
0.0
 10
14.623629979
 20
12.7531647045
 30
0.0
 10
14.6203618615
 20
12.690977424
 30
0.0
 10
14.6180579237
 20
12.6285057385
 30
0.0
 10
14.6167218105
 20
12.5658482592
 30
0.0
 10
14.6163556354
 20
12.5031038924
 30
0.0
 10
14.6169599779
 20
12.440371682
 30
0.0
 10
14.6185338818
 20
12.3777506529
 30
0.0
 10
14.6210748572
 20
12.3153396533
 30
0.0
 10
14.6245788845
 20
12.2532371982
 30
0.0
 10
14.6290404203
 20
12.1915413127
 30
0.0
 10
14.6344524069
 20
12.1303493765
 30
0.0
 10
14.6408062833
 20
12.0697579688
 30
0.0
 10
14.6480919987
 20
12.0098627151
 30
0.0
 10
14.6562980288
 20
11.9507581349
 30
0.0
 10
14.6654113947
 20
11.8925374909
 30
0.0
 10
14.6754176834
 20
11.8352926406
 30
0.0
 10
14.6863010714
 20
11.7791138891
 30
0.0
 10
14.6980443508
 20
11.7240898448
 30
0.0
 10
14.7106289575
 20
11.6703072773
 30
0.0
 10
14.7240350025
 20
11.6178509778
 30
0.0
 10
14.738241305
 20
11.566803622
 30
0.0
 10
14.7532254296
 20
11.5172456369
 30
0.0
 10
14.7689637252
 20
11.4692550698
 30
0.0
 10
14.7854313679
 20
11.4229074612
 30
0.0
 10
14.8026024074
 20
11.3782757214
 30
0.0
 10
14.8204498171
 20
11.335430011
 30
0.0
 10
14.8389455495
 20
11.294437627
 30
0.0
 10
14.8580605962
 20
11.255362893
 30
0.0
 10
14.8777650548
 20
11.2182670579
 30
0.0
 10
14.8980282028
 20
11.1832082023
 30
0.0
 10
14.9188185786
 20
11.1502411574
 30
0.0
 10
14.9401040719
 20
11.1194174394
 30
0.0
 10
14.9618520189
 20
11.0907852064
 30
0.0
 10
14.9840293065
 20
11.0643892421
 30
0.0
 10
15.0066024503
 20
11.0402709863
 30
0.0
 10
15.0295377272
 20
11.0184685848
 30
0.0
 10
15.0528009994
 20
10.9990170867
 30
0.0
 10
15.0763583754
 20
10.9819483477
 30
0.0
 10
15.1001735194
 20
10.9672921208
 30
0.0
 10
15.1203743364
 20
10.9570254628
 30
0.0
 10
15.1365962914
 20
10.9500871791
 30
0.0
 10
15.1487015342
 20
10.9455428915
 30
0.0
 10
15.1608403508
 20
10.9416174461
 30
0.0
 10
15.1730081239
 20
10.9383125141
 30
0.0
 10
15.1851998678
 20
10.9356294984
 30
0.0
 10
15.197410676
 20
10.9335696967
 30
0.0
 10
15.209635542
 20
10.9321339335
 30
0.0
 10
15.2218694682
 20
10.9313229831
 30
0.0
 10
15.2341074124
 20
10.9311370943
 30
0.0
 10
15.246344333
 20
10.9315764815
 30
0.0
 10
15.2585751948
 20
10.9326408107
 30
0.0
 10
15.2707949583
 20
10.934329726
 30
0.0
 10
15.2829986427
 20
10.9366423261
 30
0.0
 10
15.2951812479
 20
10.9395776945
 30
0.0
 10
15.3073378979
 20
10.9431344062
 30
0.0
 10
15.3194635951
 20
10.9473109714
 30
0.0
 10
15.3315538254
 20
10.9521056302
 30
0.0
 10
15.3477566172
 20
10.9593809799
 30
0.0
 10
15.3637423113
 20
10.9678504521
 30
0.0
 10
15.3794613781
 20
10.9774194023
 30
0.0
 10
15.3954102781
 20
10.9879921409
 30
0.0
 10
15.4070325176
 20
10.9966736538
 30
0.0
 10
15.4146510569
 20
11.0027709644
 30
0.0
  0
SPLINE
  5
2C0
100
AcDbEntity
  8
LAYER_FEATURE
100
AcDbSpline
 62
7
  6
CONTINUOUS
 70
0
 71
3
 72
15
 73
11
 74
0
 42
0.0000001
 43
0.0000001
 44
0.0000000001
 40
0.0
 40
0.0
 40
0.0
 40
0.0
 40
0.1223430657
 40
0.2502045365
 40
0.3812621062
 40
0.5130749119
 40
0.6431827382
 40
0.7691807837
 40
0.8887974156
 40
1.0
 40
1.0
 40
1.0
 40
1.0
 10
14.7362940082
 20
13.3203589262
 30
0.0
 10
14.7361122248
 20
13.3194864368
 30
0.0
 10
14.7358053572
 20
13.317688143
 30
0.0
 10
14.7355122783
 20
13.3149246846
 30
0.0
 10
14.7353800903
 20
13.312079775
 30
0.0
 10
14.7354118237
 20
13.3092156725
 30
0.0
 10
14.7356067455
 20
13.3063949251
 30
0.0
 10
14.7359604996
 20
13.3036790124
 30
0.0
 10
14.7364650577
 20
13.3011272326
 30
0.0
 10
14.7369131886
 20
13.2995043039
 30
0.0
 10
14.7371643948
 20
13.298734167
 30
0.0
  0
SPLINE
  5
2C1
100
AcDbEntity
  8
LAYER_FEATURE
100
AcDbSpline
 62
7
  6
CONTINUOUS
 70
0
 71
3
 72
15
 73
11
 74
0
 42
0.0000001
 43
0.0000001
 44
0.0000000001
 40
0.0
 40
0.0
 40
0.0
 40
0.0
 40
0.1333840252
 40
0.2661744464
 40
0.3974373148
 40
0.5262515384
 40
0.6517296919
 40
0.7730274999
 40
0.8893552899
 40
1.0
 40
1.0
 40
1.0
 40
1.0
 10
14.759451849
 20
13.1935583409
 30
0.0
 10
14.7594893769
 20
13.1963760941
 30
0.0
 10
14.7594642201
 20
13.2020009057
 30
0.0
 10
14.7591277576
 20
13.2103925268
 30
0.0
 10
14.7584954372
 20
13.218670401
 30
0.0
 10
14.7575725473
 20
13.2267655497
 30
0.0
 10
14.7563668877
 20
13.2346106465
 30
0.0
 10
14.7548885534
 20
13.2421405908
 30
0.0
 10
14.7531500638
 20
13.2492927025
 30
0.0
 10
14.7517905715
 20
13.253893868
 30
0.0
 10
14.7510656761
 20
13.256116221
 30
0.0
  0
SPLINE
  5
2C2
100
AcDbEntity
  8
LAYER_FEATURE
100
AcDbSpline
 62
7
  6
CONTINUOUS
 70
0
 71
3
 72
15
 73
11
 74
0
 42
0.0000001
 43
0.0000001
 44
0.0000000001
 40
0.0
 40
0.0
 40
0.0
 40
0.0
 40
0.1324190669
 40
0.2676003941
 40
0.4030353368
 40
0.536192622
 40
0.6646208798
 40
0.786028783
 40
0.8983756352
 40
1.0
 40
1.0
 40
1.0
 40
1.0
 10
14.6879632204
 20
13.0802283066
 30
0.0
 10
14.6878464529
 20
13.0792978606
 30
0.0
 10
14.6876702079
 20
13.0774096367
 30
0.0
 10
14.68757208
 20
13.0745556767
 30
0.0
 10
14.6876379805
 20
13.07169545
 30
0.0
 10
14.6878664759
 20
13.0688915253
 30
0.0
 10
14.6882524051
 20
13.0662050624
 30
0.0
 10
14.688787173
 20
13.0636942707
 30
0.0
 10
14.6894586979
 20
13.0614136416
 30
0.0
 10
14.6900182162
 20
13.0600019771
 30
0.0
 10
14.690323261
 20
13.0593501576
 30
0.0
  0
SPLINE
  5
2C3
100
AcDbEntity
  8
LAYER_FEATURE
100
AcDbSpline
 62
7
  6
CONTINUOUS
 70
0
 71
3
 72
15
 73
11
 74
0
 42
0.0000001
 43
0.0000001
 44
0.0000000001
 40
0.0
 40
0.0
 40
0.0
 40
0.0
 40
0.1401576664
 40
0.2777359297
 40
0.4117896748
 40
0.5414131691
 40
0.6657637897
 40
0.7840746034
 40
0.8956710801
 40
1.0
 40
1.0
 40
1.0
 40
1.0
 10
14.7195657721
 20
12.9660838393
 30
0.0
 10
14.7194078777
 20
12.9688540676
 30
0.0
 10
14.7189963269
 20
12.9743384842
 30
0.0
 10
14.718083937
 20
12.9824414196
 30
0.0
 10
14.716888451
 20
12.9902968309
 30
0.0
 10
14.7154198881
 20
12.9978393841
 30
0.0
 10
14.7136906218
 20
13.0050065245
 30
0.0
 10
14.7117150552
 20
13.0117391094
 30
0.0
 10
14.7095098523
 20
13.0179813101
 30
0.0
 10
14.7078399772
 20
13.021920447
 30
0.0
 10
14.7069645107
 20
13.0237911434
 30
0.0
  0
SPLINE
  5
2C4
100
AcDbEntity
  8
LAYER_FEATURE
100
AcDbSpline
 62
7
  6
CONTINUOUS
 70
0
 71
3
 72
21
 73
17
 74
0
 42
0.0000001
 43
0.0000001
 44
0.0000000001
 40
0.0
 40
0.0
 40
0.0
 40
0.0
 40
0.0445113056
 40
0.090262116
 40
0.1376599842
 40
0.1870703053
 40
0.2387997063
 40
0.2930950753
 40
0.3501503585
 40
0.4101124413
 40
0.4730840182
 40
0.5391315297
 40
0.6082880666
 40
0.6805580881
 40
0.8343054353
 40
1.0
 40
1.0
 40
1.0
 40
1.0
 10
14.6890474756
 20
12.8810217342
 30
0.0
 10
14.6896004636
 20
12.8811220142
 30
0.0
 10
14.6907109638
 20
12.8813905334
 30
0.0
 10
14.6923485346
 20
12.8819822713
 30
0.0
 10
14.693972424
 20
12.8827656145
 30
0.0
 10
14.6955789803
 20
12.883738209
 30
0.0
 10
14.6971652114
 20
12.8848976396
 30
0.0
 10
14.6987280406
 20
12.8862412592
 30
0.0
 10
14.7002645121
 20
12.8877660941
 30
0.0
 10
14.7017716151
 20
12.8894689508
 30
0.0
 10
14.7032464703
 20
12.8913462388
 30
0.0
 10
14.7046860827
 20
12.8933941276
 30
0.0
 10
14.7060876515
 20
12.8956083736
 30
0.0
 10
14.7079400492
 20
12.8988435246
 30
0.0
 10
14.7101296062
 20
12.9032839143
 30
0.0
 10
14.7116613985
 20
12.9070183139
 30
0.0
 10
14.7123989581
 20
12.9089760757
 30
0.0
  0
SPLINE
  5
2C5
100
AcDbEntity
  8
LAYER_FEATURE
100
AcDbSpline
 62
7
  6
CONTINUOUS
 70
0
 71
3
 72
20
 73
16
 74
0
 42
0.0000001
 43
0.0000001
 44
0.0000000001
 40
0.0
 40
0.0
 40
0.0
 40
0.0
 40
0.0368699909
 40
0.0757485673
 40
0.1174139977
 40
0.1624654755
 40
0.2113058442
 40
0.264177368
 40
0.321191829
 40
0.3823564373
 40
0.4475954259
 40
0.5167620945
 40
0.6659941909
 40
0.8279591172
 40
1.0
 40
1.0
 40
1.0
 40
1.0
 10
14.6674522413
 20
12.8771056089
 30
0.0
 10
14.6672622576
 20
12.8770711569
 30
0.0
 10
14.6668779713
 20
12.8769629504
 30
0.0
 10
14.6663210965
 20
12.876696376
 30
0.0
 10
14.6657755098
 20
12.8763251332
 30
0.0
 10
14.6652439
 20
12.8758521598
 30
0.0
 10
14.664728393
 20
12.8752803337
 30
0.0
 10
14.6642314172
 20
12.8746127517
 30
0.0
 10
14.6637553471
 20
12.873852997
 30
0.0
 10
14.6633026019
 20
12.873005106
 30
0.0
 10
14.6628755707
 20
12.8720735922
 30
0.0
 10
14.6623297137
 20
12.8706915349
 30
0.0
 10
14.6617348153
 20
12.8687875331
 30
0.0
 10
14.6611720686
 20
12.8663181918
 30
0.0
 10
14.6609012364
 20
12.8645886408
 30
0.0
 10
14.6607890505
 20
12.8636947027
 30
0.0
  0
SPLINE
  5
2C6
100
AcDbEntity
  8
LAYER_FEATURE
100
AcDbSpline
 62
7
  6
CONTINUOUS
 70
0
 71
3
 72
17
 73
13
 74
0
 42
0.0000001
 43
0.0000001
 44
0.0000000001
 40
0.0
 40
0.0
 40
0.0
 40
0.0
 40
0.1430957891
 40
0.2858907944
 40
0.4257357471
 40
0.5600622826
 40
0.6864970347
 40
0.8029586525
 40
0.8569256353
 40
0.90781974
 40
0.9555371925
 40
1.0
 40
1.0
 40
1.0
 40
1.0
 10
14.6571062099
 20
12.8217959531
 30
0.0
 10
14.6570565919
 20
12.820838041
 30
0.0
 10
14.6570136736
 20
12.8189208779
 30
0.0
 10
14.6571137202
 20
12.8160673371
 30
0.0
 10
14.6573755474
 20
12.8132829221
 30
0.0
 10
14.6577933062
 20
12.810628319
 30
0.0
 10
14.6583576559
 20
12.8081613487
 30
0.0
 10
14.6589538704
 20
12.8062598358
 30
0.0
 10
14.6595006478
 20
12.8048800798
 30
0.0
 10
14.6599283222
 20
12.8039503912
 30
0.0
 10
14.6603816215
 20
12.8031045318
 30
0.0
 10
14.6607109683
 20
12.8025808938
 30
0.0
 10
14.6608800509
 20
12.8023354552
 30
0.0
  0
SPLINE
  5
2C7
100
AcDbEntity
  8
LAYER_FEATURE
100
AcDbSpline
 62
7
  6
CONTINUOUS
 70
0
 71
3
 72
15
 73
11
 74
0
 42
0.0000001
 43
0.0000001
 44
0.0000000001
 40
0.0
 40
0.0
 40
0.0
 40
0.0
 40
0.1475491183
 40
0.2902608122
 40
0.4272094472
 40
0.5575455036
 40
0.6805257164
 40
0.7955338425
 40
0.9021103744
 40
1.0
 40
1.0
 40
1.0
 40
1.0
 10
14.6961377405
 20
12.723976301
 30
0.0
 10
14.6957922657
 20
12.7266105089
 30
0.0
 10
14.6950132346
 20
12.7317802044
 30
0.0
 10
14.6935544577
 20
12.7393352138
 30
0.0
 10
14.6918344766
 20
12.7465171639
 30
0.0
 10
14.6898676563
 20
12.7532665812
 30
0.0
 10
14.6876704506
 20
12.7595278598
 30
0.0
 10
14.685260828
 20
12.7652499829
 30
0.0
 10
14.6826588211
 20
12.7703859181
 30
0.0
 10
14.6807263472
 20
12.7735267631
 30
0.0
 10
14.6797264055
 20
12.7749782688
 30
0.0
  0
SPLINE
  5
2C8
100
AcDbEntity
  8
LAYER_FEATURE
100
AcDbSpline
 62
7
  6
CONTINUOUS
 70
0
 71
3
 72
18
 73
14
 74
0
 42
0.0000001
 43
0.0000001
 44
0.0000000001
 40
0.0
 40
0.0
 40
0.0
 40
0.0
 40
0.0899400442
 40
0.1383726007
 40
0.1892725888
 40
0.2427324942
 40
0.2988097793
 40
0.3575340991
 40
0.4189116937
 40
0.5495195031
 40
0.6903215983
 40
0.8407359956
 40
1.0
 40
1.0
 40
1.0
 40
1.0
 10
14.672024537
 20
12.6262878672
 30
0.0
 10
14.6731391744
 20
12.6270187983
 30
0.0
 10
14.6747535665
 20
12.6283016153
 30
0.0
 10
14.6767549472
 20
12.6302682357
 30
0.0
 10
14.6782645147
 20
12.631958379
 30
0.0
 10
14.6797417536
 20
12.6338229832
 30
0.0
 10
14.6811840634
 20
12.6358585506
 30
0.0
 10
14.6825885128
 20
12.638060775
 30
0.0
 10
14.6844452627
 20
12.6412803067
 30
0.0
 10
14.6866407881
 20
12.6457024695
 30
0.0
 10
14.6890283794
 20
12.6514844738
 30
0.0
 10
14.6912017144
 20
12.6578006759
 30
0.0
 10
14.692462294
 20
12.66221598
 30
0.0
 10
14.6930569931
 20
12.6645001404
 30
0.0
  0
SPLINE
  5
2C9
100
AcDbEntity
  8
LAYER_FEATURE
100
AcDbSpline
 62
7
  6
CONTINUOUS
 70
0
 71
3
 72
18
 73
14
 74
0
 42
0.0000001
 43
0.0000001
 44
0.0000000001
 40
0.0
 40
0.0
 40
0.0
 40
0.0
 40
0.0795718757
 40
0.1244957791
 40
0.1730607054
 40
0.2253248934
 40
0.2812612251
 40
0.3407743241
 40
0.4037129461
 40
0.539009024
 40
0.6851775702
 40
0.8397572255
 40
1.0
 40
1.0
 40
1.0
 40
1.0
 10
14.6510486482
 20
12.6125327846
 30
0.0
 10
14.650656952
 20
12.6122759272
 30
0.0
 10
14.6501042243
 20
12.6117804376
 30
0.0
 10
14.649453496
 20
12.6109963638
 30
0.0
 10
14.6489647481
 20
12.6102896842
 30
0.0
 10
14.648498148
 20
12.6094927656
 30
0.0
 10
14.6480558316
 20
12.6086094256
 30
0.0
 10
14.6476401959
 20
12.6076445364
 30
0.0
 10
14.6471118598
 20
12.6062216688
 30
0.0
 10
14.6465404578
 20
12.6042737177
 30
0.0
 10
14.6460073669
 20
12.6017608044
 30
0.0
 10
14.6456231884
 20
12.5990726686
 30
0.0
 10
14.645473837
 20
12.5972241904
 30
0.0
 10
14.6454250426
 20
12.5962821773
 30
0.0
  0
SPLINE
  5
2CA
100
AcDbEntity
  8
LAYER_FEATURE
100
AcDbSpline
 62
7
  6
CONTINUOUS
 70
0
 71
3
 72
53
 73
49
 74
0
 42
0.0000001
 43
0.0000001
 44
0.0000000001
 40
0.0
 40
0.0
 40
0.0
 40
0.0
 40
0.0423173463
 40
0.0846451782
 40
0.1268910266
 40
0.1689621596
 40
0.2107667419
 40
0.2522139082
 40
0.2932141739
 40
0.3336797955
 40
0.3735251453
 40
0.4126671055
 40
0.4510254756
 40
0.4885233964
 40
0.5250878067
 40
0.5606499427
 40
0.5951458849
 40
0.6285171547
 40
0.6607113966
 40
0.6763532768
 40
0.6916844911
 40
0.7067005902
 40
0.7213976777
 40
0.735772467
 40
0.7498222856
 40
0.7635451583
 40
0.7769398395
 40
0.7900058562
 40
0.8027436052
 40
0.8151543777
 40
0.8272404554
 40
0.8390051934
 40
0.8504530739
 40
0.8615898373
 40
0.8724225471
 40
0.8829596918
 40
0.8932113093
 40
0.9031890488
 40
0.9129062934
 40
0.9316158975
 40
0.9406502791
 40
0.9494962234
 40
0.958176451
 40
0.9667154525
 40
0.9751393142
 40
0.9834755131
 40
0.9917526269
 40
1.0
 40
1.0
 40
1.0
 40
1.0
 10
14.6454250426
 20
12.5962821773
 30
0.0
 10
14.6448602513
 20
12.5707403658
 30
0.0
 10
14.6442379956
 20
12.5196377554
 30
0.0
 10
14.644821221
 20
12.4430278888
 30
0.0
 10
14.6469186615
 20
12.3665928768
 30
0.0
 10
14.6505249258
 20
12.2905304543
 30
0.0
 10
14.6556306527
 20
12.2150371117
 30
0.0
 10
14.6622226058
 20
12.1403078715
 30
0.0
 10
14.6702836882
 20
12.0665357509
 30
0.0
 10
14.6797930034
 20
11.9939112778
 30
0.0
 10
14.6907259111
 20
11.9226219819
 30
0.0
 10
14.7030540762
 20
11.852851902
 30
0.0
 10
14.7167455481
 20
11.7847810977
 30
0.0
 10
14.7317648619
 20
11.7185851851
 30
0.0
 10
14.7480731407
 20
11.6544348508
 30
0.0
 10
14.765628184
 20
11.5924954663
 30
0.0
 10
14.784384635
 20
11.5329263642
 30
0.0
 10
14.8042939478
 20
11.4758813932
 30
0.0
 10
14.821968696
 20
11.4301398684
 30
0.0
 10
14.836666272
 20
11.394948213
 30
0.0
 10
14.8478390484
 20
11.3695287321
 30
0.0
 10
14.8592597748
 20
11.3448467645
 30
0.0
 10
14.8709211803
 20
11.3209181715
 30
0.0
 10
14.8828156941
 20
11.2977583785
 30
0.0
 10
14.8949357064
 20
11.2753823239
 30
0.0
 10
14.9072734024
 20
11.2538044167
 30
0.0
 10
14.9198208445
 20
11.2330385469
 30
0.0
 10
14.9325700242
 20
11.2130981084
 30
0.0
 10
14.9455127283
 20
11.1939959133
 30
0.0
 10
14.9586407074
 20
11.1757442734
 30
0.0
 10
14.9719455871
 20
11.1583549453
 30
0.0
 10
14.9854188569
 20
11.1418391038
 30
0.0
 10
14.9990520001
 20
11.126207432
 30
0.0
 10
15.0128363426
 20
11.1114699916
 30
0.0
 10
15.026763147
 20
11.0976363296
 30
0.0
 10
15.0408237264
 20
11.0847154155
 30
0.0
 10
15.0550089139
 20
11.0727157857
 30
0.0
 10
15.069310762
 20
11.0616448152
 30
0.0
 10
15.0882795589
 20
11.0483024959
 30
0.0
 10
15.1076994792
 20
11.0366203204
 30
0.0
 10
15.1274930794
 20
11.0267921333
 30
0.0
 10
15.1422374797
 20
11.0204659878
 30
0.0
 10
15.1570419666
 20
11.0151050908
 30
0.0
 10
15.1718973065
 20
11.0107130831
 30
0.0
 10
15.1867934624
 20
11.0072934899
 30
0.0
 10
15.2017206388
 20
11.0048489407
 30
0.0
 10
15.216667803
 20
11.0033813875
 30
0.0
 10
15.2266471067
 20
11.0030550063
 30
0.0
 10
15.231626255
 20
11.0030550037
 30
0.0
  0
SPLINE
  5
2CB
100
AcDbEntity
  8
LAYER_FEATURE
100
AcDbSpline
 62
7
  6
CONTINUOUS
 70
0
 71
3
 72
15
 73
11
 74
0
 42
0.0000001
 43
0.0000001
 44
0.0000000001
 40
0.0
 40
0.0
 40
0.0
 40
0.0
 40
0.1126204601
 40
0.233296856
 40
0.3599530997
 40
0.4902911285
 40
0.6218950407
 40
0.7523079002
 40
0.8791063589
 40
1.0
 40
1.0
 40
1.0
 40
1.0
 10
14.800545182
 20
13.5344698164
 30
0.0
 10
14.8003024923
 20
13.5336844723
 30
0.0
 10
14.7998718058
 20
13.5320348695
 30
0.0
 10
14.7993933873
 20
13.5294497157
 30
0.0
 10
14.7990674432
 20
13.5267107107
 30
0.0
 10
14.7989013753
 20
13.5238776873
 30
0.0
 10
14.7988988936
 20
13.5210124222
 30
0.0
 10
14.7990600731
 20
13.5181774858
 30
0.0
 10
14.7993812291
 20
13.5154349109
 30
0.0
 10
14.7997068729
 20
13.5136549211
 30
0.0
 10
14.7998979395
 20
13.5127934845
 30
0.0
  0
SPLINE
  5
2CC
100
AcDbEntity
  8
LAYER_FEATURE
100
AcDbSpline
 62
7
  6
CONTINUOUS
 70
0
 71
3
 72
15
 73
11
 74
0
 42
0.0000001
 43
0.0000001
 44
0.0000000001
 40
0.0
 40
0.0
 40
0.0
 40
0.0
 40
0.1270541201
 40
0.2553207885
 40
0.383896457
 40
0.511868149
 40
0.6383329274
 40
0.7624063719
 40
0.8832318236
 40
1.0
 40
1.0
 40
1.0
 40
1.0
 10
14.8145139998
 20
13.3990885881
 30
0.0
 10
14.8147484908
 20
13.4018632392
 30
0.0
 10
14.8151160053
 20
13.407448289
 30
0.0
 10
14.8153663702
 20
13.4158598016
 30
0.0
 10
14.8153176984
 20
13.4242951165
 30
0.0
 10
14.8149703593
 20
13.4326838895
 30
0.0
 10
14.8143273069
 20
13.440956282
 30
0.0
 10
14.8133939234
 20
13.4490434812
 30
0.0
 10
14.8121781298
 20
13.4568780667
 30
0.0
 10
14.8111665982
 20
13.4619879858
 30
0.0
 10
14.8106124538
 20
13.4644863824
 30
0.0
  0
SPLINE
  5
2CD
100
AcDbEntity
  8
LAYER_FEATURE
100
AcDbSpline
 62
7
  6
CONTINUOUS
 70
0
 71
3
 72
39
 73
35
 74
0
 42
0.0000001
 43
0.0000001
 44
0.0000000001
 40
0.0
 40
0.0
 40
0.0
 40
0.0
 40
0.0443812481
 40
0.0879669295
 40
0.1307335086
 40
0.172661876
 40
0.2137331571
 40
0.2539301992
 40
0.2932376968
 40
0.3316421073
 40
0.369131911
 40
0.4056977099
 40
0.4413323968
 40
0.4760313903
 40
0.5097927974
 40
0.5426176342
 40
0.5745101269
 40
0.6054779669
 40
0.6355325892
 40
0.664689538
 40
0.6929688298
 40
0.7203952869
 40
0.7469989387
 40
0.7728154376
 40
0.7978863828
 40
0.8222596394
 40
0.8459896168
 40
0.869137373
 40
0.8917705712
 40
0.9139632708
 40
0.935795451
 40
0.9573522592
 40
0.9787230199
 40
1.0
 40
1.0
 40
1.0
 40
1.0
 10
14.6869747876
 20
13.5706499888
 30
0.0
 10
14.6908102116
 20
13.5830614256
 30
0.0
 10
14.6986110531
 20
13.6076009723
 30
0.0
 10
14.7108178394
 20
13.6438698324
 30
0.0
 10
14.7234168719
 20
13.6792432911
 30
0.0
 10
14.7363980045
 20
13.7136930241
 30
0.0
 10
14.7497510915
 20
13.747192097
 30
0.0
 10
14.7634655616
 20
13.7797140202
 30
0.0
 10
14.777530597
 20
13.8112331345
 30
0.0
 10
14.7919351276
 20
13.8417245953
 30
0.0
 10
14.8066677845
 20
13.8711643786
 30
0.0
 10
14.8217169799
 20
13.8995292885
 30
0.0
 10
14.8370709076
 20
13.9267969754
 30
0.0
 10
14.852717496
 20
13.9529459868
 30
0.0
 10
14.8686444824
 20
13.9779557499
 30
0.0
 10
14.8848394358
 20
14.001806572
 30
0.0
 10
14.9012897087
 20
14.0244796986
 30
0.0
 10
14.9179824862
 20
14.045957303
 30
0.0
 10
14.9349048321
 20
14.0662224606
 30
0.0
 10
14.9520436593
 20
14.085259189
 30
0.0
 10
14.9693857306
 20
14.1030524658
 30
0.0
 10
14.9869177227
 20
14.1195881699
 30
0.0
 10
15.0046262142
 20
14.1348530843
 30
0.0
 10
15.0224976336
 20
14.1488349515
 30
0.0
 10
15.0405183144
 20
14.1615223912
 30
0.0
 10
15.0586744763
 20
14.1729048701
 30
0.0
 10
15.0769521375
 20
14.182972789
 30
0.0
 10
15.0953371201
 20
14.191717439
 30
0.0
 10
15.1138150064
 20
14.199130973
 30
0.0
 10
15.1323710969
 20
14.2052065322
 30
0.0
 10
15.1509902302
 20
14.2099383333
 30
0.0
 10
15.1696573687
 20
14.2133216739
 30
0.0
 10
15.1883555214
 20
14.2153530618
 30
0.0
 10
15.2008433248
 20
14.2158049894
 30
0.0
 10
15.2070711702
 20
14.2158049833
 30
0.0
  0
SPLINE
  5
2CE
100
AcDbEntity
  8
02___PRT_ALL_AXES
100
AcDbSpline
 62
7
  6
CONTINUOUS
 70
0
 71
3
 72
15
 73
11
 74
0
 42
0.0000001
 43
0.0000001
 44
0.0000000001
 40
0.0
 40
0.0
 40
0.0
 40
0.0
 40
0.1336136088
 40
0.2636883506
 40
0.3907019472
 40
0.5151945696
 40
0.6377451249
 40
0.7589671688
 40
0.8795009196
 40
1.0
 40
1.0
 40
1.0
 40
1.0
 10
15.7920811285
 20
11.8399048432
 30
0.0
 10
15.7894012799
 20
11.8383645553
 30
0.0
 10
15.7840158858
 20
11.8354887716
 30
0.0
 10
15.7757697424
 20
11.8317717265
 30
0.0
 10
15.7674793491
 20
11.8287175402
 30
0.0
 10
15.7591534663
 20
11.8263301073
 30
0.0
 10
15.7508004499
 20
11.8246122834
 30
0.0
 10
15.742428857
 20
11.8235663977
 30
0.0
 10
15.734048308
 20
11.8231938268
 30
0.0
 10
15.7284688895
 20
11.8233943986
 30
0.0
 10
15.7256893158
 20
11.8236055219
 30
0.0
  0
SPLINE
  5
2CF
100
AcDbEntity
  8
02___PRT_ALL_AXES
100
AcDbSpline
 62
7
  6
CONTINUOUS
 70
0
 71
3
 72
33
 73
29
 74
0
 42
0.0000001
 43
0.0000001
 44
0.0000000001
 40
0.0
 40
0.0
 40
0.0
 40
0.0
 40
0.0836605556
 40
0.1647024167
 40
0.2430160821
 40
0.3185053264
 40
0.3910905999
 40
0.4262760513
 40
0.4607141719
 40
0.4944005226
 40
0.5273322052
 40
0.5595078559
 40
0.5909278203
 40
0.6215942793
 40
0.6515113174
 40
0.6806851793
 40
0.7091243016
 40
0.736839581
 40
0.7638444996
 40
0.7901552984
 40
0.8157912365
 40
0.8407746787
 40
0.8651313914
 40
0.9120732923
 40
0.9347402507
 40
0.9569200455
 40
0.9786571962
 40
1.0
 40
1.0
 40
1.0
 40
1.0
 10
15.3765743966
 20
13.3415867155
 30
0.0
 10
15.3816543229
 20
13.3580253628
 30
0.0
 10
15.3920967951
 20
13.3902539844
 30
0.0
 10
15.4088954497
 20
13.4373328153
 30
0.0
 10
15.4265500941
 20
13.4822980709
 30
0.0
 10
15.4450203488
 20
13.525046709
 30
0.0
 10
15.4612208544
 20
13.5590876189
 30
0.0
 10
15.4745734697
 20
13.5851102891
 30
0.0
 10
15.4846612635
 20
13.6038113555
 30
0.0
 10
15.4949202847
 20
13.6218879957
 30
0.0
 10
15.5053447273
 20
13.6393299834
 30
0.0
 10
15.5159286794
 20
13.656127359
 30
0.0
 10
15.5266661433
 20
13.6722705585
 30
0.0
 10
15.53755101
 20
13.6877504037
 30
0.0
 10
15.548577169
 20
13.7025580518
 30
0.0
 10
15.5597383436
 20
13.7166851007
 30
0.0
 10
15.5710282847
 20
13.7301234714
 30
0.0
 10
15.5824406231
 20
13.7428655148
 30
0.0
 10
15.5939689332
 20
13.7549039495
 30
0.0
 10
15.6056068327
 20
13.7662318883
 30
0.0
 10
15.6173475962
 20
13.7768427513
 30
0.0
 10
15.6291853226
 20
13.7867307908
 30
0.0
 10
15.6448933417
 20
13.7987931497
 30
0.0
 10
15.6609676794
 20
13.8095775484
 30
0.0
 10
15.6773659749
 20
13.8189412928
 30
0.0
 10
15.6895857918
 20
13.8251350887
 30
0.0
 10
15.7018608833
 20
13.8305767523
 30
0.0
 10
15.7101471647
 20
13.8337276469
 30
0.0
 10
15.7142921725
 20
13.8351717629
 30
0.0
  0
SPLINE
  5
2D0
100
AcDbEntity
  8
02___PRT_ALL_AXES
100
AcDbSpline
 62
7
  6
CONTINUOUS
 70
0
 71
3
 72
25
 73
21
 74
0
 42
0.0000001
 43
0.0000001
 44
0.0000000001
 40
0.0
 40
0.0
 40
0.0
 40
0.0
 40
0.0894527496
 40
0.1761710259
 40
0.2598088591
 40
0.3400533525
 40
0.4166232243
 40
0.4892786984
 40
0.5578276342
 40
0.6221355893
 40
0.6821378414
 40
0.7378552387
 40
0.789414537
 40
0.8370737645
 40
0.8812512113
 40
0.9225523738
 40
0.9423863686
 40
0.9618192857
 40
0.9809788733
 40
1.0
 40
1.0
 40
1.0
 40
1.0
 10
15.7213837224
 20
13.1975883739
 30
0.0
 10
15.7209772956
 20
13.1999726346
 30
0.0
 10
15.7201013473
 20
13.2046558357
 30
0.0
 10
15.7185723674
 20
13.2115136751
 30
0.0
 10
15.7168548414
 20
13.2180699265
 30
0.0
 10
15.7149578202
 20
13.2242903814
 30
0.0
 10
15.7128911807
 20
13.230142835
 30
0.0
 10
15.7106656803
 20
13.2355970248
 30
0.0
 10
15.7082927851
 20
13.2406248997
 30
0.0
 10
15.7057845714
 20
13.24520075
 30
0.0
 10
15.7031535469
 20
13.2493013383
 30
0.0
 10
15.7004123902
 20
13.2529059557
 30
0.0
 10
15.6975738002
 20
13.2559963038
 30
0.0
 10
15.694649839
 20
13.2585562113
 30
0.0
 10
15.6916533851
 20
13.2605706589
 30
0.0
 10
15.6890700776
 20
13.2617994045
 30
0.0
 10
15.6869979629
 20
13.2624792428
 30
0.0
 10
15.6854575935
 20
13.2628394497
 30
0.0
 10
15.6839128297
 20
13.2630557865
 30
0.0
 10
15.6828798505
 20
13.2631039745
 30
0.0
 10
15.682365551
 20
13.2631039782
 30
0.0
  0
ENDSEC
  0
SECTION
  2
OBJECTS
  0
DICTIONARY
  5
C
100
AcDbDictionary
280
0
281
1
  3
ACAD_GROUP
350
D
  3
ACAD_MLINESTYLE
350
17
  3
ACAD_LAYOUT
350
1A
  3
ACAD_PLOTSETTINGS
350
19
  3
ACAD_PLOTSTYLENAME
350
E
  0
DICTIONARY
  5
D
102
{ACAD_REACTORS
330
C
102
}
100
AcDbDictionary
280
0
281
1
  0
ACDBDICTIONARYWDFLT
  5
E
102
{ACAD_REACTORS
330
C
102
}
100
AcDbDictionary
281
1
  3
Normal
350
F
100
AcDbDictionaryWithDefault
340
F
  0
DICTIONARY
  5
17
102
{ACAD_REACTORS
330
C
102
}
100
AcDbDictionary
280
0
281
1
  3
Standard
350
18
  0
DICTIONARY
  5
19
102
{ACAD_REACTORS
330
C
102
}
100
AcDbDictionary
281
1
  0
DICTIONARY
  5
1A
102
{ACAD_REACTORS
330
C
102
}
100
AcDbDictionary
281
1
  3
Model
350
2D1
  3
Layout1
350
2D2
  0
ACDBPLACEHOLDER
  5
F
102
{ACAD_REACTORS
330
E
102
}
  0
MLINESTYLE
  5
18
102
{ACAD_REACTORS
330
17
102
}
100
AcDbMlineStyle
  2
STANDARD
 70
0
  3

 62
256
 51
90.0
 52
90.0
 71
2
 49
0.5
 62
256
  6
BYLAYER
 49
-0.5
 62
256
  6
BYLAYER
  0
LAYOUT
  5
2D1
102
{ACAD_REACTORS
330
1A
102
}
100
AcDbPlotSettings
  1

  2
none_device
  4
ANSI_C_(22.00_x_17.00_Inches)
  6

 40
0.0
 41
0.0
 42
0.0
 43
0.0
 44
558.8
 45
431.8
 46
0.0
 47
0.0
 48
0.0
 49
0.0
140
0.0
141
0.0
142
1.0
143
1.0
 70
1024
 72
0
 73
0
 74
0
  7

 75
0
147
1.0
148
0.0
149
0.0
100
AcDbLayout
  1
Model
 70
0
 71
0
 10
0.0
 20
0.0
 11
22.0
 21
17.0
 12
0.0
 22
0.0
 32
0.0
 14
0.0
 24
0.0
 34
0.0
 15
0.0
 25
0.0
 35
0.0
146
0.0
 13
0.0
 23
0.0
 33
0.0
 16
1.0
 26
0.0
 36
0.0
 17
0.0
 27
1.0
 37
0.0
 76
0
330
222
345
0
346
0
  0
LAYOUT
  5
2D2
102
{ACAD_REACTORS
330
1A
102
}
100
AcDbPlotSettings
  1

  2
none_device
  4
ANSI_C_(22.00_x_17.00_Inches)
  6

 40
0.0
 41
0.0
 42
0.0
 43
0.0
 44
558.8
 45
431.8
 46
0.0
 47
0.0
 48
0.0
 49
0.0
140
0.0
141
0.0
142
1.0
143
1.0
 70
0
 72
0
 73
0
 74
0
  7

 75
0
147
1.0
148
0.0
149
0.0
100
AcDbLayout
  1
Layout1
 70
0
 71
1
 10
0.0
 20
0.0
 11
22.0
 21
17.0
 12
0.0
 22
0.0
 32
0.0
 14
0.0
 24
0.0
 34
0.0
 15
0.0
 25
0.0
 35
0.0
146
0.0
 13
0.0
 23
0.0
 33
0.0
 16
1.0
 26
0.0
 36
0.0
 17
0.0
 27
1.0
 37
0.0
 76
0
330
223
345
0
346
0
  0
ENDSEC
  0
EOF