999
DXF file: _cgs_temp_output.dxf
999
Pro/ENGINEER 2016360 by Parametric Technology Corporation
  0
SECTION
  2
HEADER
  9
$ACADVER
  1
AC1021
  9
$DWGCODEPAGE
  3
ANSI_1252
  9
$EXTMAX
 10
22.0
 20
17.0
 30
0.0
  9
$EXTMIN
 10
0.0
 20
0.0
 30
0.0
  9
$LIMMIN
 10
0.0
 20
0.0
  9
$LIMMAX
 10
22.0
 20
17.0
  9
$VIEWCTR
 10
11.0
 20
8.5
  9
$VIEWSIZE
 40
17.0
  9
$CLAYER
  8
0
  9
$LTSCALE
 40
1.21
  9
$CELTYPE
  6
BYLAYER
  9
$DIMSCALE
 40
1.0
  9
$DIMASZ
 40
0.1875
  9
$DIMEXO
 40
0.0625
  9
$DIMDLI
 40
0.836
  9
$DIMEXE
 40
0.125
  9
$DIMCEN
 40
0.198
  9
$DIMLFAC
 40
1.0
  9
$DIMBLK
  1
_CLOSED
  9
$DIMALT
 70
0
  9
$DIMALTF
 40
25.4
  9
$DIMTXT
 40
0.15625
  9
$DIMTOL
 70
0
  9
$DIMLIM
 70
0
  9
$DIMTFAC
 40
1.0
  9
$DIMGAP
 40
0.09
  9
$DIMDSEP
 70
46
  9
$AUNITS
 70
0
  9
$PDMODE
 70
3
  9
$PDSIZE
 40
0.3125
  9
$HANDSEED
  5
2CB
  9
$TILEMODE
 70
1
  9
$MEASUREMENT
 70
0
  9
$INSUNITS
 70
1
  0
ENDSEC
  0
SECTION
  2
CLASSES
  0
CLASS
  1
ACDBDICTIONARYWDFLT
  2
AcDbDictionaryWithDefault
  3
AutoCAD 2000
 90
0
 91
1
280
0
281
0
  0
CLASS
  1
ACDBPLACEHOLDER
  2
AcDbPlaceHolder
  3
AutoCAD 2000
 90
0
 91
1
280
0
281
0
  0
CLASS
  1
LAYOUT
  2
AcDbLayout
  3
AutoCAD 2000
 90
0
 91
0
280
0
281
0
  0
ENDSEC
  0
SECTION
  2
TABLES
  0
TABLE
  2
VPORT
  5
8
100
AcDbSymbolTable
 70
2
  0
VPORT
  5
1F4
100
AcDbSymbolTableRecord
100
AcDbViewportTableRecord
  2
*ACTIVE
 70
0
 10
0.0
 20
0.0
 11
1.0
 21
1.0
 12
11.0
 22
8.5
 13
0.0
 23
0.0
 14
1.0
 24
1.0
 15
0.0
 25
0.0
 16
0.0
 26
0.0
 36
1.0
 17
0.0
 27
0.0
 37
0.0
 40
17.0
 41
1.2941176471
 42
50.0
 43
0.0
 44
0.0
 50
0.0
 51
0.0
 71
0
 72
100
 73
1
 74
1
 75
0
 76
0
 77
0
 78
0
  0
ENDTAB
  0
TABLE
  2
LTYPE
  5
5
100
AcDbSymbolTable
 70
6
  0
LTYPE
  5
14
100
AcDbSymbolTableRecord
100
AcDbLinetypeTableRecord
  2
BYBLOCK
 70
0
  3

 72
65
 73
0
 40
0.0
  0
LTYPE
  5
15
100
AcDbSymbolTableRecord
100
AcDbLinetypeTableRecord
  2
BYLAYER
 70
0
  3

 72
65
 73
0
 40
0.0
  0
LTYPE
  5
16
100
AcDbSymbolTableRecord
100
AcDbLinetypeTableRecord
  2
CONTINUOUS
 70
64
  3
Solid line
 72
65
 73
0
 40
0.0
  0
LTYPE
  5
1F5
100
AcDbSymbolTableRecord
100
AcDbLinetypeTableRecord
  2
CENTER
 70
64
  3
____ _ ____ _ ____ _ ____ _ ____ _ ____ _ ____
 72
65
 73
4
 40
0.6
 49
0.375
 74
0
 49
-0.075
 74
0
 49
0.075
 74
0
 49
-0.075
 74
0
  0
LTYPE
  5
1F6
100
AcDbSymbolTableRecord
100
AcDbLinetypeTableRecord
  2
HIDDEN
 70
64
  3
- - - - - - - - - - - - - - - - - - - -
 72
65
 73
2
 40
0.2
 49
0.1
 74
0
 49
-0.1
 74
0
  0
LTYPE
  5
1F7
100
AcDbSymbolTableRecord
100
AcDbLinetypeTableRecord
  2
PHANTOM
 70
64
  3
_____ _ _ _____ _ _ _____ _ _ _____
 72
65
 73
6
 40
0.8
 49
0.45
 74
0
 49
-0.05
 74
0
 49
0.1
 74
0
 49
-0.05
 74
0
 49
0.1
 74
0
 49
-0.05
 74
0
  0
LTYPE
  5
1F8
100
AcDbSymbolTableRecord
100
AcDbLinetypeTableRecord
  2
DOT
 70
64
  3
. . . . . . . . . . . . . . . . . . . .
 72
65
 73
2
 40
0.2
 49
0.1
 74
0
 49
-0.1
 74
0
  0
LTYPE
  5
1F9
100
AcDbSymbolTableRecord
100
AcDbLinetypeTableRecord
  2
DASHED
 70
64
  3
- - - - - - - - - - - - - - - - - - - -
 72
65
 73
2
 40
0.2
 49
0.1
 74
0
 49
-0.1
 74
0
  0
ENDTAB
  0
TABLE
  2
LAYER
  5
2
100
AcDbSymbolTable
 70
36
  0
LAYER
  5
10
100
AcDbSymbolTableRecord
100
AcDbLayerTableRecord
  2
0
 70
0
 62
7
  6
CONTINUOUS
370
-3
390
F
  0
LAYER
  5
1FA
100
AcDbSymbolTableRecord
100
AcDbLayerTableRecord
  2
DEFAULT_1
 70
0
 62
7
  6
CENTER
370
-3
390
F
  0
LAYER
  5
1FB
100
AcDbSymbolTableRecord
100
AcDbLayerTableRecord
  2
DEFAULT_2
 70
0
 62
8
  6
HIDDEN
370
-3
390
F
  0
LAYER
  5
1FC
100
AcDbSymbolTableRecord
100
AcDbLayerTableRecord
  2
DEFAULT_3
 70
0
 62
7
  6
PHANTOM
370
-3
390
F
  0
LAYER
  5
1FD
100
AcDbSymbolTableRecord
100
AcDbLayerTableRecord
  2
01_ALL_DTM_PLN
 70
0
 62
7
  6
CONTINUOUS
370
-3
390
F
  0
LAYER
  5
1FE
100
AcDbSymbolTableRecord
100
AcDbLayerTableRecord
  2
01__ASM_ALL_DTM_PLN
 70
0
 62
7
  6
CONTINUOUS
370
-3
390
F
  0
LAYER
  5
1FF
100
AcDbSymbolTableRecord
100
AcDbLayerTableRecord
  2
01__ASM_DEF_DTM_PLN
 70
0
 62
7
  6
CONTINUOUS
370
-3
390
F
  0
LAYER
  5
200
100
AcDbSymbolTableRecord
100
AcDbLayerTableRecord
  2
01___PRT_ALL_DTM_PLN
 70
0
 62
7
  6
CONTINUOUS
370
-3
390
F
  0
LAYER
  5
201
100
AcDbSymbolTableRecord
100
AcDbLayerTableRecord
  2
01___PRT_DEF_DTM_PLN
 70
0
 62
7
  6
CONTINUOUS
370
-3
390
F
  0
LAYER
  5
202
100
AcDbSymbolTableRecord
100
AcDbLayerTableRecord
  2
02_ALL_AXES
 70
0
 62
7
  6
CONTINUOUS
370
-3
390
F
  0
LAYER
  5
203
100
AcDbSymbolTableRecord
100
AcDbLayerTableRecord
  2
02__ASM_ALL_AXES
 70
0
 62
7
  6
CONTINUOUS
370
-3
390
F
  0
LAYER
  5
204
100
AcDbSymbolTableRecord
100
AcDbLayerTableRecord
  2
02___PRT_ALL_AXES
 70
0
 62
7
  6
CONTINUOUS
370
-3
390
F
  0
LAYER
  5
205
100
AcDbSymbolTableRecord
100
AcDbLayerTableRecord
  2
03_ALL_CURVES
 70
0
 62
7
  6
CONTINUOUS
370
-3
390
F
  0
LAYER
  5
206
100
AcDbSymbolTableRecord
100
AcDbLayerTableRecord
  2
03__ASM_ALL_CURVES
 70
0
 62
7
  6
CONTINUOUS
370
-3
390
F
  0
LAYER
  5
207
100
AcDbSymbolTableRecord
100
AcDbLayerTableRecord
  2
03___PRT_ALL_CURVES
 70
0
 62
7
  6
CONTINUOUS
370
-3
390
F
  0
LAYER
  5
208
100
AcDbSymbolTableRecord
100
AcDbLayerTableRecord
  2
04_ALL_DTM_PNT
 70
0
 62
7
  6
CONTINUOUS
370
-3
390
F
  0
LAYER
  5
209
100
AcDbSymbolTableRecord
100
AcDbLayerTableRecord
  2
04__ASM_ALL_DTM_PNT
 70
0
 62
7
  6
CONTINUOUS
370
-3
390
F
  0
LAYER
  5
20A
100
AcDbSymbolTableRecord
100
AcDbLayerTableRecord
  2
04___PRT_ALL_DTM_PNT
 70
0
 62
7
  6
CONTINUOUS
370
-3
390
F
  0
LAYER
  5
20B
100
AcDbSymbolTableRecord
100
AcDbLayerTableRecord
  2
05_ALL_DTM_CSYS
 70
0
 62
7
  6
CONTINUOUS
370
-3
390
F
  0
LAYER
  5
20C
100
AcDbSymbolTableRecord
100
AcDbLayerTableRecord
  2
05__ASM_ALL_DTM_CSYS
 70
0
 62
7
  6
CONTINUOUS
370
-3
390
F
  0
LAYER
  5
20D
100
AcDbSymbolTableRecord
100
AcDbLayerTableRecord
  2
05__ASM_DEF_DTM_CSYS
 70
0
 62
7
  6
CONTINUOUS
370
-3
390
F
  0
LAYER
  5
20E
100
AcDbSymbolTableRecord
100
AcDbLayerTableRecord
  2
05___PRT_ALL_DTM_CSYS
 70
0
 62
7
  6
CONTINUOUS
370
-3
390
F
  0
LAYER
  5
20F
100
AcDbSymbolTableRecord
100
AcDbLayerTableRecord
  2
05___PRT_DEF_DTM_CSYS
 70
0
 62
7
  6
CONTINUOUS
370
-3
390
F
  0
LAYER
  5
210
100
AcDbSymbolTableRecord
100
AcDbLayerTableRecord
  2
06_ALL_SURFS
 70
0
 62
7
  6
CONTINUOUS
370
-3
390
F
  0
LAYER
  5
211
100
AcDbSymbolTableRecord
100
AcDbLayerTableRecord
  2
06__ASM_ALL_SURFS
 70
0
 62
7
  6
CONTINUOUS
370
-3
390
F
  0
LAYER
  5
212
100
AcDbSymbolTableRecord
100
AcDbLayerTableRecord
  2
06___PRT_ALL_SURFS
 70
0
 62
7
  6
CONTINUOUS
370
-3
390
F
  0
LAYER
  5
213
100
AcDbSymbolTableRecord
100
AcDbLayerTableRecord
  2
07__ASM_ALL_SKELETONS
 70
0
 62
7
  6
CONTINUOUS
370
-3
390
F
  0
LAYER
  5
214
100
AcDbSymbolTableRecord
100
AcDbLayerTableRecord
  2
LAYER_AXIS
 70
0
 62
7
  6
CONTINUOUS
370
-3
390
F
  0
LAYER
  5
215
100
AcDbSymbolTableRecord
100
AcDbLayerTableRecord
  2
LAYER_CHAMFER_FEAT
 70
0
 62
7
  6
CONTINUOUS
370
-3
390
F
  0
LAYER
  5
216
100
AcDbSymbolTableRecord
100
AcDbLayerTableRecord
  2
LAYER_CUT_FEAT
 70
0
 62
7
  6
CONTINUOUS
370
-3
390
F
  0
LAYER
  5
217
100
AcDbSymbolTableRecord
100
AcDbLayerTableRecord
  2
LAYER_DATUM
 70
0
 62
7
  6
CONTINUOUS
370
-3
390
F
  0
LAYER
  5
218
100
AcDbSymbolTableRecord
100
AcDbLayerTableRecord
  2
LAYER_DIM
 70
0
 62
7
  6
CONTINUOUS
370
-3
390
F
  0
LAYER
  5
219
100
AcDbSymbolTableRecord
100
AcDbLayerTableRecord
  2
LAYER_FEATURE
 70
0
 62
7
  6
CONTINUOUS
370
-3
390
F
  0
LAYER
  5
21A
100
AcDbSymbolTableRecord
100
AcDbLayerTableRecord
  2
LAYER_GEOM_FEAT
 70
0
 62
7
  6
CONTINUOUS
370
-3
390
F
  0
LAYER
  5
21B
100
AcDbSymbolTableRecord
100
AcDbLayerTableRecord
  2
LAYER_NOGEOM_FEAT
 70
0
 62
7
  6
CONTINUOUS
370
-3
390
F
  0
LAYER
  5
21C
100
AcDbSymbolTableRecord
100
AcDbLayerTableRecord
  2
LAYER_PARAMETER_DIM
 70
0
 62
7
  6
CONTINUOUS
370
-3
390
F
  0
LAYER
  5
21D
100
AcDbSymbolTableRecord
100
AcDbLayerTableRecord
  2
LAYER_PROTRUSION_FEAT
 70
0
 62
7
  6
CONTINUOUS
370
-3
390
F
  0
LAYER
  5
21E
100
AcDbSymbolTableRecord
100
AcDbLayerTableRecord
  2
LAYER_QUILT
 70
0
 62
7
  6
CONTINUOUS
370
-3
390
F
  0
LAYER
  5
21F
100
AcDbSymbolTableRecord
100
AcDbLayerTableRecord
  2
LAYER_ROUND_FEAT
 70
0
 62
7
  6
CONTINUOUS
370
-3
390
F
  0
ENDTAB
  0
TABLE
  2
STYLE
  5
3
100
AcDbSymbolTable
 70
1
  0
STYLE
  5
11
100
AcDbSymbolTableRecord
100
AcDbTextStyleTableRecord
  2
STANDARD
 70
0
 40
0.0
 41
0.8
 50
0.0
 71
0
 42
0.2
  3
txt
  4

  0
STYLE
  5
220
100
AcDbSymbolTableRecord
100
AcDbTextStyleTableRecord
  2
TEXTSTYLE_1
 70
0
 40
0.0
 41
0.8
 50
0.0
 71
0
 42
0.2
  3
gdt
  4

  0
ENDTAB
  0
TABLE
  2
VIEW
  5
6
100
AcDbSymbolTable
 70
0
  0
ENDTAB
  0
TABLE
  2
UCS
  5
7
100
AcDbSymbolTable
 70
0
  0
ENDTAB
  0
TABLE
  2
APPID
  5
9
100
AcDbSymbolTable
 70
1
  0
APPID
  5
221
100
AcDbSymbolTableRecord
100
AcDbRegAppTableRecord
  2
ACAD
 70
0
  0
ENDTAB
  0
TABLE
  2
BLOCK_RECORD
  5
1
100
AcDbSymbolTable
 70
0
  0
BLOCK_RECORD
  5
222
100
AcDbSymbolTableRecord
100
AcDbBlockTableRecord
  2
*Model_Space
  0
BLOCK_RECORD
  5
223
100
AcDbSymbolTableRecord
100
AcDbBlockTableRecord
  2
*Paper_Space
  0
ENDTAB
  0
TABLE
  2
DIMSTYLE
  5
A
100
AcDbSymbolTable
 70
1
100
AcDbDimStyleTable
 71
0
  0
DIMSTYLE
105
224
100
AcDbSymbolTableRecord
100
AcDbDimStyleTableRecord
  2
STANDARD
 70
0
  3

  4

 40
1.0
 41
0.1875
 42
0.0625
 43
0.38
 44
0.125
 45
0.0
 46
0.0
 47
0.0001
 48
0.0001
140
0.15625
141
0.09
142
0.0
143
25.4
144
1.0
145
0.0
146
1.0
147
0.09
 71
0.0
 72
0.0
 73
1
 74
1
 75
0
 76
0
 77
0
 78
4
 79
1
170
0
171
3
172
0
173
0
174
0
175
0
176
0
177
0
178
0
270
2
179
4
271
4
272
4
273
2
274
2
275
0
280
0
281
0
282
0
283
1
284
4
285
0
286
0
287
3
288
0
340
11
278
46
  0
ENDTAB
  0
ENDSEC
  0
SECTION
  2
BLOCKS
  0
BLOCK
  5
20
100
AcDbEntity
  8
0
100
AcDbBlockBegin
  2
*Model_Space
 70
0
 10
0.0
 20
0.0
 30
0.0
  3
*Model_Space
  1

  0
ENDBLK
  5
21
100
AcDbEntity
  8
0
100
AcDbBlockEnd
  0
BLOCK
  5
1C
100
AcDbEntity
  8
0
100
AcDbBlockBegin
  2
*Paper_Space
 70
0
 10
0.0
 20
0.0
 30
0.0
  3
*Paper_Space
  1

  0
ENDBLK
  5
1D
100
AcDbEntity
  8
0
100
AcDbBlockEnd
  0
ENDSEC
  0
SECTION
  2
ENTITIES
  0
MTEXT
  5
225
100
AcDbEntity
  8
0
100
AcDbMText
 62
7
  6
CONTINUOUS
  7
STANDARD
 71
1
 72
1
 10
15.9560215477
 20
0.9479130325
 30
0.0
 11
1.0
 21
0.0
 31
0.0
 44
0.9
  1
SCALE: 1:0.500
 40
0.3
 41
3.36
  0
LINE
  5
226
100
AcDbEntity
  8
0
100
AcDbLine
 62
7
  6
CONTINUOUS
 10
0.0
 20
0.0
 11
0.0
 21
17.0
  0
LINE
  5
227
100
AcDbEntity
  8
0
100
AcDbLine
 62
7
  6
CONTINUOUS
 10
0.0
 20
0.0
 11
22.0
 21
0.0
  0
LINE
  5
228
100
AcDbEntity
  8
0
100
AcDbLine
 62
7
  6
CONTINUOUS
 10
0.0
 20
17.0
 11
22.0
 21
17.0
  0
LINE
  5
229
100
AcDbEntity
  8
0
100
AcDbLine
 62
7
  6
CONTINUOUS
 10
22.0
 20
0.0
 11
22.0
 21
17.0
  0
LINE
  5
22A
100
AcDbEntity
  8
LAYER_FEATURE
100
AcDbLine
 62
7
  6
CONTINUOUS
 10
6.9678672762
 20
3.9026198968
 11
6.9065268405
 21
3.9026198968
  0
LINE
  5
22B
100
AcDbEntity
  8
LAYER_FEATURE
100
AcDbLine
 62
7
  6
CONTINUOUS
 10
5.2928672762
 20
3.9026198968
 11
5.3542077119
 21
3.9026198968
  0
LINE
  5
22C
100
AcDbEntity
  8
02___PRT_ALL_AXES
100
AcDbLine
 62
7
  6
CONTINUOUS
 10
5.3778672762
 20
4.1001198968
 11
6.8828672762
 21
4.1001198968
  0
LINE
  5
22D
100
AcDbEntity
  8
LAYER_FEATURE
100
AcDbLine
 62
7
  6
CONTINUOUS
 10
5.2928672762
 20
7.1376198968
 11
5.2928672762
 21
3.9026198968
  0
LINE
  5
22E
100
AcDbEntity
  8
LAYER_FEATURE
100
AcDbLine
 62
7
  6
CONTINUOUS
 10
5.3542077119
 20
7.1376198968
 11
5.3542077119
 21
3.9026198968
  0
LINE
  5
22F
100
AcDbEntity
  8
LAYER_FEATURE
100
AcDbLine
 62
7
  6
CONTINUOUS
 10
5.3778672762
 20
7.0263103981
 11
5.3778672762
 21
4.0139293954
  0
LINE
  5
230
100
AcDbEntity
  8
LAYER_FEATURE
100
AcDbLine
 62
7
  6
CONTINUOUS
 10
5.3542077119
 20
3.9026198968
 11
5.3778672762
 21
4.0139293954
  0
LINE
  5
231
100
AcDbEntity
  8
LAYER_FEATURE
100
AcDbLine
 62
7
  6
CONTINUOUS
 10
5.3542077119
 20
7.1376198968
 11
5.3778672762
 21
7.0263103981
  0
LINE
  5
232
100
AcDbEntity
  8
LAYER_FEATURE
100
AcDbLine
 62
7
  6
CONTINUOUS
 10
6.9065268405
 20
7.1376198968
 11
6.8828672762
 21
7.0263103981
  0
LINE
  5
233
100
AcDbEntity
  8
LAYER_FEATURE
100
AcDbLine
 62
7
  6
CONTINUOUS
 10
6.9065268405
 20
3.9026198968
 11
6.8828672762
 21
4.0139293954
  0
LINE
  5
234
100
AcDbEntity
  8
LAYER_FEATURE
100
AcDbLine
 62
7
  6
CONTINUOUS
 10
6.8828672762
 20
7.0263103981
 11
6.8828672762
 21
4.0139293954
  0
LINE
  5
235
100
AcDbEntity
  8
LAYER_FEATURE
100
AcDbLine
 62
7
  6
CONTINUOUS
 10
6.9065268405
 20
7.1376198968
 11
6.9065268405
 21
3.9026198968
  0
LINE
  5
236
100
AcDbEntity
  8
LAYER_FEATURE
100
AcDbLine
 62
7
  6
CONTINUOUS
 10
6.9678672762
 20
7.1376198968
 11
6.9678672762
 21
3.9026198968
  0
LINE
  5
237
100
AcDbEntity
  8
LAYER_FEATURE
100
AcDbLine
 62
7
  6
CONTINUOUS
 10
5.3778672762
 20
6.6493630942
 11
6.8828672762
 21
6.6493630942
  0
LINE
  5
238
100
AcDbEntity
  8
0
100
AcDbLine
 62
7
  6
CONTINUOUS
 10
5.3778672762
 20
6.6524701596
 11
6.8828672762
 21
6.6524701596
  0
LINE
  5
239
100
AcDbEntity
  8
LAYER_FEATURE
100
AcDbLine
 62
7
  6
CONTINUOUS
 10
5.3778672762
 20
6.7723588802
 11
6.8828672762
 21
6.7723588802
  0
LINE
  5
23A
100
AcDbEntity
  8
LAYER_FEATURE
100
AcDbLine
 62
7
  6
CONTINUOUS
 10
5.3778672762
 20
6.7918892985
 11
6.8828672762
 21
6.7918892985
  0
LINE
  5
23B
100
AcDbEntity
  8
0
100
AcDbLine
 62
7
  6
CONTINUOUS
 10
5.3778672762
 20
6.7932913172
 11
6.8828672762
 21
6.7932913172
  0
LINE
  5
23C
100
AcDbEntity
  8
LAYER_FEATURE
100
AcDbLine
 62
7
  6
CONTINUOUS
 10
5.3778672762
 20
6.8764425071
 11
6.8828672762
 21
6.8764425071
  0
LINE
  5
23D
100
AcDbEntity
  8
LAYER_FEATURE
100
AcDbLine
 62
7
  6
CONTINUOUS
 10
5.3778672762
 20
6.888450443
 11
6.8828672762
 21
6.888450443
  0
LINE
  5
23E
100
AcDbEntity
  8
0
100
AcDbLine
 62
7
  6
CONTINUOUS
 10
5.3778672762
 20
6.8888041436
 11
6.8828672762
 21
6.8888041436
  0
LINE
  5
23F
100
AcDbEntity
  8
LAYER_FEATURE
100
AcDbLine
 62
7
  6
CONTINUOUS
 10
5.3778672762
 20
6.9315051011
 11
6.8828672762
 21
6.9315051011
  0
LINE
  5
240
100
AcDbEntity
  8
LAYER_FEATURE
100
AcDbLine
 62
7
  6
CONTINUOUS
 10
5.3778672762
 20
6.9355565564
 11
6.8828672762
 21
6.9355565564
  0
LINE
  5
241
100
AcDbEntity
  8
LAYER_FEATURE
100
AcDbLine
 62
7
  6
CONTINUOUS
 10
6.9678672762
 20
7.1376198968
 11
6.9065268405
 21
7.1376198968
  0
LINE
  5
242
100
AcDbEntity
  8
LAYER_FEATURE
100
AcDbLine
 62
7
  6
CONTINUOUS
 10
5.2928672762
 20
7.1376198968
 11
5.3542077119
 21
7.1376198968
  0
LINE
  5
243
100
AcDbEntity
  8
LAYER_FEATURE
100
AcDbLine
 62
7
  6
CONTINUOUS
 10
5.2333720839
 20
10.9825477814
 11
5.2947125196
 21
10.9825477814
  0
LINE
  5
244
100
AcDbEntity
  8
LAYER_FEATURE
100
AcDbLine
 62
7
  6
CONTINUOUS
 10
6.8470316482
 20
10.9825477814
 11
6.9083720839
 21
10.9825477814
  0
LINE
  5
245
100
AcDbEntity
  8
02___PRT_ALL_AXES
100
AcDbLine
 62
7
  6
CONTINUOUS
 10
5.3183720839
 20
11.1800477814
 11
6.8233720839
 21
11.1800477814
  0
LINE
  5
246
100
AcDbEntity
  8
LAYER_FEATURE
100
AcDbLine
 62
7
  6
CONTINUOUS
 10
5.2333720839
 20
10.9825477814
 11
5.2333720839
 21
14.2175477814
  0
LINE
  5
247
100
AcDbEntity
  8
LAYER_FEATURE
100
AcDbLine
 62
7
  6
CONTINUOUS
 10
5.3183720839
 20
11.7391123593
 11
6.8233720839
 21
11.7391123593
  0
LINE
  5
248
100
AcDbEntity
  8
LAYER_FEATURE
100
AcDbLine
 62
7
  6
CONTINUOUS
 10
5.2947125196
 20
10.9825477814
 11
5.2947125196
 21
14.2175477814
  0
LINE
  5
249
100
AcDbEntity
  8
LAYER_FEATURE
100
AcDbLine
 62
7
  6
CONTINUOUS
 10
5.3183720839
 20
11.09385728
 11
5.3183720839
 21
14.1062382827
  0
LINE
  5
24A
100
AcDbEntity
  8
LAYER_FEATURE
100
AcDbLine
 62
7
  6
CONTINUOUS
 10
6.8233720839
 20
11.8701119019
 11
5.3183720839
 21
11.8701119019
  0
LINE
  5
24B
100
AcDbEntity
  8
LAYER_FEATURE
100
AcDbLine
 62
7
  6
CONTINUOUS
 10
6.8233720839
 20
11.9205871138
 11
5.3183720839
 21
11.9205871138
  0
LINE
  5
24C
100
AcDbEntity
  8
0
100
AcDbLine
 62
7
  6
CONTINUOUS
 10
5.3183720839
 20
11.92150673
 11
6.8233720839
 21
11.92150673
  0
LINE
  5
24D
100
AcDbEntity
  8
LAYER_FEATURE
100
AcDbLine
 62
7
  6
CONTINUOUS
 10
5.3183720839
 20
11.930497538
 11
6.8233720839
 21
11.930497538
  0
LINE
  5
24E
100
AcDbEntity
  8
LAYER_FEATURE
100
AcDbLine
 62
7
  6
CONTINUOUS
 10
5.3183720839
 20
11.9683812642
 11
6.8233720839
 21
11.9683812642
  0
LINE
  5
24F
100
AcDbEntity
  8
LAYER_FEATURE
100
AcDbLine
 62
7
  6
CONTINUOUS
 10
6.8233720839
 20
12.0877533155
 11
5.3183720839
 21
12.0877533155
  0
LINE
  5
250
100
AcDbEntity
  8
LAYER_FEATURE
100
AcDbLine
 62
7
  6
CONTINUOUS
 10
5.2947125196
 20
10.9825477814
 11
5.3183720839
 21
11.09385728
  0
LINE
  5
251
100
AcDbEntity
  8
LAYER_FEATURE
100
AcDbLine
 62
7
  6
CONTINUOUS
 10
6.8233720839
 20
12.1434553915
 11
5.3183720839
 21
12.1434553915
  0
LINE
  5
252
100
AcDbEntity
  8
LAYER_FEATURE
100
AcDbLine
 62
7
  6
CONTINUOUS
 10
6.8233720839
 20
12.1672868526
 11
5.3183720839
 21
12.1672868526
  0
LINE
  5
253
100
AcDbEntity
  8
LAYER_FEATURE
100
AcDbLine
 62
7
  6
CONTINUOUS
 10
5.3183720839
 20
12.179584969
 11
6.8233720839
 21
12.179584969
  0
LINE
  5
254
100
AcDbEntity
  8
LAYER_FEATURE
100
AcDbLine
 62
7
  6
CONTINUOUS
 10
5.3183720839
 20
12.2204802429
 11
6.8233720839
 21
12.2204802429
  0
LINE
  5
255
100
AcDbEntity
  8
LAYER_FEATURE
100
AcDbLine
 62
7
  6
CONTINUOUS
 10
5.2947125196
 20
14.2175477814
 11
5.3183720839
 21
14.1062382827
  0
LINE
  5
256
100
AcDbEntity
  8
LAYER_FEATURE
100
AcDbLine
 62
7
  6
CONTINUOUS
 10
6.8233720839
 20
12.323910386
 11
5.3183720839
 21
12.323910386
  0
LINE
  5
257
100
AcDbEntity
  8
LAYER_FEATURE
100
AcDbLine
 62
7
  6
CONTINUOUS
 10
6.8233720839
 20
12.3828261078
 11
5.3183720839
 21
12.3828261078
  0
LINE
  5
258
100
AcDbEntity
  8
LAYER_FEATURE
100
AcDbLine
 62
7
  6
CONTINUOUS
 10
5.3183720839
 20
12.4438690215
 11
6.8233720839
 21
12.4438690215
  0
LINE
  5
259
100
AcDbEntity
  8
LAYER_FEATURE
100
AcDbLine
 62
7
  6
CONTINUOUS
 10
5.3183720839
 20
12.4862977814
 11
6.8233720839
 21
12.4862977814
  0
LINE
  5
25A
100
AcDbEntity
  8
LAYER_FEATURE
100
AcDbLine
 62
7
  6
CONTINUOUS
 10
6.8233720839
 20
12.5700477814
 11
5.3183720839
 21
12.5700477814
  0
LINE
  5
25B
100
AcDbEntity
  8
LAYER_FEATURE
100
AcDbLine
 62
7
  6
CONTINUOUS
 10
6.8233720839
 20
12.6300477814
 11
5.3183720839
 21
12.6300477814
  0
LINE
  5
25C
100
AcDbEntity
  8
LAYER_FEATURE
100
AcDbLine
 62
7
  6
CONTINUOUS
 10
5.3183720839
 20
12.7137977814
 11
6.8233720839
 21
12.7137977814
  0
LINE
  5
25D
100
AcDbEntity
  8
LAYER_FEATURE
100
AcDbLine
 62
7
  6
CONTINUOUS
 10
6.8233720839
 20
14.1062382827
 11
6.8470316482
 21
14.2175477814
  0
LINE
  5
25E
100
AcDbEntity
  8
LAYER_FEATURE
100
AcDbLine
 62
7
  6
CONTINUOUS
 10
6.8233720839
 20
11.09385728
 11
6.8470316482
 21
10.9825477814
  0
LINE
  5
25F
100
AcDbEntity
  8
LAYER_FEATURE
100
AcDbLine
 62
7
  6
CONTINUOUS
 10
6.8233720839
 20
11.09385728
 11
6.8233720839
 21
14.1062382827
  0
LINE
  5
260
100
AcDbEntity
  8
LAYER_FEATURE
100
AcDbLine
 62
7
  6
CONTINUOUS
 10
6.8470316482
 20
10.9825477814
 11
6.8470316482
 21
14.2175477814
  0
LINE
  5
261
100
AcDbEntity
  8
LAYER_FEATURE
100
AcDbLine
 62
7
  6
CONTINUOUS
 10
6.9083720839
 20
10.9825477814
 11
6.9083720839
 21
14.2175477814
  0
LINE
  5
262
100
AcDbEntity
  8
02___PRT_ALL_AXES
100
AcDbLine
 62
7
  6
CONTINUOUS
 10
5.3183720839
 20
14.0200477814
 11
6.8233720839
 21
14.0200477814
  0
LINE
  5
263
100
AcDbEntity
  8
LAYER_FEATURE
100
AcDbLine
 62
7
  6
CONTINUOUS
 10
5.2333720839
 20
14.2175477814
 11
5.2947125196
 21
14.2175477814
  0
LINE
  5
264
100
AcDbEntity
  8
LAYER_FEATURE
100
AcDbLine
 62
7
  6
CONTINUOUS
 10
6.8470316482
 20
14.2175477814
 11
6.9083720839
 21
14.2175477814
  0
LINE
  5
265
100
AcDbEntity
  8
LAYER_FEATURE
100
AcDbLine
 62
7
  6
CONTINUOUS
 10
14.699677207
 20
10.8933049929
 11
14.7561754897
 21
10.8933049929
  0
LINE
  5
266
100
AcDbEntity
  8
LAYER_FEATURE
100
AcDbLine
 62
7
  6
CONTINUOUS
 10
16.1859560893
 20
10.8933049929
 11
16.2424543719
 21
10.8933049929
  0
LINE
  5
267
100
AcDbEntity
  8
02___PRT_ALL_AXES
100
AcDbLine
 62
7
  6
CONTINUOUS
 10
14.7779673915
 20
11.0908049929
 11
15.8844930919
 21
11.0908049929
  0
LINE
  5
268
100
AcDbEntity
  8
LAYER_FEATURE
100
AcDbLine
 62
7
  6
CONTINUOUS
 10
14.3766259078
 20
13.3089571333
 11
14.3876225601
 21
13.3445423133
  0
LINE
  5
269
100
AcDbEntity
  8
LAYER_FEATURE
100
AcDbLine
 62
7
  6
CONTINUOUS
 10
14.2717338964
 20
12.6105597149
 11
14.2740571604
 21
12.67026237
  0
LINE
  5
26A
100
AcDbEntity
  8
LAYER_FEATURE
100
AcDbLine
 62
7
  6
CONTINUOUS
 10
14.2882339093
 20
12.8547786049
 11
14.2949151495
 21
12.9122732852
  0
LINE
  5
26B
100
AcDbEntity
  8
LAYER_FEATURE
100
AcDbLine
 62
7
  6
CONTINUOUS
 10
14.3224341662
 20
13.0865653923
 11
14.3332319052
 21
13.1397740902
  0
LINE
  5
26C
100
AcDbEntity
  8
02___PRT_ALL_AXES
100
AcDbLine
 62
7
  6
CONTINUOUS
 10
16.1733231694
 20
13.7321159174
 11
16.1564472082
 21
13.726236375
  0
LINE
  5
26D
100
AcDbEntity
  8
02___PRT_ALL_AXES
100
AcDbLine
 62
7
  6
CONTINUOUS
 10
16.1733231694
 20
11.2894940684
 11
16.1564472082
 21
11.2953736108
  0
LINE
  5
26E
100
AcDbEntity
  8
LAYER_FEATURE
100
AcDbLine
 62
7
  6
CONTINUOUS
 10
14.2570064169
 20
12.7198618658
 11
14.2379584572
 21
12.745442444
  0
LINE
  5
26F
100
AcDbEntity
  8
LAYER_FEATURE
100
AcDbLine
 62
7
  6
CONTINUOUS
 10
14.2818279141
 20
12.969262849
 11
14.2650094109
 21
13.0036381643
  0
LINE
  5
270
100
AcDbEntity
  8
LAYER_FEATURE
100
AcDbLine
 62
7
  6
CONTINUOUS
 10
14.3245811847
 20
13.2020939707
 11
14.3106000025
 21
13.2440216098
  0
LINE
  5
271
100
AcDbEntity
  8
LAYER_FEATURE
100
AcDbLine
 62
7
  6
CONTINUOUS
 10
14.3837210141
 20
13.4099401077
 11
14.3730824693
 21
13.4579046963
  0
LINE
  5
272
100
AcDbEntity
  8
LAYER_FEATURE
100
AcDbLine
 62
7
  6
CONTINUOUS
 10
14.2305557522
 20
12.5552095852
 11
14.2511982571
 21
12.570605228
  0
LINE
  5
273
100
AcDbEntity
  8
LAYER_FEATURE
100
AcDbLine
 62
7
  6
CONTINUOUS
 10
14.2250974663
 20
12.5383599375
 11
15.5562860415
 21
12.5383599375
  0
LINE
  5
274
100
AcDbEntity
  8
LAYER_FEATURE
100
AcDbLine
 62
7
  6
CONTINUOUS
 10
15.5573788
 20
12.6105597149
 11
14.2717338964
 21
12.6105597149
  0
LINE
  5
275
100
AcDbEntity
  8
LAYER_FEATURE
100
AcDbLine
 62
7
  6
CONTINUOUS
 10
15.5592586303
 20
12.67026237
 11
14.2740571604
 21
12.67026237
  0
LINE
  5
276
100
AcDbEntity
  8
LAYER_FEATURE
100
AcDbLine
 62
7
  6
CONTINUOUS
 10
14.2339065087
 20
12.7647325047
 11
15.5639259745
 21
12.7647325047
  0
LINE
  5
277
100
AcDbEntity
  8
LAYER_FEATURE
100
AcDbLine
 62
7
  6
CONTINUOUS
 10
14.2371192878
 20
12.8065481496
 11
15.5667834103
 21
12.8065481496
  0
LINE
  5
278
100
AcDbEntity
  8
LAYER_FEATURE
100
AcDbLine
 62
7
  6
CONTINUOUS
 10
15.5706065803
 20
12.8547786049
 11
14.2882339093
 21
12.8547786049
  0
LINE
  5
279
100
AcDbEntity
  8
LAYER_FEATURE
100
AcDbLine
 62
7
  6
CONTINUOUS
 10
15.5759089326
 20
12.9122732852
 11
14.2949151495
 21
12.9122732852
  0
LINE
  5
27A
100
AcDbEntity
  8
LAYER_FEATURE
100
AcDbLine
 62
7
  6
CONTINUOUS
 10
14.2437207192
 20
12.8204406604
 11
14.2651248137
 21
12.8255261483
  0
LINE
  5
27B
100
AcDbEntity
  8
LAYER_FEATURE
100
AcDbLine
 62
7
  6
CONTINUOUS
 10
14.2624523235
 20
13.0245488123
 11
15.5887889429
 21
13.0245488123
  0
LINE
  5
27C
100
AcDbEntity
  8
LAYER_FEATURE
100
AcDbLine
 62
7
  6
CONTINUOUS
 10
14.268688769
 20
13.0640474334
 11
15.5941052539
 21
13.0640474334
  0
LINE
  5
27D
100
AcDbEntity
  8
0
100
AcDbLine
 62
7
  6
CONTINUOUS
 10
14.2754479504
 20
13.0745748735
 11
15.5956117529
 21
13.0745748735
  0
LINE
  5
27E
100
AcDbEntity
  8
LAYER_FEATURE
100
AcDbLine
 62
7
  6
CONTINUOUS
 10
15.5974364918
 20
13.0865653923
 11
14.3224341662
 21
13.0865653923
  0
LINE
  5
27F
100
AcDbEntity
  8
LAYER_FEATURE
100
AcDbLine
 62
7
  6
CONTINUOUS
 10
15.6057222928
 20
13.1397740902
 11
14.3332319052
 21
13.1397740902
  0
LINE
  5
280
100
AcDbEntity
  8
LAYER_FEATURE
100
AcDbLine
 62
7
  6
CONTINUOUS
 10
14.309630196
 20
13.2657970797
 11
15.6290256426
 21
13.2657970797
  0
LINE
  5
281
100
AcDbEntity
  8
LAYER_FEATURE
100
AcDbLine
 62
7
  6
CONTINUOUS
 10
14.3186649064
 20
13.301551094
 11
15.6364851759
 21
13.301551094
  0
LINE
  5
282
100
AcDbEntity
  8
0
100
AcDbLine
 62
7
  6
CONTINUOUS
 10
14.3246353386
 20
13.3089571333
 11
15.6381543577
 21
13.3089571333
  0
LINE
  5
283
100
AcDbEntity
  8
LAYER_FEATURE
100
AcDbLine
 62
7
  6
CONTINUOUS
 10
15.646303748
 20
13.3445423133
 11
14.3876225601
 21
13.3445423133
  0
LINE
  5
284
100
AcDbEntity
  8
LAYER_FEATURE
100
AcDbLine
 62
7
  6
CONTINUOUS
 10
14.373734995
 20
13.479757966
 11
15.6817246714
 21
13.479757966
  0
LINE
  5
285
100
AcDbEntity
  8
02___PRT_ALL_AXES
100
AcDbLine
 62
7
  6
CONTINUOUS
 10
14.7779673915
 20
13.9308049929
 11
15.8844121099
 21
13.9308049929
  0
LINE
  5
286
100
AcDbEntity
  8
LAYER_FEATURE
100
AcDbLine
 62
7
  6
CONTINUOUS
 10
14.699677207
 20
14.1283049929
 11
14.7561754897
 21
14.1283049929
  0
LINE
  5
287
100
AcDbEntity
  8
LAYER_FEATURE
100
AcDbLine
 62
7
  6
CONTINUOUS
 10
16.1859560893
 20
14.1283049929
 11
16.2424543719
 21
14.1283049929
  0
CIRCLE
  5
288
100
AcDbEntity
  8
LAYER_FEATURE
100
AcDbCircle
 62
7
  6
CONTINUOUS
 10
15.5603552569
 20
5.4606247044
 40
1.6175
  0
CIRCLE
  5
289
100
AcDbEntity
  8
LAYER_FEATURE
100
AcDbCircle
 62
7
  6
CONTINUOUS
 10
15.5603552569
 20
5.4606247044
 40
1.5061905014
  0
CIRCLE
  5
28A
100
AcDbEntity
  8
02___PRT_ALL_AXES
100
AcDbCircle
 62
7
  6
CONTINUOUS
 10
15.5603552569
 20
5.4606247044
 40
1.2325
  0
CIRCLE
  5
28B
100
AcDbEntity
  8
LAYER_CHAMFER_FEAT
100
AcDbCircle
 62
7
  6
CONTINUOUS
 10
15.5603552569
 20
5.4606247044
 40
1.164
  0
CIRCLE
  5
28C
100
AcDbEntity
  8
LAYER_CHAMFER_FEAT
100
AcDbCircle
 62
7
  6
CONTINUOUS
 10
15.5603552569
 20
5.4606247044
 40
1.1325
  0
ARC
  5
28D
100
AcDbEntity
  8
02___PRT_ALL_AXES
100
AcDbCircle
 62
7
  6
CONTINUOUS
 10
15.5603552569
 20
5.4606247044
 40
0.84375
100
AcDbArc
 50
153.3827617612
 51
231.6172382388
  0
ARC
  5
28E
100
AcDbEntity
  8
02___PRT_ALL_AXES
100
AcDbCircle
 62
7
  6
CONTINUOUS
 10
15.5603552569
 20
5.4606247044
 40
0.84375
100
AcDbArc
 50
58.3827617612
 51
136.6172382388
  0
ARC
  5
28F
100
AcDbEntity
  8
02___PRT_ALL_AXES
100
AcDbCircle
 62
7
  6
CONTINUOUS
 10
15.5603552569
 20
5.4606247044
 40
0.84375
100
AcDbArc
 50
248.3827617612
 51
41.6172382388
  0
ARC
  5
290
100
AcDbEntity
  8
02___PRT_ALL_AXES
100
AcDbCircle
 62
7
  6
CONTINUOUS
 10
15.5603552569
 20
5.4606247044
 40
0.8131570198
100
AcDbArc
 50
136.1802428979
 51
153.8197571021
  0
ARC
  5
291
100
AcDbEntity
  8
02___PRT_ALL_AXES
100
AcDbCircle
 62
7
  6
CONTINUOUS
 10
15.5603552569
 20
5.4606247044
 40
0.7825640395
100
AcDbArc
 50
58.7288156508
 51
231.2711843492
  0
ARC
  5
292
100
AcDbEntity
  8
02___PRT_ALL_AXES
100
AcDbCircle
 62
7
  6
CONTINUOUS
 10
15.5603552569
 20
5.4606247044
 40
0.7825640395
100
AcDbArc
 50
248.7288156508
 51
41.2711843492
  0
ARC
  5
293
100
AcDbEntity
  8
02___PRT_ALL_AXES
100
AcDbCircle
 62
7
  6
CONTINUOUS
 10
14.894794221
 20
5.926655559
 40
0.125
100
AcDbArc
 50
50.8903869362
 51
239.1096130638
  0
ARC
  5
294
100
AcDbEntity
  8
02___PRT_ALL_AXES
100
AcDbCircle
 62
7
  6
CONTINUOUS
 10
16.0826201898
 20
6.0830358145
 40
0.125
100
AcDbArc
 50
301.820265907
 51
158.179734093
  0
ARC
  5
295
100
AcDbEntity
  8
02___PRT_ALL_AXES
100
AcDbCircle
 62
7
  6
CONTINUOUS
 10
15.1541052569
 20
4.7569790639
 40
0.125
100
AcDbArc
 50
131.820265907
 51
348.179734093
  0
ARC
  5
296
100
AcDbEntity
  8
LAYER_FEATURE
100
AcDbCircle
 62
7
  6
CONTINUOUS
 10
17.6947063347
 20
12.5198636227
 40
3.4694518594
100
AcDbArc
 50
175.2601840121
 51
175.9527821104
  0
ARC
  5
297
100
AcDbEntity
  8
LAYER_FEATURE
100
AcDbCircle
 62
7
  6
CONTINUOUS
 10
17.2323639727
 20
12.5758704975
 40
3.0036123974
100
AcDbArc
 50
170.6462265265
 51
171.4090268083
  0
ARC
  5
298
100
AcDbEntity
  8
LAYER_FEATURE
100
AcDbCircle
 62
7
  6
CONTINUOUS
 10
16.5950392346
 20
12.7073137482
 40
2.3526576685
100
AcDbArc
 50
165.3696867048
 51
166.2678057131
  0
SPLINE
  5
299
100
AcDbEntity
  8
02___PRT_ALL_AXES
100
AcDbSpline
 62
7
  6
CONTINUOUS
 70
0
 71
3
 72
39
 73
35
 74
0
 42
0.0000001
 43
0.0000001
 44
0.0000000001
 40
0.0
 40
0.0
 40
0.0
 40
0.0
 40
0.046178301
 40
0.0913991188
 40
0.1356315557
 40
0.1788495985
 40
0.2210282927
 40
0.2621457498
 40
0.302182917
 40
0.341123824
 40
0.3789559114
 40
0.4156703243
 40
0.4512622864
 40
0.4857314722
 40
0.5190824453
 40
0.5513251581
 40
0.5824755221
 40
0.612555997
 40
0.6415962332
 40
0.6696337611
 40
0.6967147095
 40
0.7228944852
 40
0.7482383594
 40
0.7728219201
 40
0.7967312895
 40
0.8200629982
 40
0.8429233885
 40
0.8654275049
 40
0.8876974313
 40
0.9098601157
 40
0.9320447948
 40
0.9543802311
 40
0.9769919937
 40
1.0
 40
1.0
 40
1.0
 40
1.0
 10
16.6138131676
 20
11.744670707
 30
0.0
 10
16.6106294818
 20
11.7343682959
 30
0.0
 10
16.6041389594
 20
11.7140349049
 30
0.0
 10
16.5939209693
 20
11.6840549829
 30
0.0
 10
16.5833310067
 20
11.6549386475
 30
0.0
 10
16.5723803093
 20
11.6267165759
 30
0.0
 10
16.5610801835
 20
11.5994180083
 30
0.0
 10
16.5494424489
 20
11.5730714514
 30
0.0
 10
16.5374792234
 20
11.5477043219
 30
0.0
 10
16.5252029457
 20
11.5233430211
 30
0.0
 10
16.5126263609
 20
11.5000128957
 30
0.0
 10
16.4997624965
 20
11.4777382019
 30
0.0
 10
16.4866246629
 20
11.4565420746
 30
0.0
 10
16.4732264084
 20
11.4364465207
 30
0.0
 10
16.4595815028
 20
11.4174724057
 30
0.0
 10
16.4457039079
 20
11.3996394416
 30
0.0
 10
16.4316077783
 20
11.3829661583
 30
0.0
 10
16.4173074204
 20
11.3674699164
 30
0.0
 10
16.402817273
 20
11.3531669235
 30
0.0
 10
16.388151892
 20
11.3400722534
 30
0.0
 10
16.3733259619
 20
11.3281998512
 30
0.0
 10
16.3583543128
 20
11.3175625536
 30
0.0
 10
16.3432519401
 20
11.3081721395
 30
0.0
 10
16.3280340712
 20
11.3000393439
 30
0.0
 10
16.3127162489
 20
11.2931738454
 30
0.0
 10
16.2973144414
 20
11.2875841736
 30
0.0
 10
16.2818451104
 20
11.2832776378
 30
0.0
 10
16.2663252612
 20
11.2802601649
 30
0.0
 10
16.2507724267
 20
11.2785361083
 30
0.0
 10
16.2352045235
 20
11.2781080253
 30
0.0
 10
16.2196397667
 20
11.2789765206
 30
0.0
 10
16.2040959589
 20
11.2811403899
 30
0.0
 10
16.1885920187
 20
11.284596088
 30
0.0
 10
16.1783966834
 20
11.2877264828
 30
0.0
 10
16.1733231698
 20
11.2894940752
 30
0.0
  0
SPLINE
  5
29A
100
AcDbEntity
  8
LAYER_CHAMFER_FEAT
100
AcDbSpline
 62
7
  6
CONTINUOUS
 70
0
 71
3
 72
15
 73
11
 74
0
 42
0.0000001
 43
0.0000001
 44
0.0000000001
 40
0.0
 40
0.0
 40
0.0
 40
0.0
 40
0.1375060016
 40
0.2714667399
 40
0.4018485959
 40
0.5286396659
 40
0.6518353097
 40
0.7714433989
 40
0.887486029
 40
1.0
 40
1.0
 40
1.0
 40
1.0
 10
15.9560838665
 20
11.5990124701
 30
0.0
 10
15.9595057845
 20
11.5920393344
 30
0.0
 10
15.9664232459
 20
11.5783514614
 30
0.0
 10
15.9771665115
 20
11.558352149
 30
0.0
 10
15.988133395
 20
11.539168375
 30
0.0
 10
15.9993143594
 20
11.5208168186
 30
0.0
 10
16.0107000024
 20
11.503312963
 30
0.0
 10
16.0222807355
 20
11.4866716885
 30
0.0
 10
16.0340465522
 20
11.4709074914
 30
0.0
 10
16.0421313576
 20
11.4608370857
 30
0.0
 10
16.046204111
 20
11.4559577253
 30
0.0
  0
SPLINE
  5
29B
100
AcDbEntity
  8
02___PRT_ALL_AXES
100
AcDbSpline
 62
7
  6
CONTINUOUS
 70
0
 71
3
 72
64
 73
60
 74
0
 42
0.0000001
 43
0.0000001
 44
0.0000000001
 40
0.0
 40
0.0
 40
0.0
 40
0.0
 40
0.0082047254
 40
0.0162541199
 40
0.0242052975
 40
0.0321180466
 40
0.0400532364
 40
0.0480711022
 40
0.0562296032
 40
0.0645830209
 40
0.0731809152
 40
0.0820674717
 40
0.0866319935
 40
0.0912826391
 40
0.1008564419
 40
0.1108177404
 40
0.1211888849
 40
0.1319875552
 40
0.1432271948
 40
0.1549174355
 40
0.1670644933
 40
0.1796715284
 40
0.1927389659
 40
0.2062647791
 40
0.2202447364
 40
0.2346726197
 40
0.249540414
 40
0.2648384743
 40
0.2805556715
 40
0.2966795227
 40
0.313196306
 40
0.3300911651
 40
0.3473482019
 40
0.3649505624
 40
0.3828805161
 40
0.4011195288
 40
0.4196483314
 40
0.4384469834
 40
0.4574949346
 40
0.4767710829
 40
0.4962538306
 40
0.5357494198
 40
0.5758022277
 40
0.6162269577
 40
0.6568352903
 40
0.6974374251
 40
0.7378436115
 40
0.7778656795
 40
0.8173185847
 40
0.836775621
 40
0.856023214
 40
0.8750398276
 40
0.8938044278
 40
0.9122965429
 40
0.9304963084
 40
0.9483845741
 40
0.9659428319
 40
0.9831536322
 40
1.0
 40
1.0
 40
1.0
 40
1.0
 10
16.1733231697
 20
13.7321159114
 30
0.0
 10
16.1791400967
 20
13.7341425056
 30
0.0
 10
16.1908431756
 20
13.7376657441
 30
0.0
 10
16.208671736
 20
13.7413105816
 30
0.0
 10
16.2265475316
 20
13.7432480608
 30
0.0
 10
16.244440907
 20
13.7434734781
 30
0.0
 10
16.2623239068
 20
13.7419864939
 30
0.0
 10
16.2801682673
 20
13.7387902704
 30
0.0
 10
16.2979466387
 20
13.7338914687
 30
0.0
 10
16.3156329322
 20
13.7272995903
 30
0.0
 10
16.3332016777
 20
13.7190269336
 30
0.0
 10
16.3475957151
 20
13.7108174541
 30
0.0
 10
16.3590205351
 20
13.7034533754
 30
0.0
 10
16.3706033359
 20
13.6953975615
 30
0.0
 10
16.3849709031
 20
13.6842711939
 30
0.0
 10
16.401838591
 20
13.6694324341
 30
0.0
 10
16.4184758657
 20
13.6529999079
 30
0.0
 10
16.434860364
 20
13.634996932
 30
0.0
 10
16.4509706746
 20
13.61544818
 30
0.0
 10
16.4667853673
 20
13.5943804716
 30
0.0
 10
16.4822833189
 20
13.5718225873
 30
0.0
 10
16.497443683
 20
13.5478053328
 30
0.0
 10
16.5122459649
 20
13.522361508
 30
0.0
 10
16.5266700653
 20
13.4955258867
 30
0.0
 10
16.5406963326
 20
13.4673351789
 30
0.0
 10
16.5543056022
 20
13.4378279841
 30
0.0
 10
16.5674792382
 20
13.4070447402
 30
0.0
 10
16.580199169
 20
13.3750276674
 30
0.0
 10
16.5924479211
 20
13.3418207094
 30
0.0
 10
16.6042086497
 20
13.3074694713
 30
0.0
 10
16.6154651671
 20
13.2720211545
 30
0.0
 10
16.6262019687
 20
13.2355244904
 30
0.0
 10
16.6364042583
 20
13.1980296717
 30
0.0
 10
16.6460579721
 20
13.1595882818
 30
0.0
 10
16.6551497978
 20
13.120253221
 30
0.0
 10
16.6636671948
 20
13.0800786306
 30
0.0
 10
16.6715984114
 20
13.0391198207
 30
0.0
 10
16.6789325074
 20
12.9974331799
 30
0.0
 10
16.6856593468
 20
12.955076145
 30
0.0
 10
16.6917696997
 20
12.912106937
 30
0.0
 10
16.6991164617
 20
12.853815064
 30
0.0
 10
16.7066839909
 20
12.7798389405
 30
0.0
 10
16.7131527072
 20
12.6899866157
 30
0.0
 10
16.7170137587
 20
12.5991482148
 30
0.0
 10
16.7182457719
 20
12.5078239843
 30
0.0
 10
16.7168419014
 20
12.4165161521
 30
0.0
 10
16.7128099424
 20
12.3257268529
 30
0.0
 10
16.7061722185
 20
12.2359560617
 30
0.0
 10
16.6984649866
 20
12.1620691494
 30
0.0
 10
16.6910078256
 20
12.1038646692
 30
0.0
 10
16.684816544
 20
12.0609719729
 30
0.0
 10
16.6780099388
 20
12.0186991109
 30
0.0
 10
16.6705973503
 20
11.9771041857
 30
0.0
 10
16.6625890212
 20
11.9362445136
 30
0.0
 10
16.6539960009
 20
11.8961763235
 30
0.0
 10
16.6448301441
 20
11.8569548402
 30
0.0
 10
16.6351040814
 20
11.8186338867
 30
0.0
 10
16.6248312791
 20
11.7812665433
 30
0.0
 10
16.6175473733
 20
11.7567546013
 30
0.0
 10
16.6138131676
 20
11.744670707
 30
0.0
  0
SPLINE
  5
29C
100
AcDbEntity
  8
LAYER_FEATURE
100
AcDbSpline
 62
7
  6
CONTINUOUS
 70
0
 71
3
 72
66
 73
62
 74
0
 42
0.0000001
 43
0.0000001
 44
0.0000000001
 40
0.0
 40
0.0
 40
0.0
 40
0.0
 40
0.0163581244
 40
0.0330510989
 40
0.0500643008
 40
0.0673827603
 40
0.0849906068
 40
0.1028714452
 40
0.1210082792
 40
0.139383602
 40
0.1579794294
 40
0.1767773466
 40
0.1957585504
 40
0.2149038907
 40
0.2536079128
 40
0.292731787
 40
0.3321138125
 40
0.3715904298
 40
0.4109974031
 40
0.4501709952
 40
0.4889491453
 40
0.5271726645
 40
0.5460283032
 40
0.5646875292
 40
0.5831318055
 40
0.6013430124
 40
0.6193034916
 40
0.6369960907
 40
0.6544042114
 40
0.6715118595
 40
0.6883036965
 40
0.7047650963
 40
0.720882205
 40
0.7366420062
 40
0.7520323915
 40
0.7670422387
 40
0.781661498
 40
0.7958812879
 40
0.8096940022
 40
0.82309343
 40
0.8360748915
 40
0.8486353927
 40
0.8607738008
 40
0.872491042
 40
0.8837903276
 40
0.8946774064
 40
0.9051608456
 40
0.915252337
 40
0.9249670238
 40
0.9343238354
 40
0.94334581
 40
0.9520603739
 40
0.9604995367
 40
0.9686999472
 40
0.9767027536
 40
0.9806449555
 40
0.9845550374
 40
0.9884391855
 40
0.9923037396
 40
0.9961551631
 40
1.0
 40
1.0
 40
1.0
 40
1.0
 10
15.69255087
 20
13.5162591166
 30
0.0
 10
15.6879311533
 20
13.5013097078
 30
0.0
 10
15.6789063945
 20
13.4710084632
 30
0.0
 10
15.666131324
 20
13.4248533859
 30
0.0
 10
15.6539929158
 20
13.3775777708
 30
0.0
 10
15.6425061235
 20
13.329239901
 30
0.0
 10
15.6316850282
 20
13.2798987972
 30
0.0
 10
15.6215429105
 20
13.2296149746
 30
0.0
 10
15.6120922232
 20
13.1784500145
 30
0.0
 10
15.6033445683
 20
13.1264666211
 30
0.0
 10
15.5953106845
 20
13.0737284871
 30
0.0
 10
15.5880004495
 20
13.0203002828
 30
0.0
 10
15.5814227864
 20
12.9662473662
 30
0.0
 10
15.573612393
 20
12.8931711494
 30
0.0
 10
15.5657509422
 20
12.8007339789
 30
0.0
 10
15.559379725
 20
12.6887870897
 30
0.0
 10
15.5560689454
 20
12.5759683722
 30
0.0
 10
15.55583489
 20
12.4628307665
 30
0.0
 10
15.5586787151
 20
12.3499280295
 30
0.0
 10
15.5645863964
 20
12.2378127308
 30
0.0
 10
15.5735288467
 20
12.1270343538
 30
0.0
 10
15.5835176497
 20
12.0358759833
 30
0.0
 10
15.5930114777
 20
11.9640528933
 30
0.0
 10
15.6008264258
 20
11.9110980281
 30
0.0
 10
15.6093581895
 20
11.8588784422
 30
0.0
 10
15.6185963541
 20
11.8074580033
 30
0.0
 10
15.6285295624
 20
11.756899756
 30
0.0
 10
15.6391456262
 20
11.7072656384
 30
0.0
 10
15.6504315142
 20
11.6586164584
 30
0.0
 10
15.6623733751
 20
11.6110118033
 30
0.0
 10
15.6749565562
 20
11.5645099704
 30
0.0
 10
15.6881656224
 20
11.5191678933
 30
0.0
 10
15.7019843764
 20
11.475041071
 30
0.0
 10
15.7163958809
 20
11.4321834987
 30
0.0
 10
15.7313824816
 20
11.3906475997
 30
0.0
 10
15.7469258322
 20
11.350484159
 30
0.0
 10
15.7630069214
 20
11.3117422591
 30
0.0
 10
15.7796060985
 20
11.2744692159
 30
0.0
 10
15.7967031074
 20
11.2387105215
 30
0.0
 10
15.8142771196
 20
11.2045097884
 30
0.0
 10
15.8323067698
 20
11.1719086973
 30
0.0
 10
15.8507701956
 20
11.1409469494
 30
0.0
 10
15.8696450789
 20
11.1116622236
 30
0.0
 10
15.8889086913
 20
11.0840901416
 30
0.0
 10
15.9085379433
 20
11.058264242
 30
0.0
 10
15.928509429
 20
11.0342159636
 30
0.0
 10
15.9487994754
 20
11.0119746478
 30
0.0
 10
15.9693841822
 20
10.9915675603
 30
0.0
 10
15.9902394495
 20
10.9730199302
 30
0.0
 10
16.0113409642
 20
10.9563550093
 30
0.0
 10
16.0326642024
 20
10.9415941342
 30
0.0
 10
16.0541841789
 20
10.9287568133
 30
0.0
 10
16.0758758428
 20
10.9178606646
 30
0.0
 10
16.097711903
 20
10.9089216822
 30
0.0
 10
16.1161019354
 20
10.9030852133
 30
0.0
 10
16.1308245651
 20
10.8994295863
 30
0.0
 10
16.1418300402
 20
10.8971959316
 30
0.0
 10
16.1528492773
 20
10.8954578756
 30
0.0
 10
16.1638791066
 20
10.894216008
 30
0.0
 10
16.174915682
 20
10.8934706764
 30
0.0
 10
16.1822784111
 20
10.893304999
 30
0.0
 10
16.1859560893
 20
10.893305002
 30
0.0
  0
SPLINE
  5
29D
100
AcDbEntity
  8
LAYER_FEATURE
100
AcDbSpline
 62
7
  6
CONTINUOUS
 70
0
 71
3
 72
23
 73
19
 74
0
 42
0.0000001
 43
0.0000001
 44
0.0000000001
 40
0.0
 40
0.0
 40
0.0
 40
0.0
 40
0.0525459383
 40
0.1053764385
 40
0.158770416
 40
0.2129959478
 40
0.2683058853
 40
0.3249344703
 40
0.383095066
 40
0.4429789614
 40
0.5047550528
 40
0.5685701973
 40
0.6345500633
 40
0.7028003681
 40
0.773408258
 40
0.8464437314
 40
0.9219610201
 40
1.0
 40
1.0
 40
1.0
 40
1.0
 10
14.7561754897
 20
14.1283049923
 30
0.0
 10
14.7627282067
 20
14.1283049877
 30
0.0
 10
14.7758751527
 20
14.1277771306
 30
0.0
 10
14.7955517943
 20
14.1254049625
 30
0.0
 10
14.8151876341
 20
14.1214549312
 30
0.0
 10
14.8347605235
 20
14.115932194
 30
0.0
 10
14.8542509873
 20
14.1088436673
 30
0.0
 10
14.873639556
 20
14.100197858
 30
0.0
 10
14.892907464
 20
14.0900046943
 30
0.0
 10
14.9120363448
 20
14.0782753756
 30
0.0
 10
14.9310081908
 20
14.0650223206
 30
0.0
 10
14.9498052557
 20
14.0502591684
 30
0.0
 10
14.9684100125
 20
14.0340008119
 30
0.0
 10
14.9868050926
 20
14.0162633711
 30
0.0
 10
15.0049732478
 20
13.9970642644
 30
0.0
 10
15.02289745
 20
13.9764220941
 30
0.0
 10
15.0405605178
 20
13.954357259
 30
0.0
 10
15.0519627542
 20
13.9389667538
 30
0.0
 10
15.0576202517
 20
13.9310483609
 30
0.0
  0
SPLINE
  5
29E
100
AcDbEntity
  8
LAYER_FEATURE
100
AcDbSpline
 62
7
  6
CONTINUOUS
 70
0
 71
3
 72
23
 73
19
 74
0
 42
0.0000001
 43
0.0000001
 44
0.0000000001
 40
0.0
 40
0.0
 40
0.0
 40
0.0
 40
0.0525432813
 40
0.105371216
 40
0.1587628087
 40
0.2129862219
 40
0.2682943782
 40
0.3249215695
 40
0.38308121
 40
0.4429646315
 40
0.5047407575
 40
0.5685564408
 40
0.6345373573
 40
0.7027892304
 40
0.7733992042
 40
0.8464372421
 40
0.9219575533
 40
1.0
 40
1.0
 40
1.0
 40
1.0
 10
14.7561754897
 20
10.8933049935
 30
0.0
 10
14.7627294478
 20
10.8933049888
 30
0.0
 10
14.7758788989
 20
10.8938330675
 30
0.0
 10
14.7955592734
 20
10.8962061254
 30
0.0
 10
14.8151988225
 20
10.9001576532
 30
0.0
 10
14.834775383
 20
10.9056824858
 30
0.0
 10
14.8542694664
 20
10.9127737037
 30
0.0
 10
14.8736615998
 20
10.9214227726
 30
0.0
 10
14.8929330034
 20
10.9316197693
 30
0.0
 10
14.9120653006
 20
10.9433534903
 30
0.0
 10
14.9310404683
 20
10.9566115133
 30
0.0
 10
14.9498407628
 20
10.9713801698
 30
0.0
 10
14.9684486425
 20
10.9876445637
 30
0.0
 10
14.9868467291
 20
11.0053885677
 30
0.0
 10
15.0050177581
 20
11.0245947564
 30
0.0
 10
15.0229447035
 20
11.0452445009
 30
0.0
 10
15.0406103726
 20
11.0673173884
 30
0.0
 10
15.0520141917
 20
11.0827134492
 30
0.0
 10
15.0576724564
 20
11.0906346956
 30
0.0
  0
SPLINE
  5
29F
100
AcDbEntity
  8
LAYER_FEATURE
100
AcDbSpline
 62
7
  6
CONTINUOUS
 70
0
 71
3
 72
66
 73
62
 74
0
 42
0.0000001
 43
0.0000001
 44
0.0000000001
 40
0.0
 40
0.0
 40
0.0
 40
0.0
 40
0.0038448369
 40
0.0076962604
 40
0.0115608145
 40
0.0154449626
 40
0.0193550445
 40
0.0232972464
 40
0.0313000528
 40
0.0395004633
 40
0.0479396261
 40
0.05665419
 40
0.0656761646
 40
0.0750329762
 40
0.084747663
 40
0.0948391544
 40
0.1053225936
 40
0.1162096724
 40
0.127508958
 40
0.1392261992
 40
0.1513646073
 40
0.1639251085
 40
0.17690657
 40
0.1903059978
 40
0.2041187121
 40
0.218338502
 40
0.2329577613
 40
0.2479676085
 40
0.2633579938
 40
0.279117795
 40
0.2952349037
 40
0.3116963035
 40
0.3284881405
 40
0.3455957886
 40
0.3630039093
 40
0.3806965084
 40
0.3986569876
 40
0.4168681945
 40
0.4353124708
 40
0.4539716968
 40
0.4728273355
 40
0.5110508547
 40
0.5498290048
 40
0.5890025969
 40
0.6284095702
 40
0.6678861875
 40
0.707268213
 40
0.7463920872
 40
0.7850961093
 40
0.8042414496
 40
0.8232226534
 40
0.8420205706
 40
0.860616398
 40
0.8789917208
 40
0.8971285548
 40
0.9150093932
 40
0.9326172397
 40
0.9499356992
 40
0.9669489011
 40
0.9836418756
 40
1.0
 40
1.0
 40
1.0
 40
1.0
 10
16.2424543719
 20
14.1283049838
 30
0.0
 10
16.2461320501
 20
14.1283049868
 30
0.0
 10
16.2534947792
 20
14.1281393094
 30
0.0
 10
16.2645313546
 20
14.1273939778
 30
0.0
 10
16.2755611839
 20
14.1261521102
 30
0.0
 10
16.286580421
 20
14.1244140542
 30
0.0
 10
16.2975858961
 20
14.1221803995
 30
0.0
 10
16.3123085258
 20
14.1185247725
 30
0.0
 10
16.3306985582
 20
14.1126883036
 30
0.0
 10
16.3525346184
 20
14.1037493212
 30
0.0
 10
16.3742262823
 20
14.0928531725
 30
0.0
 10
16.3957462588
 20
14.0800158516
 30
0.0
 10
16.417069497
 20
14.0652549765
 30
0.0
 10
16.4381710117
 20
14.0485900556
 30
0.0
 10
16.459026279
 20
14.0300424255
 30
0.0
 10
16.4796109858
 20
14.009635338
 30
0.0
 10
16.4999010322
 20
13.9873940222
 30
0.0
 10
16.5198725179
 20
13.9633457438
 30
0.0
 10
16.5395017699
 20
13.9375198442
 30
0.0
 10
16.5587653823
 20
13.9099477622
 30
0.0
 10
16.5776402656
 20
13.8806630364
 30
0.0
 10
16.5961036914
 20
13.8497012885
 30
0.0
 10
16.6141333416
 20
13.8171001974
 30
0.0
 10
16.6317073538
 20
13.7828994643
 30
0.0
 10
16.6488043627
 20
13.7471407699
 30
0.0
 10
16.6654035398
 20
13.7098677267
 30
0.0
 10
16.681484629
 20
13.6711258268
 30
0.0
 10
16.6970279796
 20
13.6309623861
 30
0.0
 10
16.7120145803
 20
13.5894264871
 30
0.0
 10
16.7264260848
 20
13.5465689148
 30
0.0
 10
16.7402448388
 20
13.5024420925
 30
0.0
 10
16.753453905
 20
13.4571000154
 30
0.0
 10
16.7660370861
 20
13.4105981825
 30
0.0
 10
16.777978947
 20
13.3629935274
 30
0.0
 10
16.789264835
 20
13.3143443474
 30
0.0
 10
16.7998808988
 20
13.2647102298
 30
0.0
 10
16.8098141071
 20
13.2141519825
 30
0.0
 10
16.8190522717
 20
13.1627315436
 30
0.0
 10
16.8275840354
 20
13.1105119577
 30
0.0
 10
16.8353989835
 20
13.0575570925
 30
0.0
 10
16.8448928115
 20
12.9857340025
 30
0.0
 10
16.8548816145
 20
12.8945756321
 30
0.0
 10
16.8638240648
 20
12.783797255
 30
0.0
 10
16.8697317461
 20
12.6716819563
 30
0.0
 10
16.8725755712
 20
12.5587792193
 30
0.0
 10
16.8723415158
 20
12.4456416136
 30
0.0
 10
16.8690307362
 20
12.3328228961
 30
0.0
 10
16.862659519
 20
12.2208760069
 30
0.0
 10
16.8547980682
 20
12.1284388365
 30
0.0
 10
16.8469876748
 20
12.0553626197
 30
0.0
 10
16.8404100117
 20
12.001309703
 30
0.0
 10
16.8330997767
 20
11.9478814987
 30
0.0
 10
16.8250658929
 20
11.8951433648
 30
0.0
 10
16.816318238
 20
11.8431599713
 30
0.0
 10
16.8068675507
 20
11.7919950112
 30
0.0
 10
16.796725433
 20
11.7417111886
 30
0.0
 10
16.7859043377
 20
11.6923700848
 30
0.0
 10
16.7744175454
 20
11.644032215
 30
0.0
 10
16.7622791372
 20
11.5967565999
 30
0.0
 10
16.7495040667
 20
11.5506015226
 30
0.0
 10
16.7404793079
 20
11.520300278
 30
0.0
 10
16.7358595912
 20
11.5053508692
 30
0.0
  0
SPLINE
  5
2A0
100
AcDbEntity
  8
LAYER_FEATURE
100
AcDbSpline
 62
7
  6
CONTINUOUS
 70
0
 71
3
 72
39
 73
35
 74
0
 42
0.0000001
 43
0.0000001
 44
0.0000000001
 40
0.0
 40
0.0
 40
0.0
 40
0.0
 40
0.02127698
 40
0.0426477422
 40
0.0642045501
 40
0.0860367276
 40
0.1082294289
 40
0.13086263
 40
0.1540103821
 40
0.1777403583
 40
0.2021136209
 40
0.227184563
 40
0.2530010579
 40
0.2796047152
 40
0.3070311728
 40
0.3353104595
 40
0.3644674098
 40
0.3945220365
 40
0.4254898723
 40
0.4573823633
 40
0.4902072054
 40
0.5239686104
 40
0.558667601
 40
0.5943022909
 40
0.6308680905
 40
0.6683578916
 40
0.706762302
 40
0.7460698023
 40
0.7862668438
 40
0.8273381185
 40
0.8692664962
 40
0.9120330786
 40
0.9556187218
 40
1.0
 40
1.0
 40
1.0
 40
1.0
 10
16.2424543719
 20
10.893305002
 30
0.0
 10
16.2483626065
 20
10.8933050069
 30
0.0
 10
16.2602095414
 20
10.893733709
 30
0.0
 10
16.2779481096
 20
10.8956608795
 30
0.0
 10
16.2956572562
 20
10.8988705836
 30
0.0
 10
16.3133208664
 20
10.903359534
 30
0.0
 10
16.3309246632
 20
10.9091233062
 30
0.0
 10
16.3484542659
 20
10.9161563919
 30
0.0
 10
16.3658957432
 20
10.9244522553
 30
0.0
 10
16.3832354041
 20
10.9340034888
 30
0.0
 10
16.4004597886
 20
10.9448018389
 30
0.0
 10
16.4175556592
 20
10.9568381557
 30
0.0
 10
16.4345099292
 20
10.9701024712
 30
0.0
 10
16.4513096193
 20
10.9845840056
 30
0.0
 10
16.4679418758
 20
11.0002711031
 30
0.0
 10
16.484393964
 20
11.0171512283
 30
0.0
 10
16.500653231
 20
11.0352110006
 30
0.0
 10
16.5167071222
 20
11.0544361627
 30
0.0
 10
16.5325432377
 20
11.0748115391
 30
0.0
 10
16.5481492906
 20
11.0963210872
 30
0.0
 10
16.5635131178
 20
11.1189478988
 30
0.0
 10
16.57862274
 20
11.1426741676
 30
0.0
 10
16.593466354
 20
11.1674812187
 30
0.0
 10
16.6080323197
 20
11.1933495399
 30
0.0
 10
16.6223091954
 20
11.2202587731
 30
0.0
 10
16.6362857803
 20
11.2481877151
 30
0.0
 10
16.649951075
 20
11.2771143652
 30
0.0
 10
16.6632942953
 20
11.3070159312
 30
0.0
 10
16.6763049451
 20
11.3378688389
 30
0.0
 10
16.688972758
 20
11.3696487516
 30
0.0
 10
16.7012877015
 20
11.4023305392
 30
0.0
 10
16.7132401546
 20
11.4358886378
 30
0.0
 10
16.724820494
 20
11.470296191
 30
0.0
 10
16.7322209973
 20
11.493576375
 30
0.0
 10
16.7358595912
 20
11.5053508692
 30
0.0
  0
SPLINE
  5
2A1
100
AcDbEntity
  8
LAYER_CHAMFER_FEAT
100
AcDbSpline
 62
7
  6
CONTINUOUS
 70
0
 71
3
 72
53
 73
49
 74
0
 42
0.0000001
 43
0.0000001
 44
0.0000000001
 40
0.0
 40
0.0
 40
0.0
 40
0.0
 40
0.0101614604
 40
0.0206687225
 40
0.0315254918
 40
0.0427337815
 40
0.0542940581
 40
0.0662053917
 40
0.0784655796
 40
0.0910712482
 40
0.1040179478
 40
0.1173002507
 40
0.1309118291
 40
0.1448455148
 40
0.1590933648
 40
0.1736467263
 40
0.1884962871
 40
0.2036321129
 40
0.2190436977
 40
0.2347200085
 40
0.2668192417
 40
0.299833365
 40
0.3336585427
 40
0.36818557
 40
0.4033007747
 40
0.4388868214
 40
0.4748235162
 40
0.5109885598
 40
0.5472583007
 40
0.5835084701
 40
0.6196149134
 40
0.6554543259
 40
0.6909049895
 40
0.7258475262
 40
0.760165669
 40
0.7937470579
 40
0.8264840861
 40
0.8582747833
 40
0.873785731
 40
0.8890249462
 40
0.9039817204
 40
0.9186459075
 40
0.9330079547
 40
0.947058969
 40
0.9607907364
 40
0.9741957084
 40
0.9872675652
 40
1.0
 40
1.0
 40
1.0
 40
1.0
 10
16.0462041104
 20
13.5656522637
 30
0.0
 10
16.0417775773
 20
13.5603490633
 30
0.0
 10
16.0329966865
 20
13.5493744815
 30
0.0
 10
16.020251966
 20
13.5321388951
 30
0.0
 10
16.0077273731
 20
13.5138730704
 30
0.0
 10
15.9954356504
 20
13.4945957052
 30
0.0
 10
15.9833889337
 20
13.4743260456
 30
0.0
 10
15.9715992722
 20
13.453084467
 30
0.0
 10
15.9600784652
 20
13.4308922834
 30
0.0
 10
15.9488380686
 20
13.4077717941
 30
0.0
 10
15.9378893569
 20
13.3837462521
 30
0.0
 10
15.9272433398
 20
13.358839825
 30
0.0
 10
15.9169107446
 20
13.3330775718
 30
0.0
 10
15.9069019794
 20
13.3064854338
 30
0.0
 10
15.8972271252
 20
13.2790902034
 30
0.0
 10
15.8878959444
 20
13.2509194849
 30
0.0
 10
15.8789178628
 20
13.2220016626
 30
0.0
 10
15.8703019538
 20
13.1923659149
 30
0.0
 10
15.8620568535
 20
13.1620420589
 30
0.0
 10
15.851486022
 20
13.1204062771
 30
0.0
 10
15.8392828509
 20
13.0668474321
 30
0.0
 10
15.8263551574
 20
13.0008326064
 30
0.0
 10
15.8150829943
 20
12.9328417773
 30
0.0
 10
15.805512017
 20
12.8631493487
 30
0.0
 10
15.7976810655
 20
12.7920360048
 30
0.0
 10
15.7916218523
 20
12.7197884607
 30
0.0
 10
15.7873589886
 20
12.6466980223
 30
0.0
 10
15.7849097303
 20
12.5730594635
 30
0.0
 10
15.78428404
 20
12.499169796
 30
0.0
 10
15.7854844329
 20
12.4253270604
 30
0.0
 10
15.7885060567
 20
12.351829105
 30
0.0
 10
15.7933366456
 20
12.2789723666
 30
0.0
 10
15.7999566112
 20
12.2070506618
 30
0.0
 10
15.8083391114
 20
12.1363539628
 30
0.0
 10
15.8184501458
 20
12.0671672747
 30
0.0
 10
15.830248754
 20
11.9997692032
 30
0.0
 10
15.8436870767
 20
11.9344317284
 30
0.0
 10
15.8563080122
 20
11.8814941739
 30
0.0
 10
15.8672044492
 20
11.840396712
 30
0.0
 10
15.8756840425
 20
11.8105025442
 30
0.0
 10
15.8845290181
 20
11.7813153917
 30
0.0
 10
15.8937305036
 20
11.7528646125
 30
0.0
 10
15.9032791837
 20
11.7251788962
 30
0.0
 10
15.9131654368
 20
11.6982861322
 30
0.0
 10
15.9233792851
 20
11.6722134907
 30
0.0
 10
15.9339104804
 20
11.6469869995
 30
0.0
 10
15.9447483043
 20
11.6226324822
 30
0.0
 10
15.9522707063
 20
11.6067828736
 30
0.0
 10
15.9560838665
 20
11.5990124701
 30
0.0
  0
SPLINE
  5
2A2
100
AcDbEntity
  8
LAYER_CHAMFER_FEAT
100
AcDbSpline
 62
7
  6
CONTINUOUS
 70
0
 71
3
 72
21
 73
17
 74
0
 42
0.0000001
 43
0.0000001
 44
0.0000000001
 40
0.0
 40
0.0
 40
0.0
 40
0.0
 40
0.1467817402
 40
0.2172043676
 40
0.2857259789
 40
0.3524245925
 40
0.4173895099
 40
0.5424962327
 40
0.6029181604
 40
0.6620868938
 40
0.7201536856
 40
0.7772815329
 40
0.8336439494
 40
0.8894236694
 40
0.9448106669
 40
1.0
 40
1.0
 40
1.0
 40
1.0
 10
16.0348675205
 20
11.4701412362
 30
0.0
 10
16.0415277375
 20
11.4627992375
 30
0.0
 10
16.0517564787
 20
11.4522605298
 30
0.0
 10
16.0659915759
 20
11.4392274338
 30
0.0
 10
16.0766140309
 20
11.4302745066
 30
0.0
 10
16.0873229692
 20
11.4220147416
 30
0.0
 10
16.1015266627
 20
11.4120599363
 30
0.0
 10
16.1160662892
 20
11.4033446624
 30
0.0
 10
16.1308838566
 20
11.3960130272
 30
0.0
 10
16.1419218829
 20
11.3912935978
 30
0.0
 10
16.1530045801
 20
11.3872943234
 30
0.0
 10
16.1641250703
 20
11.3840178663
 30
0.0
 10
16.1752759021
 20
11.3814668756
 30
0.0
 10
16.1864497826
 20
11.3796432471
 30
0.0
 10
16.1976385211
 20
11.3785484893
 30
0.0
 10
16.2051084767
 20
11.3783049984
 30
0.0
 10
16.2088356457
 20
11.3783050023
 30
0.0
  0
SPLINE
  5
2A3
100
AcDbEntity
  8
LAYER_FEATURE
100
AcDbSpline
 62
7
  6
CONTINUOUS
 70
0
 71
3
 72
39
 73
35
 74
0
 42
0.0000001
 43
0.0000001
 44
0.0000000001
 40
0.0
 40
0.0
 40
0.0
 40
0.0
 40
0.0443812782
 40
0.0879669214
 40
0.1307335038
 40
0.1726618815
 40
0.2137331562
 40
0.2539301977
 40
0.293237698
 40
0.3316421084
 40
0.3691319095
 40
0.4056977091
 40
0.441332399
 40
0.4760313896
 40
0.5097927946
 40
0.5426176367
 40
0.5745101277
 40
0.6054779635
 40
0.6355325902
 40
0.6646895405
 40
0.6929688272
 40
0.7203952848
 40
0.7469989421
 40
0.772815437
 40
0.7978863791
 40
0.8222596417
 40
0.8459896179
 40
0.86913737
 40
0.8917705711
 40
0.9139632724
 40
0.9357954499
 40
0.9573522578
 40
0.97872302
 40
1.0
 40
1.0
 40
1.0
 40
1.0
 10
15.69255087
 20
13.5162591166
 30
0.0
 10
15.6961894639
 20
13.5280336108
 30
0.0
 10
15.7035899672
 20
13.5513137948
 30
0.0
 10
15.7151703066
 20
13.585721348
 30
0.0
 10
15.7271227597
 20
13.6192794466
 30
0.0
 10
15.7394377032
 20
13.6519612342
 30
0.0
 10
15.7521055161
 20
13.6837411469
 30
0.0
 10
15.7651161659
 20
13.7145940546
 30
0.0
 10
15.7784593862
 20
13.7444956207
 30
0.0
 10
15.7921246809
 20
13.7734222707
 30
0.0
 10
15.8061012658
 20
13.8013512127
 30
0.0
 10
15.8203781415
 20
13.8282604459
 30
0.0
 10
15.8349441072
 20
13.8541287671
 30
0.0
 10
15.8497877212
 20
13.8789358182
 30
0.0
 10
15.8648973434
 20
13.902662087
 30
0.0
 10
15.8802611706
 20
13.9252888986
 30
0.0
 10
15.8958672235
 20
13.9467984467
 30
0.0
 10
15.911703339
 20
13.9671738231
 30
0.0
 10
15.9277572302
 20
13.9863989852
 30
0.0
 10
15.9440164972
 20
14.0044587575
 30
0.0
 10
15.9604685854
 20
14.0213388828
 30
0.0
 10
15.9771008419
 20
14.0370259803
 30
0.0
 10
15.993900532
 20
14.0515075146
 30
0.0
 10
16.010854802
 20
14.0647718302
 30
0.0
 10
16.0279506726
 20
14.0768081469
 30
0.0
 10
16.0451750571
 20
14.087606497
 30
0.0
 10
16.062514718
 20
14.0971577305
 30
0.0
 10
16.0799561954
 20
14.1054535939
 30
0.0
 10
16.097485798
 20
14.1124866796
 30
0.0
 10
16.1150895948
 20
14.1182504518
 30
0.0
 10
16.132753205
 20
14.1227394022
 30
0.0
 10
16.1504623516
 20
14.1259491063
 30
0.0
 10
16.1682009198
 20
14.1278762768
 30
0.0
 10
16.1800478547
 20
14.1283049789
 30
0.0
 10
16.1859560893
 20
14.1283049838
 30
0.0
  0
SPLINE
  5
2A4
100
AcDbEntity
  8
LAYER_CHAMFER_FEAT
100
AcDbSpline
 62
7
  6
CONTINUOUS
 70
0
 71
3
 72
21
 73
17
 74
0
 42
0.0000001
 43
0.0000001
 44
0.0000000001
 40
0.0
 40
0.0
 40
0.0
 40
0.0
 40
0.0551613175
 40
0.1105211743
 40
0.1662754604
 40
0.2226149851
 40
0.2797231692
 40
0.3377742291
 40
0.3969317056
 40
0.4573473119
 40
0.5824576146
 40
0.6474330555
 40
0.7141481195
 40
0.7826922227
 40
0.853143399
 40
1.0
 40
1.0
 40
1.0
 40
1.0
 10
16.2088356457
 20
13.6433049835
 30
0.0
 10
16.2050992824
 20
13.6433049796
 30
0.0
 10
16.1976108215
 20
13.6430603052
 30
0.0
 10
16.186394453
 20
13.6419600933
 30
0.0
 10
16.1751930472
 20
13.6401274766
 30
0.0
 10
16.1640148821
 20
13.6375638371
 30
0.0
 10
16.1528672738
 20
13.6342712277
 30
0.0
 10
16.1417577562
 20
13.6302522219
 30
0.0
 10
16.1306932448
 20
13.6255095594
 30
0.0
 10
16.1158398052
 20
13.6181415867
 30
0.0
 10
16.101266297
 20
13.6093835177
 30
0.0
 10
16.0870308016
 20
13.5993805573
 30
0.0
 10
16.0762978022
 20
13.5910806013
 30
0.0
 10
16.0656519236
 20
13.5820842278
 30
0.0
 10
16.0513855747
 20
13.5689875943
 30
0.0
 10
16.0411359269
 20
13.5583984952
 30
0.0
 10
16.0344625853
 20
13.5510217391
 30
0.0
  0
SPLINE
  5
2A5
100
AcDbEntity
  8
LAYER_FEATURE
100
AcDbSpline
 62
7
  6
CONTINUOUS
 70
0
 71
3
 72
66
 73
62
 74
0
 42
0.0000001
 43
0.0000001
 44
0.0000000001
 40
0.0
 40
0.0
 40
0.0
 40
0.0
 40
0.0163581107
 40
0.033051107
 40
0.0500642985
 40
0.0673827611
 40
0.0849906066
 40
0.1028714446
 40
0.121008279
 40
0.1393836024
 40
0.1579794302
 40
0.1767773473
 40
0.1957585507
 40
0.2149038906
 40
0.2536079125
 40
0.2927317874
 40
0.3321138127
 40
0.37159043
 40
0.4109974036
 40
0.450170995
 40
0.488949145
 40
0.5271726655
 40
0.5460283044
 40
0.56468753
 40
0.5831318055
 40
0.6013430118
 40
0.6193034907
 40
0.6369960903
 40
0.6544042122
 40
0.6715118607
 40
0.6883036975
 40
0.7047650967
 40
0.7208822049
 40
0.7366420058
 40
0.7520323912
 40
0.767042239
 40
0.7816614985
 40
0.7958812883
 40
0.8096940024
 40
0.8230934301
 40
0.8360748919
 40
0.8486353935
 40
0.8607738017
 40
0.8724910424
 40
0.8837903271
 40
0.8946774056
 40
0.9051608452
 40
0.9152523374
 40
0.9249670251
 40
0.9343238372
 40
0.9433458112
 40
0.9520603739
 40
0.960499536
 40
0.9686999465
 40
0.9767027534
 40
0.9806449554
 40
0.9845550376
 40
0.9884391852
 40
0.9923037398
 40
0.9961551629
 40
1.0
 40
1.0
 40
1.0
 40
1.0
 10
14.2062719877
 20
13.5162591166
 30
0.0
 10
14.2016522749
 20
13.5013097203
 30
0.0
 10
14.1926275159
 20
13.4710084678
 30
0.0
 10
14.1798524426
 20
13.4248533936
 30
0.0
 10
14.1677140345
 20
13.3775777642
 30
0.0
 10
14.1562272415
 20
13.3292399029
 30
0.0
 10
14.1454061453
 20
13.2798987974
 30
0.0
 10
14.1352640266
 20
13.2296149761
 30
0.0
 10
14.1258133392
 20
13.1784500154
 30
0.0
 10
14.117065687
 20
13.1264666203
 30
0.0
 10
14.109031805
 20
13.0737284852
 30
0.0
 10
14.1017215701
 20
13.0203002809
 30
0.0
 10
14.0951439057
 20
12.9662473654
 30
0.0
 10
14.0873335092
 20
12.8931711499
 30
0.0
 10
14.0794720544
 20
12.8007339797
 30
0.0
 10
14.0731008463
 20
12.6887870896
 30
0.0
 10
14.0697900682
 20
12.5759683719
 30
0.0
 10
14.0695560042
 20
12.4628307662
 30
0.0
 10
14.0723998281
 20
12.3499280294
 30
0.0
 10
14.078307519
 20
12.2378127318
 30
0.0
 10
14.0872499691
 20
12.1270343545
 30
0.0
 10
14.0972387637
 20
12.0358759819
 30
0.0
 10
14.1067325917
 20
11.9640528909
 30
0.0
 10
14.1145475421
 20
11.9110980269
 30
0.0
 10
14.1230793084
 20
11.8588784432
 30
0.0
 10
14.1323174749
 20
11.8074580063
 30
0.0
 10
14.1422506836
 20
11.7568997595
 30
0.0
 10
14.1528667456
 20
11.7072656402
 30
0.0
 10
14.1641526303
 20
11.6586164573
 30
0.0
 10
14.1760944903
 20
11.6110118008
 30
0.0
 10
14.1886776725
 20
11.5645099685
 30
0.0
 10
14.2018867401
 20
11.5191678932
 30
0.0
 10
14.2157054952
 20
11.4750410727
 30
0.0
 10
14.2301170001
 20
11.4321835012
 30
0.0
 10
14.2451036004
 20
11.3906476017
 30
0.0
 10
14.2606469498
 20
11.3504841596
 30
0.0
 10
14.2767280384
 20
11.3117422588
 30
0.0
 10
14.2933272162
 20
11.274469216
 30
0.0
 10
14.3104242255
 20
11.2387105223
 30
0.0
 10
14.3279982378
 20
11.2045097892
 30
0.0
 10
14.3460278876
 20
11.1719086973
 30
0.0
 10
14.3644913127
 20
11.1409469482
 30
0.0
 10
14.3833661953
 20
11.111662222
 30
0.0
 10
14.402629809
 20
11.0840901423
 30
0.0
 10
14.4222590624
 20
11.0582642459
 30
0.0
 10
14.4422305482
 20
11.0342159686
 30
0.0
 10
14.4625205941
 20
11.0119746513
 30
0.0
 10
14.4831052999
 20
10.9915675601
 30
0.0
 10
14.5039605661
 20
10.9730199257
 30
0.0
 10
14.5250620798
 20
10.9563550022
 30
0.0
 10
14.5463853189
 20
10.9415941301
 30
0.0
 10
14.5679052976
 20
10.9287568175
 30
0.0
 10
14.5895969622
 20
10.9178606744
 30
0.0
 10
14.611433022
 20
10.9089216927
 30
0.0
 10
14.6298230525
 20
10.9030852149
 30
0.0
 10
14.6445456835
 20
10.8994295915
 30
0.0
 10
14.6555511555
 20
10.8971959187
 30
0.0
 10
14.6665703981
 20
10.8954578992
 30
0.0
 10
14.6776002216
 20
10.8942159812
 30
0.0
 10
14.6886368012
 20
10.8934707039
 30
0.0
 10
14.6959995287
 20
10.8933049961
 30
0.0
 10
14.699677207
 20
10.8933049935
 30
0.0
  0
SPLINE
  5
2A6
100
AcDbEntity
  8
LAYER_FEATURE
100
AcDbSpline
 62
7
  6
CONTINUOUS
 70
0
 71
3
 72
39
 73
35
 74
0
 42
0.0000001
 43
0.0000001
 44
0.0000000001
 40
0.0
 40
0.0
 40
0.0
 40
0.0
 40
0.0443812161
 40
0.0879669375
 40
0.1307335144
 40
0.17266187
 40
0.2137331579
 40
0.2539302009
 40
0.2932376948
 40
0.3316421066
 40
0.3691319128
 40
0.4056977088
 40
0.4413323949
 40
0.4760313922
 40
0.509792798
 40
0.5426176311
 40
0.574510128
 40
0.6054779696
 40
0.6355325855
 40
0.6646895377
 40
0.6929688335
 40
0.7203952838
 40
0.7469989369
 40
0.7728154411
 40
0.7978863818
 40
0.8222596365
 40
0.8459896189
 40
0.8691373741
 40
0.8917705685
 40
0.9139632712
 40
0.9357954525
 40
0.957352258
 40
0.9787230193
 40
1.0
 40
1.0
 40
1.0
 40
1.0
 10
14.2062719877
 20
13.5162591166
 30
0.0
 10
14.2099105765
 20
13.5280335943
 30
0.0
 10
14.2173110835
 20
13.5513137818
 30
0.0
 10
14.2288914205
 20
13.5857213389
 30
0.0
 10
14.2408438768
 20
13.6192794512
 30
0.0
 10
14.2531588243
 20
13.651961233
 30
0.0
 10
14.2658266335
 20
13.6837411449
 30
0.0
 10
14.2788372804
 20
13.7145940564
 30
0.0
 10
14.2921805066
 20
13.7444956188
 30
0.0
 10
14.3058458009
 20
13.7734222688
 30
0.0
 10
14.3198223797
 20
13.8013512148
 30
0.0
 10
14.3340992592
 20
13.8282604453
 30
0.0
 10
14.3486652299
 20
13.8541287634
 30
0.0
 10
14.3635088364
 20
13.87893582
 30
0.0
 10
14.3786184566
 20
13.9026620899
 30
0.0
 10
14.3939822956
 20
13.9252888925
 30
0.0
 10
14.4095883414
 20
13.9467984464
 30
0.0
 10
14.4254244486
 20
13.9671738298
 30
0.0
 10
14.4414783545
 20
13.9863989787
 30
0.0
 10
14.4577376186
 20
14.004458753
 30
0.0
 10
14.4741896949
 20
14.0213388917
 30
0.0
 10
14.4908219613
 20
14.0370259781
 30
0.0
 10
14.5076216571
 20
14.0515075042
 30
0.0
 10
14.5245759139
 20
14.0647718379
 30
0.0
 10
14.5416717867
 20
14.0768081527
 30
0.0
 10
14.5588961831
 20
14.0876064815
 30
0.0
 10
14.5762358337
 20
14.097157733
 30
0.0
 10
14.5936773075
 20
14.105453608
 30
0.0
 10
14.6112069209
 20
14.1124866654
 30
0.0
 10
14.6288107136
 20
14.118250445
 30
0.0
 10
14.6464743189
 20
14.1227394202
 30
0.0
 10
14.6641834709
 20
14.1259491016
 30
0.0
 10
14.6819220382
 20
14.1278762546
 30
0.0
 10
14.6937689723
 20
14.1283049965
 30
0.0
 10
14.699677207
 20
14.1283049923
 30
0.0
  0
SPLINE
  5
2A7
100
AcDbEntity
  8
LAYER_FEATURE
100
AcDbSpline
 62
7
  6
CONTINUOUS
 70
0
 71
3
 72
24
 73
20
 74
0
 42
0.0000001
 43
0.0000001
 44
0.0000000001
 40
0.0
 40
0.0
 40
0.0
 40
0.0
 40
0.0836660423
 40
0.1647132336
 40
0.2430320459
 40
0.3185262421
 40
0.391116283
 40
0.4607407319
 40
0.527358926
 40
0.5909538675
 40
0.6515357265
 40
0.7091459605
 40
0.7638621285
 40
0.8158033726
 40
0.8651363806
 40
0.9120813699
 40
0.9569172207
 40
0.9786557931
 40
1.0
 40
1.0
 40
1.0
 40
1.0
 10
15.8465083073
 20
13.2732510133
 30
0.0
 10
15.8511703853
 20
13.2883375031
 30
0.0
 10
15.8607539132
 20
13.317915163
 30
0.0
 10
15.8761708067
 20
13.3611215647
 30
0.0
 10
15.8923732481
 20
13.4023881285
 30
0.0
 10
15.9093243309
 20
13.441620802
 30
0.0
 10
15.9269856216
 20
13.4787307248
 30
0.0
 10
15.9453172537
 20
13.5136339205
 30
0.0
 10
15.9642780637
 20
13.5462515772
 30
0.0
 10
15.9838257897
 20
13.5765101788
 30
0.0
 10
16.003917279
 20
13.6043416232
 30
0.0
 10
16.0245086999
 20
13.6296832387
 30
0.0
 10
16.0455558607
 20
13.6524777418
 30
0.0
 10
16.0670140849
 20
13.672672903
 30
0.0
 10
16.0888393218
 20
13.6902215632
 30
0.0
 10
16.1109842224
 20
13.7050797297
 30
0.0
 10
16.1298631828
 20
13.7152921387
 30
0.0
 10
16.1450383375
 20
13.7220192289
 30
0.0
 10
16.1526431436
 20
13.724911048
 30
0.0
 10
16.1564472085
 20
13.7262363691
 30
0.0
  0
SPLINE
  5
2A8
100
AcDbEntity
  8
LAYER_FEATURE
100
AcDbSpline
 62
7
  6
CONTINUOUS
 70
0
 71
3
 72
98
 73
94
 74
0
 42
0.0000001
 43
0.0000001
 44
0.0000000001
 40
0.0
 40
0.0
 40
0.0
 40
0.0
 40
0.0178412185
 40
0.0361831751
 40
0.0549943589
 40
0.0742409859
 40
0.0938875503
 40
0.1138969105
 40
0.1342305077
 40
0.1548485482
 40
0.1757101777
 40
0.1967736497
 40
0.2179964878
 40
0.2393356468
 40
0.2607476699
 40
0.2821888441
 40
0.3036153534
 40
0.3249834336
 40
0.3462495263
 40
0.3673704329
 40
0.3883034712
 40
0.4090066353
 40
0.4294387576
 40
0.4495596749
 40
0.4693304
 40
0.488713303
 40
0.5076723037
 40
0.5261730715
 40
0.5441832439
 40
0.5616726655
 40
0.5786136566
 40
0.5949813122
 40
0.6107538402
 40
0.6184114029
 40
0.6259136497
 40
0.6332589158
 40
0.6404458298
 40
0.6474733132
 40
0.654340612
 40
0.6610473232
 40
0.6675934046
 40
0.6739792239
 40
0.6802055715
 40
0.6862736978
 40
0.6921853587
 40
0.6979428337
 40
0.7035489867
 40
0.7090072958
 40
0.7143218961
 40
0.7245378416
 40
0.7294534213
 40
0.7342493179
 40
0.7389335834
 40
0.743515145
 40
0.7480037912
 40
0.752410163
 40
0.756745712
 40
0.7610226293
 40
0.7652537606
 40
0.7694524811
 40
0.7736325565
 40
0.7778079824
 40
0.781992812
 40
0.7862009814
 40
0.7904461417
 40
0.7947415043
 40
0.7990997029
 40
0.8035326907
 40
0.808051648
 40
0.8126669309
 40
0.8173880404
 40
0.8222236007
 40
0.8322659178
 40
0.8374880865
 40
0.8428508422
 40
0.8483587798
 40
0.8540158128
 40
0.8598252052
 40
0.8657896144
 40
0.8719111459
 40
0.8781913724
 40
0.8846313893
 40
0.8912318412
 40
0.8979929478
 40
0.90491455
 40
0.9119961166
 40
0.9192367833
 40
0.9266353732
 40
0.934190407
 40
0.9497619156
 40
0.9659350239
 40
0.9826889741
 40
1.0
 40
1.0
 40
1.0
 40
1.0
 10
15.7612113081
 20
13.4470680227
 30
0.0
 10
15.7551574143
 20
13.4274776153
 30
0.0
 10
15.7434516243
 20
13.3875681682
 30
0.0
 10
15.7272924011
 20
13.3264581312
 30
0.0
 10
15.7123183037
 20
13.2633856284
 30
0.0
 10
15.6985656436
 20
13.1985027217
 30
0.0
 10
15.6860675458
 20
13.1319652232
 30
0.0
 10
15.6748541866
 20
13.0639331259
 30
0.0
 10
15.6649526187
 20
12.9945700239
 30
0.0
 10
15.6563867457
 20
12.9240427638
 30
0.0
 10
15.6491772498
 20
12.8525210167
 30
0.0
 10
15.6433415456
 20
12.7801768727
 30
0.0
 10
15.6388937191
 20
12.7071844212
 30
0.0
 10
15.6358445072
 20
12.6337193264
 30
0.0
 10
15.6342012733
 20
12.5599583985
 30
0.0
 10
15.6339679904
 20
12.486079166
 30
0.0
 10
15.635145225
 20
12.4122594448
 30
0.0
 10
15.6377301273
 20
12.3386769063
 30
0.0
 10
15.641716454
 20
12.2655086455
 30
0.0
 10
15.64709458
 20
12.1929307531
 30
0.0
 10
15.6538515258
 20
12.1211178866
 30
0.0
 10
15.6619709732
 20
12.0502428439
 30
0.0
 10
15.6714333137
 20
11.9804761424
 30
0.0
 10
15.6822157039
 20
11.9119856059
 30
0.0
 10
15.6942921211
 20
11.8449359551
 30
0.0
 10
15.7076334276
 20
11.7794884014
 30
0.0
 10
15.7222074304
 20
11.7158002448
 30
0.0
 10
15.7379789818
 20
11.6540244954
 30
0.0
 10
15.7549100748
 20
11.5943094751
 30
0.0
 10
15.7729599331
 20
11.5367985231
 30
0.0
 10
15.7920851785
 20
11.481629355
 30
0.0
 10
15.8122397325
 20
11.4289346845
 30
0.0
 10
15.8300236637
 20
11.3867835966
 30
0.0
 10
15.8447478277
 20
11.35442445
 30
0.0
 10
15.855908692
 20
11.33108999
 30
0.0
 10
15.8672891288
 20
11.3084656711
 30
0.0
 10
15.8788823399
 20
11.2865650026
 30
0.0
 10
15.8906813788
 20
11.265401157
 30
0.0
 10
15.9026791917
 20
11.2449868377
 30
0.0
 10
15.9148685654
 20
11.2253342783
 30
0.0
 10
15.9272422626
 20
11.2064552931
 30
0.0
 10
15.9397928633
 20
11.1883611869
 30
0.0
 10
15.9525128992
 20
11.171062819
 30
0.0
 10
15.9653948302
 20
11.1545705802
 30
0.0
 10
15.9784309543
 20
11.1388943522
 30
0.0
 10
15.9916136397
 20
11.1240435443
 30
0.0
 10
16.0049349041
 20
11.1100272226
 30
0.0
 10
16.018387467
 20
11.0968532944
 30
0.0
 10
16.0362510751
 20
11.0806377422
 30
0.0
 10
16.0545778313
 20
11.0658773774
 30
0.0
 10
16.0733451544
 20
11.0527398132
 30
0.0
 10
16.0873318416
 20
11.0438902218
 30
0.0
 10
16.1014006853
 20
11.0359243427
 30
0.0
 10
16.1155436459
 20
11.0288470326
 30
0.0
 10
16.1297522234
 20
11.0226630333
 30
0.0
 10
16.1440178782
 20
11.0173764839
 30
0.0
 10
16.158331901
 20
11.0129909779
 30
0.0
 10
16.1726854885
 20
11.0095096805
 30
0.0
 10
16.1870696547
 20
11.0069350318
 30
0.0
 10
16.2014753216
 20
11.0052689585
 30
0.0
 10
16.2158933
 20
11.0045127271
 30
0.0
 10
16.230314342
 20
11.0046668421
 30
0.0
 10
16.2447291839
 20
11.0057312698
 30
0.0
 10
16.2591285955
 20
11.0077051466
 30
0.0
 10
16.2735034229
 20
11.0105870178
 30
0.0
 10
16.2878446034
 20
11.0143748152
 30
0.0
 10
16.3021432409
 20
11.0190657573
 30
0.0
 10
16.3163905253
 20
11.0246566324
 30
0.0
 10
16.3305778496
 20
11.0311436007
 30
0.0
 10
16.3446966141
 20
11.0385222775
 30
0.0
 10
16.3587387412
 20
11.046788118
 30
0.0
 10
16.3775834578
 20
11.0591391283
 30
0.0
 10
16.3960050641
 20
11.0731356797
 30
0.0
 10
16.4139720855
 20
11.0886072296
 30
0.0
 10
16.4275068765
 20
11.1012193046
 30
0.0
 10
16.4409155702
 20
11.1146790901
 30
0.0
 10
16.4541908721
 20
11.1289790183
 30
0.0
 10
16.4673247679
 20
11.1441103216
 30
0.0
 10
16.480309568
 20
11.1600639209
 30
0.0
 10
16.4931375144
 20
11.1768302563
 30
0.0
 10
16.5058010329
 20
11.1943992396
 30
0.0
 10
16.5182925695
 20
11.2127603418
 30
0.0
 10
16.5306046637
 20
11.2319025562
 30
0.0
 10
16.542730004
 20
11.2518143797
 30
0.0
 10
16.5546612956
 20
11.2724838881
 30
0.0
 10
16.5663914343
 20
11.2938986651
 30
0.0
 10
16.5779133695
 20
11.316045843
 30
0.0
 10
16.5892202423
 20
11.3389121949
 30
0.0
 10
16.6041502616
 20
11.3706605627
 30
0.0
 10
16.6222017412
 20
11.4120744738
 30
0.0
 10
16.6426862024
 20
11.4639229792
 30
0.0
 10
16.6621569916
 20
11.5182879477
 30
0.0
 10
16.6742396437
 20
11.5555337295
 30
0.0
 10
16.6801136322
 20
11.5745419631
 30
0.0
  0
SPLINE
  5
2A9
100
AcDbEntity
  8
LAYER_FEATURE
100
AcDbSpline
 62
7
  6
CONTINUOUS
 70
0
 71
3
 72
66
 73
62
 74
0
 42
0.0000001
 43
0.0000001
 44
0.0000000001
 40
0.0
 40
0.0
 40
0.0
 40
0.0
 40
0.0163581244
 40
0.0330510989
 40
0.0500643008
 40
0.0673827603
 40
0.0849906068
 40
0.1028714452
 40
0.1210082792
 40
0.139383602
 40
0.1579794294
 40
0.1767773466
 40
0.1957585504
 40
0.2149038907
 40
0.2536079128
 40
0.292731787
 40
0.3321138125
 40
0.3715904298
 40
0.4109974031
 40
0.4501709952
 40
0.4889491453
 40
0.5271726645
 40
0.5460283032
 40
0.5646875292
 40
0.5831318055
 40
0.6013430124
 40
0.6193034916
 40
0.6369960907
 40
0.6544042114
 40
0.6715118595
 40
0.6883036965
 40
0.7047650963
 40
0.720882205
 40
0.7366420062
 40
0.7520323915
 40
0.7670422387
 40
0.781661498
 40
0.7958812879
 40
0.8096940022
 40
0.82309343
 40
0.8360748915
 40
0.8486353927
 40
0.8607738008
 40
0.872491042
 40
0.8837903276
 40
0.8946774064
 40
0.9051608456
 40
0.915252337
 40
0.9249670238
 40
0.9343238354
 40
0.94334581
 40
0.9520603739
 40
0.9604995367
 40
0.9686999472
 40
0.9767027536
 40
0.9806449555
 40
0.9845550374
 40
0.9884391855
 40
0.9923037396
 40
0.9961551631
 40
1.0
 40
1.0
 40
1.0
 40
1.0
 10
15.7490491527
 20
13.5162591166
 30
0.0
 10
15.7444294359
 20
13.5013097078
 30
0.0
 10
15.7354046771
 20
13.4710084632
 30
0.0
 10
15.7226296066
 20
13.4248533859
 30
0.0
 10
15.7104911984
 20
13.3775777708
 30
0.0
 10
15.6990044062
 20
13.329239901
 30
0.0
 10
15.6881833108
 20
13.2798987972
 30
0.0
 10
15.6780411932
 20
13.2296149746
 30
0.0
 10
15.6685905059
 20
13.1784500145
 30
0.0
 10
15.659842851
 20
13.1264666211
 30
0.0
 10
15.6518089672
 20
13.0737284871
 30
0.0
 10
15.6444987322
 20
13.0203002828
 30
0.0
 10
15.6379210691
 20
12.9662473662
 30
0.0
 10
15.6301106756
 20
12.8931711494
 30
0.0
 10
15.6222492249
 20
12.8007339789
 30
0.0
 10
15.6158780077
 20
12.6887870897
 30
0.0
 10
15.6125672281
 20
12.5759683722
 30
0.0
 10
15.6123331727
 20
12.4628307665
 30
0.0
 10
15.6151769978
 20
12.3499280295
 30
0.0
 10
15.6210846791
 20
12.2378127308
 30
0.0
 10
15.6300271294
 20
12.1270343538
 30
0.0
 10
15.6400159324
 20
12.0358759833
 30
0.0
 10
15.6495097604
 20
11.9640528933
 30
0.0
 10
15.6573247085
 20
11.9110980281
 30
0.0
 10
15.6658564722
 20
11.8588784422
 30
0.0
 10
15.6750946367
 20
11.8074580033
 30
0.0
 10
15.6850278451
 20
11.756899756
 30
0.0
 10
15.6956439089
 20
11.7072656384
 30
0.0
 10
15.7069297969
 20
11.6586164584
 30
0.0
 10
15.7188716578
 20
11.6110118033
 30
0.0
 10
15.7314548389
 20
11.5645099704
 30
0.0
 10
15.744663905
 20
11.5191678933
 30
0.0
 10
15.7584826591
 20
11.475041071
 30
0.0
 10
15.7728941636
 20
11.4321834987
 30
0.0
 10
15.7878807642
 20
11.3906475997
 30
0.0
 10
15.8034241148
 20
11.350484159
 30
0.0
 10
15.8195052041
 20
11.3117422591
 30
0.0
 10
15.8361043812
 20
11.2744692159
 30
0.0
 10
15.8532013901
 20
11.2387105215
 30
0.0
 10
15.8707754022
 20
11.2045097884
 30
0.0
 10
15.8888050525
 20
11.1719086973
 30
0.0
 10
15.9072684783
 20
11.1409469494
 30
0.0
 10
15.9261433615
 20
11.1116622236
 30
0.0
 10
15.945406974
 20
11.0840901416
 30
0.0
 10
15.965036226
 20
11.058264242
 30
0.0
 10
15.9850077117
 20
11.0342159636
 30
0.0
 10
16.0052977581
 20
11.0119746478
 30
0.0
 10
16.0258824649
 20
10.9915675603
 30
0.0
 10
16.0467377322
 20
10.9730199302
 30
0.0
 10
16.0678392469
 20
10.9563550093
 30
0.0
 10
16.0891624851
 20
10.9415941342
 30
0.0
 10
16.1106824616
 20
10.9287568133
 30
0.0
 10
16.1323741254
 20
10.9178606646
 30
0.0
 10
16.1542101857
 20
10.9089216822
 30
0.0
 10
16.172600218
 20
10.9030852133
 30
0.0
 10
16.1873228477
 20
10.8994295863
 30
0.0
 10
16.1983283228
 20
10.8971959316
 30
0.0
 10
16.20934756
 20
10.8954578756
 30
0.0
 10
16.2203773893
 20
10.894216008
 30
0.0
 10
16.2314139646
 20
10.8934706764
 30
0.0
 10
16.2387766938
 20
10.893304999
 30
0.0
 10
16.2424543719
 20
10.893305002
 30
0.0
  0
SPLINE
  5
2AA
100
AcDbEntity
  8
02___PRT_ALL_AXES
100
AcDbSpline
 62
7
  6
CONTINUOUS
 70
0
 71
3
 72
23
 73
19
 74
0
 42
0.0000001
 43
0.0000001
 44
0.0000000001
 40
0.0
 40
0.0
 40
0.0
 40
0.0
 40
0.0596527499
 40
0.1204305717
 40
0.1821826567
 40
0.2447535693
 40
0.3079840613
 40
0.3717118603
 40
0.4357724426
 40
0.4999997923
 40
0.5642271489
 40
0.6282877512
 40
0.6920155816
 40
0.7552461181
 40
0.8178170904
 40
0.8795692496
 40
0.9403471571
 40
1.0
 40
1.0
 40
1.0
 40
1.0
 10
15.8071058948
 20
12.8722612508
 30
0.0
 10
15.8097291665
 20
12.8580524132
 30
0.0
 10
15.8146559344
 20
12.8292973712
 30
0.0
 10
15.82104163
 20
12.7856298838
 30
0.0
 10
15.8264785089
 20
12.7411218656
 30
0.0
 10
15.830949808
 20
12.6959097233
 30
0.0
 10
15.8344418139
 20
12.65013156
 30
0.0
 10
15.8369438001
 20
12.6039273642
 30
0.0
 10
15.8384480884
 20
12.5574384059
 30
0.0
 10
15.8389500595
 20
12.5108068446
 30
0.0
 10
15.8384481715
 20
12.4641752774
 30
0.0
 10
15.8369439631
 20
12.4176863024
 30
0.0
 10
15.8344420507
 20
12.3714820793
 30
0.0
 10
15.83095012
 20
12.3257038774
 30
0.0
 10
15.8264788999
 20
12.2804916839
 30
0.0
 10
15.8210421021
 20
12.2359836021
 30
0.0
 10
15.814656479
 20
12.1923160425
 30
0.0
 10
15.809729771
 20
12.1635609461
 30
0.0
 10
15.8071065146
 20
12.1493520828
 30
0.0
  0
SPLINE
  5
2AB
100
AcDbEntity
  8
LAYER_FEATURE
100
AcDbSpline
 62
7
  6
CONTINUOUS
 70
0
 71
3
 72
56
 73
52
 74
0
 42
0.0000001
 43
0.0000001
 44
0.0000000001
 40
0.0
 40
0.0
 40
0.0
 40
0.0
 40
0.0079087202
 40
0.0160273533
 40
0.0243882133
 40
0.0330198943
 40
0.0419472694
 40
0.0511916076
 40
0.0607707662
 40
0.0706994231
 40
0.0809893262
 40
0.0916495409
 40
0.1026866978
 40
0.1141052217
 40
0.1259075388
 40
0.1380942601
 40
0.1506643479
 40
0.163615271
 40
0.1769431374
 40
0.1906428116
 40
0.2047080139
 40
0.2191314164
 40
0.2339047301
 40
0.2490187791
 40
0.2644635667
 40
0.2802283324
 40
0.2963016129
 40
0.3126712956
 40
0.3293246646
 40
0.3462484429
 40
0.380850499
 40
0.4163627226
 40
0.4526627124
 40
0.48962264
 40
0.5271102713
 40
0.5649899143
 40
0.6031233608
 40
0.6413707841
 40
0.6795916391
 40
0.7176455465
 40
0.7553931872
 40
0.7926971935
 40
0.8294230731
 40
0.8654401377
 40
0.9006224912
 40
0.9178634055
 40
0.9348511482
 40
0.9515718285
 40
0.9680119231
 40
0.9841589016
 40
1.0
 40
1.0
 40
1.0
 40
1.0
 10
16.1564472086
 20
11.2953736175
 30
0.0
 10
16.1511930455
 20
11.2972041475
 30
0.0
 10
16.1406856862
 20
11.3013292369
 30
0.0
 10
16.1252039112
 20
11.3087564367
 30
0.0
 10
16.1098304684
 20
11.3174871266
 30
0.0
 10
16.0945828129
 20
11.3275102613
 30
0.0
 10
16.0794764364
 20
11.3388142202
 30
0.0
 10
16.0645270677
 20
11.351386104
 30
0.0
 10
16.049750144
 20
11.3652119235
 30
0.0
 10
16.0351610056
 20
11.3802765075
 30
0.0
 10
16.0207748601
 20
11.3965634841
 30
0.0
 10
16.0066067692
 20
11.4140552356
 30
0.0
 10
15.9926716477
 20
11.432732908
 30
0.0
 10
15.9789842374
 20
11.452576406
 30
0.0
 10
15.9655590854
 20
11.4735643967
 30
0.0
 10
15.9524105098
 20
11.4956743084
 30
0.0
 10
15.9395525685
 20
11.518882345
 30
0.0
 10
15.9269990514
 20
11.5431635195
 30
0.0
 10
15.9147634517
 20
11.5684916776
 30
0.0
 10
15.9028589507
 20
11.5948395221
 30
0.0
 10
15.8912983808
 20
11.622178631
 30
0.0
 10
15.8800942172
 20
11.650479495
 30
0.0
 10
15.8692585661
 20
11.6797115563
 30
0.0
 10
15.8588031472
 20
11.7098432414
 30
0.0
 10
15.8487392789
 20
11.7408419926
 30
0.0
 10
15.8390778501
 20
11.7726742955
 30
0.0
 10
15.8298293176
 20
11.8053057329
 30
0.0
 10
15.8210037167
 20
11.8387009911
 30
0.0
 10
15.8126105538
 20
11.8728240311
 30
0.0
 10
15.8019299843
 20
11.9195867823
 30
0.0
 10
15.7897497861
 20
11.9796070403
 30
0.0
 10
15.7770979888
 20
12.0534051203
 30
0.0
 10
15.7663598703
 20
12.1291813549
 30
0.0
 10
15.757582114
 20
12.2066077372
 30
0.0
 10
15.7508029357
 20
12.2853497537
 30
0.0
 10
15.7460517921
 20
12.3650668882
 30
0.0
 10
15.7433493861
 20
12.4454143977
 30
0.0
 10
15.7427074595
 20
12.5260447535
 30
0.0
 10
15.7441288062
 20
12.6066091899
 30
0.0
 10
15.7476072574
 20
12.6867592261
 30
0.0
 10
15.753127648
 20
12.7661482161
 30
0.0
 10
15.7606659964
 20
12.8444328029
 30
0.0
 10
15.770189472
 20
12.9212746839
 30
0.0
 10
15.7816566735
 20
12.9963411961
 30
0.0
 10
15.7928649887
 20
13.0575531468
 30
0.0
 10
15.8027849856
 20
13.1053684114
 30
0.0
 10
15.810627382
 20
13.1403452832
 30
0.0
 10
15.8189134644
 20
13.1746403667
 30
0.0
 10
15.8276343183
 20
13.2082168535
 30
0.0
 10
15.8367804437
 20
13.2410380266
 30
0.0
 10
15.843217935
 20
13.2626033646
 30
0.0
 10
15.8465083073
 20
13.2732510133
 30
0.0
  0
SPLINE
  5
2AC
100
AcDbEntity
  8
LAYER_CHAMFER_FEAT
100
AcDbSpline
 62
7
  6
CONTINUOUS
 70
0
 71
3
 72
40
 73
36
 74
0
 42
0.0000001
 43
0.0000001
 44
0.0000000001
 40
0.0
 40
0.0
 40
0.0
 40
0.0
 40
0.043950306
 40
0.0865555686
 40
0.1278039655
 40
0.1676916609
 40
0.2062199325
 40
0.2433975268
 40
0.2792409185
 40
0.3137752502
 40
0.3470352699
 40
0.3790663195
 40
0.409925385
 40
0.4396821291
 40
0.4684198019
 40
0.496235931
 40
0.5232426478
 40
0.549566466
 40
0.5753473443
 40
0.6007368908
 40
0.6258956919
 40
0.6509898763
 40
0.6761871613
 40
0.70165274
 40
0.7275454117
 40
0.7540143068
 40
0.7811964197
 40
0.8092150211
 40
0.823574637
 40
0.8381829114
 40
0.8681862304
 40
0.8993090503
 40
0.9316180333
 40
0.9651674098
 40
1.0
 40
1.0
 40
1.0
 40
1.0
 10
16.5196142674
 20
13.4225975157
 30
0.0
 10
16.5155801703
 20
13.4308181412
 30
0.0
 10
16.5074110315
 20
13.4468990588
 30
0.0
 10
16.4946461799
 20
13.4702727791
 30
0.0
 10
16.4815737376
 20
13.4924999579
 30
0.0
 10
16.4682094202
 20
13.5135538461
 30
0.0
 10
16.4545688073
 20
13.533409585
 30
0.0
 10
16.440667935
 20
13.5520435412
 30
0.0
 10
16.4265230013
 20
13.5694335922
 30
0.0
 10
16.4121504119
 20
13.5855590404
 30
0.0
 10
16.3975667336
 20
13.6004006175
 30
0.0
 10
16.3827886744
 20
13.6139404578
 30
0.0
 10
16.3678330781
 20
13.6261620627
 30
0.0
 10
16.3527169563
 20
13.6370502761
 30
0.0
 10
16.3374575287
 20
13.6465912315
 30
0.0
 10
16.3220723133
 20
13.6547723154
 30
0.0
 10
16.3065792569
 20
13.661582184
 30
0.0
 10
16.2909968811
 20
13.6670108412
 30
0.0
 10
16.275344422
 20
13.6710498377
 30
0.0
 10
16.2596418795
 20
13.6736925187
 30
0.0
 10
16.2439099483
 20
13.6749343105
 30
0.0
 10
16.2281698028
 20
13.6747729923
 30
0.0
 10
16.2124427663
 20
13.6732088427
 30
0.0
 10
16.1967499259
 20
13.6702446392
 30
0.0
 10
16.1811118549
 20
13.6658854908
 30
0.0
 10
16.165548277
 20
13.660138443
 30
0.0
 10
16.1500786349
 20
13.6530125432
 30
0.0
 10
16.1373848859
 20
13.6459913208
 30
0.0
 10
16.1273020458
 20
13.6397181418
 30
0.0
 10
16.117090123
 20
13.6328821682
 30
0.0
 10
16.1044116027
 20
13.6234695683
 30
0.0
 10
16.0894956276
 20
13.6109437244
 30
0.0
 10
16.0747606298
 20
13.5971029832
 30
0.0
 10
16.0602242428
 20
13.5819648852
 30
0.0
 10
16.0508546592
 20
13.5712238457
 30
0.0
 10
16.0462041104
 20
13.5656522637
 30
0.0
  0
SPLINE
  5
2AD
100
AcDbEntity
  8
LAYER_CHAMFER_FEAT
100
AcDbSpline
 62
7
  6
CONTINUOUS
 70
0
 71
3
 72
27
 73
23
 74
0
 42
0.0000001
 43
0.0000001
 44
0.0000000001
 40
0.0
 40
0.0
 40
0.0
 40
0.0
 40
0.083511091
 40
0.1639083651
 40
0.2411670835
 40
0.3152835286
 40
0.3862766026
 40
0.4541914516
 40
0.5191027253
 40
0.581118554
 40
0.6403847064
 40
0.6970888372
 40
0.7514643421
 40
0.8037931644
 40
0.8292988702
 40
0.8544212602
 40
0.8792091189
 40
0.9037137694
 40
0.9279888851
 40
0.9520900428
 40
0.9760743653
 40
1.0
 40
1.0
 40
1.0
 40
1.0
 10
16.4829757569
 20
13.3979227181
 30
0.0
 10
16.4782358676
 20
13.407581597
 30
0.0
 10
16.4686154775
 20
13.4263859198
 30
0.0
 10
16.4534576913
 20
13.4535168988
 30
0.0
 10
16.4378697429
 20
13.478995835
 30
0.0
 10
16.4218786418
 20
13.5027780395
 30
0.0
 10
16.4055115849
 20
13.5248223408
 30
0.0
 10
16.3887962686
 20
13.5450904051
 30
0.0
 10
16.3717606681
 20
13.5635468955
 30
0.0
 10
16.3544329592
 20
13.5801593699
 30
0.0
 10
16.3368416487
 20
13.594898104
 30
0.0
 10
16.3190150117
 20
13.6077361233
 30
0.0
 10
16.300983469
 20
13.6186482883
 30
0.0
 10
16.2856787592
 20
13.626182866
 30
0.0
 10
16.2733910933
 20
13.6311903159
 30
0.0
 10
16.264223634
 20
13.6344215658
 30
0.0
 10
16.2550311282
 20
13.6371584258
 30
0.0
 10
16.2458174678
 20
13.6393995392
 30
0.0
 10
16.2365869134
 20
13.6411438645
 30
0.0
 10
16.2273435293
 20
13.6423904092
 30
0.0
 10
16.2180919165
 20
13.6431386342
 30
0.0
 10
16.2119181202
 20
13.6433049868
 30
0.0
 10
16.2088356457
 20
13.6433049835
 30
0.0
  0
SPLINE
  5
2AE
100
AcDbEntity
  8
02___PRT_ALL_AXES
100
AcDbSpline
 62
7
  6
CONTINUOUS
 70
0
 71
3
 72
56
 73
52
 74
0
 42
0.0000001
 43
0.0000001
 44
0.0000000001
 40
0.0
 40
0.0
 40
0.0
 40
0.0
 40
0.0079087202
 40
0.0160273533
 40
0.0243882133
 40
0.0330198943
 40
0.0419472694
 40
0.0511916076
 40
0.0607707662
 40
0.0706994231
 40
0.0809893262
 40
0.0916495409
 40
0.1026866978
 40
0.1141052217
 40
0.1259075388
 40
0.1380942601
 40
0.1506643479
 40
0.163615271
 40
0.1769431374
 40
0.1906428116
 40
0.2047080139
 40
0.2191314164
 40
0.2339047301
 40
0.2490187791
 40
0.2644635667
 40
0.2802283324
 40
0.2963016129
 40
0.3126712956
 40
0.3293246646
 40
0.3462484429
 40
0.380850499
 40
0.4163627226
 40
0.4526627124
 40
0.48962264
 40
0.5271102713
 40
0.5649899143
 40
0.6031233608
 40
0.6413707841
 40
0.6795916391
 40
0.7176455465
 40
0.7553931872
 40
0.7926971935
 40
0.8294230731
 40
0.8654401377
 40
0.9006224912
 40
0.9178634055
 40
0.9348511482
 40
0.9515718285
 40
0.9680119231
 40
0.9841589016
 40
1.0
 40
1.0
 40
1.0
 40
1.0
 10
16.1733231698
 20
11.2894940752
 30
0.0
 10
16.1680435901
 20
11.2913334602
 30
0.0
 10
16.1574854024
 20
11.2954785043
 30
0.0
 10
16.1419287357
 20
11.3029416326
 30
0.0
 10
16.1264809252
 20
11.3117145565
 30
0.0
 10
16.1111595105
 20
11.3217861772
 30
0.0
 10
16.0959800582
 20
11.333144818
 30
0.0
 10
16.0809583733
 20
11.3457775172
 30
0.0
 10
16.0661099675
 20
11.3596702178
 30
0.0
 10
16.0514502554
 20
11.3748076755
 30
0.0
 10
16.0369945182
 20
11.3911734388
 30
0.0
 10
16.0227578904
 20
11.4087498052
 30
0.0
 10
16.008755359
 20
11.4275178292
 30
0.0
 10
15.9950017371
 20
11.4474573184
 30
0.0
 10
15.9815116421
 20
11.4685468366
 30
0.0
 10
15.9682994614
 20
11.490763703
 30
0.0
 10
15.9553793209
 20
11.5140840065
 30
0.0
 10
15.9427650773
 20
11.5384826391
 30
0.0
 10
15.930470289
 20
11.5639333199
 30
0.0
 10
15.918508201
 20
11.5904086197
 30
0.0
 10
15.9068917078
 20
11.6178799791
 30
0.0
 10
15.8956333451
 20
11.6463177461
 30
0.0
 10
15.8847452775
 20
11.6756912149
 30
0.0
 10
15.8742392814
 20
11.7059686594
 30
0.0
 10
15.86412673
 20
11.7371173644
 30
0.0
 10
15.8544185649
 20
11.7691036532
 30
0.0
 10
15.8451252935
 20
11.8018929423
 30
0.0
 10
15.8362569995
 20
11.8354497471
 30
0.0
 10
15.8278232354
 20
11.8697378543
 30
0.0
 10
15.8170909996
 20
11.9167268162
 30
0.0
 10
15.8048518808
 20
11.977037417
 30
0.0
 10
15.7921388816
 20
12.0511924887
 30
0.0
 10
15.7813488183
 20
12.1273352842
 30
0.0
 10
15.7725286003
 20
12.2051362098
 30
0.0
 10
15.7657166284
 20
12.2842591339
 30
0.0
 10
15.7609425016
 20
12.3643618929
 30
0.0
 10
15.7582270229
 20
12.4450980764
 30
0.0
 10
15.757581991
 20
12.5261184745
 30
0.0
 10
15.7590102134
 20
12.6070726343
 30
0.0
 10
15.7625054913
 20
12.6876103892
 30
0.0
 10
15.7680525863
 20
12.7673834165
 30
0.0
 10
15.7756274008
 20
12.8460466981
 30
0.0
 10
15.7851969454
 20
12.9232602949
 30
0.0
 10
15.7967196185
 20
12.9986899348
 30
0.0
 10
15.8079821529
 20
13.0601979928
 30
0.0
 10
15.8179501369
 20
13.1082445596
 30
0.0
 10
15.8258304702
 20
13.1433906289
 30
0.0
 10
15.8341566357
 20
13.1778516119
 30
0.0
 10
15.8429196761
 20
13.211590522
 30
0.0
 10
15.852110045
 20
13.2445704647
 30
0.0
 10
15.8585786772
 20
13.2662401231
 30
0.0
 10
15.8618849663
 20
13.2769392788
 30
0.0
  0
SPLINE
  5
2AF
100
AcDbEntity
  8
LAYER_FEATURE
100
AcDbSpline
 62
7
  6
CONTINUOUS
 70
0
 71
3
 72
11
 73
7
 74
0
 42
0.0000001
 43
0.0000001
 44
0.0000000001
 40
0.0
 40
0.0
 40
0.0
 40
0.0
 40
0.2238162813
 40
0.4647816796
 40
0.7234678127
 40
1.0
 40
1.0
 40
1.0
 40
1.0
 10
14.3137544469
 20
13.074507383
 30
0.0
 10
14.3145562579
 20
13.0752788273
 30
0.0
 10
14.3161354789
 20
13.0769714504
 30
0.0
 10
14.3183464192
 20
13.0798130631
 30
0.0
 10
14.3204752604
 20
13.0830353372
 30
0.0
 10
14.3217900066
 20
13.0853509147
 30
0.0
 10
14.3224341662
 20
13.0865653923
 30
0.0
  0
SPLINE
  5
2B0
100
AcDbEntity
  8
LAYER_FEATURE
100
AcDbSpline
 62
7
  6
CONTINUOUS
 70
0
 71
3
 72
20
 73
16
 74
0
 42
0.0000001
 43
0.0000001
 44
0.0000000001
 40
0.0
 40
0.0
 40
0.0
 40
0.0
 40
0.0391886879
 40
0.0793667282
 40
0.1214484413
 40
0.1661917333
 40
0.2141851052
 40
0.2658516453
 40
0.3214706573
 40
0.3812003394
 40
0.4450979753
 40
0.5131426829
 40
0.6612178791
 40
0.8241532863
 40
1.0
 40
1.0
 40
1.0
 40
1.0
 10
14.2754479504
 20
13.0745748625
 30
0.0
 10
14.2752742618
 20
13.0745748759
 30
0.0
 10
14.2749217598
 20
13.0745436297
 30
0.0
 10
14.2743993949
 20
13.074404258
 30
0.0
 10
14.2738834967
 20
13.0741737147
 30
0.0
 10
14.2733765909
 20
13.073854048
 30
0.0
 10
14.2728806586
 20
13.0734472473
 30
0.0
 10
14.2723975454
 20
13.0729555218
 30
0.0
 10
14.2719291176
 20
13.0723811894
 30
0.0
 10
14.271477309
 20
13.0717268508
 30
0.0
 10
14.271043971
 20
13.0709954703
 30
0.0
 10
14.2704774751
 20
13.0698905247
 30
0.0
 10
14.2698360226
 20
13.0683345316
 30
0.0
 10
14.2691883492
 20
13.0662741306
 30
0.0
 10
14.268843769
 20
13.064811237
 30
0.0
 10
14.268688769
 20
13.0640474334
 30
0.0
  0
SPLINE
  5
2B1
100
AcDbEntity
  8
LAYER_FEATURE
100
AcDbSpline
 62
7
  6
CONTINUOUS
 70
0
 71
3
 72
17
 73
13
 74
0
 42
0.0000001
 43
0.0000001
 44
0.0000000001
 40
0.0
 40
0.0
 40
0.0
 40
0.0
 40
0.0426455307
 40
0.0860340479
 40
0.130862184
 40
0.1777466722
 40
0.2795083499
 40
0.3943797033
 40
0.5238234907
 40
0.668238905
 40
0.8272721358
 40
1.0
 40
1.0
 40
1.0
 40
1.0
 10
14.3246353386
 20
13.3089571188
 30
0.0
 10
14.32449213
 20
13.3089571171
 30
0.0
 10
14.3242027941
 20
13.3089360622
 30
0.0
 10
14.3237722067
 20
13.3088416974
 30
0.0
 10
14.3233449754
 20
13.3086851582
 30
0.0
 10
14.3227663207
 20
13.3083865456
 30
0.0
 10
14.322056447
 20
13.3078468241
 30
0.0
 10
14.3212671073
 20
13.3069879645
 30
0.0
 10
14.3205225079
 20
13.3059116852
 30
0.0
 10
14.3198304079
 20
13.3046306629
 30
0.0
 10
14.3191984092
 20
13.3031599314
 30
0.0
 10
14.3188361618
 20
13.3021052766
 30
0.0
 10
14.3186649064
 20
13.301551094
 30
0.0
  0
SPLINE
  5
2B2
100
AcDbEntity
  8
LAYER_CHAMFER_FEAT
100
AcDbSpline
 62
7
  6
CONTINUOUS
 70
0
 71
3
 72
79
 73
75
 74
0
 42
0.0000001
 43
0.0000001
 44
0.0000000001
 40
0.0
 40
0.0
 40
0.0
 40
0.0
 40
0.0113884778
 40
0.0222283806
 40
0.0325469701
 40
0.0423804747
 40
0.0517750316
 40
0.0607873878
 40
0.0651724048
 40
0.0694881113
 40
0.0737445445
 40
0.0779522946
 40
0.0821224205
 40
0.0862663643
 40
0.0903958376
 40
0.0945227066
 40
0.098658865
 40
0.1028161065
 40
0.1070060067
 40
0.1112398024
 40
0.1155283018
 40
0.1198817896
 40
0.1243099724
 40
0.1288219197
 40
0.1381276227
 40
0.1478607806
 40
0.1580698048
 40
0.1687930163
 40
0.1800595531
 40
0.1918903764
 40
0.2042992582
 40
0.2172936863
 40
0.2308756647
 40
0.2450424025
 40
0.2597869028
 40
0.2750984618
 40
0.2909630931
 40
0.307363889
 40
0.3242813326
 40
0.3416935665
 40
0.3595766305
 40
0.3779046714
 40
0.3966501319
 40
0.4157839227
 40
0.4352755806
 40
0.455093416
 40
0.4752046519
 40
0.4955755556
 40
0.5161715651
 40
0.5369574118
 40
0.5578972389
 40
0.5789547176
 40
0.600093162
 40
0.6212756413
 40
0.6424650923
 40
0.6636244311
 40
0.684716664
 40
0.7057049997
 40
0.7265529619
 40
0.7472245028
 40
0.7676841189
 40
0.7878969684
 40
0.8078289924
 40
0.8274470395
 40
0.8467189953
 40
0.865613919
 40
0.8841021869
 40
0.9021556467
 40
0.9197477829
 40
0.9368539022
 40
0.9534513248
 40
0.9695196413
 40
0.9850408855
 40
1.0
 40
1.0
 40
1.0
 40
1.0
 10
16.046204111
 20
11.4559577253
 30
0.0
 10
16.0522734051
 20
11.44868641
 30
0.0
 10
16.0645264887
 20
11.43482582
 30
0.0
 10
16.0837328697
 20
11.4157240041
 30
0.0
 10
16.103268025
 20
11.3988727334
 30
0.0
 10
16.1230948378
 20
11.3843091071
 30
0.0
 10
16.1431742632
 20
11.3720666082
 30
0.0
 10
16.1602438956
 20
11.3637475876
 30
0.0
 10
16.1739483711
 20
11.3583281719
 30
0.0
 10
16.1841685733
 20
11.3548952446
 30
0.0
 10
16.1944174975
 20
11.3520597415
 30
0.0
 10
16.2046899338
 20
11.3498231477
 30
0.0
 10
16.2149803502
 20
11.3481869395
 30
0.0
 10
16.2252832005
 20
11.3471520214
 30
0.0
 10
16.2355929006
 20
11.3467191488
 30
0.0
 10
16.2459038306
 20
11.3468884771
 30
0.0
 10
16.2562103667
 20
11.3476600199
 30
0.0
 10
16.2665069139
 20
11.3490331747
 30
0.0
 10
16.2767878891
 20
11.3510072046
 30
0.0
 10
16.2870477941
 20
11.3535807948
 30
0.0
 10
16.2972811659
 20
11.3567524979
 30
0.0
 10
16.3074825932
 20
11.3605203316
 30
0.0
 10
16.3176469387
 20
11.3648823012
 30
0.0
 10
16.3312815768
 20
11.3715547643
 30
0.0
 10
16.3482309678
 20
11.3814312892
 30
0.0
 10
16.3681153326
 20
11.3954893665
 30
0.0
 10
16.3877176619
 20
11.4118430998
 30
0.0
 10
16.4069993844
 20
11.4304561559
 30
0.0
 10
16.4259243048
 20
11.4512896222
 30
0.0
 10
16.4444558371
 20
11.4743005063
 30
0.0
 10
16.4625578254
 20
11.4994418426
 30
0.0
 10
16.4801944566
 20
11.5266624684
 30
0.0
 10
16.4973304857
 20
11.5559070149
 30
0.0
 10
16.5139313776
 20
11.58711593
 30
0.0
 10
16.5299634607
 20
11.6202255594
 30
0.0
 10
16.5453940571
 20
11.6551682568
 30
0.0
 10
16.5601915989
 20
11.6918725182
 30
0.0
 10
16.5743257298
 20
11.7302631312
 30
0.0
 10
16.5877673949
 20
11.7702613361
 30
0.0
 10
16.600488921
 20
11.8117849958
 30
0.0
 10
16.6124640879
 20
11.8547487733
 30
0.0
 10
16.6236681932
 20
11.899064315
 30
0.0
 10
16.6340781107
 20
11.9446404399
 30
0.0
 10
16.6436723435
 20
11.9913833335
 30
0.0
 10
16.6524310728
 20
12.0391967469
 30
0.0
 10
16.6603362009
 20
12.0879821994
 30
0.0
 10
16.6673713911
 20
12.1376391856
 30
0.0
 10
16.6735221023
 20
12.1880653863
 30
0.0
 10
16.6787756207
 20
12.239156882
 30
0.0
 10
16.6831210859
 20
12.2908083704
 30
0.0
 10
16.6865495144
 20
12.3429133848
 30
0.0
 10
16.6890538182
 20
12.3953645169
 30
0.0
 10
16.6906288198
 20
12.448053639
 30
0.0
 10
16.6912712628
 20
12.5008721292
 30
0.0
 10
16.6909798188
 20
12.5537110973
 30
0.0
 10
16.6897550903
 20
12.60646161
 30
0.0
 10
16.6875996092
 20
12.6590149181
 30
0.0
 10
16.6845178322
 20
12.7112626816
 30
0.0
 10
16.6805161305
 20
12.7630971955
 30
0.0
 10
16.6756027773
 20
12.8144116129
 30
0.0
 10
16.6697879299
 20
12.8651001679
 30
0.0
 10
16.6630836084
 20
12.9150583957
 30
0.0
 10
16.6555036705
 20
12.9641833502
 30
0.0
 10
16.647063782
 20
13.0123738195
 30
0.0
 10
16.6377813829
 20
13.0595305373
 30
0.0
 10
16.62767565
 20
13.1055563917
 30
0.0
 10
16.6167674551
 20
13.1503566297
 30
0.0
 10
16.605079317
 20
13.1938390581
 30
0.0
 10
16.592635355
 20
13.2359142355
 30
0.0
 10
16.5794612175
 20
13.2764956794
 30
0.0
 10
16.5655840669
 20
13.3154999893
 30
0.0
 10
16.551032357
 20
13.3528472709
 30
0.0
 10
16.5358362824
 20
13.388460341
 30
0.0
 10
16.5250950765
 20
13.411428801
 30
0.0
 10
16.5196142674
 20
13.4225975157
 30
0.0
  0
SPLINE
  5
2B3
100
AcDbEntity
  8
LAYER_CHAMFER_FEAT
100
AcDbSpline
 62
7
  6
CONTINUOUS
 70
0
 71
3
 72
67
 73
63
 74
0
 42
0.0000001
 43
0.0000001
 44
0.0000000001
 40
0.0
 40
0.0
 40
0.0
 40
0.0
 40
0.0038601976
 40
0.0077284267
 40
0.011612657
 40
0.0155207363
 40
0.0194603366
 40
0.023438897
 40
0.0315392188
 40
0.0398773698
 40
0.048501048
 40
0.057451777
 40
0.0667648688
 40
0.0764696504
 40
0.086589852
 40
0.0971440786
 40
0.1081463044
 40
0.1196063549
 40
0.1315303539
 40
0.1439211288
 40
0.1567785699
 40
0.1700999441
 40
0.1838801688
 40
0.1981120502
 40
0.21278649
 40
0.227892667
 40
0.2434181948
 40
0.2593492621
 40
0.2756707589
 40
0.2923663883
 40
0.3094187678
 40
0.3268095223
 40
0.3445193696
 40
0.3625281992
 40
0.3808151473
 40
0.3993586663
 40
0.4181365926
 40
0.4371262106
 40
0.4563043154
 40
0.4951298844
 40
0.5344213452
 40
0.5739813671
 40
0.6136102717
 40
0.6531077834
 40
0.6922747695
 40
0.7309149933
 40
0.7499781052
 40
0.7688381809
 40
0.7874723145
 40
0.8058581282
 40
0.8239738359
 40
0.8417983088
 40
0.8593111446
 40
0.8764927402
 40
0.8933243703
 40
0.9097882693
 40
0.9258677239
 40
0.9415471591
 40
0.9568122873
 40
0.9716501036
 40
0.9860493362
 40
1.0
 40
1.0
 40
1.0
 40
1.0
 10
16.2088356457
 20
11.3783050023
 30
0.0
 10
16.2116740007
 20
11.3783050053
 30
0.0
 10
16.217357621
 20
11.3784459992
 30
0.0
 10
16.2258759826
 20
11.3790802253
 30
0.0
 10
16.2343879673
 20
11.3801369616
 30
0.0
 10
16.2428899716
 20
11.3816157202
 30
0.0
 10
16.2513789729
 20
11.3835160163
 30
0.0
 10
16.2627422332
 20
11.3866285518
 30
0.0
 10
16.2769310896
 20
11.3916005977
 30
0.0
 10
16.2937410238
 20
11.3992036524
 30
0.0
 10
16.3104148457
 20
11.4084652745
 30
0.0
 10
16.3269275211
 20
11.419368989
 30
0.0
 10
16.343256128
 20
11.4318968263
 30
0.0
 10
16.3593777566
 20
11.4460289542
 30
0.0
 10
16.3752698736
 20
11.4617436951
 30
0.0
 10
16.3909100997
 20
11.4790173954
 30
0.0
 10
16.4062762404
 20
11.4978243455
 30
0.0
 10
16.4213463024
 20
11.5181367165
 30
0.0
 10
16.43609855
 20
11.5399245263
 30
0.0
 10
16.4505115595
 20
11.5631556379
 30
0.0
 10
16.4645642801
 20
11.5877957742
 30
0.0
 10
16.4782360919
 20
11.6138085499
 30
0.0
 10
16.4915068587
 20
11.6411555141
 30
0.0
 10
16.5043569773
 20
11.669796202
 30
0.0
 10
16.5167674217
 20
11.6996881935
 30
0.0
 10
16.5287197829
 20
11.7307871765
 30
0.0
 10
16.540196307
 20
11.7630470128
 30
0.0
 10
16.5511799301
 20
11.7964198094
 30
0.0
 10
16.5616543063
 20
11.8308559938
 30
0.0
 10
16.5716038372
 20
11.8663043904
 30
0.0
 10
16.5810136985
 20
11.9027122992
 30
0.0
 10
16.5898698639
 20
11.9400255761
 30
0.0
 10
16.5981591282
 20
11.9781887156
 30
0.0
 10
16.6058691288
 20
12.0171449356
 30
0.0
 10
16.6129883627
 20
12.0568362595
 30
0.0
 10
16.6195062134
 20
12.0972036168
 30
0.0
 10
16.6254129429
 20
12.1381868829
 30
0.0
 10
16.6306997915
 20
12.1797251596
 30
0.0
 10
16.6369369336
 20
12.2359947819
 30
0.0
 10
16.6431158829
 20
12.3072802223
 30
0.0
 10
16.6479265546
 20
12.3936859242
 30
0.0
 10
16.6501340808
 20
12.4807883878
 30
0.0
 10
16.6497252704
 20
12.5680691311
 30
0.0
 10
16.646702576
 20
12.6550096113
 30
0.0
 10
16.6410840831
 20
12.7410923145
 30
0.0
 10
16.6342366429
 20
12.8120030447
 30
0.0
 10
16.6274705337
 20
12.8678931777
 30
0.0
 10
16.6217954655
 20
12.9090920265
 30
0.0
 10
16.6155059168
 20
12.949697648
 30
0.0
 10
16.608611216
 20
12.9896497108
 30
0.0
 10
16.6011216639
 20
13.0288887143
 30
0.0
 10
16.5930484288
 20
13.0673562669
 30
0.0
 10
16.5844035521
 20
13.1049951248
 30
0.0
 10
16.5751999235
 20
13.1417492922
 30
0.0
 10
16.5654512636
 20
13.1775641028
 30
0.0
 10
16.5551721016
 20
13.2123863082
 30
0.0
 10
16.5443777481
 20
13.2461641446
 30
0.0
 10
16.5330842726
 20
13.278847455
 30
0.0
 10
16.5213084818
 20
13.3103876359
 30
0.0
 10
16.5090678288
 20
13.3407380802
 30
0.0
 10
16.4963806495
 20
13.3698532849
 30
0.0
 10
16.4874947333
 20
13.3887140124
 30
0.0
 10
16.4829757569
 20
13.3979227181
 30
0.0
  0
SPLINE
  5
2B4
100
AcDbEntity
  8
LAYER_FEATURE
100
AcDbSpline
 62
7
  6
CONTINUOUS
 70
0
 71
3
 72
98
 73
94
 74
0
 42
0.0000001
 43
0.0000001
 44
0.0000000001
 40
0.0
 40
0.0
 40
0.0
 40
0.0
 40
0.0173110259
 40
0.0340649761
 40
0.0502380844
 40
0.065809593
 40
0.0733646268
 40
0.0807632167
 40
0.0880038834
 40
0.09508545
 40
0.1020070522
 40
0.1087681588
 40
0.1153686107
 40
0.1218086276
 40
0.1280888541
 40
0.1342103856
 40
0.1401747948
 40
0.1459841872
 40
0.1516412202
 40
0.1571491578
 40
0.1625119135
 40
0.1677340822
 40
0.1777763993
 40
0.1826119596
 40
0.1873330691
 40
0.191948352
 40
0.1964673093
 40
0.2009002971
 40
0.2052584957
 40
0.2095538583
 40
0.2137990186
 40
0.218007188
 40
0.2221920176
 40
0.2263674435
 40
0.2305475189
 40
0.2347462394
 40
0.2389773707
 40
0.243254288
 40
0.247589837
 40
0.2519962088
 40
0.256484855
 40
0.2610664166
 40
0.2657506821
 40
0.2705465787
 40
0.2754621584
 40
0.2856781039
 40
0.2909927042
 40
0.2964510133
 40
0.3020571663
 40
0.3078146413
 40
0.3137263022
 40
0.3197944285
 40
0.3260207761
 40
0.3324065954
 40
0.3389526768
 40
0.345659388
 40
0.3525266868
 40
0.3595541702
 40
0.3667410842
 40
0.3740863503
 40
0.3815885971
 40
0.3892461598
 40
0.4050186878
 40
0.4213863434
 40
0.4383273345
 40
0.4558167561
 40
0.4738269285
 40
0.4923276963
 40
0.511286697
 40
0.5306696
 40
0.5504403251
 40
0.5705612424
 40
0.5909933647
 40
0.6116965288
 40
0.6326295671
 40
0.6537504737
 40
0.6750165664
 40
0.6963846466
 40
0.7178111559
 40
0.7392523301
 40
0.7606643532
 40
0.7820035122
 40
0.8032263503
 40
0.8242898223
 40
0.8451514518
 40
0.8657694923
 40
0.8861030895
 40
0.9061124497
 40
0.9257590141
 40
0.9450056411
 40
0.9638168249
 40
0.9821587815
 40
1.0
 40
1.0
 40
1.0
 40
1.0
 10
15.7612113081
 20
13.4470680227
 30
0.0
 10
15.7670852965
 20
13.4660762563
 30
0.0
 10
15.7791679486
 20
13.5033220381
 30
0.0
 10
15.7986387378
 20
13.5576870066
 30
0.0
 10
15.8191231991
 20
13.609535512
 30
0.0
 10
15.8371746787
 20
13.6509494231
 30
0.0
 10
15.8521046979
 20
13.6826977909
 30
0.0
 10
15.8634115707
 20
13.7055641428
 30
0.0
 10
15.874933506
 20
13.7277113207
 30
0.0
 10
15.8866636446
 20
13.7491260977
 30
0.0
 10
15.8985949362
 20
13.7697956061
 30
0.0
 10
15.9107202765
 20
13.7897074296
 30
0.0
 10
15.9230323708
 20
13.808849644
 30
0.0
 10
15.9355239074
 20
13.8272107462
 30
0.0
 10
15.9481874258
 20
13.8447797295
 30
0.0
 10
15.9610153722
 20
13.8615460649
 30
0.0
 10
15.9740001724
 20
13.8774996643
 30
0.0
 10
15.9871340681
 20
13.8926309675
 30
0.0
 10
16.0004093701
 20
13.9069308958
 30
0.0
 10
16.0138180638
 20
13.9203906812
 30
0.0
 10
16.0273528547
 20
13.9330027562
 30
0.0
 10
16.0453198761
 20
13.9484743061
 30
0.0
 10
16.0637414825
 20
13.9624708575
 30
0.0
 10
16.082586199
 20
13.9748218679
 30
0.0
 10
16.0966283261
 20
13.9830877083
 30
0.0
 10
16.1107470906
 20
13.9904663852
 30
0.0
 10
16.124934415
 20
13.9969533535
 30
0.0
 10
16.1391816993
 20
14.0025442285
 30
0.0
 10
16.1534803368
 20
14.0072351706
 30
0.0
 10
16.1678215174
 20
14.011022968
 30
0.0
 10
16.1821963447
 20
14.0139048392
 30
0.0
 10
16.1965957563
 20
14.015878716
 30
0.0
 10
16.2110105983
 20
14.0169431437
 30
0.0
 10
16.2254316403
 20
14.0170972587
 30
0.0
 10
16.2398496186
 20
14.0163410273
 30
0.0
 10
16.2542552855
 20
14.014674954
 30
0.0
 10
16.2686394517
 20
14.0121003053
 30
0.0
 10
16.2829930392
 20
14.0086190079
 30
0.0
 10
16.297307062
 20
14.0042335019
 30
0.0
 10
16.3115727169
 20
13.9989469525
 30
0.0
 10
16.3257812944
 20
13.9927629532
 30
0.0
 10
16.3399242549
 20
13.9856856432
 30
0.0
 10
16.3539930987
 20
13.977719764
 30
0.0
 10
16.3679797859
 20
13.9688701726
 30
0.0
 10
16.3867471089
 20
13.9557326084
 30
0.0
 10
16.4050738652
 20
13.9409722437
 30
0.0
 10
16.4229374733
 20
13.9247566914
 30
0.0
 10
16.4363900362
 20
13.9115827632
 30
0.0
 10
16.4497113005
 20
13.8975664415
 30
0.0
 10
16.4628939859
 20
13.8827156336
 30
0.0
 10
16.47593011
 20
13.8670394057
 30
0.0
 10
16.488812041
 20
13.8505471668
 30
0.0
 10
16.501532077
 20
13.8332487989
 30
0.0
 10
16.5140826776
 20
13.8151546927
 30
0.0
 10
16.5264563748
 20
13.7962757075
 30
0.0
 10
16.5386457485
 20
13.7766231481
 30
0.0
 10
16.5506435614
 20
13.7562088288
 30
0.0
 10
16.5624426003
 20
13.7350449832
 30
0.0
 10
16.5740358114
 20
13.7131443148
 30
0.0
 10
16.5854162483
 20
13.6905199958
 30
0.0
 10
16.5965771126
 20
13.6671855358
 30
0.0
 10
16.6113012765
 20
13.6348263892
 30
0.0
 10
16.6290852077
 20
13.5926753013
 30
0.0
 10
16.6492397617
 20
13.5399806308
 30
0.0
 10
16.6683650071
 20
13.4848114627
 30
0.0
 10
16.6864148655
 20
13.4273005107
 30
0.0
 10
16.7033459584
 20
13.3675854904
 30
0.0
 10
16.7191175099
 20
13.305809741
 30
0.0
 10
16.7336915126
 20
13.2421215844
 30
0.0
 10
16.7470328191
 20
13.1766740307
 30
0.0
 10
16.7591092363
 20
13.1096243799
 30
0.0
 10
16.7698916265
 20
13.0411338434
 30
0.0
 10
16.7793539671
 20
12.9713671419
 30
0.0
 10
16.7874734144
 20
12.9004920992
 30
0.0
 10
16.7942303602
 20
12.8286792327
 30
0.0
 10
16.7996084863
 20
12.7561013403
 30
0.0
 10
16.8035948129
 20
12.6829330796
 30
0.0
 10
16.8061797152
 20
12.609350541
 30
0.0
 10
16.8073569498
 20
12.5355308198
 30
0.0
 10
16.8071236669
 20
12.4616515873
 30
0.0
 10
16.805480433
 20
12.3878906594
 30
0.0
 10
16.8024312211
 20
12.3144255646
 30
0.0
 10
16.7979833946
 20
12.2414331131
 30
0.0
 10
16.7921476904
 20
12.1690889691
 30
0.0
 10
16.7849381945
 20
12.097567222
 30
0.0
 10
16.7763723216
 20
12.0270399619
 30
0.0
 10
16.7664707537
 20
11.9576768599
 30
0.0
 10
16.7552573945
 20
11.8896447626
 30
0.0
 10
16.7427592967
 20
11.8231072641
 30
0.0
 10
16.7290066365
 20
11.7582243574
 30
0.0
 10
16.7140325391
 20
11.6951518546
 30
0.0
 10
16.697873316
 20
11.6340418177
 30
0.0
 10
16.6861675259
 20
11.5941323705
 30
0.0
 10
16.6801136322
 20
11.5745419631
 30
0.0
  0
SPLINE
  5
2B5
100
AcDbEntity
  8
LAYER_FEATURE
100
AcDbSpline
 62
7
  6
CONTINUOUS
 70
0
 71
3
 72
39
 73
35
 74
0
 42
0.0000001
 43
0.0000001
 44
0.0000000001
 40
0.0
 40
0.0
 40
0.0
 40
0.0
 40
0.0443812782
 40
0.0879669214
 40
0.1307335038
 40
0.1726618815
 40
0.2137331562
 40
0.2539301977
 40
0.293237698
 40
0.3316421084
 40
0.3691319095
 40
0.4056977091
 40
0.441332399
 40
0.4760313896
 40
0.5097927946
 40
0.5426176367
 40
0.5745101277
 40
0.6054779635
 40
0.6355325902
 40
0.6646895405
 40
0.6929688272
 40
0.7203952848
 40
0.7469989421
 40
0.772815437
 40
0.7978863791
 40
0.8222596417
 40
0.8459896179
 40
0.86913737
 40
0.8917705711
 40
0.9139632724
 40
0.9357954499
 40
0.9573522578
 40
0.97872302
 40
1.0
 40
1.0
 40
1.0
 40
1.0
 10
15.7490491527
 20
13.5162591166
 30
0.0
 10
15.7526877466
 20
13.5280336108
 30
0.0
 10
15.7600882499
 20
13.5513137948
 30
0.0
 10
15.7716685893
 20
13.585721348
 30
0.0
 10
15.7836210424
 20
13.6192794466
 30
0.0
 10
15.7959359859
 20
13.6519612342
 30
0.0
 10
15.8086037987
 20
13.6837411469
 30
0.0
 10
15.8216144485
 20
13.7145940546
 30
0.0
 10
15.8349576689
 20
13.7444956207
 30
0.0
 10
15.8486229636
 20
13.7734222707
 30
0.0
 10
15.8625995484
 20
13.8013512127
 30
0.0
 10
15.8768764242
 20
13.8282604459
 30
0.0
 10
15.8914423899
 20
13.8541287671
 30
0.0
 10
15.9062860039
 20
13.8789358182
 30
0.0
 10
15.9213956261
 20
13.902662087
 30
0.0
 10
15.9367594533
 20
13.9252888986
 30
0.0
 10
15.9523655062
 20
13.9467984467
 30
0.0
 10
15.9682016217
 20
13.9671738231
 30
0.0
 10
15.9842555129
 20
13.9863989852
 30
0.0
 10
16.0005147798
 20
14.0044587575
 30
0.0
 10
16.0169668681
 20
14.0213388828
 30
0.0
 10
16.0335991245
 20
14.0370259803
 30
0.0
 10
16.0503988147
 20
14.0515075146
 30
0.0
 10
16.0673530847
 20
14.0647718302
 30
0.0
 10
16.0844489552
 20
14.0768081469
 30
0.0
 10
16.1016733398
 20
14.087606497
 30
0.0
 10
16.1190130006
 20
14.0971577305
 30
0.0
 10
16.136454478
 20
14.1054535939
 30
0.0
 10
16.1539840807
 20
14.1124866796
 30
0.0
 10
16.1715878774
 20
14.1182504518
 30
0.0
 10
16.1892514876
 20
14.1227394022
 30
0.0
 10
16.2069606343
 20
14.1259491063
 30
0.0
 10
16.2246992024
 20
14.1278762768
 30
0.0
 10
16.2365461374
 20
14.1283049789
 30
0.0
 10
16.2424543719
 20
14.1283049838
 30
0.0
  0
SPLINE
  5
2B6
100
AcDbEntity
  8
02___PRT_ALL_AXES
100
AcDbSpline
 62
7
  6
CONTINUOUS
 70
0
 71
3
 72
24
 73
20
 74
0
 42
0.0000001
 43
0.0000001
 44
0.0000000001
 40
0.0
 40
0.0
 40
0.0
 40
0.0
 40
0.0836660423
 40
0.1647132336
 40
0.2430320459
 40
0.3185262421
 40
0.391116283
 40
0.4607407319
 40
0.527358926
 40
0.5909538675
 40
0.6515357265
 40
0.7091459605
 40
0.7638621285
 40
0.8158033726
 40
0.8651363806
 40
0.9120813699
 40
0.9569172207
 40
0.9786557931
 40
1.0
 40
1.0
 40
1.0
 40
1.0
 10
15.8618849663
 20
13.2769392788
 30
0.0
 10
15.8665695967
 20
13.2920987482
 30
0.0
 10
15.876199484
 20
13.3218194874
 30
0.0
 10
15.8916909554
 20
13.3652348962
 30
0.0
 10
15.9079717747
 20
13.4067010834
 30
0.0
 10
15.9250048569
 20
13.4461235415
 30
0.0
 10
15.9427515825
 20
13.4834129804
 30
0.0
 10
15.9611718922
 20
13.5184850172
 30
0.0
 10
15.9802244235
 20
13.551260459
 30
0.0
 10
15.9998667099
 20
13.5816654339
 30
0.0
 10
16.0200553901
 20
13.6096315104
 30
0.0
 10
16.0407464201
 20
13.6350957137
 30
0.0
 10
16.0618953947
 20
13.6580004833
 30
0.0
 10
16.0834574212
 20
13.6782933367
 30
0.0
 10
16.1053882358
 20
13.6959268871
 30
0.0
 10
16.1276402604
 20
13.7108569286
 30
0.0
 10
16.1466105461
 20
13.7211187392
 30
0.0
 10
16.1618591092
 20
13.7278783712
 30
0.0
 10
16.1695007029
 20
13.7307841792
 30
0.0
 10
16.1733231697
 20
13.7321159114
 30
0.0
  0
SPLINE
  5
2B7
100
AcDbEntity
  8
LAYER_FEATURE
100
AcDbSpline
 62
7
  6
CONTINUOUS
 70
0
 71
3
 72
66
 73
62
 74
0
 42
0.0000001
 43
0.0000001
 44
0.0000000001
 40
0.0
 40
0.0
 40
0.0
 40
0.0
 40
0.0163581107
 40
0.033051107
 40
0.0500642985
 40
0.0673827611
 40
0.0849906066
 40
0.1028714446
 40
0.121008279
 40
0.1393836024
 40
0.1579794302
 40
0.1767773473
 40
0.1957585507
 40
0.2149038906
 40
0.2536079125
 40
0.2927317874
 40
0.3321138127
 40
0.37159043
 40
0.4109974036
 40
0.450170995
 40
0.488949145
 40
0.5271726655
 40
0.5460283044
 40
0.56468753
 40
0.5831318055
 40
0.6013430118
 40
0.6193034907
 40
0.6369960903
 40
0.6544042122
 40
0.6715118607
 40
0.6883036975
 40
0.7047650967
 40
0.7208822049
 40
0.7366420058
 40
0.7520323912
 40
0.767042239
 40
0.7816614985
 40
0.7958812883
 40
0.8096940024
 40
0.8230934301
 40
0.8360748919
 40
0.8486353935
 40
0.8607738017
 40
0.8724910424
 40
0.8837903271
 40
0.8946774056
 40
0.9051608452
 40
0.9152523374
 40
0.9249670251
 40
0.9343238372
 40
0.9433458112
 40
0.9520603739
 40
0.960499536
 40
0.9686999465
 40
0.9767027534
 40
0.9806449554
 40
0.9845550376
 40
0.9884391852
 40
0.9923037398
 40
0.9961551629
 40
1.0
 40
1.0
 40
1.0
 40
1.0
 10
14.2627702704
 20
13.5162591166
 30
0.0
 10
14.2581505575
 20
13.5013097203
 30
0.0
 10
14.2491257985
 20
13.4710084678
 30
0.0
 10
14.2363507252
 20
13.4248533936
 30
0.0
 10
14.2242123172
 20
13.3775777642
 30
0.0
 10
14.2127255241
 20
13.3292399029
 30
0.0
 10
14.201904428
 20
13.2798987974
 30
0.0
 10
14.1917623093
 20
13.2296149761
 30
0.0
 10
14.1823116219
 20
13.1784500154
 30
0.0
 10
14.1735639697
 20
13.1264666203
 30
0.0
 10
14.1655300877
 20
13.0737284852
 30
0.0
 10
14.1582198528
 20
13.0203002809
 30
0.0
 10
14.1516421883
 20
12.9662473654
 30
0.0
 10
14.1438317919
 20
12.8931711499
 30
0.0
 10
14.1359703371
 20
12.8007339797
 30
0.0
 10
14.129599129
 20
12.6887870896
 30
0.0
 10
14.1262883509
 20
12.5759683719
 30
0.0
 10
14.1260542869
 20
12.4628307662
 30
0.0
 10
14.1288981108
 20
12.3499280294
 30
0.0
 10
14.1348058017
 20
12.2378127318
 30
0.0
 10
14.1437482517
 20
12.1270343545
 30
0.0
 10
14.1537370464
 20
12.0358759819
 30
0.0
 10
14.1632308744
 20
11.9640528909
 30
0.0
 10
14.1710458248
 20
11.9110980269
 30
0.0
 10
14.1795775911
 20
11.8588784432
 30
0.0
 10
14.1888157575
 20
11.8074580063
 30
0.0
 10
14.1987489663
 20
11.7568997595
 30
0.0
 10
14.2093650283
 20
11.7072656402
 30
0.0
 10
14.220650913
 20
11.6586164573
 30
0.0
 10
14.232592773
 20
11.6110118008
 30
0.0
 10
14.2451759552
 20
11.5645099685
 30
0.0
 10
14.2583850228
 20
11.5191678932
 30
0.0
 10
14.2722037779
 20
11.4750410727
 30
0.0
 10
14.2866152828
 20
11.4321835012
 30
0.0
 10
14.301601883
 20
11.3906476017
 30
0.0
 10
14.3171452325
 20
11.3504841596
 30
0.0
 10
14.3332263211
 20
11.3117422588
 30
0.0
 10
14.3498254989
 20
11.274469216
 30
0.0
 10
14.3669225082
 20
11.2387105223
 30
0.0
 10
14.3844965204
 20
11.2045097892
 30
0.0
 10
14.4025261703
 20
11.1719086973
 30
0.0
 10
14.4209895954
 20
11.1409469482
 30
0.0
 10
14.4398644779
 20
11.111662222
 30
0.0
 10
14.4591280916
 20
11.0840901423
 30
0.0
 10
14.4787573451
 20
11.0582642459
 30
0.0
 10
14.4987288309
 20
11.0342159686
 30
0.0
 10
14.5190188768
 20
11.0119746513
 30
0.0
 10
14.5396035826
 20
10.9915675601
 30
0.0
 10
14.5604588488
 20
10.9730199257
 30
0.0
 10
14.5815603625
 20
10.9563550022
 30
0.0
 10
14.6028836015
 20
10.9415941301
 30
0.0
 10
14.6244035803
 20
10.9287568175
 30
0.0
 10
14.6460952448
 20
10.9178606744
 30
0.0
 10
14.6679313046
 20
10.9089216927
 30
0.0
 10
14.6863213352
 20
10.9030852149
 30
0.0
 10
14.7010439662
 20
10.8994295915
 30
0.0
 10
14.7120494381
 20
10.8971959187
 30
0.0
 10
14.7230686808
 20
10.8954578992
 30
0.0
 10
14.7340985043
 20
10.8942159812
 30
0.0
 10
14.7451350839
 20
10.8934707039
 30
0.0
 10
14.7524978113
 20
10.8933049961
 30
0.0
 10
14.7561754897
 20
10.8933049935
 30
0.0
  0
SPLINE
  5
2B8
100
AcDbEntity
  8
LAYER_FEATURE
100
AcDbSpline
 62
7
  6
CONTINUOUS
 70
0
 71
3
 72
47
 73
43
 74
0
 42
0.0000001
 43
0.0000001
 44
0.0000000001
 40
0.0
 40
0.0
 40
0.0
 40
0.0
 40
0.0475367022
 40
0.093881814
 40
0.1389925813
 40
0.182830966
 40
0.2253631375
 40
0.2665604238
 40
0.3063996328
 40
0.3448637233
 40
0.381942468
 40
0.4176332517
 40
0.4519419779
 40
0.4848841081
 40
0.5164858404
 40
0.5467854211
 40
0.5758345712
 40
0.6036999711
 40
0.630464709
 40
0.6562295321
 40
0.6811136742
 40
0.6932707897
 40
0.7052609692
 40
0.7171041891
 40
0.7288214025
 40
0.7404344394
 40
0.7519658746
 40
0.7634388941
 40
0.7748771218
 40
0.7863044536
 40
0.7977448689
 40
0.8092222432
 40
0.8207601735
 40
0.8323817886
 40
0.8441096097
 40
0.8559653832
 40
0.867969984
 40
0.8924984122
 40
0.9178471705
 40
0.9441439851
 40
0.9714979362
 40
1.0
 40
1.0
 40
1.0
 40
1.0
 10
14.3185162294
 20
13.4470680227
 30
0.0
 10
14.323168397
 20
13.4621224425
 30
0.0
 10
14.3326858724
 20
13.4917533852
 30
0.0
 10
14.3478055577
 20
13.5352777366
 30
0.0
 10
14.3635698992
 20
13.577266446
 30
0.0
 10
14.3799551627
 20
13.6176564125
 30
0.0
 10
14.3969369191
 20
13.6563874263
 30
0.0
 10
14.4144897993
 20
13.6934016482
 30
0.0
 10
14.4325876785
 20
13.728643904
 30
0.0
 10
14.4512036788
 20
13.7620617014
 30
0.0
 10
14.4703102567
 20
13.7936053213
 30
0.0
 10
14.4898792646
 20
13.8232278753
 30
0.0
 10
14.5098820317
 20
13.8508853539
 30
0.0
 10
14.5302894426
 20
13.8765366524
 30
0.0
 10
14.5510720227
 20
13.9001435735
 30
0.0
 10
14.572199996
 20
13.9216707882
 30
0.0
 10
14.5936433851
 20
13.9410857817
 30
0.0
 10
14.6153718301
 20
13.9583586806
 30
0.0
 10
14.6373551567
 20
13.9734623318
 30
0.0
 10
14.659560924
 20
13.986371415
 30
0.0
 10
14.6783726109
 20
13.9953515604
 30
0.0
 10
14.6934705244
 20
14.0013795672
 30
0.0
 10
14.7047399163
 20
14.0053061558
 30
0.0
 10
14.7160374802
 20
14.0086710965
 30
0.0
 10
14.7273591092
 20
14.0114730903
 30
0.0
 10
14.7387003983
 20
14.013710965
 30
0.0
 10
14.7500569945
 20
14.0153837151
 30
0.0
 10
14.761424476
 20
14.0164907021
 30
0.0
 10
14.7727984243
 20
14.0170313463
 30
0.0
 10
14.784174392
 20
14.0170055289
 30
0.0
 10
14.7955479311
 20
14.0164131348
 30
0.0
 10
14.8069146089
 20
14.0152545517
 30
0.0
 10
14.8182699805
 20
14.0135301535
 30
0.0
 10
14.8296096756
 20
14.011240794
 30
0.0
 10
14.8409292401
 20
14.0083873699
 30
0.0
 10
14.8522245696
 20
14.004971051
 30
0.0
 10
14.8673533666
 20
13.9996298945
 30
0.0
 10
14.8862185071
 20
13.991505956
 30
0.0
 10
14.908515284
 20
13.9796014344
 30
0.0
 10
14.9306042272
 20
13.965491708
 30
0.0
 10
14.9524515335
 20
13.9492018295
 30
0.0
 10
14.9665357289
 20
13.9371616429
 30
0.0
 10
14.9735295494
 20
13.9308101394
 30
0.0
  0
SPLINE
  5
2B9
100
AcDbEntity
  8
LAYER_FEATURE
100
AcDbSpline
 62
7
  6
CONTINUOUS
 70
0
 71
3
 72
80
 73
76
 74
0
 42
0.0000001
 43
0.0000001
 44
0.0000000001
 40
0.0
 40
0.0
 40
0.0
 40
0.0
 40
0.017439403
 40
0.0352864379
 40
0.0535205067
 40
0.0721199255
 40
0.0910619146
 40
0.1103227567
 40
0.1298778631
 40
0.1497018695
 40
0.1697687151
 40
0.1900517227
 40
0.2105236751
 40
0.2311568899
 40
0.2519232915
 40
0.2727944833
 40
0.2937418176
 40
0.3147364655
 40
0.3357494857
 40
0.3567518934
 40
0.377714729
 40
0.3986091267
 40
0.4194063835
 40
0.4400780286
 40
0.4605958936
 40
0.4809321838
 40
0.5010595501
 40
0.5209511634
 40
0.5405807902
 40
0.5599228713
 40
0.5789526034
 40
0.5976460239
 40
0.615980101
 40
0.6339328294
 40
0.6514833323
 40
0.6686119728
 40
0.6853004741
 40
0.7015320542
 40
0.7172915738
 40
0.7325657044
 40
0.7473431177
 40
0.7616147032
 40
0.775373817
 40
0.7886165708
 40
0.8013421649
 40
0.8135532737
 40
0.8252564886
 40
0.8364628216
 40
0.8471882662
 40
0.8574544049
 40
0.8672890329
 40
0.8767267479
 40
0.8858094242
 40
0.8902338499
 40
0.8945886788
 40
0.8988812376
 40
0.9031192786
 40
0.9073109481
 40
0.9114647402
 40
0.9155894469
 40
0.9196940933
 40
0.9237878711
 40
0.9278800625
 40
0.9319799627
 40
0.9360968034
 40
0.9402396736
 40
0.9444174537
 40
0.9486387437
 40
0.9529118167
 40
0.95724456
 40
0.9616444532
 40
0.9706713033
 40
0.9800453022
 40
0.9898095978
 40
1.0
 40
1.0
 40
1.0
 40
1.0
 10
14.3185162294
 20
13.4470680227
 30
0.0
 10
14.3135554491
 20
13.4310149316
 30
0.0
 10
14.3039012945
 20
13.3984138685
 30
0.0
 10
14.2903622848
 20
13.3486543542
 30
0.0
 10
14.2776145687
 20
13.2975335928
 30
0.0
 10
14.2656789875
 20
13.2451349231
 30
0.0
 10
14.2545749346
 20
13.1915432691
 30
0.0
 10
14.2443204889
 20
13.1368456723
 30
0.0
 10
14.2349323423
 20
13.081130938
 30
0.0
 10
14.2264257793
 20
13.024489553
 30
0.0
 10
14.218814651
 20
12.9670135172
 30
0.0
 10
14.212111351
 20
12.9087961982
 30
0.0
 10
14.2063267956
 20
12.8499321759
 30
0.0
 10
14.201470405
 20
12.7905170883
 30
0.0
 10
14.1975500885
 20
12.7306474744
 30
0.0
 10
14.1945722307
 20
12.6704206164
 30
0.0
 10
14.1925416817
 20
12.6099343804
 30
0.0
 10
14.1914617484
 20
12.5492870565
 30
0.0
 10
14.1913341899
 20
12.488577198
 30
0.0
 10
14.1921592137
 20
12.4279034605
 30
0.0
 10
14.1939354763
 20
12.3673644404
 30
0.0
 10
14.1966600847
 20
12.3070585141
 30
0.0
 10
14.2003286012
 20
12.2470836769
 30
0.0
 10
14.2049350514
 20
12.187537383
 30
0.0
 10
14.210471933
 20
12.1285163859
 30
0.0
 10
14.2169302289
 20
12.0701165804
 30
0.0
 10
14.2242994219
 20
12.012432845
 30
0.0
 10
14.2325675117
 20
11.9555588867
 30
0.0
 10
14.2417210357
 20
11.8995870872
 30
0.0
 10
14.2517450907
 20
11.844608351
 30
0.0
 10
14.2626233582
 20
11.7907119557
 30
0.0
 10
14.2743381322
 20
11.7379854045
 30
0.0
 10
14.2868703494
 20
11.6865142819
 30
0.0
 10
14.300199622
 20
11.6363821114
 30
0.0
 10
14.3143042737
 20
11.5876702167
 30
0.0
 10
14.3291613789
 20
11.5404575859
 30
0.0
 10
14.3447468043
 20
11.4948207387
 30
0.0
 10
14.361035255
 20
11.4508335984
 30
0.0
 10
14.3780003239
 20
11.408567367
 30
0.0
 10
14.3956145467
 20
11.3680904049
 30
0.0
 10
14.4138494609
 20
11.329468117
 30
0.0
 10
14.432675672
 20
11.2927628441
 30
0.0
 10
14.4520629267
 20
11.2580337634
 30
0.0
 10
14.4719801937
 20
11.2253367999
 30
0.0
 10
14.4923957536
 20
11.1947245524
 30
0.0
 10
14.5132772957
 20
11.1662462402
 30
0.0
 10
14.5345920255
 20
11.1399476765
 30
0.0
 10
14.5563067498
 20
11.1158712862
 30
0.0
 10
14.5783880204
 20
11.0940561424
 30
0.0
 10
14.6008019833
 20
11.0745381594
 30
0.0
 10
14.6235150468
 20
11.0573499779
 30
0.0
 10
14.6464913006
 20
11.0425221282
 30
0.0
 10
14.6659999865
 20
11.0320637003
 30
0.0
 10
14.6816742324
 20
11.0249473602
 30
0.0
 10
14.693368682
 20
11.0202605479
 30
0.0
 10
14.7050984012
 20
11.0161803774
 30
0.0
 10
14.7168587796
 20
11.0127085738
 30
0.0
 10
14.7286448902
 20
11.0098467183
 30
0.0
 10
14.7404518453
 20
11.0075961602
 30
0.0
 10
14.7522746799
 20
11.0059579021
 30
0.0
 10
14.7641084158
 20
11.0049327737
 30
0.0
 10
14.7759480346
 20
11.0045211934
 30
0.0
 10
14.7877885113
 20
11.0047234343
 30
0.0
 10
14.7996248192
 20
11.0055393149
 30
0.0
 10
14.8114519313
 20
11.0069685396
 30
0.0
 10
14.8232648655
 20
11.0090103354
 30
0.0
 10
14.8350586328
 20
11.0116638479
 30
0.0
 10
14.8468283487
 20
11.0149277509
 30
0.0
 10
14.8585690446
 20
11.0188006299
 30
0.0
 10
14.8702761302
 20
11.0232807576
 30
0.0
 10
14.8859662819
 20
11.0301187347
 30
0.0
 10
14.9055010727
 20
11.0402308301
 30
0.0
 10
14.9285190789
 20
11.0546536128
 30
0.0
 10
14.951278981
 20
11.0714407526
 30
0.0
 10
14.9659320001
 20
11.0839126257
 30
0.0
 10
14.97320622
 20
11.0905064966
 30
0.0
  0
SPLINE
  5
2BA
100
AcDbEntity
  8
LAYER_FEATURE
100
AcDbSpline
 62
7
  6
CONTINUOUS
 70
0
 71
3
 72
15
 73
11
 74
0
 42
0.0000001
 43
0.0000001
 44
0.0000000001
 40
0.0
 40
0.0
 40
0.0
 40
0.0
 40
0.1229410893
 40
0.2512403923
 40
0.3825628614
 40
0.514460755
 40
0.6444728338
 40
0.7701992305
 40
0.8893796521
 40
1.0
 40
1.0
 40
1.0
 40
1.0
 10
14.309630196
 20
13.2657970797
 30
0.0
 10
14.3094508029
 20
13.2649130729
 30
0.0
 10
14.3091492565
 20
13.2630928876
 30
0.0
 10
14.3088654846
 20
13.2602987752
 30
0.0
 10
14.3087442622
 20
13.2574270869
 30
0.0
 10
14.3087883729
 20
13.2545406691
 30
0.0
 10
14.308996805
 20
13.2517025574
 30
0.0
 10
14.3093649003
 20
13.2489745961
 30
0.0
 10
14.3098843069
 20
13.2464163329
 30
0.0
 10
14.3103432557
 20
13.244791558
 30
0.0
 10
14.3106000025
 20
13.2440216098
 30
0.0
  0
SPLINE
  5
2BB
100
AcDbEntity
  8
LAYER_FEATURE
100
AcDbSpline
 62
7
  6
CONTINUOUS
 70
0
 71
3
 72
15
 73
11
 74
0
 42
0.0000001
 43
0.0000001
 44
0.0000000001
 40
0.0
 40
0.0
 40
0.0
 40
0.0
 40
0.133779839
 40
0.2668516776
 40
0.398280286
 40
0.5271447361
 40
0.6525593319
 40
0.7736832055
 40
0.8897319748
 40
1.0
 40
1.0
 40
1.0
 40
1.0
 10
14.3332319052
 20
13.1397740902
 30
0.0
 10
14.3332574818
 20
13.1425915359
 30
0.0
 10
14.3332086005
 20
13.148212938
 30
0.0
 10
14.3328367323
 20
13.1565946616
 30
0.0
 10
14.3321695095
 20
13.1648543779
 30
0.0
 10
14.3312125147
 20
13.1729232645
 30
0.0
 10
14.3299738344
 20
13.1807342206
 30
0.0
 10
14.3284638385
 20
13.1882224436
 30
0.0
 10
14.3266953129
 20
13.1953256098
 30
0.0
 10
14.325315835
 20
13.1998908558
 30
0.0
 10
14.3245811847
 20
13.2020939707
 30
0.0
  0
SPLINE
  5
2BC
100
AcDbEntity
  8
LAYER_FEATURE
100
AcDbSpline
 62
7
  6
CONTINUOUS
 70
0
 71
3
 72
37
 73
33
 74
0
 42
0.0000001
 43
0.0000001
 44
0.0000000001
 40
0.0
 40
0.0
 40
0.0
 40
0.0
 40
0.0221334986
 40
0.0443479987
 40
0.0667234069
 40
0.0893375189
 40
0.1122650718
 40
0.1355769916
 40
0.159339792
 40
0.1836151059
 40
0.2084594839
 40
0.2339242266
 40
0.2868800555
 40
0.3144621083
 40
0.3428189419
 40
0.3719774478
 40
0.401960307
 40
0.4327863584
 40
0.4644707697
 40
0.4970253556
 40
0.5304588465
 40
0.5647770268
 40
0.5999830618
 40
0.6360776184
 40
0.6730590506
 40
0.7109236311
 40
0.7496655707
 40
0.7892773214
 40
0.8297496423
 40
0.8710713326
 40
0.9132301729
 40
1.0
 40
1.0
 40
1.0
 40
1.0
 10
14.7779673915
 20
13.930804988
 30
0.0
 10
14.7732431374
 20
13.9308049811
 30
0.0
 10
14.7637744015
 20
13.9304929833
 30
0.0
 10
14.7495922918
 20
13.9290901441
 30
0.0
 10
14.735429444
 20
13.9267534379
 30
0.0
 10
14.7212964967
 20
13.9234846874
 30
0.0
 10
14.7072028898
 20
13.9192865693
 30
0.0
 10
14.6931581936
 20
13.9141623573
 30
0.0
 10
14.6791717287
 20
13.908115882
 30
0.0
 10
14.6652527485
 20
13.9011517421
 30
0.0
 10
14.6514099414
 20
13.8932746665
 30
0.0
 10
14.6328263022
 20
13.8814087905
 30
0.0
 10
14.6146713609
 20
13.8678423575
 30
0.0
 10
14.5969817703
 20
13.8527589342
 30
0.0
 10
14.5836530332
 20
13.8404117216
 30
0.0
 10
14.5704535534
 20
13.8271933703
 30
0.0
 10
14.5573910399
 20
13.8131120395
 30
0.0
 10
14.5444741199
 20
13.7981770983
 30
0.0
 10
14.5317110264
 20
13.7823983061
 30
0.0
 10
14.5191099994
 20
13.7657860008
 30
0.0
 10
14.5066792197
 20
13.7483510126
 30
0.0
 10
14.4944266961
 20
13.7301047634
 30
0.0
 10
14.4823604118
 20
13.7110591555
 30
0.0
 10
14.4704882124
 20
13.6912266336
 30
0.0
 10
14.4588177984
 20
13.6706201723
 30
0.0
 10
14.4473568247
 20
13.6492532225
 30
0.0
 10
14.4361127342
 20
13.627139774
 30
0.0
 10
14.4250928699
 20
13.6042942643
 30
0.0
 10
14.4143045081
 20
13.5807316967
 30
0.0
 10
14.4037545541
 20
13.5564673886
 30
0.0
 10
14.3898824942
 20
13.522878933
 30
0.0
 10
14.3800621391
 20
13.4971641406
 30
0.0
 10
14.373734995
 20
13.479757966
 30
0.0
  0
SPLINE
  5
2BD
100
AcDbEntity
  8
LAYER_FEATURE
100
AcDbSpline
 62
7
  6
CONTINUOUS
 70
0
 71
3
 72
15
 73
11
 74
0
 42
0.0000001
 43
0.0000001
 44
0.0000000001
 40
0.0
 40
0.0
 40
0.0
 40
0.0
 40
0.1336770816
 40
0.2697637889
 40
0.405732037
 40
0.539042966
 40
0.6672503807
 40
0.7880821678
 40
0.8995334695
 40
1.0
 40
1.0
 40
1.0
 40
1.0
 10
14.2624523235
 20
13.0245488123
 30
0.0
 10
14.2623427349
 20
13.0236057595
 30
0.0
 10
14.2621812838
 20
13.0216952859
 30
0.0
 10
14.2621065295
 20
13.01881317
 30
0.0
 10
14.2621971568
 20
13.0159339895
 30
0.0
 10
14.2624511764
 20
13.0131207155
 30
0.0
 10
14.2628628527
 20
13.0104346901
 30
0.0
 10
14.2634230273
 20
13.007934048
 30
0.0
 10
14.2641190547
 20
13.0056729972
 30
0.0
 10
14.2646958281
 20
13.0042790957
 30
0.0
 10
14.2650094109
 20
13.0036381643
 30
0.0
  0
SPLINE
  5
2BE
100
AcDbEntity
  8
LAYER_FEATURE
100
AcDbSpline
 62
7
  6
CONTINUOUS
 70
0
 71
3
 72
15
 73
11
 74
0
 42
0.0000001
 43
0.0000001
 44
0.0000000001
 40
0.0
 40
0.0
 40
0.0
 40
0.0
 40
0.1410182797
 40
0.2791999745
 40
0.4136003233
 40
0.5433176903
 40
0.667517821
 40
0.7854470473
 40
0.8964500157
 40
1.0
 40
1.0
 40
1.0
 40
1.0
 10
14.2949151495
 20
12.9122732852
 30
0.0
 10
14.2947339758
 20
12.9150316656
 30
0.0
 10
14.294276626
 20
12.9204870384
 30
0.0
 10
14.2932960714
 20
12.9285370825
 30
0.0
 10
14.2920346008
 20
12.9363238594
 30
0.0
 10
14.2905027853
 20
12.943782629
 30
0.0
 10
14.2887135246
 20
12.9508515649
 30
0.0
 10
14.2866817031
 20
12.9574723957
 30
0.0
 10
14.2844244434
 20
12.9635902597
 30
0.0
 10
14.2827199916
 20
12.967439533
 30
0.0
 10
14.2818279141
 20
12.969262849
 30
0.0
  0
SPLINE
  5
2BF
100
AcDbEntity
  8
LAYER_FEATURE
100
AcDbSpline
 62
7
  6
CONTINUOUS
 70
0
 71
3
 72
19
 73
15
 74
0
 42
0.0000001
 43
0.0000001
 44
0.0000000001
 40
0.0
 40
0.0
 40
0.0
 40
0.0
 40
0.0441615055
 40
0.0897395138
 40
0.1371086734
 40
0.1866002383
 40
0.2929126735
 40
0.3501927711
 40
0.4103759535
 40
0.4735447658
 40
0.5397485212
 40
0.6812770334
 40
0.8348510667
 40
1.0
 40
1.0
 40
1.0
 40
1.0
 10
14.2651248137
 20
12.8255261483
 30
0.0
 10
14.2656781286
 20
12.8256576127
 30
0.0
 10
14.2667881384
 20
12.825989028
 30
0.0
 10
14.2684195072
 20
12.826672148
 30
0.0
 10
14.2700356567
 20
12.827545905
 30
0.0
 10
14.2722169763
 20
12.8289961509
 30
0.0
 10
14.2743007074
 20
12.8308010178
 30
0.0
 10
14.2762817308
 20
12.8328952948
 30
0.0
 10
14.2777739791
 20
12.8346818252
 30
0.0
 10
14.2792324252
 20
12.8366407658
 30
0.0
 10
14.2811714459
 20
12.8395425136
 30
0.0
 10
14.2834796946
 20
12.843589864
 30
0.0
 10
14.286010618
 20
12.8489545767
 30
0.0
 10
14.287512335
 20
12.8527779407
 30
0.0
 10
14.2882339093
 20
12.8547786049
 30
0.0
  0
SPLINE
  5
2C0
100
AcDbEntity
  8
LAYER_FEATURE
100
AcDbSpline
 62
7
  6
CONTINUOUS
 70
0
 71
3
 72
20
 73
16
 74
0
 42
0.0000001
 43
0.0000001
 44
0.0000000001
 40
0.0
 40
0.0
 40
0.0
 40
0.0
 40
0.0368015937
 40
0.0758311648
 40
0.1177970911
 40
0.1632327762
 40
0.212485559
 40
0.2657534658
 40
0.3231139989
 40
0.3845481192
 40
0.4499600178
 40
0.5191878575
 40
0.6681665182
 40
0.8293304599
 40
1.0
 40
1.0
 40
1.0
 40
1.0
 10
14.2437207192
 20
12.8204406604
 30
0.0
 10
14.2435288072
 20
12.8203950632
 30
0.0
 10
14.2431415224
 20
12.8202637939
 30
0.0
 10
14.2425832217
 20
12.8199638731
 30
0.0
 10
14.2420370434
 20
12.819559254
 30
0.0
 10
14.2415056266
 20
12.8190529126
 30
0.0
 10
14.2409911274
 20
12.8184478013
 30
0.0
 10
14.240496017
 20
12.817747156
 30
0.0
 10
14.2400226999
 20
12.8169547254
 30
0.0
 10
14.2395736078
 20
12.8160747256
 30
0.0
 10
14.2391511283
 20
12.8151118524
 30
0.0
 10
14.2386131857
 20
12.8136894394
 30
0.0
 10
14.2380300416
 20
12.8117385491
 30
0.0
 10
14.2374836469
 20
12.8092179899
 30
0.0
 10
14.2372248803
 20
12.8074568138
 30
0.0
 10
14.2371192878
 20
12.8065481496
 30
0.0
  0
SPLINE
  5
2C1
100
AcDbEntity
  8
LAYER_FEATURE
100
AcDbSpline
 62
7
  6
CONTINUOUS
 70
0
 71
3
 72
17
 73
13
 74
0
 42
0.0000001
 43
0.0000001
 44
0.0000000001
 40
0.0
 40
0.0
 40
0.0
 40
0.0
 40
0.145121512
 40
0.2893424575
 40
0.4299931016
 40
0.5645054868
 40
0.6905308672
 40
0.8060418781
 40
0.8593594127
 40
0.9095081423
 40
0.9564052272
 40
1.0
 40
1.0
 40
1.0
 40
1.0
 10
14.2339065087
 20
12.7647325047
 30
0.0
 10
14.2338688631
 20
12.7637650951
 30
0.0
 10
14.2338499897
 20
12.761833643
 30
0.0
 10
14.2339870152
 20
12.7589667839
 30
0.0
 10
14.2342861491
 20
12.7561832504
 30
0.0
 10
14.2347407084
 20
12.7535436505
 30
0.0
 10
14.235340539
 20
12.7511054182
 30
0.0
 10
14.2359660317
 20
12.749237217
 30
0.0
 10
14.2365353626
 20
12.7478911828
 30
0.0
 10
14.2369781896
 20
12.7469903996
 30
0.0
 10
14.2374457951
 20
12.7461761984
 30
0.0
 10
14.2377847616
 20
12.7456757096
 30
0.0
 10
14.2379584572
 20
12.745442444
 30
0.0
  0
SPLINE
  5
2C2
100
AcDbEntity
  8
LAYER_FEATURE
100
AcDbSpline
 62
7
  6
CONTINUOUS
 70
0
 71
3
 72
15
 73
11
 74
0
 42
0.0000001
 43
0.0000001
 44
0.0000000001
 40
0.0
 40
0.0
 40
0.0
 40
0.0
 40
0.1489634531
 40
0.292641697
 40
0.4301178836
 40
0.5605598786
 40
0.683252274
 40
0.7976197022
 40
0.9032605189
 40
1.0
 40
1.0
 40
1.0
 40
1.0
 10
14.2740571604
 20
12.67026237
 30
0.0
 10
14.273678907
 20
12.672862691
 30
0.0
 10
14.2728360565
 20
12.6779572716
 30
0.0
 10
14.2712825082
 20
12.6853860966
 30
0.0
 10
14.2694726574
 20
12.6924202646
 30
0.0
 10
14.2674215974
 20
12.699001599
 30
0.0
 10
14.2651464456
 20
12.7050759832
 30
0.0
 10
14.2626656909
 20
12.7105940997
 30
0.0
 10
14.2599998474
 20
12.7155107007
 30
0.0
 10
14.2580255833
 20
12.7184931698
 30
0.0
 10
14.2570064169
 20
12.7198618658
 30
0.0
  0
SPLINE
  5
2C3
100
AcDbEntity
  8
LAYER_FEATURE
100
AcDbSpline
 62
7
  6
CONTINUOUS
 70
0
 71
3
 72
17
 73
13
 74
0
 42
0.0000001
 43
0.0000001
 44
0.0000000001
 40
0.0
 40
0.0
 40
0.0
 40
0.0
 40
0.0906277219
 40
0.1394605837
 40
0.190760736
 40
0.2445953873
 40
0.3010004593
 40
0.4215205214
 40
0.5522038906
 40
0.6926295251
 40
0.8421609926
 40
1.0
 40
1.0
 40
1.0
 40
1.0
 10
14.2511982571
 20
12.570605228
 30
0.0
 10
14.2523046944
 20
12.5714304338
 30
0.0
 10
14.2539007716
 20
12.5728472571
 30
0.0
 10
14.2558752752
 20
12.5749795577
 30
0.0
 10
14.2573622014
 20
12.576794828
 30
0.0
 10
14.2588147923
 20
12.5787818502
 30
0.0
 10
14.2607448935
 20
12.5817204467
 30
0.0
 10
14.2630407859
 20
12.5858113389
 30
0.0
 10
14.2655559953
 20
12.5912248001
 30
0.0
 10
14.2678693158
 20
12.5972034143
 30
0.0
 10
14.2699616836
 20
12.6036978792
 30
0.0
 10
14.271167692
 20
12.6082234269
 30
0.0
 10
14.2717338964
 20
12.6105597149
 30
0.0
  0
SPLINE
  5
2C4
100
AcDbEntity
  8
LAYER_FEATURE
100
AcDbSpline
 62
7
  6
CONTINUOUS
 70
0
 71
3
 72
18
 73
14
 74
0
 42
0.0000001
 43
0.0000001
 44
0.0000000001
 40
0.0
 40
0.0
 40
0.0
 40
0.0
 40
0.0388642347
 40
0.0810033662
 40
0.1266308936
 40
0.1758670053
 40
0.2287299959
 40
0.2851618911
 40
0.4081689906
 40
0.5434279319
 40
0.6888558687
 40
0.8419619313
 40
1.0
 40
1.0
 40
1.0
 40
1.0
 10
14.2305557522
 20
12.5552095852
 30
0.0
 10
14.2303672917
 20
12.5550690271
 30
0.0
 10
14.2299944495
 20
12.554748774
 30
0.0
 10
14.2294723309
 20
12.5541865207
 30
0.0
 10
14.2289684195
 20
12.5535271295
 30
0.0
 10
14.2284853091
 20
12.552774316
 30
0.0
 10
14.2280252972
 20
12.5519320277
 30
0.0
 10
14.2274289716
 20
12.5506587375
 30
0.0
 10
14.2267667955
 20
12.5488702162
 30
0.0
 10
14.2261203604
 20
12.5465127699
 30
0.0
 10
14.2256150063
 20
12.5439354985
 30
0.0
 10
14.2252619514
 20
12.541194459
 30
0.0
 10
14.2251346411
 20
12.5393152453
 30
0.0
 10
14.2250974663
 20
12.5383599375
 30
0.0
  0
SPLINE
  5
2C5
100
AcDbEntity
  8
LAYER_FEATURE
100
AcDbSpline
 62
7
  6
CONTINUOUS
 70
0
 71
3
 72
52
 73
48
 74
0
 42
0.0000001
 43
0.0000001
 44
0.0000000001
 40
0.0
 40
0.0
 40
0.0
 40
0.0
 40
0.0426891472
 40
0.0853235886
 40
0.1278144935
 40
0.1700729646
 40
0.212011207
 40
0.2535425342
 40
0.2945817774
 40
0.3350456158
 40
0.3748529282
 40
0.4139251591
 40
0.452186703
 40
0.4895653162
 40
0.5259925496
 40
0.5614042212
 40
0.5957409376
 40
0.6289486793
 40
0.6609794693
 40
0.6917921306
 40
0.7067315995
 40
0.7213546789
 40
0.7356585615
 40
0.7496410701
 40
0.7633006741
 40
0.7766365854
 40
0.7896487637
 40
0.8023380048
 40
0.814706002
 40
0.826755388
 40
0.8384898554
 40
0.8499141894
 40
0.8610343824
 40
0.87185772
 40
0.882392848
 40
0.8926499067
 40
0.9026405774
 40
0.9123781928
 40
0.9311503402
 40
0.9402261693
 40
0.949119806
 40
0.9578533862
 40
0.9664506895
 40
0.9749369769
 40
0.9833387987
 40
0.9916837162
 40
1.0
 40
1.0
 40
1.0
 40
1.0
 10
14.2250974663
 20
12.5383599375
 30
0.0
 10
14.2249197132
 20
12.5148415292
 30
0.0
 10
14.2250192064
 20
12.4678301452
 30
0.0
 10
14.2265308188
 20
12.3974242946
 30
0.0
 10
14.229401015
 20
12.3272978884
 30
0.0
 10
14.2336227316
 20
12.2576241169
 30
0.0
 10
14.2391855016
 20
12.188574817
 30
0.0
 10
14.2460755708
 20
12.1203202755
 30
0.0
 10
14.2542758815
 20
12.0530287959
 30
0.0
 10
14.2637661403
 20
11.9868662846
 30
0.0
 10
14.2745228667
 20
11.9219958329
 30
0.0
 10
14.2865194541
 20
11.8585773106
 30
0.0
 10
14.29972624
 20
11.7967669618
 30
0.0
 10
14.31411057
 20
11.7367170038
 30
0.0
 10
14.3296368978
 20
11.6785752502
 30
0.0
 10
14.3462668892
 20
11.6224847135
 30
0.0
 10
14.3639595103
 20
11.5685833194
 30
0.0
 10
14.3826712278
 20
11.5170032614
 30
0.0
 10
14.4023558645
 20
11.4678716616
 30
0.0
 10
14.4197045264
 20
11.4286748558
 30
0.0
 10
14.4340522065
 20
11.3986632469
 30
0.0
 10
14.4449145667
 20
11.3770722379
 30
0.0
 10
14.4559824014
 20
11.3561806063
 30
0.0
 10
14.4672489572
 20
11.3360011329
 30
0.0
 10
14.478707349
 20
11.3165462675
 30
0.0
 10
14.4903505081
 20
11.2978279452
 30
0.0
 10
14.5021713368
 20
11.27985769
 30
0.0
 10
14.5141626069
 20
11.2626465486
 30
0.0
 10
14.5263169707
 20
11.2462050826
 30
0.0
 10
14.5386270736
 20
11.2305434341
 30
0.0
 10
14.5510853796
 20
11.2156712028
 30
0.0
 10
14.5636843622
 20
11.2015975702
 30
0.0
 10
14.5764163963
 20
11.188331214
 30
0.0
 10
14.5892737445
 20
11.1758803207
 30
0.0
 10
14.6022487702
 20
11.1642526276
 30
0.0
 10
14.6153333791
 20
11.1534554677
 30
0.0
 10
14.6285205745
 20
11.1434951879
 30
0.0
 10
14.6460121129
 20
11.1314879269
 30
0.0
 10
14.6639046081
 20
11.1209819888
 30
0.0
 10
14.6821261688
 20
11.1121472725
 30
0.0
 10
14.6957022115
 20
11.1064587106
 30
0.0
 10
14.7093309676
 20
11.1016384727
 30
0.0
 10
14.7230043332
 20
11.0976896727
 30
0.0
 10
14.736713485
 20
11.0946153446
 30
0.0
 10
14.7504498161
 20
11.0924176776
 30
0.0
 10
14.764203661
 20
11.0910984142
 30
0.0
 10
14.7733856334
 20
11.0908049988
 30
0.0
 10
14.7779673915
 20
11.0908050026
 30
0.0
  0
SPLINE
  5
2C6
100
AcDbEntity
  8
LAYER_FEATURE
100
AcDbSpline
 62
7
  6
CONTINUOUS
 70
0
 71
3
 72
15
 73
11
 74
0
 42
0.0000001
 43
0.0000001
 44
0.0000000001
 40
0.0
 40
0.0
 40
0.0
 40
0.0
 40
0.1126204601
 40
0.233296856
 40
0.3599530997
 40
0.4902911285
 40
0.6218950407
 40
0.7523079002
 40
0.8791063589
 40
1.0
 40
1.0
 40
1.0
 40
1.0
 10
14.373734995
 20
13.479757966
 30
0.0
 10
14.3734903243
 20
13.4789662113
 30
0.0
 10
14.3730561223
 20
13.4773031433
 30
0.0
 10
14.3725737985
 20
13.4746968876
 30
0.0
 10
14.3722451938
 20
13.4719355249
 30
0.0
 10
14.3720777704
 20
13.4690793763
 30
0.0
 10
14.3720752684
 20
13.4661907228
 30
0.0
 10
14.3722377636
 20
13.4633326456
 30
0.0
 10
14.3725615411
 20
13.4605676839
 30
0.0
 10
14.3728898431
 20
13.4587731645
 30
0.0
 10
14.3730824693
 20
13.4579046963
 30
0.0
  0
SPLINE
  5
2C7
100
AcDbEntity
  8
LAYER_FEATURE
100
AcDbSpline
 62
7
  6
CONTINUOUS
 70
0
 71
3
 72
15
 73
11
 74
0
 42
0.0000001
 43
0.0000001
 44
0.0000000001
 40
0.0
 40
0.0
 40
0.0
 40
0.0
 40
0.1270541201
 40
0.2553207885
 40
0.383896457
 40
0.511868149
 40
0.6383329274
 40
0.7624063719
 40
0.8832318236
 40
1.0
 40
1.0
 40
1.0
 40
1.0
 10
14.3876225601
 20
13.3445423133
 30
0.0
 10
14.3878570511
 20
13.3473169645
 30
0.0
 10
14.3882245656
 20
13.3529020142
 30
0.0
 10
14.3884749305
 20
13.3613135269
 30
0.0
 10
14.3884262587
 20
13.3697488418
 30
0.0
 10
14.3880789196
 20
13.3781376148
 30
0.0
 10
14.3874358672
 20
13.3864100073
 30
0.0
 10
14.3865024837
 20
13.3944972065
 30
0.0
 10
14.3852866901
 20
13.402331792
 30
0.0
 10
14.3842751585
 20
13.4074417111
 30
0.0
 10
14.3837210141
 20
13.4099401077
 30
0.0
  0
SPLINE
  5
2C8
100
AcDbEntity
  8
LAYER_FEATURE
100
AcDbSpline
 62
7
  6
CONTINUOUS
 70
0
 71
3
 72
39
 73
35
 74
0
 42
0.0000001
 43
0.0000001
 44
0.0000000001
 40
0.0
 40
0.0
 40
0.0
 40
0.0
 40
0.0443812161
 40
0.0879669375
 40
0.1307335144
 40
0.17266187
 40
0.2137331579
 40
0.2539302009
 40
0.2932376948
 40
0.3316421066
 40
0.3691319128
 40
0.4056977088
 40
0.4413323949
 40
0.4760313922
 40
0.509792798
 40
0.5426176311
 40
0.574510128
 40
0.6054779696
 40
0.6355325855
 40
0.6646895377
 40
0.6929688335
 40
0.7203952838
 40
0.7469989369
 40
0.7728154411
 40
0.7978863818
 40
0.8222596365
 40
0.8459896189
 40
0.8691373741
 40
0.8917705685
 40
0.9139632712
 40
0.9357954525
 40
0.957352258
 40
0.9787230193
 40
1.0
 40
1.0
 40
1.0
 40
1.0
 10
14.2627702704
 20
13.5162591166
 30
0.0
 10
14.2664088592
 20
13.5280335943
 30
0.0
 10
14.2738093661
 20
13.5513137818
 30
0.0
 10
14.2853897032
 20
13.5857213389
 30
0.0
 10
14.2973421594
 20
13.6192794512
 30
0.0
 10
14.309657107
 20
13.651961233
 30
0.0
 10
14.3223249162
 20
13.6837411449
 30
0.0
 10
14.3353355631
 20
13.7145940564
 30
0.0
 10
14.3486787892
 20
13.7444956188
 30
0.0
 10
14.3623440836
 20
13.7734222688
 30
0.0
 10
14.3763206623
 20
13.8013512148
 30
0.0
 10
14.3905975419
 20
13.8282604453
 30
0.0
 10
14.4051635126
 20
13.8541287634
 30
0.0
 10
14.4200071191
 20
13.87893582
 30
0.0
 10
14.4351167392
 20
13.9026620899
 30
0.0
 10
14.4504805782
 20
13.9252888925
 30
0.0
 10
14.466086624
 20
13.9467984464
 30
0.0
 10
14.4819227313
 20
13.9671738298
 30
0.0
 10
14.4979766371
 20
13.9863989787
 30
0.0
 10
14.5142359013
 20
14.004458753
 30
0.0
 10
14.5306879775
 20
14.0213388917
 30
0.0
 10
14.547320244
 20
14.0370259781
 30
0.0
 10
14.5641199398
 20
14.0515075042
 30
0.0
 10
14.5810741966
 20
14.0647718379
 30
0.0
 10
14.5981700694
 20
14.0768081527
 30
0.0
 10
14.6153944658
 20
14.0876064815
 30
0.0
 10
14.6327341164
 20
14.097157733
 30
0.0
 10
14.6501755902
 20
14.105453608
 30
0.0
 10
14.6677052036
 20
14.1124866654
 30
0.0
 10
14.6853089963
 20
14.118250445
 30
0.0
 10
14.7029726015
 20
14.1227394202
 30
0.0
 10
14.7206817536
 20
14.1259491016
 30
0.0
 10
14.7384203209
 20
14.1278762546
 30
0.0
 10
14.7502672549
 20
14.1283049965
 30
0.0
 10
14.7561754897
 20
14.1283049923
 30
0.0
  0
ENDSEC
  0
SECTION
  2
OBJECTS
  0
DICTIONARY
  5
C
100
AcDbDictionary
280
0
281
1
  3
ACAD_GROUP
350
D
  3
ACAD_MLINESTYLE
350
17
  3
ACAD_LAYOUT
350
1A
  3
ACAD_PLOTSETTINGS
350
19
  3
ACAD_PLOTSTYLENAME
350
E
  0
DICTIONARY
  5
D
102
{ACAD_REACTORS
330
C
102
}
100
AcDbDictionary
280
0
281
1
  0
ACDBDICTIONARYWDFLT
  5
E
102
{ACAD_REACTORS
330
C
102
}
100
AcDbDictionary
281
1
  3
Normal
350
F
100
AcDbDictionaryWithDefault
340
F
  0
DICTIONARY
  5
17
102
{ACAD_REACTORS
330
C
102
}
100
AcDbDictionary
280
0
281
1
  3
Standard
350
18
  0
DICTIONARY
  5
19
102
{ACAD_REACTORS
330
C
102
}
100
AcDbDictionary
281
1
  0
DICTIONARY
  5
1A
102
{ACAD_REACTORS
330
C
102
}
100
AcDbDictionary
281
1
  3
Model
350
2C9
  3
Layout1
350
2CA
  0
ACDBPLACEHOLDER
  5
F
102
{ACAD_REACTORS
330
E
102
}
  0
MLINESTYLE
  5
18
102
{ACAD_REACTORS
330
17
102
}
100
AcDbMlineStyle
  2
STANDARD
 70
0
  3

 62
256
 51
90.0
 52
90.0
 71
2
 49
0.5
 62
256
  6
BYLAYER
 49
-0.5
 62
256
  6
BYLAYER
  0
LAYOUT
  5
2C9
102
{ACAD_REACTORS
330
1A
102
}
100
AcDbPlotSettings
  1

  2
none_device
  4
ANSI_C_(22.00_x_17.00_Inches)
  6

 40
0.0
 41
0.0
 42
0.0
 43
0.0
 44
558.8
 45
431.8
 46
0.0
 47
0.0
 48
0.0
 49
0.0
140
0.0
141
0.0
142
1.0
143
1.0
 70
1024
 72
0
 73
0
 74
0
  7

 75
0
147
1.0
148
0.0
149
0.0
100
AcDbLayout
  1
Model
 70
0
 71
0
 10
0.0
 20
0.0
 11
22.0
 21
17.0
 12
0.0
 22
0.0
 32
0.0
 14
0.0
 24
0.0
 34
0.0
 15
0.0
 25
0.0
 35
0.0
146
0.0
 13
0.0
 23
0.0
 33
0.0
 16
1.0
 26
0.0
 36
0.0
 17
0.0
 27
1.0
 37
0.0
 76
0
330
222
345
0
346
0
  0
LAYOUT
  5
2CA
102
{ACAD_REACTORS
330
1A
102
}
100
AcDbPlotSettings
  1

  2
none_device
  4
ANSI_C_(22.00_x_17.00_Inches)
  6

 40
0.0
 41
0.0
 42
0.0
 43
0.0
 44
558.8
 45
431.8
 46
0.0
 47
0.0
 48
0.0
 49
0.0
140
0.0
141
0.0
142
1.0
143
1.0
 70
0
 72
0
 73
0
 74
0
  7

 75
0
147
1.0
148
0.0
149
0.0
100
AcDbLayout
  1
Layout1
 70
0
 71
1
 10
0.0
 20
0.0
 11
22.0
 21
17.0
 12
0.0
 22
0.0
 32
0.0
 14
0.0
 24
0.0
 34
0.0
 15
0.0
 25
0.0
 35
0.0
146
0.0
 13
0.0
 23
0.0
 33
0.0
 16
1.0
 26
0.0
 36
0.0
 17
0.0
 27
1.0
 37
0.0
 76
0
330
223
345
0
346
0
  0
ENDSEC
  0
EOF