999
DXF file: _cgs_temp_output.dxf
999
Pro/ENGINEER 2016360 by Parametric Technology Corporation
  0
SECTION
  2
HEADER
  9
$ACADVER
  1
AC1021
  9
$DWGCODEPAGE
  3
ANSI_1252
  9
$EXTMAX
 10
22.0
 20
17.0
 30
0.0
  9
$EXTMIN
 10
0.0
 20
0.0
 30
0.0
  9
$LIMMIN
 10
0.0
 20
0.0
  9
$LIMMAX
 10
22.0
 20
17.0
  9
$VIEWCTR
 10
11.0
 20
8.5
  9
$VIEWSIZE
 40
17.0
  9
$CLAYER
  8
0
  9
$LTSCALE
 40
1.21
  9
$CELTYPE
  6
BYLAYER
  9
$DIMSCALE
 40
1.0
  9
$DIMASZ
 40
0.1875
  9
$DIMEXO
 40
0.0625
  9
$DIMDLI
 40
0.836
  9
$DIMEXE
 40
0.125
  9
$DIMCEN
 40
0.198
  9
$DIMLFAC
 40
1.0
  9
$DIMBLK
  1
_CLOSED
  9
$DIMALT
 70
0
  9
$DIMALTF
 40
25.4
  9
$DIMTXT
 40
0.15625
  9
$DIMTOL
 70
0
  9
$DIMLIM
 70
0
  9
$DIMTFAC
 40
1.0
  9
$DIMGAP
 40
0.09
  9
$DIMDSEP
 70
46
  9
$AUNITS
 70
0
  9
$PDMODE
 70
3
  9
$PDSIZE
 40
0.3125
  9
$HANDSEED
  5
3B0
  9
$TILEMODE
 70
1
  9
$MEASUREMENT
 70
0
  9
$INSUNITS
 70
1
  0
ENDSEC
  0
SECTION
  2
CLASSES
  0
CLASS
  1
ACDBDICTIONARYWDFLT
  2
AcDbDictionaryWithDefault
  3
AutoCAD 2000
 90
0
 91
1
280
0
281
0
  0
CLASS
  1
ACDBPLACEHOLDER
  2
AcDbPlaceHolder
  3
AutoCAD 2000
 90
0
 91
1
280
0
281
0
  0
CLASS
  1
LAYOUT
  2
AcDbLayout
  3
AutoCAD 2000
 90
0
 91
0
280
0
281
0
  0
ENDSEC
  0
SECTION
  2
TABLES
  0
TABLE
  2
VPORT
  5
8
100
AcDbSymbolTable
 70
2
  0
VPORT
  5
1F4
100
AcDbSymbolTableRecord
100
AcDbViewportTableRecord
  2
*ACTIVE
 70
0
 10
0.0
 20
0.0
 11
1.0
 21
1.0
 12
11.0
 22
8.5
 13
0.0
 23
0.0
 14
1.0
 24
1.0
 15
0.0
 25
0.0
 16
0.0
 26
0.0
 36
1.0
 17
0.0
 27
0.0
 37
0.0
 40
17.0
 41
1.2941176471
 42
50.0
 43
0.0
 44
0.0
 50
0.0
 51
0.0
 71
0
 72
100
 73
1
 74
1
 75
0
 76
0
 77
0
 78
0
  0
ENDTAB
  0
TABLE
  2
LTYPE
  5
5
100
AcDbSymbolTable
 70
6
  0
LTYPE
  5
14
100
AcDbSymbolTableRecord
100
AcDbLinetypeTableRecord
  2
BYBLOCK
 70
0
  3

 72
65
 73
0
 40
0.0
  0
LTYPE
  5
15
100
AcDbSymbolTableRecord
100
AcDbLinetypeTableRecord
  2
BYLAYER
 70
0
  3

 72
65
 73
0
 40
0.0
  0
LTYPE
  5
16
100
AcDbSymbolTableRecord
100
AcDbLinetypeTableRecord
  2
CONTINUOUS
 70
64
  3
Solid line
 72
65
 73
0
 40
0.0
  0
LTYPE
  5
1F5
100
AcDbSymbolTableRecord
100
AcDbLinetypeTableRecord
  2
CENTER
 70
64
  3
____ _ ____ _ ____ _ ____ _ ____ _ ____ _ ____
 72
65
 73
4
 40
0.6
 49
0.375
 74
0
 49
-0.075
 74
0
 49
0.075
 74
0
 49
-0.075
 74
0
  0
LTYPE
  5
1F6
100
AcDbSymbolTableRecord
100
AcDbLinetypeTableRecord
  2
HIDDEN
 70
64
  3
- - - - - - - - - - - - - - - - - - - -
 72
65
 73
2
 40
0.2
 49
0.1
 74
0
 49
-0.1
 74
0
  0
LTYPE
  5
1F7
100
AcDbSymbolTableRecord
100
AcDbLinetypeTableRecord
  2
PHANTOM
 70
64
  3
_____ _ _ _____ _ _ _____ _ _ _____
 72
65
 73
6
 40
0.8
 49
0.45
 74
0
 49
-0.05
 74
0
 49
0.1
 74
0
 49
-0.05
 74
0
 49
0.1
 74
0
 49
-0.05
 74
0
  0
LTYPE
  5
1F8
100
AcDbSymbolTableRecord
100
AcDbLinetypeTableRecord
  2
DOT
 70
64
  3
. . . . . . . . . . . . . . . . . . . .
 72
65
 73
2
 40
0.2
 49
0.1
 74
0
 49
-0.1
 74
0
  0
LTYPE
  5
1F9
100
AcDbSymbolTableRecord
100
AcDbLinetypeTableRecord
  2
DASHED
 70
64
  3
- - - - - - - - - - - - - - - - - - - -
 72
65
 73
2
 40
0.2
 49
0.1
 74
0
 49
-0.1
 74
0
  0
ENDTAB
  0
TABLE
  2
LAYER
  5
2
100
AcDbSymbolTable
 70
36
  0
LAYER
  5
10
100
AcDbSymbolTableRecord
100
AcDbLayerTableRecord
  2
0
 70
0
 62
7
  6
CONTINUOUS
370
-3
390
F
  0
LAYER
  5
1FA
100
AcDbSymbolTableRecord
100
AcDbLayerTableRecord
  2
DEFAULT_1
 70
0
 62
7
  6
CENTER
370
-3
390
F
  0
LAYER
  5
1FB
100
AcDbSymbolTableRecord
100
AcDbLayerTableRecord
  2
DEFAULT_2
 70
0
 62
8
  6
HIDDEN
370
-3
390
F
  0
LAYER
  5
1FC
100
AcDbSymbolTableRecord
100
AcDbLayerTableRecord
  2
DEFAULT_3
 70
0
 62
7
  6
PHANTOM
370
-3
390
F
  0
LAYER
  5
1FD
100
AcDbSymbolTableRecord
100
AcDbLayerTableRecord
  2
01_ALL_DTM_PLN
 70
0
 62
7
  6
CONTINUOUS
370
-3
390
F
  0
LAYER
  5
1FE
100
AcDbSymbolTableRecord
100
AcDbLayerTableRecord
  2
01__ASM_ALL_DTM_PLN
 70
0
 62
7
  6
CONTINUOUS
370
-3
390
F
  0
LAYER
  5
1FF
100
AcDbSymbolTableRecord
100
AcDbLayerTableRecord
  2
01__ASM_DEF_DTM_PLN
 70
0
 62
7
  6
CONTINUOUS
370
-3
390
F
  0
LAYER
  5
200
100
AcDbSymbolTableRecord
100
AcDbLayerTableRecord
  2
01___PRT_ALL_DTM_PLN
 70
0
 62
7
  6
CONTINUOUS
370
-3
390
F
  0
LAYER
  5
201
100
AcDbSymbolTableRecord
100
AcDbLayerTableRecord
  2
01___PRT_DEF_DTM_PLN
 70
0
 62
7
  6
CONTINUOUS
370
-3
390
F
  0
LAYER
  5
202
100
AcDbSymbolTableRecord
100
AcDbLayerTableRecord
  2
02_ALL_AXES
 70
0
 62
7
  6
CONTINUOUS
370
-3
390
F
  0
LAYER
  5
203
100
AcDbSymbolTableRecord
100
AcDbLayerTableRecord
  2
02__ASM_ALL_AXES
 70
0
 62
7
  6
CONTINUOUS
370
-3
390
F
  0
LAYER
  5
204
100
AcDbSymbolTableRecord
100
AcDbLayerTableRecord
  2
02___PRT_ALL_AXES
 70
0
 62
7
  6
CONTINUOUS
370
-3
390
F
  0
LAYER
  5
205
100
AcDbSymbolTableRecord
100
AcDbLayerTableRecord
  2
03_ALL_CURVES
 70
0
 62
7
  6
CONTINUOUS
370
-3
390
F
  0
LAYER
  5
206
100
AcDbSymbolTableRecord
100
AcDbLayerTableRecord
  2
03__ASM_ALL_CURVES
 70
0
 62
7
  6
CONTINUOUS
370
-3
390
F
  0
LAYER
  5
207
100
AcDbSymbolTableRecord
100
AcDbLayerTableRecord
  2
03___PRT_ALL_CURVES
 70
0
 62
7
  6
CONTINUOUS
370
-3
390
F
  0
LAYER
  5
208
100
AcDbSymbolTableRecord
100
AcDbLayerTableRecord
  2
04_ALL_DTM_PNT
 70
0
 62
7
  6
CONTINUOUS
370
-3
390
F
  0
LAYER
  5
209
100
AcDbSymbolTableRecord
100
AcDbLayerTableRecord
  2
04__ASM_ALL_DTM_PNT
 70
0
 62
7
  6
CONTINUOUS
370
-3
390
F
  0
LAYER
  5
20A
100
AcDbSymbolTableRecord
100
AcDbLayerTableRecord
  2
04___PRT_ALL_DTM_PNT
 70
0
 62
7
  6
CONTINUOUS
370
-3
390
F
  0
LAYER
  5
20B
100
AcDbSymbolTableRecord
100
AcDbLayerTableRecord
  2
05_ALL_DTM_CSYS
 70
0
 62
7
  6
CONTINUOUS
370
-3
390
F
  0
LAYER
  5
20C
100
AcDbSymbolTableRecord
100
AcDbLayerTableRecord
  2
05__ASM_ALL_DTM_CSYS
 70
0
 62
7
  6
CONTINUOUS
370
-3
390
F
  0
LAYER
  5
20D
100
AcDbSymbolTableRecord
100
AcDbLayerTableRecord
  2
05__ASM_DEF_DTM_CSYS
 70
0
 62
7
  6
CONTINUOUS
370
-3
390
F
  0
LAYER
  5
20E
100
AcDbSymbolTableRecord
100
AcDbLayerTableRecord
  2
05___PRT_ALL_DTM_CSYS
 70
0
 62
7
  6
CONTINUOUS
370
-3
390
F
  0
LAYER
  5
20F
100
AcDbSymbolTableRecord
100
AcDbLayerTableRecord
  2
05___PRT_DEF_DTM_CSYS
 70
0
 62
7
  6
CONTINUOUS
370
-3
390
F
  0
LAYER
  5
210
100
AcDbSymbolTableRecord
100
AcDbLayerTableRecord
  2
06_ALL_SURFS
 70
0
 62
7
  6
CONTINUOUS
370
-3
390
F
  0
LAYER
  5
211
100
AcDbSymbolTableRecord
100
AcDbLayerTableRecord
  2
06__ASM_ALL_SURFS
 70
0
 62
7
  6
CONTINUOUS
370
-3
390
F
  0
LAYER
  5
212
100
AcDbSymbolTableRecord
100
AcDbLayerTableRecord
  2
06___PRT_ALL_SURFS
 70
0
 62
7
  6
CONTINUOUS
370
-3
390
F
  0
LAYER
  5
213
100
AcDbSymbolTableRecord
100
AcDbLayerTableRecord
  2
07__ASM_ALL_SKELETONS
 70
0
 62
7
  6
CONTINUOUS
370
-3
390
F
  0
LAYER
  5
214
100
AcDbSymbolTableRecord
100
AcDbLayerTableRecord
  2
LAYER_AXIS
 70
0
 62
7
  6
CONTINUOUS
370
-3
390
F
  0
LAYER
  5
215
100
AcDbSymbolTableRecord
100
AcDbLayerTableRecord
  2
LAYER_CHAMFER_FEAT
 70
0
 62
7
  6
CONTINUOUS
370
-3
390
F
  0
LAYER
  5
216
100
AcDbSymbolTableRecord
100
AcDbLayerTableRecord
  2
LAYER_CUT_FEAT
 70
0
 62
7
  6
CONTINUOUS
370
-3
390
F
  0
LAYER
  5
217
100
AcDbSymbolTableRecord
100
AcDbLayerTableRecord
  2
LAYER_DATUM
 70
0
 62
7
  6
CONTINUOUS
370
-3
390
F
  0
LAYER
  5
218
100
AcDbSymbolTableRecord
100
AcDbLayerTableRecord
  2
LAYER_DIM
 70
0
 62
7
  6
CONTINUOUS
370
-3
390
F
  0
LAYER
  5
219
100
AcDbSymbolTableRecord
100
AcDbLayerTableRecord
  2
LAYER_FEATURE
 70
0
 62
7
  6
CONTINUOUS
370
-3
390
F
  0
LAYER
  5
21A
100
AcDbSymbolTableRecord
100
AcDbLayerTableRecord
  2
LAYER_GEOM_FEAT
 70
0
 62
7
  6
CONTINUOUS
370
-3
390
F
  0
LAYER
  5
21B
100
AcDbSymbolTableRecord
100
AcDbLayerTableRecord
  2
LAYER_NOGEOM_FEAT
 70
0
 62
7
  6
CONTINUOUS
370
-3
390
F
  0
LAYER
  5
21C
100
AcDbSymbolTableRecord
100
AcDbLayerTableRecord
  2
LAYER_PARAMETER_DIM
 70
0
 62
7
  6
CONTINUOUS
370
-3
390
F
  0
LAYER
  5
21D
100
AcDbSymbolTableRecord
100
AcDbLayerTableRecord
  2
LAYER_PROTRUSION_FEAT
 70
0
 62
7
  6
CONTINUOUS
370
-3
390
F
  0
LAYER
  5
21E
100
AcDbSymbolTableRecord
100
AcDbLayerTableRecord
  2
LAYER_QUILT
 70
0
 62
7
  6
CONTINUOUS
370
-3
390
F
  0
LAYER
  5
21F
100
AcDbSymbolTableRecord
100
AcDbLayerTableRecord
  2
LAYER_ROUND_FEAT
 70
0
 62
7
  6
CONTINUOUS
370
-3
390
F
  0
ENDTAB
  0
TABLE
  2
STYLE
  5
3
100
AcDbSymbolTable
 70
1
  0
STYLE
  5
11
100
AcDbSymbolTableRecord
100
AcDbTextStyleTableRecord
  2
STANDARD
 70
0
 40
0.0
 41
0.8
 50
0.0
 71
0
 42
0.2
  3
txt
  4

  0
STYLE
  5
220
100
AcDbSymbolTableRecord
100
AcDbTextStyleTableRecord
  2
TEXTSTYLE_1
 70
0
 40
0.0
 41
0.8
 50
0.0
 71
0
 42
0.2
  3
gdt
  4

  0
ENDTAB
  0
TABLE
  2
VIEW
  5
6
100
AcDbSymbolTable
 70
0
  0
ENDTAB
  0
TABLE
  2
UCS
  5
7
100
AcDbSymbolTable
 70
0
  0
ENDTAB
  0
TABLE
  2
APPID
  5
9
100
AcDbSymbolTable
 70
1
  0
APPID
  5
221
100
AcDbSymbolTableRecord
100
AcDbRegAppTableRecord
  2
ACAD
 70
0
  0
ENDTAB
  0
TABLE
  2
BLOCK_RECORD
  5
1
100
AcDbSymbolTable
 70
0
  0
BLOCK_RECORD
  5
222
100
AcDbSymbolTableRecord
100
AcDbBlockTableRecord
  2
*Model_Space
  0
BLOCK_RECORD
  5
223
100
AcDbSymbolTableRecord
100
AcDbBlockTableRecord
  2
*Paper_Space
  0
ENDTAB
  0
TABLE
  2
DIMSTYLE
  5
A
100
AcDbSymbolTable
 70
1
100
AcDbDimStyleTable
 71
0
  0
DIMSTYLE
105
224
100
AcDbSymbolTableRecord
100
AcDbDimStyleTableRecord
  2
STANDARD
 70
0
  3

  4

 40
1.0
 41
0.1875
 42
0.0625
 43
0.38
 44
0.125
 45
0.0
 46
0.0
 47
0.0001
 48
0.0001
140
0.15625
141
0.09
142
0.0
143
25.4
144
1.0
145
0.0
146
1.0
147
0.09
 71
0.0
 72
0.0
 73
1
 74
1
 75
0
 76
0
 77
0
 78
4
 79
1
170
0
171
3
172
0
173
0
174
0
175
0
176
0
177
0
178
0
270
2
179
4
271
4
272
4
273
2
274
2
275
0
280
0
281
0
282
0
283
1
284
4
285
0
286
0
287
3
288
0
340
11
278
46
  0
ENDTAB
  0
ENDSEC
  0
SECTION
  2
BLOCKS
  0
BLOCK
  5
20
100
AcDbEntity
  8
0
100
AcDbBlockBegin
  2
*Model_Space
 70
0
 10
0.0
 20
0.0
 30
0.0
  3
*Model_Space
  1

  0
ENDBLK
  5
21
100
AcDbEntity
  8
0
100
AcDbBlockEnd
  0
BLOCK
  5
1C
100
AcDbEntity
  8
0
100
AcDbBlockBegin
  2
*Paper_Space
 70
0
 10
0.0
 20
0.0
 30
0.0
  3
*Paper_Space
  1

  0
ENDBLK
  5
1D
100
AcDbEntity
  8
0
100
AcDbBlockEnd
  0
ENDSEC
  0
SECTION
  2
ENTITIES
  0
MTEXT
  5
225
100
AcDbEntity
  8
0
100
AcDbMText
 62
7
  6
CONTINUOUS
  7
STANDARD
 71
1
 72
1
 10
15.9560215477
 20
0.9479130325
 30
0.0
 11
1.0
 21
0.0
 31
0.0
 44
0.9
  1
SCALE: 1:0.111
 40
0.3
 41
3.36
  0
LINE
  5
226
100
AcDbEntity
  8
0
100
AcDbLine
 62
7
  6
CONTINUOUS
 10
0.0
 20
0.0
 11
0.0
 21
17.0
  0
LINE
  5
227
100
AcDbEntity
  8
0
100
AcDbLine
 62
7
  6
CONTINUOUS
 10
0.0
 20
0.0
 11
22.0
 21
0.0
  0
LINE
  5
228
100
AcDbEntity
  8
0
100
AcDbLine
 62
7
  6
CONTINUOUS
 10
0.0
 20
17.0
 11
22.0
 21
17.0
  0
LINE
  5
229
100
AcDbEntity
  8
0
100
AcDbLine
 62
7
  6
CONTINUOUS
 10
22.0
 20
0.0
 11
22.0
 21
17.0
  0
LINE
  5
22A
100
AcDbEntity
  8
02___PRT_ALL_AXES
100
AcDbLine
 62
7
  6
CONTINUOUS
 10
5.9914783873
 20
4.1556318775
 11
6.1425894984
 21
4.1556318775
  0
LINE
  5
22B
100
AcDbEntity
  8
02___PRT_ALL_AXES
100
AcDbLine
 62
7
  6
CONTINUOUS
 10
6.2622561651
 20
5.0340763219
 11
6.1425894984
 21
5.0340763219
  0
LINE
  5
22C
100
AcDbEntity
  8
0
100
AcDbLine
 62
7
  6
CONTINUOUS
 10
5.9914783873
 20
4.1556319365
 11
5.9914783873
 21
6.8845088388
  0
LINE
  5
22D
100
AcDbEntity
  8
0
100
AcDbLine
 62
7
  6
CONTINUOUS
 10
6.1425894984
 20
4.1556319365
 11
6.1425894984
 21
6.8845088388
  0
LINE
  5
22E
100
AcDbEntity
  8
02___PRT_ALL_AXES
100
AcDbLine
 62
7
  6
CONTINUOUS
 10
6.2622561651
 20
6.0062985441
 11
6.2622561651
 21
5.0340763219
  0
LINE
  5
22F
100
AcDbEntity
  8
02___PRT_ALL_AXES
100
AcDbLine
 62
7
  6
CONTINUOUS
 10
6.2692561651
 20
5.9992985441
 11
6.2692561651
 21
5.0410763219
  0
LINE
  5
230
100
AcDbEntity
  8
02___PRT_ALL_AXES
100
AcDbLine
 62
7
  6
CONTINUOUS
 10
6.2692561651
 20
5.0410763219
 11
6.2622561651
 21
5.0340763219
  0
LINE
  5
231
100
AcDbEntity
  8
02___PRT_ALL_AXES
100
AcDbLine
 62
7
  6
CONTINUOUS
 10
6.2692561651
 20
5.9992985441
 11
6.2622561651
 21
6.0062985441
  0
LINE
  5
232
100
AcDbEntity
  8
02___PRT_ALL_AXES
100
AcDbLine
 62
7
  6
CONTINUOUS
 10
6.2622561651
 20
6.0062985441
 11
6.1425894984
 21
6.0062985441
  0
LINE
  5
233
100
AcDbEntity
  8
0
100
AcDbLine
 62
7
  6
CONTINUOUS
 10
5.9914783873
 20
6.8687682864
 11
6.1425894984
 21
6.8687682864
  0
LINE
  5
234
100
AcDbEntity
  8
0
100
AcDbLine
 62
7
  6
CONTINUOUS
 10
5.9914783873
 20
6.8688034505
 11
6.1425894984
 21
6.8688034505
  0
LINE
  5
235
100
AcDbEntity
  8
0
100
AcDbLine
 62
7
  6
CONTINUOUS
 10
5.9914783873
 20
6.8755545237
 11
6.1425894984
 21
6.8755545237
  0
LINE
  5
236
100
AcDbEntity
  8
0
100
AcDbLine
 62
7
  6
CONTINUOUS
 10
5.9914783873
 20
6.8767505994
 11
6.1425894984
 21
6.8767505994
  0
LINE
  5
237
100
AcDbEntity
  8
0
100
AcDbLine
 62
7
  6
CONTINUOUS
 10
5.9914783873
 20
6.876766241
 11
6.1425894984
 21
6.876766241
  0
LINE
  5
238
100
AcDbEntity
  8
0
100
AcDbLine
 62
7
  6
CONTINUOUS
 10
5.9914783873
 20
6.8812823644
 11
6.1425894984
 21
6.8812823644
  0
LINE
  5
239
100
AcDbEntity
  8
0
100
AcDbLine
 62
7
  6
CONTINUOUS
 10
5.9914783873
 20
6.8820009747
 11
6.1425894984
 21
6.8820009747
  0
LINE
  5
23A
100
AcDbEntity
  8
0
100
AcDbLine
 62
7
  6
CONTINUOUS
 10
5.9914783873
 20
6.8842691411
 11
6.1425894984
 21
6.8842691411
  0
LINE
  5
23B
100
AcDbEntity
  8
0
100
AcDbLine
 62
7
  6
CONTINUOUS
 10
5.9914783873
 20
6.8845088388
 11
6.1425894984
 21
6.8845088388
  0
LINE
  5
23C
100
AcDbEntity
  8
02___PRT_ALL_AXES
100
AcDbLine
 62
7
  6
CONTINUOUS
 10
5.931983195
 20
11.2354578012
 11
6.0830943061
 21
11.2354578012
  0
LINE
  5
23D
100
AcDbEntity
  8
02___PRT_ALL_AXES
100
AcDbLine
 62
7
  6
CONTINUOUS
 10
6.0830943061
 20
12.1139022457
 11
6.2027609727
 21
12.1139022457
  0
LINE
  5
23E
100
AcDbEntity
  8
0
100
AcDbLine
 62
7
  6
CONTINUOUS
 10
5.931983195
 20
12.391827031
 11
6.0830943061
 21
12.391827031
  0
LINE
  5
23F
100
AcDbEntity
  8
0
100
AcDbLine
 62
7
  6
CONTINUOUS
 10
6.0830943061
 20
12.413714918
 11
5.931983195
 21
12.413714918
  0
LINE
  5
240
100
AcDbEntity
  8
0
100
AcDbLine
 62
7
  6
CONTINUOUS
 10
6.0830943061
 20
12.4269275815
 11
5.931983195
 21
12.4269275815
  0
LINE
  5
241
100
AcDbEntity
  8
0
100
AcDbLine
 62
7
  6
CONTINUOUS
 10
5.931983195
 20
11.2354578506
 11
5.931983195
 21
13.9645688985
  0
LINE
  5
242
100
AcDbEntity
  8
0
100
AcDbLine
 62
7
  6
CONTINUOUS
 10
5.931983195
 20
12.4419250467
 11
6.0830943061
 21
12.4419250467
  0
LINE
  5
243
100
AcDbEntity
  8
0
100
AcDbLine
 62
7
  6
CONTINUOUS
 10
5.931983195
 20
12.452540512
 11
6.0830943061
 21
12.452540512
  0
LINE
  5
244
100
AcDbEntity
  8
0
100
AcDbLine
 62
7
  6
CONTINUOUS
 10
6.0830943061
 20
12.4733773693
 11
5.931983195
 21
12.4733773693
  0
LINE
  5
245
100
AcDbEntity
  8
0
100
AcDbLine
 62
7
  6
CONTINUOUS
 10
6.0830943061
 20
12.4866570266
 11
5.931983195
 21
12.4866570266
  0
LINE
  5
246
100
AcDbEntity
  8
0
100
AcDbLine
 62
7
  6
CONTINUOUS
 10
5.931983195
 20
12.5028925457
 11
6.0830943061
 21
12.5028925457
  0
LINE
  5
247
100
AcDbEntity
  8
0
100
AcDbLine
 62
7
  6
CONTINUOUS
 10
5.931983195
 20
12.5135509836
 11
6.0830943061
 21
12.5135509836
  0
LINE
  5
248
100
AcDbEntity
  8
0
100
AcDbLine
 62
7
  6
CONTINUOUS
 10
6.0830943061
 20
11.2354578506
 11
6.0830943061
 21
13.9645688985
  0
LINE
  5
249
100
AcDbEntity
  8
0
100
AcDbLine
 62
7
  6
CONTINUOUS
 10
6.0830943061
 20
12.5332948486
 11
5.931983195
 21
12.5332948486
  0
LINE
  5
24A
100
AcDbEntity
  8
0
100
AcDbLine
 62
7
  6
CONTINUOUS
 10
6.0830943061
 20
12.5466147562
 11
5.931983195
 21
12.5466147562
  0
LINE
  5
24B
100
AcDbEntity
  8
0
100
AcDbLine
 62
7
  6
CONTINUOUS
 10
5.931983195
 20
12.5640556331
 11
6.0830943061
 21
12.5640556331
  0
LINE
  5
24C
100
AcDbEntity
  8
0
100
AcDbLine
 62
7
  6
CONTINUOUS
 10
5.931983195
 20
12.574735579
 11
6.0830943061
 21
12.574735579
  0
LINE
  5
24D
100
AcDbEntity
  8
0
100
AcDbLine
 62
7
  6
CONTINUOUS
 10
6.0830943061
 20
12.5933466901
 11
5.931983195
 21
12.5933466901
  0
LINE
  5
24E
100
AcDbEntity
  8
0
100
AcDbLine
 62
7
  6
CONTINUOUS
 10
6.0830943061
 20
12.6066800235
 11
5.931983195
 21
12.6066800235
  0
LINE
  5
24F
100
AcDbEntity
  8
0
100
AcDbLine
 62
7
  6
CONTINUOUS
 10
5.931983195
 20
12.6252911346
 11
6.0830943061
 21
12.6252911346
  0
LINE
  5
250
100
AcDbEntity
  8
02___PRT_ALL_AXES
100
AcDbLine
 62
7
  6
CONTINUOUS
 10
6.2027609727
 20
12.1139022457
 11
6.2027609727
 21
13.0861244679
  0
LINE
  5
251
100
AcDbEntity
  8
02___PRT_ALL_AXES
100
AcDbLine
 62
7
  6
CONTINUOUS
 10
6.2097609727
 20
12.1209022457
 11
6.2097609727
 21
13.0791244679
  0
LINE
  5
252
100
AcDbEntity
  8
02___PRT_ALL_AXES
100
AcDbLine
 62
7
  6
CONTINUOUS
 10
6.2027609727
 20
12.1139022457
 11
6.2097609727
 21
12.1209022457
  0
LINE
  5
253
100
AcDbEntity
  8
02___PRT_ALL_AXES
100
AcDbLine
 62
7
  6
CONTINUOUS
 10
6.2027609727
 20
13.0861244679
 11
6.2097609727
 21
13.0791244679
  0
LINE
  5
254
100
AcDbEntity
  8
02___PRT_ALL_AXES
100
AcDbLine
 62
7
  6
CONTINUOUS
 10
6.0830943061
 20
13.0861244679
 11
6.2027609727
 21
13.0861244679
  0
LINE
  5
255
100
AcDbEntity
  8
02___PRT_ALL_AXES
100
AcDbLine
 62
7
  6
CONTINUOUS
 10
5.931983195
 20
13.9645689123
 11
6.0830943061
 21
13.9645689123
  0
LINE
  5
256
100
AcDbEntity
  8
0
100
AcDbLine
 62
7
  6
CONTINUOUS
 10
15.3956978184
 20
6.800150102
 11
15.3989871504
 21
6.8131613624
  0
LINE
  5
257
100
AcDbEntity
  8
0
100
AcDbLine
 62
7
  6
CONTINUOUS
 10
15.4559581325
 20
6.8061871407
 11
15.4598279004
 21
6.8190377243
  0
LINE
  5
258
100
AcDbEntity
  8
0
100
AcDbLine
 62
7
  6
CONTINUOUS
 10
15.5164286192
 20
6.8095145317
 11
15.5208710298
 21
6.8221785591
  0
LINE
  5
259
100
AcDbEntity
  8
0
100
AcDbLine
 62
7
  6
CONTINUOUS
 10
15.576987499
 20
6.8101255741
 11
15.5819936058
 21
6.8225775417
  0
LINE
  5
25A
100
AcDbEntity
  8
LAYER_CUT_FEAT
100
AcDbLine
 62
7
  6
CONTINUOUS
 10
15.5813826475
 20
6.0150968202
 11
15.7389853377
 21
6.4944481257
  0
LINE
  5
25B
100
AcDbEntity
  8
LAYER_CUT_FEAT
100
AcDbLine
 62
7
  6
CONTINUOUS
 10
14.6500149152
 20
4.9392371875
 11
15.0465545052
 21
5.2512830747
  0
LINE
  5
25C
100
AcDbEntity
  8
LAYER_CUT_FEAT
100
AcDbLine
 62
7
  6
CONTINUOUS
 10
16.6032773794
 20
5.3474938475
 11
16.0990541417
 21
5.3281235445
  0
LINE
  5
25D
100
AcDbEntity
  8
LAYER_CUT_FEAT
100
AcDbLine
 62
7
  6
CONTINUOUS
 10
15.0395592032
 20
5.6520436541
 11
14.6323709301
 21
5.9500604193
  0
LINE
  5
25E
100
AcDbEntity
  8
LAYER_CUT_FEAT
100
AcDbLine
 62
7
  6
CONTINUOUS
 10
15.7749540602
 20
4.4338013932
 11
15.600718258
 21
4.9073604363
  0
LINE
  5
25F
100
AcDbEntity
  8
LAYER_CUT_FEAT
100
AcDbLine
 62
7
  6
CONTINUOUS
 10
15.8091849348
 20
6.5122111265
 11
15.6604002228
 21
6.0255582618
  0
LINE
  5
260
100
AcDbEntity
  8
LAYER_CUT_FEAT
100
AcDbLine
 62
7
  6
CONTINUOUS
 10
15.0637495681
 20
5.1734528185
 11
14.6573328308
 21
4.8671958401
  0
LINE
  5
261
100
AcDbEntity
  8
LAYER_CUT_FEAT
100
AcDbLine
 62
7
  6
CONTINUOUS
 10
16.1308905203
 20
5.4011965489
 11
16.639701903
 21
5.4100778846
  0
LINE
  5
262
100
AcDbEntity
  8
LAYER_CUT_FEAT
100
AcDbLine
 62
7
  6
CONTINUOUS
 10
14.637170181
 20
6.0223132726
 11
15.0540275546
 21
5.7304265972
  0
LINE
  5
263
100
AcDbEntity
  8
LAYER_CUT_FEAT
100
AcDbLine
 62
7
  6
CONTINUOUS
 10
15.680052797
 20
4.8996630411
 11
15.8457308134
 21
4.4184991438
  0
LINE
  5
264
100
AcDbEntity
  8
LAYER_CUT_FEAT
100
AcDbLine
 62
7
  6
CONTINUOUS
 10
15.7932203278
 20
5.9849510806
 11
15.9420050398
 21
6.4716039453
  0
LINE
  5
265
100
AcDbEntity
  8
LAYER_CUT_FEAT
100
AcDbLine
 62
7
  6
CONTINUOUS
 10
14.7409182506
 20
4.7562742415
 11
15.147334988
 21
5.0625312199
  0
LINE
  5
266
100
AcDbEntity
  8
LAYER_CUT_FEAT
100
AcDbLine
 62
7
  6
CONTINUOUS
 10
16.6372779576
 20
5.5489456201
 11
16.128466575
 21
5.5400642843
  0
LINE
  5
267
100
AcDbEntity
  8
LAYER_CUT_FEAT
100
AcDbLine
 62
7
  6
CONTINUOUS
 10
15.1336909486
 20
5.8441977145
 11
14.7168335749
 21
6.1360843899
  0
LINE
  5
268
100
AcDbEntity
  8
LAYER_CUT_FEAT
100
AcDbLine
 62
7
  6
CONTINUOUS
 10
15.9770528378
 20
4.463716943
 11
15.8113748214
 21
4.9448808403
  0
LINE
  5
269
100
AcDbEntity
  8
LAYER_CUT_FEAT
100
AcDbLine
 62
7
  6
CONTINUOUS
 10
15.9902701993
 20
6.4176226338
 11
15.8528789027
 21
5.932092085
  0
LINE
  5
26A
100
AcDbEntity
  8
LAYER_CUT_FEAT
100
AcDbLine
 62
7
  6
CONTINUOUS
 10
15.2174106304
 20
5.0245493385
 11
14.8081517475
 21
4.7293825231
  0
LINE
  5
26B
100
AcDbEntity
  8
LAYER_CUT_FEAT
100
AcDbLine
 62
7
  6
CONTINUOUS
 10
16.0940993791
 20
5.611981701
 11
16.5986914715
 21
5.6102203352
  0
LINE
  5
26C
100
AcDbEntity
  8
LAYER_CUT_FEAT
100
AcDbLine
 62
7
  6
CONTINUOUS
 10
14.7830876075
 20
6.1653061418
 11
15.2023983542
 21
5.884602063
  0
LINE
  5
26D
100
AcDbEntity
  8
LAYER_CUT_FEAT
100
AcDbLine
 62
7
  6
CONTINUOUS
 10
15.8691523016
 20
4.9997896899
 11
16.0234046749
 21
4.5193498003
  0
LINE
  5
26E
100
AcDbEntity
  8
0
100
AcDbLine
 62
7
  6
CONTINUOUS
 10
15.3560338911
 20
6.8073429481
 11
15.3626661597
 21
6.7956756598
  0
LINE
  5
26F
100
AcDbEntity
  8
0
100
AcDbLine
 62
7
  6
CONTINUOUS
 10
15.4166568499
 20
6.8151522594
 11
15.4227589894
 21
6.8031991637
  0
LINE
  5
270
100
AcDbEntity
  8
0
100
AcDbLine
 62
7
  6
CONTINUOUS
 10
15.477569129
 20
6.8202338685
 11
15.4831288503
 21
6.8080190373
  0
LINE
  5
271
100
AcDbEntity
  8
0
100
AcDbLine
 62
7
  6
CONTINUOUS
 10
15.5386480589
 20
6.8225775417
 11
15.5436541657
 21
6.8101255741
  0
LINE
  5
272
100
AcDbEntity
  8
0
100
AcDbLine
 62
7
  6
CONTINUOUS
 10
15.3740223936
 20
6.7863377562
 11
15.3872350571
 21
6.788127533
  0
LINE
  5
273
100
AcDbEntity
  8
0
100
AcDbLine
 62
7
  6
CONTINUOUS
 10
15.4336848449
 20
6.7933611672
 11
15.4469645021
 21
6.794556358
  0
LINE
  5
274
100
AcDbEntity
  8
0
100
AcDbLine
 62
7
  6
CONTINUOUS
 10
15.4936023242
 20
6.7977007603
 11
15.5069222317
 21
6.7982989581
  0
LINE
  5
275
100
AcDbEntity
  8
0
100
AcDbLine
 62
7
  6
CONTINUOUS
 10
15.5536541657
 20
6.7993477963
 11
15.566987499
 21
6.7993477963
  0
LINE
  5
276
100
AcDbEntity
  8
02___PRT_ALL_AXES
100
AcDbLine
 62
7
  6
CONTINUOUS
 10
15.4015297334
 20
11.1461980091
 11
15.5407122836
 21
11.1461980091
  0
LINE
  5
277
100
AcDbEntity
  8
02___PRT_ALL_AXES
100
AcDbLine
 62
7
  6
CONTINUOUS
 10
15.5373352416
 20
11.3418682507
 11
15.5384608012
 21
11.3418646776
  0
LINE
  5
278
100
AcDbEntity
  8
02___PRT_ALL_AXES
100
AcDbLine
 62
7
  6
CONTINUOUS
 10
15.5373352523
 20
11.3418793892
 11
15.5384608012
 21
11.3418646758
  0
LINE
  5
279
100
AcDbEntity
  8
0
100
AcDbLine
 62
7
  6
CONTINUOUS
 10
14.9779756571
 20
13.2911513252
 11
14.9805776806
 21
13.300394673
  0
LINE
  5
27A
100
AcDbEntity
  8
0
100
AcDbLine
 62
7
  6
CONTINUOUS
 10
14.9924493794
 20
13.3404987974
 11
14.9947975194
 21
13.3480973815
  0
LINE
  5
27B
100
AcDbEntity
  8
0
100
AcDbLine
 62
7
  6
CONTINUOUS
 10
14.9520557727
 20
13.1888554511
 11
14.9547081567
 21
13.2003178291
  0
LINE
  5
27C
100
AcDbEntity
  8
0
100
AcDbLine
 62
7
  6
CONTINUOUS
 10
14.9644281242
 20
13.2402400605
 11
14.9672055831
 21
13.2511017324
  0
LINE
  5
27D
100
AcDbEntity
  8
0
100
AcDbLine
 62
7
  6
CONTINUOUS
 10
15.0912383229
 20
13.1888554511
 11
15.0938907069
 21
13.2003178291
  0
LINE
  5
27E
100
AcDbEntity
  8
0
100
AcDbLine
 62
7
  6
CONTINUOUS
 10
15.1035381588
 20
13.239956477
 11
15.1063881333
 21
13.2511017324
  0
LINE
  5
27F
100
AcDbEntity
  8
0
100
AcDbLine
 62
7
  6
CONTINUOUS
 10
15.1167184051
 20
13.2895889853
 11
15.1197602308
 21
13.300394673
  0
LINE
  5
280
100
AcDbEntity
  8
0
100
AcDbLine
 62
7
  6
CONTINUOUS
 10
15.1307525187
 20
13.3376530227
 11
15.1339800696
 21
13.3480973815
  0
LINE
  5
281
100
AcDbEntity
  8
02___PRT_ALL_AXES
100
AcDbLine
 62
7
  6
CONTINUOUS
 10
15.5373350599
 20
12.0246424535
 11
15.6509325825
 21
12.0246424535
  0
LINE
  5
282
100
AcDbEntity
  8
0
100
AcDbLine
 62
7
  6
CONTINUOUS
 10
14.9530893194
 20
13.2144202865
 11
14.9499165767
 21
13.225084838
  0
LINE
  5
283
100
AcDbEntity
  8
0
100
AcDbLine
 62
7
  6
CONTINUOUS
 10
14.9658347625
 20
13.2653764956
 11
14.962851537
 21
13.2763958398
  0
LINE
  5
284
100
AcDbEntity
  8
0
100
AcDbLine
 62
7
  6
CONTINUOUS
 10
14.9794576373
 20
13.3148129945
 11
14.9766699368
 21
13.3261649399
  0
LINE
  5
285
100
AcDbEntity
  8
02___PRT_ALL_AXES
100
AcDbLine
 62
7
  6
CONTINUOUS
 10
15.6613096053
 20
12.233159136
 11
15.647718585
 21
12.2341630792
  0
LINE
  5
286
100
AcDbEntity
  8
0
100
AcDbLine
 62
7
  6
CONTINUOUS
 10
14.9939305092
 20
13.3626302247
 11
14.9913439476
 21
13.37429191
  0
LINE
  5
287
100
AcDbEntity
  8
LAYER_CUT_FEAT
100
AcDbLine
 62
7
  6
CONTINUOUS
 10
15.3458696557
 20
11.4735447847
 11
15.3466714764
 21
11.9781357503
  0
LINE
  5
288
100
AcDbEntity
  8
LAYER_CUT_FEAT
100
AcDbLine
 62
7
  6
CONTINUOUS
 10
15.4902186304
 20
13.0229197007
 11
15.6129006734
 21
13.4170853825
  0
LINE
  5
289
100
AcDbEntity
  8
LAYER_CUT_FEAT
100
AcDbLine
 62
7
  6
CONTINUOUS
 10
15.0898508763
 20
12.4104935992
 11
15.1912072176
 21
12.4938898271
  0
LINE
  5
28A
100
AcDbEntity
  8
LAYER_CUT_FEAT
100
AcDbLine
 62
7
  6
CONTINUOUS
 10
15.7723586168
 20
12.0405559606
 11
15.7335823665
 21
12.073359587
  0
LINE
  5
28B
100
AcDbEntity
  8
0
100
AcDbLine
 62
7
  6
CONTINUOUS
 10
15.0922718696
 20
13.2144202865
 11
15.0890991269
 21
13.225084838
  0
LINE
  5
28C
100
AcDbEntity
  8
0
100
AcDbLine
 62
7
  6
CONTINUOUS
 10
15.1050173127
 20
13.2653764956
 11
15.1020340872
 21
13.2763958398
  0
LINE
  5
28D
100
AcDbEntity
  8
LAYER_CUT_FEAT
100
AcDbLine
 62
7
  6
CONTINUOUS
 10
15.2431401878
 20
12.8718752643
 11
15.1679274632
 21
13.1651655805
  0
LINE
  5
28E
100
AcDbEntity
  8
0
100
AcDbLine
 62
7
  6
CONTINUOUS
 10
15.1186401875
 20
13.3148129945
 11
15.115852487
 21
13.3261649399
  0
LINE
  5
28F
100
AcDbEntity
  8
0
100
AcDbLine
 62
7
  6
CONTINUOUS
 10
15.1331130594
 20
13.3626302247
 11
15.1305264978
 21
13.37429191
  0
LINE
  5
290
100
AcDbEntity
  8
LAYER_CUT_FEAT
100
AcDbLine
 62
7
  6
CONTINUOUS
 10
15.4737947938
 20
11.4735447847
 11
15.4745966145
 21
11.9781357503
  0
LINE
  5
291
100
AcDbEntity
  8
LAYER_CUT_FEAT
100
AcDbLine
 62
7
  6
CONTINUOUS
 10
15.6181437685
 20
13.0229197007
 11
15.7408258114
 21
13.4170853825
  0
LINE
  5
292
100
AcDbEntity
  8
LAYER_CUT_FEAT
100
AcDbLine
 62
7
  6
CONTINUOUS
 10
15.1320048487
 20
12.3399208893
 11
15.3191323557
 21
12.4938898271
  0
LINE
  5
293
100
AcDbEntity
  8
LAYER_CUT_FEAT
100
AcDbLine
 62
7
  6
CONTINUOUS
 10
15.3148256245
 20
12.4149537216
 11
15.1248808364
 21
12.2698577904
  0
LINE
  5
294
100
AcDbEntity
  8
LAYER_CUT_FEAT
100
AcDbLine
 62
7
  6
CONTINUOUS
 10
15.9002837548
 20
12.0405559606
 11
15.7775687796
 21
12.1443694077
  0
LINE
  5
295
100
AcDbEntity
  8
LAYER_CUT_FEAT
100
AcDbLine
 62
7
  6
CONTINUOUS
 10
15.7987798031
 20
12.1982009175
 11
15.92208425
 21
12.0864852651
  0
LINE
  5
296
100
AcDbEntity
  8
LAYER_CUT_FEAT
100
AcDbLine
 62
7
  6
CONTINUOUS
 10
15.3710653259
 20
12.8718752643
 11
15.2629934126
 21
13.2932992424
  0
LINE
  5
297
100
AcDbEntity
  8
LAYER_CUT_FEAT
100
AcDbLine
 62
7
  6
CONTINUOUS
 10
15.5025004468
 20
11.9432250427
 11
15.4975418418
 21
11.4344954851
  0
LINE
  5
298
100
AcDbEntity
  8
LAYER_CUT_FEAT
100
AcDbLine
 62
7
  6
CONTINUOUS
 10
15.5516107886
 20
11.4310202224
 11
15.5565693936
 21
11.9397497799
  0
LINE
  5
299
100
AcDbEntity
  8
LAYER_CUT_FEAT
100
AcDbLine
 62
7
  6
CONTINUOUS
 10
15.7688576537
 20
13.4092222417
 11
15.6484007323
 21
13.005135867
  0
LINE
  5
29A
100
AcDbEntity
  8
LAYER_CUT_FEAT
100
AcDbLine
 62
7
  6
CONTINUOUS
 10
15.7074316375
 20
12.9746675529
 11
15.8118048825
 21
13.3247994147
  0
LINE
  5
29B
100
AcDbEntity
  8
LAYER_CUT_FEAT
100
AcDbLine
 62
7
  6
CONTINUOUS
 10
15.1403019655
 20
12.1367340496
 11
15.3302467536
 21
12.2818299808
  0
LINE
  5
29C
100
AcDbEntity
  8
LAYER_CUT_FEAT
100
AcDbLine
 62
7
  6
CONTINUOUS
 10
15.9400795677
 20
12.2174611754
 11
15.8282845551
 21
12.3187491101
  0
LINE
  5
29D
100
AcDbEntity
  8
LAYER_CUT_FEAT
100
AcDbLine
 62
7
  6
CONTINUOUS
 10
15.2745679121
 20
13.3593301342
 11
15.3870016421
 21
12.9402747938
  0
LINE
  5
29E
100
AcDbEntity
  8
LAYER_CUT_FEAT
100
AcDbLine
 62
7
  6
CONTINUOUS
 10
15.431539807
 20
13.0190745275
 11
15.3191060769
 21
13.4381298679
  0
LINE
  5
29F
100
AcDbEntity
  8
LAYER_CUT_FEAT
100
AcDbLine
 62
7
  6
CONTINUOUS
 10
15.5851184107
 20
11.9710320003
 11
15.5760888539
 21
11.4669698695
  0
LINE
  5
2A0
100
AcDbEntity
  8
LAYER_CUT_FEAT
100
AcDbLine
 62
7
  6
CONTINUOUS
 10
15.8220784835
 20
13.2573642439
 11
15.7337737276
 21
12.9479182821
  0
LINE
  5
2A1
100
AcDbEntity
  8
LAYER_CUT_FEAT
100
AcDbLine
 62
7
  6
CONTINUOUS
 10
15.3506545323
 20
12.221772913
 11
15.1611803737
 21
12.0880615734
  0
LINE
  5
2A2
100
AcDbEntity
  8
LAYER_CUT_FEAT
100
AcDbLine
 62
7
  6
CONTINUOUS
 10
15.8370949183
 20
12.3823728239
 11
15.9343294359
 21
12.2883517554
  0
LINE
  5
2A3
100
AcDbEntity
  8
LAYER_CUT_FEAT
100
AcDbLine
 62
7
  6
CONTINUOUS
 10
15.3472560067
 20
13.4423819448
 11
15.4621053456
 21
13.0329490161
  0
LINE
  5
2A4
100
AcDbEntity
  8
02___PRT_ALL_AXES
100
AcDbLine
 62
7
  6
CONTINUOUS
 10
15.7309675854
 20
12.0702269481
 11
15.7362625083
 21
12.0765705314
  0
LINE
  5
2A5
100
AcDbEntity
  8
02___PRT_ALL_AXES
100
AcDbLine
 62
7
  6
CONTINUOUS
 10
15.7307153813
 20
12.0702051242
 11
15.7308350498
 21
12.0703424458
  0
LINE
  5
2A6
100
AcDbEntity
  8
02___PRT_ALL_AXES
100
AcDbLine
 62
7
  6
CONTINUOUS
 10
15.7307153813
 20
12.0702051242
 11
15.7308358719
 21
12.0703375163
  0
LINE
  5
2A7
100
AcDbEntity
  8
02___PRT_ALL_AXES
100
AcDbLine
 62
7
  6
CONTINUOUS
 10
15.5373350599
 20
12.9968646758
 11
15.6509325825
 21
12.9968646758
  0
LINE
  5
2A8
100
AcDbEntity
  8
LAYER_CUT_FEAT
100
AcDbLine
 62
7
  6
CONTINUOUS
 10
15.4714046939
 20
13.0107535647
 11
15.5350835775
 21
13.0107535647
  0
LINE
  5
2A9
100
AcDbEntity
  8
0
100
AcDbLine
 62
7
  6
CONTINUOUS
 10
15.0804764493
 20
13.1878216097
 11
15.0856409096
 21
13.1857643415
  0
LINE
  5
2AA
100
AcDbEntity
  8
0
100
AcDbLine
 62
7
  6
CONTINUOUS
 10
15.0927690592
 20
13.2401635505
 11
15.0978923763
 21
13.2375133571
  0
LINE
  5
2AB
100
AcDbEntity
  8
0
100
AcDbLine
 62
7
  6
CONTINUOUS
 10
15.1059637671
 20
13.2910365567
 11
15.1110356233
 21
13.2877987752
  0
LINE
  5
2AC
100
AcDbEntity
  8
0
100
AcDbLine
 62
7
  6
CONTINUOUS
 10
15.1200340007
 20
13.3403381767
 11
15.125044182
 21
13.3365193277
  0
LINE
  5
2AD
100
AcDbEntity
  8
02___PRT_ALL_AXES
100
AcDbLine
 62
7
  6
CONTINUOUS
 10
15.7309675854
 20
12.9512801812
 11
15.7362625083
 21
12.944936598
  0
LINE
  5
2AE
100
AcDbEntity
  8
0
100
AcDbLine
 62
7
  6
CONTINUOUS
 10
15.0804764493
 20
13.1878216097
 11
15.0802445096
 21
13.1878675283
  0
LINE
  5
2AF
100
AcDbEntity
  8
0
100
AcDbLine
 62
7
  6
CONTINUOUS
 10
14.9397612141
 20
13.1859669149
 11
15.0789437643
 21
13.1859669149
  0
LINE
  5
2B0
100
AcDbEntity
  8
0
100
AcDbLine
 62
7
  6
CONTINUOUS
 10
14.9410619594
 20
13.1878675318
 11
15.0802445096
 21
13.1878675318
  0
LINE
  5
2B1
100
AcDbEntity
  8
0
100
AcDbLine
 62
7
  6
CONTINUOUS
 10
15.0912383229
 20
13.1888554511
 11
14.9520557727
 21
13.1888554511
  0
LINE
  5
2B2
100
AcDbEntity
  8
0
100
AcDbLine
 62
7
  6
CONTINUOUS
 10
15.0938907069
 20
13.2003178291
 11
14.9547081567
 21
13.2003178291
  0
LINE
  5
2B3
100
AcDbEntity
  8
0
100
AcDbLine
 62
7
  6
CONTINUOUS
 10
14.9498181701
 20
13.2294284315
 11
15.0890007203
 21
13.2294284315
  0
LINE
  5
2B4
100
AcDbEntity
  8
0
100
AcDbLine
 62
7
  6
CONTINUOUS
 10
14.9520229636
 20
13.2384873037
 11
15.0912055138
 21
13.2384873037
  0
LINE
  5
2B5
100
AcDbEntity
  8
0
100
AcDbLine
 62
7
  6
CONTINUOUS
 10
15.1035381588
 20
13.239956477
 11
15.0931693708
 21
13.239956477
  0
LINE
  5
2B6
100
AcDbEntity
  8
0
100
AcDbLine
 62
7
  6
CONTINUOUS
 10
14.9532877219
 20
13.2402400605
 11
15.0924702721
 21
13.2402400605
  0
LINE
  5
2B7
100
AcDbEntity
  8
0
100
AcDbLine
 62
7
  6
CONTINUOUS
 10
15.1063881333
 20
13.2511017324
 11
14.9672055831
 21
13.2511017324
  0
LINE
  5
2B8
100
AcDbEntity
  8
0
100
AcDbLine
 62
7
  6
CONTINUOUS
 10
14.9628291172
 20
13.280746397
 11
15.1020116674
 21
13.280746397
  0
LINE
  5
2B9
100
AcDbEntity
  8
0
100
AcDbLine
 62
7
  6
CONTINUOUS
 10
14.9651899599
 20
13.2895421335
 11
15.1043725101
 21
13.2895421335
  0
LINE
  5
2BA
100
AcDbEntity
  8
0
100
AcDbLine
 62
7
  6
CONTINUOUS
 10
15.1167184051
 20
13.2895889853
 11
15.1082313302
 21
13.2895889853
  0
LINE
  5
2BB
100
AcDbEntity
  8
0
100
AcDbLine
 62
7
  6
CONTINUOUS
 10
14.9664161842
 20
13.2911513252
 11
15.1055987344
 21
13.2911513252
  0
LINE
  5
2BC
100
AcDbEntity
  8
0
100
AcDbLine
 62
7
  6
CONTINUOUS
 10
15.1197602308
 20
13.300394673
 11
14.9805776806
 21
13.300394673
  0
LINE
  5
2BD
100
AcDbEntity
  8
0
100
AcDbLine
 62
7
  6
CONTINUOUS
 10
14.9767235489
 20
13.3305136994
 11
15.1159060992
 21
13.3305136994
  0
LINE
  5
2BE
100
AcDbEntity
  8
0
100
AcDbLine
 62
7
  6
CONTINUOUS
 10
15.1307525187
 20
13.3376530227
 11
15.1235568183
 21
13.3376530227
  0
LINE
  5
2BF
100
AcDbEntity
  8
0
100
AcDbLine
 62
7
  6
CONTINUOUS
 10
14.9792356864
 20
13.3390285868
 11
15.1184182366
 21
13.3390285868
  0
LINE
  5
2C0
100
AcDbEntity
  8
0
100
AcDbLine
 62
7
  6
CONTINUOUS
 10
14.9804209073
 20
13.3404987974
 11
15.1196034575
 21
13.3404987974
  0
LINE
  5
2C1
100
AcDbEntity
  8
0
100
AcDbLine
 62
7
  6
CONTINUOUS
 10
15.1339800696
 20
13.3480973815
 11
14.9947975194
 21
13.3480973815
  0
LINE
  5
2C2
100
AcDbEntity
  8
0
100
AcDbLine
 62
7
  6
CONTINUOUS
 10
14.9914734838
 20
13.3786301139
 11
15.130656034
 21
13.3786301139
  0
LINE
  5
2C3
100
AcDbEntity
  8
02___PRT_ALL_AXES
100
AcDbLine
 62
7
  6
CONTINUOUS
 10
15.5373357423
 20
13.679614747
 11
15.5384608012
 21
13.6796424535
  0
LINE
  5
2C4
100
AcDbEntity
  8
02___PRT_ALL_AXES
100
AcDbLine
 62
7
  6
CONTINUOUS
 10
15.537335719
 20
13.6796388808
 11
15.5384608012
 21
13.6796424517
  0
LINE
  5
2C5
100
AcDbEntity
  8
02___PRT_ALL_AXES
100
AcDbLine
 62
7
  6
CONTINUOUS
 10
15.4015297334
 20
13.8753091202
 11
15.5407122836
 21
13.8753091202
  0
ARC
  5
2C6
100
AcDbEntity
  8
LAYER_CUT_FEAT
100
AcDbCircle
 62
7
  6
CONTINUOUS
 10
14.8568982204
 20
4.6617938715
 40
0.0833333333
100
AcDbArc
 50
125.8
 51
228.6363807078
  0
ARC
  5
2C7
100
AcDbEntity
  8
LAYER_CUT_FEAT
100
AcDbCircle
 62
7
  6
CONTINUOUS
 10
14.5984808823
 20
5.0047252619
 40
0.0833333333
100
AcDbArc
 50
205.3636192922
 51
308.2
  0
ARC
  5
2C8
100
AcDbEntity
  8
LAYER_CUT_FEAT
100
AcDbCircle
 62
7
  6
CONTINUOUS
 10
14.6991255407
 20
4.8117350408
 40
0.0694444444
100
AcDbArc
 50
127.0
 51
307.0
  0
ARC
  5
2C9
100
AcDbEntity
  8
LAYER_CUT_FEAT
100
AcDbCircle
 62
7
  6
CONTINUOUS
 10
14.9950204722
 20
5.3167711492
 40
0.0833333333
100
AcDbArc
 50
308.2
 51
14.2836138283
  0
ARC
  5
2CA
100
AcDbEntity
  8
LAYER_CUT_FEAT
100
AcDbCircle
 62
7
  6
CONTINUOUS
 10
14.9903420643
 20
5.5847969614
 40
0.0833333333
100
AcDbArc
 50
347.7163861717
 51
53.8
  0
ARC
  5
2CB
100
AcDbEntity
  8
LAYER_CUT_FEAT
100
AcDbCircle
 62
7
  6
CONTINUOUS
 10
15.5225105061
 20
4.8785855864
 40
0.0833333333
100
AcDbArc
 50
20.2
 51
86.2836138283
  0
ARC
  5
2CC
100
AcDbEntity
  8
LAYER_CUT_FEAT
100
AcDbCircle
 62
7
  6
CONTINUOUS
 10
15.2661571033
 20
4.9569606869
 40
0.0833333333
100
AcDbArc
 50
59.7163861717
 51
125.8
  0
ARC
  5
2CD
100
AcDbEntity
  8
LAYER_CUT_FEAT
100
AcDbCircle
 62
7
  6
CONTINUOUS
 10
15.105542278
 20
5.1179920192
 40
0.0694444444
100
AcDbArc
 50
307.0
 51
127.0
  0
ARC
  5
2CE
100
AcDbEntity
  8
0
100
AcDbCircle
 62
7
  6
CONTINUOUS
 10
15.5603208324
 20
5.4606922407
 40
1.3645555556
100
AcDbArc
 50
91.0614392521
 51
91.5099893193
  0
ARC
  5
2CF
100
AcDbEntity
  8
0
100
AcDbCircle
 62
7
  6
CONTINUOUS
 10
15.5603208324
 20
5.4606922407
 40
1.3645555556
100
AcDbArc
 50
93.6328678235
 51
94.0814178907
  0
ARC
  5
2D0
100
AcDbEntity
  8
0
100
AcDbCircle
 62
7
  6
CONTINUOUS
 10
15.5603208324
 20
5.4606922407
 40
1.3645555556
100
AcDbArc
 50
96.204296395
 51
96.6528464622
  0
ARC
  5
2D1
100
AcDbEntity
  8
0
100
AcDbCircle
 62
7
  6
CONTINUOUS
 10
15.5603208324
 20
5.4606922407
 40
1.3645555556
100
AcDbArc
 50
98.7757249664
 51
88.9385607479
  0
CIRCLE
  5
2D2
100
AcDbEntity
  8
02___PRT_ALL_AXES
100
AcDbCircle
 62
7
  6
CONTINUOUS
 10
15.5603208324
 20
5.4606922407
 40
1.1713333333
  0
CIRCLE
  5
2D3
100
AcDbEntity
  8
02___PRT_ALL_AXES
100
AcDbCircle
 62
7
  6
CONTINUOUS
 10
15.5603208324
 20
5.4606922407
 40
1.1688888889
  0
ARC
  5
2D4
100
AcDbEntity
  8
LAYER_CUT_FEAT
100
AcDbCircle
 62
7
  6
CONTINUOUS
 10
15.5603208324
 20
5.4606922407
 40
1.1477777778
100
AcDbArc
 50
228.6363807078
 51
277.3636192922
  0
ARC
  5
2D5
100
AcDbEntity
  8
LAYER_CUT_FEAT
100
AcDbCircle
 62
7
  6
CONTINUOUS
 10
15.5603208324
 20
5.4606922407
 40
1.1477777778
100
AcDbArc
 50
156.6363807078
 51
205.3636192922
  0
ARC
  5
2D6
100
AcDbEntity
  8
LAYER_CUT_FEAT
100
AcDbCircle
 62
7
  6
CONTINUOUS
 10
15.5603208324
 20
5.4606922407
 40
1.1477777778
100
AcDbArc
 50
84.6363807078
 51
133.3636192922
  0
ARC
  5
2D7
100
AcDbEntity
  8
LAYER_CUT_FEAT
100
AcDbCircle
 62
7
  6
CONTINUOUS
 10
15.5603208324
 20
5.4606922407
 40
1.1477777778
100
AcDbArc
 50
12.6363807078
 51
61.3636192922
  0
ARC
  5
2D8
100
AcDbEntity
  8
LAYER_CUT_FEAT
100
AcDbCircle
 62
7
  6
CONTINUOUS
 10
15.5603208324
 20
5.4606922407
 40
1.1477777778
100
AcDbArc
 50
300.6363807078
 51
349.3636192922
  0
ARC
  5
2D9
100
AcDbEntity
  8
LAYER_CUT_FEAT
100
AcDbCircle
 62
7
  6
CONTINUOUS
 10
15.5603208324
 20
5.4606922407
 40
0.5
100
AcDbArc
 50
239.7163861717
 51
266.2836138283
  0
ARC
  5
2DA
100
AcDbEntity
  8
LAYER_CUT_FEAT
100
AcDbCircle
 62
7
  6
CONTINUOUS
 10
15.5603208324
 20
5.4606922407
 40
0.5
100
AcDbArc
 50
167.7163861717
 51
194.2836138283
  0
ARC
  5
2DB
100
AcDbEntity
  8
LAYER_CUT_FEAT
100
AcDbCircle
 62
7
  6
CONTINUOUS
 10
15.5603208324
 20
5.4606922407
 40
0.5
100
AcDbArc
 50
95.7163861717
 51
122.2836138283
  0
ARC
  5
2DC
100
AcDbEntity
  8
LAYER_CUT_FEAT
100
AcDbCircle
 62
7
  6
CONTINUOUS
 10
15.5603208324
 20
5.4606922407
 40
0.5
100
AcDbArc
 50
23.7163861717
 51
50.2836138283
  0
ARC
  5
2DD
100
AcDbEntity
  8
LAYER_CUT_FEAT
100
AcDbCircle
 62
7
  6
CONTINUOUS
 10
15.5603208324
 20
5.4606922407
 40
0.5
100
AcDbArc
 50
311.7163861717
 51
338.2836138283
  0
CIRCLE
  5
2DE
100
AcDbEntity
  8
02___PRT_ALL_AXES
100
AcDbCircle
 62
7
  6
CONTINUOUS
 10
15.5603208324
 20
5.4606922407
 40
0.4861111111
  0
CIRCLE
  5
2DF
100
AcDbEntity
  8
02___PRT_ALL_AXES
100
AcDbCircle
 62
7
  6
CONTINUOUS
 10
15.5603208324
 20
5.4606922407
 40
0.4791111111
  0
ARC
  5
2E0
100
AcDbEntity
  8
02___PRT_ALL_AXES
100
AcDbCircle
 62
7
  6
CONTINUOUS
 10
15.5603208324
 20
5.4606922407
 40
0.2777777778
100
AcDbArc
 50
61.4843384185
 51
139.5156615815
  0
ARC
  5
2E1
100
AcDbEntity
  8
02___PRT_ALL_AXES
100
AcDbCircle
 62
7
  6
CONTINUOUS
 10
15.5603208324
 20
5.4606922407
 40
0.2777777778
100
AcDbArc
 50
22.4843384185
 51
50.5156615815
  0
ARC
  5
2E2
100
AcDbEntity
  8
02___PRT_ALL_AXES
100
AcDbCircle
 62
7
  6
CONTINUOUS
 10
15.5603208324
 20
5.4606922407
 40
0.2777777778
100
AcDbArc
 50
231.4843384185
 51
259.5156615815
  0
ARC
  5
2E3
100
AcDbEntity
  8
02___PRT_ALL_AXES
100
AcDbCircle
 62
7
  6
CONTINUOUS
 10
15.5603208324
 20
5.4606922407
 40
0.2777777778
100
AcDbArc
 50
150.4843384185
 51
220.5156615815
  0
ARC
  5
2E4
100
AcDbEntity
  8
02___PRT_ALL_AXES
100
AcDbCircle
 62
7
  6
CONTINUOUS
 10
15.5603208324
 20
5.4606922407
 40
0.2777777778
100
AcDbArc
 50
270.4843384185
 51
11.5156615815
  0
ARC
  5
2E5
100
AcDbEntity
  8
02___PRT_ALL_AXES
100
AcDbCircle
 62
7
  6
CONTINUOUS
 10
15.5603208324
 20
5.4606922407
 40
0.2680657206
100
AcDbArc
 50
50.0634202313
 51
61.9365797687
  0
ARC
  5
2E6
100
AcDbEntity
  8
02___PRT_ALL_AXES
100
AcDbCircle
 62
7
  6
CONTINUOUS
 10
15.5603208324
 20
5.4606922407
 40
0.2680657206
100
AcDbArc
 50
220.0634202313
 51
231.9365797687
  0
ARC
  5
2E7
100
AcDbEntity
  8
02___PRT_ALL_AXES
100
AcDbCircle
 62
7
  6
CONTINUOUS
 10
15.5603208324
 20
5.4606922407
 40
0.2583536633
100
AcDbArc
 50
22.6434126524
 51
139.3565873476
  0
ARC
  5
2E8
100
AcDbEntity
  8
LAYER_CUT_FEAT
100
AcDbCircle
 62
7
  6
CONTINUOUS
 10
15.5603208324
 20
5.4606922407
 40
0.2583536633
100
AcDbArc
 50
150.6434126524
 51
259.3565873476
  0
ARC
  5
2E9
100
AcDbEntity
  8
02___PRT_ALL_AXES
100
AcDbCircle
 62
7
  6
CONTINUOUS
 10
15.5603208324
 20
5.4606922407
 40
0.2583536633
100
AcDbArc
 50
270.6434126524
 51
11.3565873476
  0
ARC
  5
2EA
100
AcDbEntity
  8
02___PRT_ALL_AXES
100
AcDbCircle
 62
7
  6
CONTINUOUS
 10
15.3739208363
 20
5.2676693943
 40
0.0277777778
100
AcDbArc
 50
132.4804512298
 51
319.5195487702
  0
ARC
  5
2EB
100
AcDbEntity
  8
LAYER_CUT_FEAT
100
AcDbCircle
 62
7
  6
CONTINUOUS
 10
15.5369340414
 20
5.1933799967
 40
0.0277777778
100
AcDbArc
 50
151.1497787952
 51
18.8502212048
  0
ARC
  5
2EC
100
AcDbEntity
  8
LAYER_CUT_FEAT
100
AcDbCircle
 62
7
  6
CONTINUOUS
 10
14.5831537911
 20
5.8828137266
 40
0.0833333333
100
AcDbArc
 50
53.8
 51
156.6363807078
  0
ARC
  5
2ED
100
AcDbEntity
  8
LAYER_CUT_FEAT
100
AcDbCircle
 62
7
  6
CONTINUOUS
 10
14.8294455755
 20
6.2345548475
 40
0.0833333333
100
AcDbArc
 50
133.3636192922
 51
236.2
  0
ARC
  5
2EE
100
AcDbEntity
  8
LAYER_CUT_FEAT
100
AcDbCircle
 62
7
  6
CONTINUOUS
 10
15.2487563222
 20
5.9538507688
 40
0.0833333333
100
AcDbArc
 50
236.2
 51
302.2836138283
  0
ARC
  5
2EF
100
AcDbEntity
  8
LAYER_CUT_FEAT
100
AcDbCircle
 62
7
  6
CONTINUOUS
 10
15.5022183099
 20
6.04112473
 40
0.0833333333
100
AcDbArc
 50
275.7163861717
 51
341.8
  0
ARC
  5
2F0
100
AcDbEntity
  8
LAYER_CUT_FEAT
100
AcDbCircle
 62
7
  6
CONTINUOUS
 10
14.6770018779
 20
6.0791988313
 40
0.0694444444
100
AcDbArc
 50
55.0
 51
235.0
  0
ARC
  5
2F1
100
AcDbEntity
  8
LAYER_CUT_FEAT
100
AcDbCircle
 62
7
  6
CONTINUOUS
 10
15.0938592516
 20
5.7873121559
 40
0.0694444444
100
AcDbArc
 50
235.0
 51
55.0
  0
ARC
  5
2F2
100
AcDbEntity
  8
02___PRT_ALL_AXES
100
AcDbCircle
 62
7
  6
CONTINUOUS
 10
15.3405150338
 20
5.6146019178
 40
0.0277777778
100
AcDbArc
 50
31.1497787952
 51
258.8502212048
  0
ARC
  5
2F3
100
AcDbEntity
  8
0
100
AcDbCircle
 62
7
  6
CONTINUOUS
 10
15.3805362644
 20
6.8058339186
 40
0.0205555556
100
AcDbArc
 50
209.6160598698
 51
251.5249898283
  0
ARC
  5
2F4
100
AcDbEntity
  8
0
100
AcDbCircle
 62
7
  6
CONTINUOUS
 10
15.37576923
 20
6.80518818
 40
0.0205555556
100
AcDbArc
 50
303.9035816003
 51
345.8125115588
  0
ARC
  5
2F5
100
AcDbEntity
  8
0
100
AcDbCircle
 62
7
  6
CONTINUOUS
 10
15.4410668486
 20
6.8125454546
 40
0.0205555556
100
AcDbArc
 50
207.0446312984
 51
248.9535612569
  0
ARC
  5
2F6
100
AcDbEntity
  8
0
100
AcDbCircle
 62
7
  6
CONTINUOUS
 10
15.4362756434
 20
6.8121142384
 40
0.0205555556
100
AcDbArc
 50
301.3321530288
 51
343.2410829873
  0
ARC
  5
2F7
100
AcDbEntity
  8
0
100
AcDbCircle
 62
7
  6
CONTINUOUS
 10
15.5018375946
 20
6.8165345381
 40
0.0205555556
100
AcDbArc
 50
204.473202727
 51
246.3821326855
  0
ARC
  5
2F8
100
AcDbEntity
  8
0
100
AcDbCircle
 62
7
  6
CONTINUOUS
 10
15.4970318673
 20
6.8163187127
 40
0.0205555556
100
AcDbArc
 50
298.7607244574
 51
340.6696544159
  0
ARC
  5
2F9
100
AcDbEntity
  8
0
100
AcDbCircle
 62
7
  6
CONTINUOUS
 10
15.5627261179
 20
6.8177931357
 40
0.0205555556
100
AcDbArc
 50
201.9017741555
 51
243.810704114
  0
ARC
  5
2FA
100
AcDbEntity
  8
0
100
AcDbCircle
 62
7
  6
CONTINUOUS
 10
15.5579155468
 20
6.8177931357
 40
0.0205555556
100
AcDbArc
 50
296.189295886
 51
338.0982258445
  0
ARC
  5
2FB
100
AcDbEntity
  8
0
100
AcDbCircle
 62
7
  6
CONTINUOUS
 10
15.3526560615
 20
6.8054228213
 40
0.0038854369
100
AcDbArc
 50
29.6160598698
 51
97.714285714
  0
ARC
  5
2FC
100
AcDbEntity
  8
0
100
AcDbCircle
 62
7
  6
CONTINUOUS
 10
15.4027540772
 20
6.8122090586
 40
0.0038854369
100
AcDbArc
 50
97.7142857145
 51
165.8125115587
  0
ARC
  5
2FD
100
AcDbEntity
  8
0
100
AcDbCircle
 62
7
  6
CONTINUOUS
 10
15.4131962754
 20
6.8133856118
 40
0.0038854369
100
AcDbArc
 50
27.0446312983
 51
95.142857143
  0
ARC
  5
2FE
100
AcDbEntity
  8
0
100
AcDbCircle
 62
7
  6
CONTINUOUS
 10
15.4635483092
 20
6.8179173769
 40
0.0038854369
100
AcDbArc
 50
95.1428571431
 51
163.2410829873
  0
ARC
  5
2FF
100
AcDbEntity
  8
0
100
AcDbCircle
 62
7
  6
CONTINUOUS
 10
15.4740327787
 20
6.8186242579
 40
0.0038854369
100
AcDbArc
 50
24.4732027269
 51
92.5714285715
  0
ARC
  5
300
100
AcDbEntity
  8
0
100
AcDbCircle
 62
7
  6
CONTINUOUS
 10
15.5245374282
 20
6.8208924243
 40
0.0038854369
100
AcDbArc
 50
92.5714285716
 51
160.6696544159
  0
ARC
  5
301
100
AcDbEntity
  8
0
100
AcDbCircle
 62
7
  6
CONTINUOUS
 10
15.5350430546
 20
6.8211282096
 40
0.0038854369
100
AcDbArc
 50
21.9017741555
 51
90.0000000001
  0
ARC
  5
302
100
AcDbEntity
  8
0
100
AcDbCircle
 62
7
  6
CONTINUOUS
 10
15.5855986101
 20
6.8211282096
 40
0.0038854369
100
AcDbArc
 50
89.9999999999
 51
158.0982258445
  0
ARC
  5
303
100
AcDbEntity
  8
LAYER_CUT_FEAT
100
AcDbCircle
 62
7
  6
CONTINUOUS
 10
15.6967463084
 20
4.4050265433
 40
0.0833333333
100
AcDbArc
 50
277.3636192922
 51
20.2
  0
ARC
  5
304
100
AcDbEntity
  8
LAYER_CUT_FEAT
100
AcDbCircle
 62
7
  6
CONTINUOUS
 10
16.102748791
 20
4.5448244091
 40
0.0833333333
100
AcDbArc
 50
197.8
 51
300.6363807078
  0
ARC
  5
305
100
AcDbEntity
  8
LAYER_CUT_FEAT
100
AcDbCircle
 62
7
  6
CONTINUOUS
 10
16.6064763635
 20
5.2642219378
 40
0.0833333333
100
AcDbArc
 50
349.3636192922
 51
92.2
  0
ARC
  5
306
100
AcDbEntity
  8
LAYER_CUT_FEAT
100
AcDbCircle
 62
7
  6
CONTINUOUS
 10
16.1022531258
 20
5.2448516348
 40
0.0833333333
100
AcDbArc
 50
92.2
 51
158.2836138283
  0
ARC
  5
307
100
AcDbEntity
  8
LAYER_CUT_FEAT
100
AcDbCircle
 62
7
  6
CONTINUOUS
 10
15.9484964176
 20
5.0252642986
 40
0.0833333333
100
AcDbArc
 50
131.7163861717
 51
197.8
  0
ARC
  5
308
100
AcDbEntity
  8
LAYER_CUT_FEAT
100
AcDbCircle
 62
7
  6
CONTINUOUS
 10
15.9113918256
 20
4.4411080434
 40
0.0694444444
100
AcDbArc
 50
199.0
 51
19.0
  0
ARC
  5
309
100
AcDbEntity
  8
LAYER_CUT_FEAT
100
AcDbCircle
 62
7
  6
CONTINUOUS
 10
15.7457138092
 20
4.9222719407
 40
0.0694444444
100
AcDbArc
 50
19.0
 51
199.0
  0
ARC
  5
30A
100
AcDbEntity
  8
LAYER_CUT_FEAT
100
AcDbCircle
 62
7
  6
CONTINUOUS
 10
16.6384899303
 20
5.4795117523
 40
0.0694444444
100
AcDbArc
 50
271.0
 51
91.0
  0
ARC
  5
30B
100
AcDbEntity
  8
LAYER_CUT_FEAT
100
AcDbCircle
 62
7
  6
CONTINUOUS
 10
16.1296785477
 20
5.4706304166
 40
0.0694444444
100
AcDbArc
 50
91.0
 51
271.0
  0
ARC
  5
30C
100
AcDbEntity
  8
02___PRT_ALL_AXES
100
AcDbCircle
 62
7
  6
CONTINUOUS
 10
15.8169292752
 20
5.5391453148
 40
0.0277777778
100
AcDbArc
 50
263.1497787953
 51
130.8502212047
  0
ARC
  5
30D
100
AcDbEntity
  8
LAYER_CUT_FEAT
100
AcDbCircle
 62
7
  6
CONTINUOUS
 10
15.6598210001
 20
6.5204760356
 40
0.0833333333
100
AcDbArc
 50
341.8
 51
84.6363807078
  0
ARC
  5
30E
100
AcDbEntity
  8
LAYER_CUT_FEAT
100
AcDbCircle
 62
7
  6
CONTINUOUS
 10
16.5989823591
 20
5.6935531608
 40
0.0833333333
100
AcDbArc
 50
269.8
 51
12.6363807078
  0
ARC
  5
30F
100
AcDbEntity
  8
LAYER_CUT_FEAT
100
AcDbCircle
 62
7
  6
CONTINUOUS
 10
16.0704550321
 20
6.3949326132
 40
0.0833333333
100
AcDbArc
 50
61.3636192922
 51
164.2
  0
ARC
  5
310
100
AcDbEntity
  8
LAYER_CUT_FEAT
100
AcDbCircle
 62
7
  6
CONTINUOUS
 10
15.9330637355
 20
5.9094020645
 40
0.0833333333
100
AcDbArc
 50
164.2
 51
230.2836138283
  0
ARC
  5
311
100
AcDbEntity
  8
LAYER_CUT_FEAT
100
AcDbCircle
 62
7
  6
CONTINUOUS
 10
16.0943902667
 20
5.6953145266
 40
0.0833333333
100
AcDbArc
 50
203.7163861717
 51
269.8
  0
ARC
  5
312
100
AcDbEntity
  8
LAYER_CUT_FEAT
100
AcDbCircle
 62
7
  6
CONTINUOUS
 10
15.8755949873
 20
6.4919075359
 40
0.0694444444
100
AcDbArc
 50
343.0
 51
163.0
  0
ARC
  5
313
100
AcDbEntity
  8
LAYER_CUT_FEAT
100
AcDbCircle
 62
7
  6
CONTINUOUS
 10
15.7268102753
 20
6.0052546712
 40
0.0694444444
100
AcDbArc
 50
163.0
 51
343.0
  0
ARC
  5
314
100
AcDbEntity
  8
02___PRT_ALL_AXES
100
AcDbCircle
 62
7
  6
CONTINUOUS
 10
15.7103709281
 20
5.683150656
 40
0.0277777778
100
AcDbArc
 50
322.4804512298
 51
149.5195487702
  0
ARC
  5
315
100
AcDbEntity
  8
02___PRT_ALL_AXES
100
AcDbCircle
 62
7
  6
CONTINUOUS
 10
14.3169218369
 20
-4.5115337192
 40
16.8071958321
100
AcDbArc
 50
85.3419754274
 51
85.5308678363
  0
ARC
  5
316
100
AcDbEntity
  8
02___PRT_ALL_AXES
100
AcDbCircle
 62
7
  6
CONTINUOUS
 10
16.6045044746
 20
-1.7439379939
 40
14.550725232
100
AcDbArc
 50
93.6148050904
 51
93.8981462776
  0
ARC
  5
317
100
AcDbEntity
  8
02___PRT_ALL_AXES
100
AcDbCircle
 62
7
  6
CONTINUOUS
 10
14.9615272995
 20
21.8753441016
 40
9.1472831289
100
AcDbArc
 50
274.0209629999
 51
274.670519542
  0
ARC
  5
318
100
AcDbEntity
  8
LAYER_CUT_FEAT
100
AcDbCircle
 62
7
  6
CONTINUOUS
 10
15.9822463971
 20
19.3561279303
 40
7.0593185472
100
AcDbArc
 50
266.7606155701
 51
267.9397707262
  0
ARC
  5
319
100
AcDbEntity
  8
LAYER_CUT_FEAT
100
AcDbCircle
 62
7
  6
CONTINUOUS
 10
15.3286080101
 20
6.3997050737
 40
5.9546387663
100
AcDbArc
 50
86.0125717076
 51
87.6828910334
  0
ARC
  5
31A
100
AcDbEntity
  8
0
100
AcDbCircle
 62
7
  6
CONTINUOUS
 10
17.216490359
 20
12.6825521918
 40
2.3317110527
100
AcDbArc
 50
166.2064771133
 51
166.4355737632
  0
ARC
  5
31B
100
AcDbEntity
  8
0
100
AcDbCircle
 62
7
  6
CONTINUOUS
 10
17.3512381044
 20
12.6836315567
 40
2.3271467962
100
AcDbArc
 50
166.2062524482
 51
166.4357984283
  0
ARC
  5
31C
100
AcDbEntity
  8
0
100
AcDbCircle
 62
7
  6
CONTINUOUS
 10
17.0630892254
 20
12.7217352933
 40
2.173381222
100
AcDbArc
 50
164.8554540397
 51
165.0955391811
  0
ARC
  5
31D
100
AcDbEntity
  8
0
100
AcDbCircle
 62
7
  6
CONTINUOUS
 10
17.1977949563
 20
12.7229369057
 40
2.1687459562
100
AcDbArc
 50
164.8551974721
 51
165.0957957488
  0
ARC
  5
31E
100
AcDbEntity
  8
0
100
AcDbCircle
 62
7
  6
CONTINUOUS
 10
16.9091567143
 20
12.7650181947
 40
2.0134753796
100
AcDbArc
 50
163.436107198
 51
163.6887336016
  0
ARC
  5
31F
100
AcDbEntity
  8
0
100
AcDbCircle
 62
7
  6
CONTINUOUS
 10
17.043874904
 20
12.7663353098
 40
2.0088207904
100
AcDbArc
 50
163.4358145203
 51
163.6890262793
  0
ARC
  5
320
100
AcDbEntity
  8
LAYER_CUT_FEAT
100
AcDbCircle
 62
7
  6
CONTINUOUS
 10
15.1320312823
 20
11.4738845905
 40
0.2138386435
100
AcDbArc
 50
359.249927959
 51
359.9089526096
  0
ARC
  5
321
100
AcDbEntity
  8
02___PRT_ALL_AXES
100
AcDbCircle
 62
7
  6
CONTINUOUS
 10
15.5876175871
 20
12.2005061032
 40
0.1935338165
100
AcDbArc
 50
317.7328507761
 51
320.1796906271
  0
ARC
  5
322
100
AcDbEntity
  8
02___PRT_ALL_AXES
100
AcDbCircle
 62
7
  6
CONTINUOUS
 10
15.5876807335
 20
12.8210556664
 40
0.1934503249
100
AcDbArc
 50
39.8198562985
 51
42.2827455721
  0
ARC
  5
323
100
AcDbEntity
  8
02___PRT_ALL_AXES
100
AcDbCircle
 62
7
  6
CONTINUOUS
 10
15.6573802421
 20
12.2752009687
 40
0.0422250588
100
AcDbArc
 50
265.6560407349
 51
275.3395339743
  0
SPLINE
  5
324
100
AcDbEntity
  8
0
100
AcDbSpline
 62
7
  6
CONTINUOUS
 70
0
 71
3
 72
11
 73
7
 74
0
 42
0.0000001
 43
0.0000001
 44
0.0000000001
 40
0.0
 40
0.0
 40
0.0
 40
0.0
 40
0.2634202279
 40
0.5226152405
 40
0.7703552118
 40
1.0
 40
1.0
 40
1.0
 40
1.0
 10
14.9547081567
 20
13.2003178291
 30
0.0
 10
14.9547467413
 20
13.2015683599
 30
0.0
 10
14.9547349552
 20
13.2040529523
 30
0.0
 10
14.9544577936
 20
13.2077044515
 30
0.0
 10
14.9539307463
 20
13.2111663245
 30
0.0
 10
14.9534003369
 20
13.2133748622
 30
0.0
 10
14.9530893194
 20
13.2144202865
 30
0.0
  0
SPLINE
  5
325
100
AcDbEntity
  8
0
100
AcDbSpline
 62
7
  6
CONTINUOUS
 70
0
 71
3
 72
11
 73
7
 74
0
 42
0.0000001
 43
0.0000001
 44
0.0000000001
 40
0.0
 40
0.0
 40
0.0
 40
0.0
 40
0.2332642467
 40
0.4902698403
 40
0.7523067551
 40
1.0
 40
1.0
 40
1.0
 40
1.0
 10
14.9914734838
 20
13.3786301139
 30
0.0
 10
14.9913729339
 20
13.3783047344
 30
0.0
 10
14.9912226383
 20
13.3776017461
 30
0.0
 10
14.9911284718
 20
13.3765052177
 30
0.0
 10
14.9911588659
 20
13.3753839679
 30
0.0
 10
14.9912656416
 20
13.3746449577
 30
0.0
 10
14.9913439476
 20
13.37429191
 30
0.0
  0
SPLINE
  5
326
100
AcDbEntity
  8
0
100
AcDbSpline
 62
7
  6
CONTINUOUS
 70
0
 71
3
 72
11
 73
7
 74
0
 42
0.0000001
 43
0.0000001
 44
0.0000000001
 40
0.0
 40
0.0
 40
0.0
 40
0.0
 40
0.2553265308
 40
0.511876777
 40
0.7624139533
 40
1.0
 40
1.0
 40
1.0
 40
1.0
 10
14.9947975194
 20
13.3480973815
 30
0.0
 10
14.9949022187
 20
13.3493362514
 30
0.0
 10
14.9950197993
 20
13.3518285442
 30
0.0
 10
14.9949332627
 20
13.3555430243
 30
0.0
 10
14.9945889531
 20
13.3591558495
 30
0.0
 10
14.9941810218
 20
13.3615007722
 30
0.0
 10
14.9939305092
 20
13.3626302247
 30
0.0
  0
SPLINE
  5
327
100
AcDbEntity
  8
LAYER_CUT_FEAT
100
AcDbSpline
 62
7
  6
CONTINUOUS
 70
0
 71
3
 72
21
 73
17
 74
0
 42
0.0000001
 43
0.0000001
 44
0.0000000001
 40
0.0
 40
0.0
 40
0.0
 40
0.0
 40
0.0338246478
 40
0.0693370689
 40
0.1079482947
 40
0.1506641473
 40
0.198100019
 40
0.2505551279
 40
0.308088693
 40
0.3705794321
 40
0.4377682761
 40
0.5092887843
 40
0.5846894257
 40
0.663450711
 40
0.8286847468
 40
1.0
 40
1.0
 40
1.0
 40
1.0
 10
15.5295349202
 20
12.0109318497
 30
0.0
 10
15.5286587202
 20
12.0109318409
 30
0.0
 10
15.5268555175
 20
12.0107022819
 30
0.0
 10
15.5242243824
 20
12.009691633
 30
0.0
 10
15.5216662236
 20
12.0080407595
 30
0.0
 10
15.5191995263
 20
12.0057767601
 30
0.0
 10
15.5168382009
 20
12.0029238362
 30
0.0
 10
15.5145987833
 20
11.9995076374
 30
0.0
 10
15.5124989557
 20
11.9955580042
 30
0.0
 10
15.5105567722
 20
11.9911098591
 30
0.0
 10
15.5087896403
 20
11.9862031647
 30
0.0
 10
15.5072138127
 20
11.9808825591
 30
0.0
 10
15.5058438075
 20
11.9751967783
 30
0.0
 10
15.5042843203
 20
11.9670688102
 30
0.0
 10
15.5029522528
 20
11.9563804237
 30
0.0
 10
15.5025436999
 20
11.9476626139
 30
0.0
 10
15.5025004468
 20
11.9432250427
 30
0.0
  0
SPLINE
  5
328
100
AcDbEntity
  8
0
100
AcDbSpline
 62
7
  6
CONTINUOUS
 70
0
 71
3
 72
11
 73
7
 74
0
 42
0.0000001
 43
0.0000001
 44
0.0000000001
 40
0.0
 40
0.0
 40
0.0
 40
0.0
 40
0.2374800043
 40
0.4959789145
 40
0.7565568563
 40
1.0
 40
1.0
 40
1.0
 40
1.0
 10
14.9767235489
 20
13.3305136994
 30
0.0
 10
14.9766294128
 20
13.3301792929
 30
0.0
 10
14.9764917223
 20
13.3294639888
 30
0.0
 10
14.97641608
 20
13.3283576121
 30
0.0
 10
14.9764653266
 20
13.3272410023
 30
0.0
 10
14.9765850059
 20
13.3265107913
 30
0.0
 10
14.9766699368
 20
13.3261649399
 30
0.0
  0
SPLINE
  5
329
100
AcDbEntity
  8
0
100
AcDbSpline
 62
7
  6
CONTINUOUS
 70
0
 71
3
 72
11
 73
7
 74
0
 42
0.0000001
 43
0.0000001
 44
0.0000000001
 40
0.0
 40
0.0
 40
0.0
 40
0.0
 40
0.2579941499
 40
0.5154232581
 40
0.7650428521
 40
1.0
 40
1.0
 40
1.0
 40
1.0
 10
14.9805776806
 20
13.300394673
 30
0.0
 10
14.9806603381
 20
13.3016399629
 30
0.0
 10
14.9807346224
 20
13.3041346727
 30
0.0
 10
14.9805841884
 20
13.3078354963
 30
0.0
 10
14.9801780813
 20
13.3114050292
 30
0.0
 10
14.9797286967
 20
13.3137091992
 30
0.0
 10
14.9794576373
 20
13.3148129945
 30
0.0
  0
SPLINE
  5
32A
100
AcDbEntity
  8
0
100
AcDbSpline
 62
7
  6
CONTINUOUS
 70
0
 71
3
 72
11
 73
7
 74
0
 42
0.0000001
 43
0.0000001
 44
0.0000000001
 40
0.0
 40
0.0
 40
0.0
 40
0.0
 40
0.2417052042
 40
0.5016811278
 40
0.7607878688
 40
1.0
 40
1.0
 40
1.0
 40
1.0
 10
14.9628291172
 20
13.280746397
 30
0.0
 10
14.9627414904
 20
13.2804037194
 30
0.0
 10
14.9626165461
 20
13.2796775455
 30
0.0
 10
14.9625595929
 20
13.278563469
 30
0.0
 10
14.9626275844
 20
13.2774536719
 30
0.0
 10
14.9627600608
 20
13.2767337318
 30
0.0
 10
14.962851537
 20
13.2763958398
 30
0.0
  0
SPLINE
  5
32B
100
AcDbEntity
  8
0
100
AcDbSpline
 62
7
  6
CONTINUOUS
 70
0
 71
3
 72
11
 73
7
 74
0
 42
0.0000001
 43
0.0000001
 44
0.0000000001
 40
0.0
 40
0.0
 40
0.0
 40
0.0
 40
0.2606902009
 40
0.5190005018
 40
0.7676885148
 40
1.0
 40
1.0
 40
1.0
 40
1.0
 10
14.9672055831
 20
13.2511017324
 30
0.0
 10
14.9672661882
 20
13.2523509091
 30
0.0
 10
14.9672973204
 20
13.2548430454
 30
0.0
 10
14.9670833008
 20
13.2585228597
 30
0.0
 10
14.9666162393
 20
13.2620420373
 30
0.0
 10
14.9661260029
 20
13.264300721
 30
0.0
 10
14.9658347625
 20
13.2653764956
 30
0.0
  0
SPLINE
  5
32C
100
AcDbEntity
  8
LAYER_CUT_FEAT
100
AcDbSpline
 62
7
  6
CONTINUOUS
 70
0
 71
3
 72
11
 73
7
 74
0
 42
0.0000001
 43
0.0000001
 44
0.0000000001
 40
0.0
 40
0.0
 40
0.0
 40
0.0
 40
0.2342463832
 40
0.4751617376
 40
0.7287744643
 40
1.0
 40
1.0
 40
1.0
 40
1.0
 10
15.3225361891
 20
12.4178362886
 30
0.0
 10
15.3218823658
 20
12.4178362891
 30
0.0
 10
15.3205530089
 20
12.4177111265
 30
0.0
 10
15.3185864056
 20
12.4171534972
 30
0.0
 10
15.3166479572
 20
12.4162326447
 30
0.0
 10
15.3154272223
 20
12.415413273
 30
0.0
 10
15.3148256245
 20
12.4149537216
 30
0.0
  0
SPLINE
  5
32D
100
AcDbEntity
  8
0
100
AcDbSpline
 62
7
  6
CONTINUOUS
 70
0
 71
3
 72
11
 73
7
 74
0
 42
0.0000001
 43
0.0000001
 44
0.0000000001
 40
0.0
 40
0.0
 40
0.0
 40
0.0
 40
0.2459466166
 40
0.5073862122
 40
0.7650067065
 40
1.0
 40
1.0
 40
1.0
 40
1.0
 10
14.9498181701
 20
13.2294284315
 30
0.0
 10
14.949737137
 20
13.2290782438
 30
0.0
 10
14.9496250555
 20
13.2283426651
 30
0.0
 10
14.9495869156
 20
13.2272230555
 30
0.0
 10
14.949673504
 20
13.2261222277
 30
0.0
 10
14.9498186461
 20
13.2254140125
 30
0.0
 10
14.9499165767
 20
13.225084838
 30
0.0
  0
SPLINE
  5
32E
100
AcDbEntity
  8
LAYER_CUT_FEAT
100
AcDbSpline
 62
7
  6
CONTINUOUS
 70
0
 71
3
 72
23
 73
19
 74
0
 42
0.0000001
 43
0.0000001
 44
0.0000000001
 40
0.0
 40
0.0
 40
0.0
 40
0.0
 40
0.0661502421
 40
0.1351595751
 40
0.2063301261
 40
0.278919662
 40
0.3521598549
 40
0.4252703833
 40
0.4974732933
 40
0.5680074313
 40
0.6361434255
 40
0.7011992329
 40
0.7625578708
 40
0.8196875034
 40
0.8721672536
 40
0.9197215875
 40
0.9622695396
 40
1.0
 40
1.0
 40
1.0
 40
1.0
 10
15.790000584
 20
11.9183996908
 30
0.0
 10
15.7906427599
 20
11.9211365956
 30
0.0
 10
15.791794072
 20
11.9267673556
 30
0.0
 10
15.7931116276
 20
11.9354396635
 30
0.0
 10
15.7940452871
 20
11.9444368321
 30
0.0
 10
15.794583119
 20
11.9536461595
 30
0.0
 10
15.7947182945
 20
11.9629525869
 30
0.0
 10
15.7944490818
 20
11.972239673
 30
0.0
 10
15.7937789262
 20
11.9813912669
 30
0.0
 10
15.7927163233
 20
11.990292979
 30
0.0
 10
15.7912748133
 20
11.9988337074
 30
0.0
 10
15.7894726418
 20
12.0069071279
 30
0.0
 10
15.787332627
 20
12.014413157
 30
0.0
 10
15.784881485
 20
12.0212594892
 30
0.0
 10
15.7821496066
 20
12.0273627378
 30
0.0
 10
15.7791685969
 20
12.0326507411
 30
0.0
 10
15.7759733987
 20
12.0370602586
 30
0.0
 10
15.7735827846
 20
12.0395203487
 30
0.0
 10
15.7723586168
 20
12.0405559606
 30
0.0
  0
SPLINE
  5
32F
100
AcDbEntity
  8
LAYER_CUT_FEAT
100
AcDbSpline
 62
7
  6
CONTINUOUS
 70
0
 71
3
 72
21
 73
17
 74
0
 42
0.0000001
 43
0.0000001
 44
0.0000000001
 40
0.0
 40
0.0
 40
0.0
 40
0.0
 40
0.047043727
 40
0.0961536329
 40
0.1473742438
 40
0.200732122
 40
0.2562378944
 40
0.3138880396
 40
0.3736664442
 40
0.4355457509
 40
0.4994885256
 40
0.5654482681
 40
0.6333702948
 40
0.7031925034
 40
0.848246484
 40
1.0
 40
1.0
 40
1.0
 40
1.0
 10
15.5765787927
 20
11.4486252318
 30
0.0
 10
15.5822121014
 20
11.4545506633
 30
0.0
 10
15.5933763697
 20
11.4669982216
 30
0.0
 10
15.609467501
 20
11.4869378915
 30
0.0
 10
15.6252338358
 20
11.5085100062
 30
0.0
 10
15.6406502095
 20
11.531679616
 30
0.0
 10
15.6556928491
 20
11.556410327
 30
0.0
 10
15.6703381277
 20
11.5826629533
 30
0.0
 10
15.6845630125
 20
11.6103959468
 30
0.0
 10
15.6983450181
 20
11.6395653382
 30
0.0
 10
15.7116623142
 20
11.6701248432
 30
0.0
 10
15.7244936978
 20
11.7020258881
 30
0.0
 10
15.7368189263
 20
11.7352178411
 30
0.0
 10
15.7527534769
 20
11.7817161724
 30
0.0
 10
15.7712042068
 20
11.842729017
 30
0.0
 10
15.7839759849
 20
11.8927233072
 30
0.0
 10
15.790000584
 20
11.9183996908
 30
0.0
  0
SPLINE
  5
330
100
AcDbEntity
  8
LAYER_CUT_FEAT
100
AcDbSpline
 62
7
  6
CONTINUOUS
 70
0
 71
3
 72
18
 73
14
 74
0
 42
0.0000001
 43
0.0000001
 44
0.0000000001
 40
0.0
 40
0.0
 40
0.0
 40
0.0
 40
0.0400657333
 40
0.0810546939
 40
0.1238156941
 40
0.1690705396
 40
0.2173912669
 40
0.2692019987
 40
0.3842547714
 40
0.5154447553
 40
0.6625942375
 40
0.8246639218
 40
1.0
 40
1.0
 40
1.0
 40
1.0
 10
15.2968369945
 20
13.4681744396
 30
0.0
 10
15.2962507864
 20
13.4681744456
 30
0.0
 10
15.2950625944
 20
13.4680743511
 30
0.0
 10
15.2932995255
 20
13.4676273878
 30
0.0
 10
15.2915557756
 20
13.4668873639
 30
0.0
 10
15.2898394917
 20
13.4658599447
 30
0.0
 10
15.2881566496
 20
13.4645513168
 30
0.0
 10
15.2858863465
 20
13.4623629786
 30
0.0
 10
15.2831908548
 20
13.4589078108
 30
0.0
 10
15.2802985672
 20
13.453917131
 30
0.0
 10
15.2776801743
 20
13.4480180423
 30
0.0
 10
15.2753776976
 20
13.441305246
 30
0.0
 10
15.2741221739
 20
13.436526253
 30
0.0
 10
15.2735475693
 20
13.4340260622
 30
0.0
  0
SPLINE
  5
331
100
AcDbEntity
  8
LAYER_CUT_FEAT
100
AcDbSpline
 62
7
  6
CONTINUOUS
 70
0
 71
3
 72
15
 73
11
 74
0
 42
0.0000001
 43
0.0000001
 44
0.0000000001
 40
0.0
 40
0.0
 40
0.0
 40
0.0
 40
0.1192673013
 40
0.2444601994
 40
0.3735148737
 40
0.5042494615
 40
0.6344321539
 40
0.7618473537
 40
0.8843624636
 40
1.0
 40
1.0
 40
1.0
 40
1.0
 10
15.2735475693
 20
13.4340260622
 30
0.0
 10
15.2728765622
 20
13.4311064093
 30
0.0
 10
15.2717177508
 20
13.4250708593
 30
0.0
 10
15.2705269258
 20
13.4157595243
 30
0.0
 10
15.2698565127
 20
13.4061075141
 30
0.0
 10
15.2697203757
 20
13.396308184
 30
0.0
 10
15.2701212807
 20
13.3865572729
 30
0.0
 10
15.2710510385
 20
13.377049451
 30
0.0
 10
15.2724904361
 20
13.3679750414
 30
0.0
 10
15.2738152221
 20
13.3621355091
 30
0.0
 10
15.2745679121
 20
13.3593301342
 30
0.0
  0
SPLINE
  5
332
100
AcDbEntity
  8
LAYER_CUT_FEAT
100
AcDbSpline
 62
7
  6
CONTINUOUS
 70
0
 71
3
 72
14
 73
10
 74
0
 42
0.0000001
 43
0.0000001
 44
0.0000000001
 40
0.0
 40
0.0
 40
0.0
 40
0.0
 40
0.2823321978
 40
0.4156231861
 40
0.5434932588
 40
0.6658700999
 40
0.7827243517
 40
0.8940755038
 40
1.0
 40
1.0
 40
1.0
 40
1.0
 10
15.2672927309
 20
12.1629030134
 30
0.0
 10
15.2714305187
 20
12.1519318149
 30
0.0
 10
15.2780102008
 20
12.1359547108
 30
0.0
 10
15.2877458763
 20
12.1155857407
 30
0.0
 10
15.2951765328
 20
12.1014911175
 30
0.0
 10
15.3028592783
 20
12.0883164975
 30
0.0
 10
15.310777636
 20
12.0760907716
 30
0.0
 10
15.3189137898
 20
12.0648417114
 30
0.0
 10
15.3246124645
 20
12.0578368309
 30
0.0
 10
15.3274971068
 20
12.0545154767
 30
0.0
  0
SPLINE
  5
333
100
AcDbEntity
  8
LAYER_CUT_FEAT
100
AcDbSpline
 62
7
  6
CONTINUOUS
 70
0
 71
3
 72
17
 73
13
 74
0
 42
0.0000001
 43
0.0000001
 44
0.0000000001
 40
0.0
 40
0.0
 40
0.0
 40
0.0
 40
0.1496077219
 40
0.2966620764
 40
0.4386144125
 40
0.573078081
 40
0.6979218427
 40
0.8113806204
 40
0.863446381
 40
0.9122521778
 40
0.9577605721
 40
1.0
 40
1.0
 40
1.0
 40
1.0
 10
15.3466714764
 20
11.9781357503
 30
0.0
 10
15.3466778223
 20
11.9821292182
 30
0.0
 10
15.3464695929
 20
11.9900501866
 30
0.0
 10
15.3454991332
 20
12.0017240914
 30
0.0
 10
15.3438919287
 20
12.0129202477
 30
0.0
 10
15.341681877
 20
12.0234094631
 30
0.0
 10
15.3389152461
 20
12.032977404
 30
0.0
 10
15.336118604
 20
12.0402211126
 30
0.0
 10
15.3336191064
 20
12.0453706176
 30
0.0
 10
15.3316976177
 20
12.0487761991
 30
0.0
 10
15.3296854654
 20
12.0518193123
 30
0.0
 10
15.3282364356
 20
12.0536642195
 30
0.0
 10
15.3274971068
 20
12.0545154767
 30
0.0
  0
SPLINE
  5
334
100
AcDbEntity
  8
LAYER_CUT_FEAT
100
AcDbSpline
 62
7
  6
CONTINUOUS
 70
0
 71
3
 72
15
 73
11
 74
0
 42
0.0000001
 43
0.0000001
 44
0.0000000001
 40
0.0
 40
0.0
 40
0.0
 40
0.0
 40
0.1175180371
 40
0.2415543203
 40
0.3700229518
 40
0.5006963395
 40
0.6312791837
 40
0.7594789389
 40
0.883076386
 40
1.0
 40
1.0
 40
1.0
 40
1.0
 10
15.2433405475
 20
12.7810015806
 30
0.0
 10
15.2442122311
 20
12.7844859557
 30
0.0
 10
15.2457303173
 20
12.7917182204
 30
0.0
 10
15.2473306097
 20
12.8029203384
 30
0.0
 10
15.2482939667
 20
12.814598607
 30
0.0
 10
15.2485998767
 20
12.8265122009
 30
0.0
 10
15.2482419157
 20
12.838416134
 30
0.0
 10
15.2472276074
 20
12.8500656419
 30
0.0
 10
15.2455785452
 20
12.8612205183
 30
0.0
 10
15.2440278904
 20
12.8684136882
 30
0.0
 10
15.2431401878
 20
12.8718752643
 30
0.0
  0
SPLINE
  5
335
100
AcDbEntity
  8
LAYER_CUT_FEAT
100
AcDbSpline
 62
7
  6
CONTINUOUS
 70
0
 71
3
 72
11
 73
7
 74
0
 42
0.0000001
 43
0.0000001
 44
0.0000000001
 40
0.0
 40
0.0
 40
0.0
 40
0.0
 40
0.2358710917
 40
0.4829608343
 40
0.7386151384
 40
1.0
 40
1.0
 40
1.0
 40
1.0
 10
15.2433405475
 20
12.7810015806
 30
0.0
 10
15.2391606146
 20
12.7642931631
 30
0.0
 10
15.2316497555
 20
12.7298133416
 30
0.0
 10
15.2230070721
 20
12.6765540175
 30
0.0
 10
15.2168044304
 20
12.6210819691
 30
0.0
 10
15.2143701132
 20
12.5833906087
 30
0.0
 10
15.2135699194
 20
12.5643210436
 30
0.0
  0
SPLINE
  5
336
100
AcDbEntity
  8
LAYER_CUT_FEAT
100
AcDbSpline
 62
7
  6
CONTINUOUS
 70
0
 71
3
 72
18
 73
14
 74
0
 42
0.0000001
 43
0.0000001
 44
0.0000000001
 40
0.0
 40
0.0
 40
0.0
 40
0.0
 40
0.0396921007
 40
0.0826193138
 40
0.1289574953
 40
0.1787844247
 40
0.2320965978
 40
0.2888257855
 40
0.4119707731
 40
0.5467999741
 40
0.6913423524
 40
0.8432678529
 40
1.0
 40
1.0
 40
1.0
 40
1.0
 10
15.1912072176
 20
12.4938898271
 30
0.0
 10
15.1919790696
 20
12.4945249087
 30
0.0
 10
15.193503222
 20
12.4959488777
 30
0.0
 10
15.1956371392
 20
12.4984028037
 30
0.0
 10
15.1976952301
 20
12.5012420487
 30
0.0
 10
15.1996673733
 20
12.5044519068
 30
0.0
 10
15.2015443194
 20
12.5080164278
 30
0.0
 10
15.2039737398
 20
12.5133654994
 30
0.0
 10
15.2066746998
 20
12.5208298679
 30
0.0
 10
15.209319575
 20
12.5306245673
 30
0.0
 10
15.2113963151
 20
12.5412938547
 30
0.0
 10
15.2128613786
 20
12.5526188168
 30
0.0
 10
15.2134044463
 20
12.560377624
 30
0.0
 10
15.2135699194
 20
12.5643210436
 30
0.0
  0
SPLINE
  5
337
100
AcDbEntity
  8
LAYER_CUT_FEAT
100
AcDbSpline
 62
7
  6
CONTINUOUS
 70
0
 71
3
 72
23
 73
19
 74
0
 42
0.0000001
 43
0.0000001
 44
0.0000000001
 40
0.0
 40
0.0
 40
0.0
 40
0.0
 40
0.0602565465
 40
0.1240190221
 40
0.1906779605
 40
0.2595614808
 40
0.3299545698
 40
0.4011136939
 40
0.4722811133
 40
0.5426989387
 40
0.6116231834
 40
0.6783379952
 40
0.7421709861
 40
0.8025095956
 40
0.858820492
 40
0.9106732263
 40
0.9577714604
 40
1.0
 40
1.0
 40
1.0
 40
1.0
 10
15.6129006734
 20
13.4170853825
 30
0.0
 10
15.6136833209
 20
13.4195999543
 30
0.0
 10
15.6151211364
 20
13.4248303009
 30
0.0
 10
15.6168687156
 20
13.4329825643
 30
0.0
 10
15.6182526082
 20
13.4415864008
 30
0.0
 10
15.6192551435
 20
13.450534189
 30
0.0
 10
15.6198636045
 20
13.459714339
 30
0.0
 10
15.6200702351
 20
13.4690120508
 30
0.0
 10
15.6198724268
 20
13.4783110373
 30
0.0
 10
15.6192726683
 20
13.4874949802
 30
0.0
 10
15.6182786228
 20
13.4964490701
 30
0.0
 10
15.6169028906
 20
13.5050615152
 30
0.0
 10
15.6151629686
 20
13.5132250275
 30
0.0
 10
15.613080809
 20
13.5208383639
 30
0.0
 10
15.6106826586
 20
13.5278075566
 30
0.0
 10
15.6079977976
 20
13.5340481375
 30
0.0
 10
15.6050594533
 20
13.5394839234
 30
0.0
 10
15.6028315776
 20
13.5427047283
 30
0.0
 10
15.6016736844
 20
13.5441419565
 30
0.0
  0
SPLINE
  5
338
100
AcDbEntity
  8
LAYER_CUT_FEAT
100
AcDbSpline
 62
7
  6
CONTINUOUS
 70
0
 71
3
 72
17
 73
13
 74
0
 42
0.0000001
 43
0.0000001
 44
0.0000000001
 40
0.0
 40
0.0
 40
0.0
 40
0.0
 40
0.0422945956
 40
0.0853545187
 40
0.1298960642
 40
0.1765492237
 40
0.2780411884
 40
0.3929058533
 40
0.5225647173
 40
0.6673539881
 40
0.8268316019
 40
1.0
 40
1.0
 40
1.0
 40
1.0
 10
15.7903312681
 20
13.4364552716
 30
0.0
 10
15.789813264
 20
13.4364552761
 30
0.0
 10
15.7887663002
 20
13.4363774849
 30
0.0
 10
15.7872087218
 20
13.4360294504
 30
0.0
 10
15.7856638633
 20
13.435452075
 30
0.0
 10
15.7835708269
 20
13.4343502263
 30
0.0
 10
15.7810065101
 20
13.432359251
 30
0.0
 10
15.7781623692
 20
13.4291963487
 30
0.0
 10
15.7754854371
 20
13.425235887
 30
0.0
 10
15.7730050036
 20
13.4205261749
 30
0.0
 10
15.7707493616
 20
13.4151245886
 30
0.0
 10
15.7694635359
 20
13.4112547419
 30
0.0
 10
15.7688576537
 20
13.4092222417
 30
0.0
  0
SPLINE
  5
339
100
AcDbEntity
  8
LAYER_CUT_FEAT
100
AcDbSpline
 62
7
  6
CONTINUOUS
 70
0
 71
3
 72
15
 73
11
 74
0
 42
0.0000001
 43
0.0000001
 44
0.0000000001
 40
0.0
 40
0.0
 40
0.0
 40
0.0
 40
0.1433934547
 40
0.2809629692
 40
0.4129088231
 40
0.5394946645
 40
0.6610516263
 40
0.7779853233
 40
0.8907798517
 40
1.0
 40
1.0
 40
1.0
 40
1.0
 10
15.6016736844
 20
13.5441419565
 30
0.0
 10
15.5966359463
 20
13.5503950202
 30
0.0
 10
15.5864765796
 20
13.5624189774
 30
0.0
 10
15.5706511702
 20
13.5792923026
 30
0.0
 10
15.5545809636
 20
13.594600158
 30
0.0
 10
15.5382886541
 20
13.6083192017
 30
0.0
 10
15.5217967333
 20
13.6204285982
 30
0.0
 10
15.5051274811
 20
13.6309094084
 30
0.0
 10
15.4883060219
 20
13.6397436345
 30
0.0
 10
15.4768393198
 20
13.6445953177
 30
0.0
 10
15.471105393
 20
13.6467238137
 30
0.0
  0
SPLINE
  5
33A
100
AcDbEntity
  8
LAYER_CUT_FEAT
100
AcDbSpline
 62
7
  6
CONTINUOUS
 70
0
 71
3
 72
15
 73
11
 74
0
 42
0.0000001
 43
0.0000001
 44
0.0000000001
 40
0.0
 40
0.0
 40
0.0
 40
0.0
 40
0.1293612924
 40
0.2590768202
 40
0.3883314927
 40
0.5163147074
 40
0.6422297116
 40
0.7653027329
 40
0.8847924415
 40
1.0
 40
1.0
 40
1.0
 40
1.0
 10
15.8507145719
 20
12.3692535533
 30
0.0
 10
15.8523020197
 20
12.4020677984
 30
0.0
 10
15.8543628025
 20
12.4678454797
 30
0.0
 10
15.8541482764
 20
12.5664834618
 30
0.0
 10
15.8506406373
 20
12.6647104664
 30
0.0
 10
15.8438659979
 20
12.7617991016
 30
0.0
 10
15.8338750006
 20
12.857032148
 30
0.0
 10
15.8207420764
 20
12.9497068473
 30
0.0
 10
15.8045657024
 20
13.0391369846
 30
0.0
 10
15.7915707428
 20
13.0973288589
 30
0.0
 10
15.7845517509
 20
13.1257325952
 30
0.0
  0
SPLINE
  5
33B
100
AcDbEntity
  8
LAYER_CUT_FEAT
100
AcDbSpline
 62
7
  6
CONTINUOUS
 70
0
 71
3
 72
11
 73
7
 74
0
 42
0.0000001
 43
0.0000001
 44
0.0000000001
 40
0.0
 40
0.0
 40
0.0
 40
0.0
 40
0.2361865926
 40
0.4781790106
 40
0.7312988663
 40
1.0
 40
1.0
 40
1.0
 40
1.0
 10
15.3592537771
 20
12.2247519162
 30
0.0
 10
15.3585263687
 20
12.2247519169
 30
0.0
 10
15.3570506865
 20
12.2246233047
 30
0.0
 10
15.3548627965
 20
12.2240492857
 30
0.0
 10
15.3527011792
 20
12.2230997118
 30
0.0
 10
15.3513306705
 20
12.2222500617
 30
0.0
 10
15.3506545323
 20
12.221772913
 30
0.0
  0
SPLINE
  5
33C
100
AcDbEntity
  8
LAYER_CUT_FEAT
100
AcDbSpline
 62
7
  6
CONTINUOUS
 70
0
 71
3
 72
16
 73
12
 74
0
 42
0.0000001
 43
0.0000001
 44
0.0000000001
 40
0.0
 40
0.0
 40
0.0
 40
0.0
 40
0.0446551317
 40
0.089936813
 40
0.1845474293
 40
0.2880152169
 40
0.4031150805
 40
0.5314718095
 40
0.6738001724
 40
0.8301317104
 40
1.0
 40
1.0
 40
1.0
 40
1.0
 10
15.2358907903
 20
13.3308002216
 30
0.0
 10
15.2353447039
 20
13.3308002258
 30
0.0
 10
15.23424351
 20
13.3307283831
 30
0.0
 10
15.2320236009
 20
13.3302940075
 30
0.0
 10
15.2292338658
 20
13.3291753626
 30
0.0
 10
15.2260422027
 20
13.327018428
 30
0.0
 10
15.2229722037
 20
13.3240660303
 30
0.0
 10
15.2200451064
 20
13.3203511568
 30
0.0
 10
15.2172823896
 20
13.3159095696
 30
0.0
 10
15.2147083632
 20
13.3107835816
 30
0.0
 10
15.2131942274
 20
13.3070888507
 30
0.0
 10
15.2124675554
 20
13.3051427817
 30
0.0
  0
SPLINE
  5
33D
100
AcDbEntity
  8
LAYER_CUT_FEAT
100
AcDbSpline
 62
7
  6
CONTINUOUS
 70
0
 71
3
 72
9
 73
5
 74
0
 42
0.0000001
 43
0.0000001
 44
0.0000000001
 40
0.0
 40
0.0
 40
0.0
 40
0.0
 40
0.4812735557
 40
1.0
 40
1.0
 40
1.0
 40
1.0
 10
15.4855419069
 20
13.0107120668
 30
0.0
 10
15.4864363708
 20
13.0126103265
 30
0.0
 10
15.4881306251
 20
13.0166329626
 30
0.0
 10
15.489546479
 20
13.0207601423
 30
0.0
 10
15.4902186304
 20
13.0229197007
 30
0.0
  0
SPLINE
  5
33E
100
AcDbEntity
  8
02___PRT_ALL_AXES
100
AcDbSpline
 62
7
  6
CONTINUOUS
 70
0
 71
3
 72
25
 73
21
 74
0
 42
0.0000001
 43
0.0000001
 44
0.0000000001
 40
0.0
 40
0.0
 40
0.0
 40
0.0
 40
0.0548677182
 40
0.1169676888
 40
0.1853825628
 40
0.2588678418
 40
0.3359573799
 40
0.4150414168
 40
0.4944348379
 40
0.5724409881
 40
0.6474152554
 40
0.7178307642
 40
0.7823527607
 40
0.8399296796
 40
0.8899242177
 40
0.9323265224
 40
0.9509806337
 40
0.9682209996
 40
0.9844082486
 40
1.0
 40
1.0
 40
1.0
 40
1.0
 10
15.5512252663
 20
12.4573615283
 30
0.0
 10
15.5507129404
 20
12.4564848766
 30
0.0
 10
15.5497676711
 20
12.4545293818
 30
0.0
 10
15.5486252105
 20
12.4512894159
 30
0.0
 10
15.5476928897
 20
12.4476265177
 30
0.0
 10
15.5469947362
 20
12.443631061
 30
0.0
 10
15.5465485083
 20
12.4394014487
 30
0.0
 10
15.5463657653
 20
12.4350430942
 30
0.0
 10
15.5464511966
 20
12.430664806
 30
0.0
 10
15.5468026293
 20
12.4263759685
 30
0.0
 10
15.5474109436
 20
12.4222835303
 30
0.0
 10
15.5482605833
 20
12.418488928
 30
0.0
 10
15.5493297267
 20
12.4150853777
 30
0.0
 10
15.5505926086
 20
12.4121536543
 30
0.0
 10
15.5520190219
 20
12.4097624314
 30
0.0
 10
15.5533801137
 20
12.4081978316
 30
0.0
 10
15.5545318217
 20
12.4073110253
 30
0.0
 10
15.5553800539
 20
12.4068440453
 30
0.0
 10
15.5562442076
 20
12.4065518127
 30
0.0
 10
15.556832227
 20
12.4064760784
 30
0.0
 10
15.5571206814
 20
12.4064690351
 30
0.0
  0
SPLINE
  5
33F
100
AcDbEntity
  8
02___PRT_ALL_AXES
100
AcDbSpline
 62
7
  6
CONTINUOUS
 70
0
 71
3
 72
16
 73
12
 74
0
 42
0.0000001
 43
0.0000001
 44
0.0000000001
 40
0.0
 40
0.0
 40
0.0
 40
0.0
 40
0.1762217404
 40
0.3399572501
 40
0.4889516103
 40
0.6215882706
 40
0.7371810601
 40
0.836418377
 40
0.9220649808
 40
0.9615648127
 40
1.0
 40
1.0
 40
1.0
 40
1.0
 10
15.6613096053
 20
12.233159136
 30
0.0
 10
15.6615177746
 20
12.2319956889
 30
0.0
 10
15.6619899165
 20
12.2297628804
 30
0.0
 10
15.6629015431
 20
12.2266093314
 30
0.0
 10
15.6639761905
 20
12.2238174539
 30
0.0
 10
15.6651929291
 20
12.2214404312
 30
0.0
 10
15.666531912
 20
12.2195213323
 30
0.0
 10
15.6679740118
 20
12.2180937142
 30
0.0
 10
15.669295554
 20
12.2173237428
 30
0.0
 10
15.6703571955
 20
12.2170273853
 30
0.0
 10
15.6708811114
 20
12.2169787262
 30
0.0
 10
15.6711388971
 20
12.2169787318
 30
0.0
  0
SPLINE
  5
340
100
AcDbEntity
  8
LAYER_CUT_FEAT
100
AcDbSpline
 62
7
  6
CONTINUOUS
 70
0
 71
3
 72
11
 73
7
 74
0
 42
0.0000001
 43
0.0000001
 44
0.0000000001
 40
0.0
 40
0.0
 40
0.0
 40
0.0
 40
0.2927365978
 40
0.551332763
 40
0.7831769147
 40
1.0
 40
1.0
 40
1.0
 40
1.0
 10
15.7284636412
 20
12.3013726076
 30
0.0
 10
15.7288124512
 20
12.3009294712
 30
0.0
 10
15.7295252908
 20
12.3001354193
 30
0.0
 10
15.7307241112
 20
12.2992028248
 30
0.0
 10
15.7319737465
 20
12.298625287
 30
0.0
 10
15.7328425773
 20
12.2984923377
 30
0.0
 10
15.7332602809
 20
12.2984923369
 30
0.0
  0
SPLINE
  5
341
100
AcDbEntity
  8
LAYER_CUT_FEAT
100
AcDbSpline
 62
7
  6
CONTINUOUS
 70
0
 71
3
 72
22
 73
18
 74
0
 42
0.0000001
 43
0.0000001
 44
0.0000000001
 40
0.0
 40
0.0
 40
0.0
 40
0.0
 40
0.1693119221
 40
0.334124448
 40
0.4131060423
 40
0.4889228239
 40
0.5609862278
 40
0.6287765967
 40
0.6918616717
 40
0.7499199659
 40
0.8027728482
 40
0.8504302739
 40
0.8931552818
 40
0.9315499512
 40
0.9666456488
 40
0.983439562
 40
1.0
 40
1.0
 40
1.0
 40
1.0
 10
15.5760888539
 20
11.4669698695
 30
0.0
 10
15.5759886077
 20
11.4613737649
 30
0.0
 10
15.5762220863
 20
11.4503181806
 30
0.0
 10
15.5775895877
 20
11.4367138887
 30
0.0
 10
15.5793384497
 20
11.4262908504
 30
0.0
 10
15.5809263703
 20
11.4189583018
 30
0.0
 10
15.5827923065
 20
11.4120737233
 30
0.0
 10
15.5849173993
 20
11.405706182
 30
0.0
 10
15.5872801693
 20
11.3999191428
 30
0.0
 10
15.5898572654
 20
11.3947695666
 30
0.0
 10
15.5926243274
 20
11.3903072957
 30
0.0
 10
15.5955568925
 20
11.3865747399
 30
0.0
 10
15.5986333263
 20
11.3836080204
 30
0.0
 10
15.6018322909
 20
11.3814403837
 30
0.0
 10
15.6046291048
 20
11.3803159919
 30
0.0
 10
15.6068546814
 20
11.3798793713
 30
0.0
 10
15.6079586577
 20
11.3798071954
 30
0.0
 10
15.6085061018
 20
11.3798071893
 30
0.0
  0
SPLINE
  5
342
100
AcDbEntity
  8
LAYER_CUT_FEAT
100
AcDbSpline
 62
7
  6
CONTINUOUS
 70
0
 71
3
 72
13
 73
9
 74
0
 42
0.0000001
 43
0.0000001
 44
0.0000000001
 40
0.0
 40
0.0
 40
0.0
 40
0.0
 40
0.1085794244
 40
0.2233013823
 40
0.3435280858
 40
0.4685411158
 40
0.7296942237
 40
1.0
 40
1.0
 40
1.0
 40
1.0
 10
15.5940378511
 20
12.0246781483
 30
0.0
 10
15.5933503967
 20
12.0228248179
 30
0.0
 10
15.5920504454
 20
12.0189704122
 30
0.0
 10
15.59035909
 20
12.01294705
 30
0.0
 10
15.5888826023
 20
12.0065600092
 30
0.0
 10
15.5871922571
 20
11.9974948793
 30
0.0
 10
15.5857125815
 20
11.9856233113
 30
0.0
 10
15.5852065492
 20
11.9759522095
 30
0.0
 10
15.5851184107
 20
11.9710320003
 30
0.0
  0
SPLINE
  5
343
100
AcDbEntity
  8
LAYER_CUT_FEAT
100
AcDbSpline
 62
7
  6
CONTINUOUS
 70
0
 71
3
 72
23
 73
19
 74
0
 42
0.0000001
 43
0.0000001
 44
0.0000000001
 40
0.0
 40
0.0
 40
0.0
 40
0.0
 40
0.0362316275
 40
0.0771481369
 40
0.1230947811
 40
0.1740999374
 40
0.2299650102
 40
0.2903239713
 40
0.3546841077
 40
0.4224556515
 40
0.4929741059
 40
0.5655193886
 40
0.6393321954
 40
0.7136295546
 40
0.7876195774
 40
0.860516009
 40
0.9315523435
 40
1.0
 40
1.0
 40
1.0
 40
1.0
 10
15.1611803737
 20
12.0880615734
 30
0.0
 10
15.1599395726
 20
12.0871859438
 30
0.0
 10
15.1574985316
 20
12.0850317259
 30
0.0
 10
15.1542171786
 20
12.0810304324
 30
0.0
 10
15.1511357408
 20
12.0761268517
 30
0.0
 10
15.1482889332
 20
12.0703792035
 30
0.0
 10
15.1457085562
 20
12.0638546606
 30
0.0
 10
15.1434262287
 20
12.0566320817
 30
0.0
 10
15.1414702447
 20
12.0487998664
 30
0.0
 10
15.1398652974
 20
12.0404548349
 30
0.0
 10
15.1386316734
 20
12.0317007032
 30
0.0
 10
15.1377850773
 20
12.0226466244
 30
0.0
 10
15.1373362453
 20
12.0134057093
 30
0.0
 10
15.1372909077
 20
12.0040935056
 30
0.0
 10
15.1376496305
 20
11.9948265276
 30
0.0
 10
15.1384078597
 20
11.9857205978
 30
0.0
 10
15.1395559026
 20
11.9768898149
 30
0.0
 10
15.1405941932
 20
11.9711331234
 30
0.0
 10
15.1411806655
 20
11.9683247092
 30
0.0
  0
SPLINE
  5
344
100
AcDbEntity
  8
LAYER_CUT_FEAT
100
AcDbSpline
 62
7
  6
CONTINUOUS
 70
0
 71
3
 72
22
 73
18
 74
0
 42
0.0000001
 43
0.0000001
 44
0.0000000001
 40
0.0
 40
0.0
 40
0.0
 40
0.0
 40
0.082101243
 40
0.1621016
 40
0.2398365621
 40
0.3151524735
 40
0.387909489
 40
0.4579829237
 40
0.5252653093
 40
0.5896688335
 40
0.6511281785
 40
0.7096039133
 40
0.7650866737
 40
0.8176021896
 40
0.8672172608
 40
0.9140468518
 40
1.0
 40
1.0
 40
1.0
 40
1.0
 10
15.1411806655
 20
11.9683247092
 30
0.0
 10
15.144878418
 20
11.9506174464
 30
0.0
 10
15.1526202578
 20
11.9157461325
 30
0.0
 10
15.1654517437
 20
11.8644783112
 30
0.0
 10
15.179323883
 20
11.815032244
 30
0.0
 10
15.1941974863
 20
11.7675473168
 30
0.0
 10
15.2100306049
 20
11.7221568413
 30
0.0
 10
15.226778675
 20
11.6789881513
 30
0.0
 10
15.2443947226
 20
11.6381621199
 30
0.0
 10
15.2628294965
 20
11.5997928413
 30
0.0
 10
15.2820318126
 20
11.563987208
 30
0.0
 10
15.3019485419
 20
11.5308449227
 30
0.0
 10
15.3225260635
 20
11.5004573155
 30
0.0
 10
15.3437066887
 20
11.4729105079
 30
0.0
 10
15.3654427087
 20
11.4482742437
 30
0.0
 10
15.3942397984
 20
11.4202216574
 30
0.0
 10
15.417738235
 20
11.4024079529
 30
0.0
 10
15.4340048056
 20
11.3927103464
 30
0.0
  0
SPLINE
  5
345
100
AcDbEntity
  8
LAYER_CUT_FEAT
100
AcDbSpline
 62
7
  6
CONTINUOUS
 70
0
 71
3
 72
10
 73
6
 74
0
 42
0.0000001
 43
0.0000001
 44
0.0000000001
 40
0.0
 40
0.0
 40
0.0
 40
0.0
 40
0.5158868449
 40
0.7600882729
 40
1.0
 40
1.0
 40
1.0
 40
1.0
 10
15.4340048056
 20
11.3927103464
 30
0.0
 10
15.4351466506
 20
11.3920296151
 30
0.0
 10
15.4369536032
 20
11.3912036954
 30
0.0
 10
15.4394757564
 20
11.3906439569
 30
0.0
 10
15.4407253191
 20
11.3905515036
 30
0.0
 10
15.4413435354
 20
11.3905514977
 30
0.0
  0
SPLINE
  5
346
100
AcDbEntity
  8
LAYER_CUT_FEAT
100
AcDbSpline
 62
7
  6
CONTINUOUS
 70
0
 71
3
 72
20
 73
16
 74
0
 42
0.0000001
 43
0.0000001
 44
0.0000000001
 40
0.0
 40
0.0
 40
0.0
 40
0.0
 40
0.0528104342
 40
0.1074976939
 40
0.1639614901
 40
0.2220909753
 40
0.2817667179
 40
0.3428615032
 40
0.4052412974
 40
0.4687660938
 40
0.5332907238
 40
0.5986656322
 40
0.7313429297
 40
0.8655486764
 40
1.0
 40
1.0
 40
1.0
 40
1.0
 10
15.2124675554
 20
13.3051427817
 30
0.0
 10
15.2068843625
 20
13.2901906741
 30
0.0
 10
15.1960582754
 20
13.2595515823
 30
0.0
 10
15.1810667687
 20
13.2123129478
 30
0.0
 10
15.1670715666
 20
13.1630962453
 30
0.0
 10
15.1541124746
 20
13.1120405341
 30
0.0
 10
15.1422260316
 20
13.0592893095
 30
0.0
 10
15.1314458726
 20
13.0049911637
 30
0.0
 10
15.1218024958
 20
12.9492990231
 30
0.0
 10
15.1133232385
 20
12.8923699355
 30
0.0
 10
15.1060319313
 20
12.8343640833
 30
0.0
 10
15.0978827355
 20
12.7554216838
 30
0.0
 10
15.0908287176
 20
12.655220211
 30
0.0
 10
15.0873715781
 20
12.5339453096
 30
0.0
 10
15.0884072187
 20
12.4527300374
 30
0.0
 10
15.0897713164
 20
12.4121187287
 30
0.0
  0
SPLINE
  5
347
100
AcDbEntity
  8
LAYER_CUT_FEAT
100
AcDbSpline
 62
7
  6
CONTINUOUS
 70
0
 71
3
 72
21
 73
17
 74
0
 42
0.0000001
 43
0.0000001
 44
0.0000000001
 40
0.0
 40
0.0
 40
0.0
 40
0.0
 40
0.1727722394
 40
0.3382053556
 40
0.4167324742
 40
0.4917530235
 40
0.5628047276
 40
0.6294921161
 40
0.6915027287
 40
0.7486283711
 40
0.8007940959
 40
0.8480985418
 40
0.8908687957
 40
0.9297280197
 40
0.9656572226
 40
1.0
 40
1.0
 40
1.0
 40
1.0
 10
15.0897713164
 20
12.4121187287
 30
0.0
 10
15.0899418
 20
12.4070431654
 30
0.0
 10
15.0906304303
 20
12.3971158326
 30
0.0
 10
15.0924033908
 20
12.3849810143
 30
0.0
 10
15.0943621598
 20
12.3758089283
 30
0.0
 10
15.0960425009
 20
12.369421745
 30
0.0
 10
15.0979446834
 20
12.3634610032
 30
0.0
 10
15.1000525906
 20
12.3579770254
 30
0.0
 10
15.1023484123
 20
12.3530157814
 30
0.0
 10
15.10481328
 20
12.3486183501
 30
0.0
 10
15.1074278027
 20
12.3448206219
 30
0.0
 10
15.110173094
 20
12.3416533744
 30
0.0
 10
15.1130314192
 20
12.3391433385
 30
0.0
 10
15.1159874099
 20
12.3373160415
 30
0.0
 10
15.1190201727
 20
12.3361996839
 30
0.0
 10
15.1210933338
 20
12.3359466841
 30
0.0
 10
15.1221027971
 20
12.3359466855
 30
0.0
  0
SPLINE
  5
348
100
AcDbEntity
  8
LAYER_CUT_FEAT
100
AcDbSpline
 62
7
  6
CONTINUOUS
 70
0
 71
3
 72
23
 73
19
 74
0
 42
0.0000001
 43
0.0000001
 44
0.0000000001
 40
0.0
 40
0.0
 40
0.0
 40
0.0
 40
0.0404486553
 40
0.0857890747
 40
0.1360059023
 40
0.1908742688
 40
0.2500157519
 40
0.3129351044
 40
0.3790471479
 40
0.44769811
 40
0.5181831033
 40
0.5897621825
 40
0.6616749569
 40
0.7331549066
 40
0.8034435079
 40
0.871804484
 40
0.9375381193
 40
1.0
 40
1.0
 40
1.0
 40
1.0
 10
15.3609442364
 20
13.5678371019
 30
0.0
 10
15.359757849
 20
13.5665483143
 30
0.0
 10
15.3574636212
 20
13.5636079117
 30
0.0
 10
15.3544226156
 20
13.55855191
 30
0.0
 10
15.3516201397
 20
13.5526612757
 30
0.0
 10
15.3490903735
 20
13.5460074161
 30
0.0
 10
15.3468637326
 20
13.538670324
 30
0.0
 10
15.3449681576
 20
13.5307401906
 30
0.0
 10
15.3434274935
 20
13.5223151065
 30
0.0
 10
15.3422613091
 20
13.5134998681
 30
0.0
 10
15.3414843831
 20
13.5044044366
 30
0.0
 10
15.3411066305
 20
13.4951424614
 30
0.0
 10
15.3411328293
 20
13.4858297767
 30
0.0
 10
15.3415626663
 20
13.4765828666
 30
0.0
 10
15.3423906588
 20
13.4675174001
 30
0.0
 10
15.3436062979
 20
13.4587465298
 30
0.0
 10
15.3451940558
 20
13.4503800398
 30
0.0
 10
15.3465254202
 20
13.4449864541
 30
0.0
 10
15.3472560067
 20
13.4423819448
 30
0.0
  0
SPLINE
  5
349
100
AcDbEntity
  8
LAYER_CUT_FEAT
100
AcDbSpline
 62
7
  6
CONTINUOUS
 70
0
 71
3
 72
19
 73
15
 74
0
 42
0.0000001
 43
0.0000001
 44
0.0000000001
 40
0.0
 40
0.0
 40
0.0
 40
0.0
 40
0.1737992121
 40
0.2556821932
 40
0.3339928571
 40
0.47936302
 40
0.6093653727
 40
0.7242201744
 40
0.7763939751
 40
0.8254105373
 40
0.8716868915
 40
0.9157594548
 40
0.9582810106
 40
1.0
 40
1.0
 40
1.0
 40
1.0
 10
15.4621053456
 20
13.0329490161
 30
0.0
 10
15.4628270373
 20
13.0303762161
 30
0.0
 10
15.4640066984
 20
13.0266219324
 30
0.0
 10
15.4658237325
 20
13.0218178531
 30
0.0
 10
15.4676646087
 20
13.0174945985
 30
0.0
 10
15.4701203299
 20
13.0126322908
 30
0.0
 10
15.4733988316
 20
13.0075918303
 30
0.0
 10
15.4764066849
 20
13.0041262924
 30
0.0
 10
15.4789138886
 20
13.0019400721
 30
0.0
 10
15.4807704856
 20
13.0006308037
 30
0.0
 10
15.4826575636
 20
12.9996046243
 30
0.0
 10
15.4845693344
 20
12.998866755
 30
0.0
 10
15.4864981353
 20
12.9984217681
 30
0.0
 10
15.4877953842
 20
12.9983222782
 30
0.0
 10
15.4884367995
 20
12.9983222851
 30
0.0
  0
SPLINE
  5
34A
100
AcDbEntity
  8
LAYER_CUT_FEAT
100
AcDbSpline
 62
7
  6
CONTINUOUS
 70
0
 71
3
 72
11
 73
7
 74
0
 42
0.0000001
 43
0.0000001
 44
0.0000000001
 40
0.0
 40
0.0
 40
0.0
 40
0.0
 40
0.2648927282
 40
0.5172966508
 40
0.7609198526
 40
1.0
 40
1.0
 40
1.0
 40
1.0
 10
15.5804460925
 20
12.9969948234
 30
0.0
 10
15.5768375058
 20
12.9992148012
 30
0.0
 10
15.5695368629
 20
13.0031586027
 30
0.0
 10
15.5581392326
 20
13.0075286714
 30
0.0
 10
15.5466401593
 20
13.0101644395
 30
0.0
 10
15.5389074916
 20
13.010753557
 30
0.0
 10
15.5350835775
 20
13.0107535585
 30
0.0
  0
SPLINE
  5
34B
100
AcDbEntity
  8
LAYER_CUT_FEAT
100
AcDbSpline
 62
7
  6
CONTINUOUS
 70
0
 71
3
 72
11
 73
7
 74
0
 42
0.0000001
 43
0.0000001
 44
0.0000000001
 40
0.0
 40
0.0
 40
0.0
 40
0.0
 40
0.2801536707
 40
0.535647519
 40
0.7727761504
 40
1.0
 40
1.0
 40
1.0
 40
1.0
 10
15.9343294359
 20
12.2883517554
 30
0.0
 10
15.9351972206
 20
12.2875126496
 30
0.0
 10
15.9369635575
 20
12.2860117969
 30
0.0
 10
15.9398359686
 20
12.2842925892
 30
0.0
 10
15.9427783231
 20
12.2832434313
 30
0.0
 10
15.9447860915
 20
12.2830060874
 30
0.0
 10
15.9457651521
 20
12.2830060817
 30
0.0
  0
SPLINE
  5
34C
100
AcDbEntity
  8
LAYER_CUT_FEAT
100
AcDbSpline
 62
7
  6
CONTINUOUS
 70
0
 71
3
 72
11
 73
7
 74
0
 42
0.0000001
 43
0.0000001
 44
0.0000000001
 40
0.0
 40
0.0
 40
0.0
 40
0.0
 40
0.2774832656
 40
0.5323886026
 40
0.7706476896
 40
1.0
 40
1.0
 40
1.0
 40
1.0
 10
15.92208425
 20
12.0864852651
 30
0.0
 10
15.9227728134
 20
12.0858614165
 30
0.0
 10
15.9241731614
 20
12.0847464113
 30
0.0
 10
15.9264342776
 20
12.0834763187
 30
0.0
 10
15.928743247
 20
12.0827032094
 30
0.0
 10
15.9303139307
 20
12.0825287697
 30
0.0
 10
15.9310819088
 20
12.0825287772
 30
0.0
  0
LINE
  5
34D
100
AcDbEntity
  8
LAYER_CUT_FEAT
100
AcDbLine
 62
7
  6
CONTINUOUS
 10
15.6484007323
 20
13.005135867
 11
15.6462863671
 21
12.9968880038
  0
SPLINE
  5
34E
100
AcDbEntity
  8
LAYER_CUT_FEAT
100
AcDbSpline
 62
7
  6
CONTINUOUS
 70
0
 71
3
 72
18
 73
14
 74
0
 42
0.0000001
 43
0.0000001
 44
0.0000000001
 40
0.0
 40
0.0
 40
0.0
 40
0.0
 40
0.1742283053
 40
0.3348722986
 40
0.4806713713
 40
0.6109448563
 40
0.7258263662
 40
0.7779030306
 40
0.8267439981
 40
0.8727690329
 40
0.9165236609
 40
0.958676889
 40
1.0
 40
1.0
 40
1.0
 40
1.0
 10
15.3870016421
 20
12.9402747938
 30
0.0
 10
15.3875986252
 20
12.9380497592
 30
0.0
 10
15.3888792075
 20
12.9338068608
 30
0.0
 10
15.391163779
 20
12.9278690188
 30
0.0
 10
15.3937091446
 20
12.922675227
 30
0.0
 10
15.3964803561
 20
12.9182978256
 30
0.0
 10
15.3990316572
 20
12.9152833777
 30
0.0
 10
15.4011632053
 20
12.9133800422
 30
0.0
 10
15.4027418983
 20
12.9122406295
 30
0.0
 10
15.40434772
 20
12.9113472447
 30
0.0
 10
15.4059755817
 20
12.9107046046
 30
0.0
 10
15.4076187188
 20
12.9103169091
 30
0.0
 10
15.4087243308
 20
12.9102302277
 30
0.0
 10
15.4092707246
 20
12.9102302221
 30
0.0
  0
SPLINE
  5
34F
100
AcDbEntity
  8
LAYER_CUT_FEAT
100
AcDbSpline
 62
7
  6
CONTINUOUS
 70
0
 71
3
 72
33
 73
29
 74
0
 42
0.0000001
 43
0.0000001
 44
0.0000000001
 40
0.0
 40
0.0
 40
0.0
 40
0.0
 40
0.0202497625
 40
0.0425576203
 40
0.0670589522
 40
0.0937945504
 40
0.1227334418
 40
0.1537885889
 40
0.1868288348
 40
0.2216875883
 40
0.2960393476
 40
0.3750475487
 40
0.4566551309
 40
0.5386805466
 40
0.6189227459
 40
0.6952648909
 40
0.731370727
 40
0.7658034445
 40
0.798374192
 40
0.8289243276
 40
0.8573325405
 40
0.883524219
 40
0.9074841782
 40
0.9292741178
 40
0.9490558393
 40
0.9671188144
 40
0.9839035435
 40
1.0
 40
1.0
 40
1.0
 40
1.0
 10
15.1248808364
 20
12.2698577904
 30
0.0
 10
15.1240733526
 20
12.2692409658
 30
0.0
 10
15.1224815269
 20
12.2678042674
 30
0.0
 10
15.1202896535
 20
12.2652420324
 30
0.0
 10
15.1181976851
 20
12.2621946131
 30
0.0
 10
15.1162208989
 20
12.2586855936
 30
0.0
 10
15.1143733835
 20
12.2547412971
 30
0.0
 10
15.1126693193
 20
12.2503919971
 30
0.0
 10
15.1111218016
 20
12.2456713111
 30
0.0
 10
15.1092435347
 20
12.238782223
 30
0.0
 10
15.1073968914
 20
12.2295069405
 30
0.0
 10
15.1059997643
 20
12.2177892423
 30
0.0
 10
15.1054224363
 20
12.2056173653
 30
0.0
 10
15.1056834321
 20
12.1933728435
 30
0.0
 10
15.106774521
 20
12.181439528
 30
0.0
 10
15.1083737485
 20
12.1718918814
 30
0.0
 10
15.1100629239
 20
12.1647154003
 30
0.0
 10
15.1114837705
 20
12.1597381344
 30
0.0
 10
15.1130705179
 20
12.155104673
 30
0.0
 10
15.1148108066
 20
12.1508510622
 30
0.0
 10
15.116691128
 20
12.1470101674
 30
0.0
 10
15.118697311
 20
12.1436113088
 30
0.0
 10
15.1208149044
 20
12.1406801101
 30
0.0
 10
15.1230298915
 20
12.1382386414
 30
0.0
 10
15.1253290395
 20
12.1363062796
 30
0.0
 10
15.1277005318
 20
12.1349016978
 30
0.0
 10
15.1301280692
 20
12.1340451946
 30
0.0
 10
15.1317836901
 20
12.1338514832
 30
0.0
 10
15.1325914009
 20
12.1338514826
 30
0.0
  0
SPLINE
  5
350
100
AcDbEntity
  8
LAYER_CUT_FEAT
100
AcDbSpline
 62
7
  6
CONTINUOUS
 70
0
 71
3
 72
21
 73
17
 74
0
 42
0.0000001
 43
0.0000001
 44
0.0000000001
 40
0.0
 40
0.0
 40
0.0
 40
0.0
 40
0.1699435788
 40
0.3349081011
 40
0.4138336517
 40
0.4895335498
 40
0.5614399304
 40
0.6290535939
 40
0.6919619551
 40
0.749862234
 40
0.8025931325
 40
0.8501795548
 40
0.8928956505
 40
0.9313479286
 40
0.9665605853
 40
1.0
 40
1.0
 40
1.0
 40
1.0
 10
15.4975418418
 20
11.4344954851
 30
0.0
 10
15.4974970176
 20
11.4298967336
 30
0.0
 10
15.4977571148
 20
11.4208270227
 30
0.0
 10
15.4989560567
 20
11.4096786961
 30
0.0
 10
15.5004454994
 20
11.4011565564
 30
0.0
 10
15.5017838553
 20
11.3951715181
 30
0.0
 10
15.5033460984
 20
11.3895577789
 30
0.0
 10
15.5051168532
 20
11.3843701854
 30
0.0
 10
15.5070787078
 20
11.3796590923
 30
0.0
 10
15.5092128356
 20
11.3754696621
 30
0.0
 10
15.5114995539
 20
11.3718413837
 30
0.0
 10
15.5139194674
 20
11.3688079097
 30
0.0
 10
15.5164544645
 20
11.3663979284
 30
0.0
 10
15.5190896736
 20
11.3646382116
 30
0.0
 10
15.5218058119
 20
11.3635590433
 30
0.0
 10
15.5236713862
 20
11.3633134062
 30
0.0
 10
15.5245763152
 20
11.3633134154
 30
0.0
  0
SPLINE
  5
351
100
AcDbEntity
  8
02___PRT_ALL_AXES
100
AcDbSpline
 62
7
  6
CONTINUOUS
 70
0
 71
3
 72
37
 73
33
 74
0
 42
0.0000001
 43
0.0000001
 44
0.0000000001
 40
0.0
 40
0.0
 40
0.0
 40
0.0
 40
0.0297978192
 40
0.0605459483
 40
0.0921736825
 40
0.1246053057
 40
0.157760737
 40
0.1915561121
 40
0.2259043245
 40
0.2607155383
 40
0.2958976786
 40
0.3313569057
 40
0.4027208769
 40
0.4740431455
 40
0.5094504353
 40
0.5445602035
 40
0.5792789527
 40
0.6135150519
 40
0.6471792136
 40
0.6801849888
 40
0.7124492848
 40
0.7438929152
 40
0.7744411923
 40
0.8040245744
 40
0.8325793879
 40
0.860048646
 40
0.8863829973
 40
0.9115418419
 40
0.9354946698
 40
0.9582226831
 40
0.979720783
 40
1.0
 40
1.0
 40
1.0
 40
1.0
 10
15.1834065771
 20
13.2388660408
 30
0.0
 10
15.1779849761
 20
13.2213217334
 30
0.0
 10
15.1675594808
 20
13.1854887129
 30
0.0
 10
15.1533610998
 20
13.1304817772
 30
0.0
 10
15.1403902938
 20
13.0735066837
 30
0.0
 10
15.1286886089
 20
13.0147448148
 30
0.0
 10
15.1182932766
 20
12.9543823181
 30
0.0
 10
15.1092374645
 20
12.8926108032
 30
0.0
 10
15.1015500399
 20
12.8296263148
 30
0.0
 10
15.0952555719
 20
12.7656289427
 30
0.0
 10
15.0903739776
 20
12.7008215915
 30
0.0
 10
15.0857610259
 20
12.6134263192
 30
0.0
 10
15.0836206219
 20
12.5036273472
 30
0.0
 10
15.0862807847
 20
12.3938716441
 30
0.0
 10
15.0913097564
 20
12.3066017598
 30
0.0
 10
15.0964986294
 20
12.2419522697
 30
0.0
 10
15.1030964079
 20
12.1781569877
 30
0.0
 10
15.1110822097
 20
12.1154181722
 30
0.0
 10
15.1204305156
 20
12.0539351164
 30
0.0
 10
15.1311115221
 20
11.9939029524
 30
0.0
 10
15.1430911713
 20
11.935512161
 30
0.0
 10
15.1563312861
 20
11.8789479112
 30
0.0
 10
15.1707896996
 20
11.8243894606
 30
0.0
 10
15.1864204109
 20
11.7720095577
 30
0.0
 10
15.2031737586
 20
11.7219738661
 30
0.0
 10
15.2209966296
 20
11.6744403969
 30
0.0
 10
15.2398326728
 20
11.6295589967
 30
0.0
 10
15.2596226517
 20
11.5874707467
 30
0.0
 10
15.2803045127
 20
11.548307812
 30
0.0
 10
15.3018147006
 20
11.5121919321
 30
0.0
 10
15.3240854883
 20
11.4792379288
 30
0.0
 10
15.3398518346
 20
11.4588547442
 30
0.0
 10
15.3478599412
 20
11.4492606314
 30
0.0
  0
SPLINE
  5
352
100
AcDbEntity
  8
02___PRT_ALL_AXES
100
AcDbSpline
 62
7
  6
CONTINUOUS
 70
0
 71
3
 72
15
 73
11
 74
0
 42
0.0000001
 43
0.0000001
 44
0.0000000001
 40
0.0
 40
0.0
 40
0.0
 40
0.0
 40
0.1460583262
 40
0.2865095911
 40
0.4210819404
 40
0.549550577
 40
0.6717451339
 40
0.7875586276
 40
0.8969584652
 40
1.0
 40
1.0
 40
1.0
 40
1.0
 10
15.1834065771
 20
13.2388660408
 30
0.0
 10
15.1887824291
 20
13.2562623042
 30
0.0
 10
15.1998898956
 20
13.2902170479
 30
0.0
 10
15.21800325
 20
13.3394985419
 30
0.0
 10
15.2371952264
 20
13.3860087653
 30
0.0
 10
15.2574019397
 20
13.4295928106
 30
0.0
 10
15.2785566062
 20
13.4701065521
 30
0.0
 10
15.3005906759
 20
13.5074171866
 30
0.0
 10
15.3234310332
 20
13.541399723
 30
0.0
 10
15.3396286352
 20
13.5623849766
 30
0.0
 10
15.347859941
 20
13.572246499
 30
0.0
  0
LINE
  5
353
100
AcDbEntity
  8
0
100
AcDbLine
 62
7
  6
CONTINUOUS
 10
15.0856409096
 20
13.1857643415
 11
15.0868679659
 21
13.1855213945
  0
LINE
  5
354
100
AcDbEntity
  8
0
100
AcDbLine
 62
7
  6
CONTINUOUS
 10
15.0927690592
 20
13.2401635505
 11
15.0924702721
 21
13.240240063
  0
LINE
  5
355
100
AcDbEntity
  8
0
100
AcDbLine
 62
7
  6
CONTINUOUS
 10
15.0978923763
 20
13.2375133571
 11
15.0994730824
 21
13.2371085872
  0
LINE
  5
356
100
AcDbEntity
  8
0
100
AcDbLine
 62
7
  6
CONTINUOUS
 10
15.1059637671
 20
13.2910365567
 11
15.1055987344
 21
13.2911513257
  0
SPLINE
  5
357
100
AcDbEntity
  8
0
100
AcDbSpline
 62
7
  6
CONTINUOUS
 70
0
 71
3
 72
9
 73
5
 74
0
 42
0.0000001
 43
0.0000001
 44
0.0000000001
 40
0.0
 40
0.0
 40
0.0
 40
0.0
 40
0.5186257976
 40
1.0
 40
1.0
 40
1.0
 40
1.0
 10
15.1110356233
 20
13.2877987752
 30
0.0
 10
15.1113336795
 20
13.2876085015
 30
0.0
 10
15.1119532403
 20
13.2873032513
 30
0.0
 10
15.1126385829
 20
13.2871916034
 30
0.0
 10
15.112966796
 20
13.2871916108
 30
0.0
  0
LINE
  5
358
100
AcDbEntity
  8
0
100
AcDbLine
 62
7
  6
CONTINUOUS
 10
15.1200340007
 20
13.3403381767
 11
15.1196034575
 21
13.3404987977
  0
SPLINE
  5
359
100
AcDbEntity
  8
0
100
AcDbSpline
 62
7
  6
CONTINUOUS
 70
0
 71
3
 72
10
 73
6
 74
0
 42
0.0000001
 43
0.0000001
 44
0.0000000001
 40
0.0
 40
0.0
 40
0.0
 40
0.0
 40
0.5240814434
 40
0.7653652031
 40
1.0
 40
1.0
 40
1.0
 40
1.0
 10
15.125044182
 20
13.3365193277
 30
0.0
 10
15.1253872586
 20
13.3362578286
 30
0.0
 10
15.1259406775
 20
13.3359313576
 30
0.0
 10
15.1267360858
 20
13.3357065191
 30
0.0
 10
15.127128803
 20
13.3356695898
 30
0.0
 10
15.127321932
 20
13.3356695836
 30
0.0
  0
SPLINE
  5
35A
100
AcDbEntity
  8
0
100
AcDbSpline
 62
7
  6
CONTINUOUS
 70
0
 71
3
 72
26
 73
22
 74
0
 42
0.0000001
 43
0.0000001
 44
0.0000000001
 40
0.0
 40
0.0
 40
0.0
 40
0.0
 40
0.087731309
 40
0.1721784199
 40
0.2531986342
 40
0.3306737377
 40
0.4045149627
 40
0.4746672311
 40
0.5411148232
 40
0.6038881134
 40
0.6630717997
 40
0.7188146421
 40
0.7713402953
 40
0.8209586001
 40
0.8680750618
 40
0.8908604571
 40
0.9132183557
 40
0.9352266749
 40
0.9569681654
 40
0.9785294789
 40
1.0
 40
1.0
 40
1.0
 40
1.0
 10
14.9914734838
 20
13.3786301139
 30
0.0
 10
14.997569296
 20
13.3976227065
 30
0.0
 10
15.0101305981
 20
13.4347089183
 30
0.0
 10
15.0305023414
 20
13.488565007
 30
0.0
 10
15.0519960199
 20
13.5394635246
 30
0.0
 10
15.0745469319
 20
13.5872510498
 30
0.0
 10
15.0980877633
 20
13.6317847204
 30
0.0
 10
15.1225488543
 20
13.6729315978
 30
0.0
 10
15.1478586306
 20
13.7105692869
 30
0.0
 10
15.173944202
 20
13.7445859551
 30
0.0
 10
15.2007321429
 20
13.7748802623
 30
0.0
 10
15.2281484049
 20
13.8013607182
 30
0.0
 10
15.2561205845
 20
13.8239450598
 30
0.0
 10
15.2845705935
 20
13.8425568405
 30
0.0
 10
15.3088905156
 20
13.8548359488
 30
0.0
 10
15.3284262212
 20
13.8625090798
 30
0.0
 10
15.3429757788
 20
13.8671735009
 30
0.0
 10
15.3575723024
 20
13.8708058512
 30
0.0
 10
15.3722049236
 20
13.873402963
 30
0.0
 10
15.3868607669
 20
13.8749622349
 30
0.0
 10
15.396648128
 20
13.8753091226
 30
0.0
 10
15.4015297334
 20
13.8753091163
 30
0.0
  0
SPLINE
  5
35B
100
AcDbEntity
  8
LAYER_CUT_FEAT
100
AcDbSpline
 62
7
  6
CONTINUOUS
 70
0
 71
3
 72
18
 73
14
 74
0
 42
0.0000001
 43
0.0000001
 44
0.0000000001
 40
0.0
 40
0.0
 40
0.0
 40
0.0
 40
0.0553440551
 40
0.1108812034
 40
0.166802055
 40
0.223292409
 40
0.3386378591
 40
0.4582909425
 40
0.5201177571
 40
0.5834334516
 40
0.7149363211
 40
0.8535974624
 40
1.0
 40
1.0
 40
1.0
 40
1.0
 10
15.5350835775
 20
13.658531341
 30
0.0
 10
15.53135546
 20
13.6585313368
 30
0.0
 10
15.5238839937
 20
13.6582909798
 30
0.0
 10
15.5126926438
 20
13.6572103401
 30
0.0
 10
15.5015154545
 20
13.6554100462
 30
0.0
 10
15.4865415346
 20
13.6520299028
 30
0.0
 10
15.4678193859
 20
13.645947503
 30
0.0
 10
15.4495959661
 20
13.6376184532
 30
0.0
 10
15.435173353
 20
13.6296120398
 30
0.0
 10
15.4204926772
 20
13.6204693935
 30
0.0
 10
15.4023080885
 20
13.6072214999
 30
0.0
 10
15.381111785
 20
13.5887891725
 30
0.0
 10
15.3676235452
 20
13.5750929186
 30
0.0
 10
15.3609442364
 20
13.5678371019
 30
0.0
  0
SPLINE
  5
35C
100
AcDbEntity
  8
LAYER_CUT_FEAT
100
AcDbSpline
 62
7
  6
CONTINUOUS
 70
0
 71
3
 72
19
 73
15
 74
0
 42
0.0000001
 43
0.0000001
 44
0.0000000001
 40
0.0
 40
0.0
 40
0.0
 40
0.0
 40
0.0418763565
 40
0.0845449014
 40
0.1287448103
 40
0.1751224866
 40
0.2242108754
 40
0.2764258185
 40
0.3912752931
 40
0.5211747229
 40
0.666377094
 40
0.7445916048
 40
0.8263771491
 40
1.0
 40
1.0
 40
1.0
 40
1.0
 10
15.8482542686
 20
13.2914407783
 30
0.0
 10
15.8476184103
 20
13.2914407798
 30
0.0
 10
15.8463326387
 20
13.2913430362
 30
0.0
 10
15.844420579
 20
13.2909057995
 30
0.0
 10
15.8425250614
 20
13.2901807006
 30
0.0
 10
15.8406535646
 20
13.2891721485
 30
0.0
 10
15.8388117695
 20
13.2878851648
 30
0.0
 10
15.8363244235
 20
13.2857364835
 30
0.0
 10
15.8333377427
 20
13.2823293357
 30
0.0
 10
15.8300779155
 20
13.2773706429
 30
0.0
 10
15.8276323872
 20
13.2725850873
 30
0.0
 10
15.8257966746
 20
13.2683289217
 30
0.0
 10
15.8239824134
 20
13.2635978863
 30
0.0
 10
15.8228019157
 20
13.2598993642
 30
0.0
 10
15.8220784835
 20
13.2573642439
 30
0.0
  0
SPLINE
  5
35D
100
AcDbEntity
  8
02___PRT_ALL_AXES
100
AcDbSpline
 62
7
  6
CONTINUOUS
 70
0
 71
3
 72
19
 73
15
 74
0
 42
0.0000001
 43
0.0000001
 44
0.0000000001
 40
0.0
 40
0.0
 40
0.0
 40
0.0
 40
0.0335703651
 40
0.0688847373
 40
0.1073907428
 40
0.1501066224
 40
0.197642225
 40
0.2502805061
 40
0.3080582686
 40
0.3708280755
 40
0.5100254127
 40
0.6644694023
 40
0.8295529208
 40
1.0
 40
1.0
 40
1.0
 40
1.0
 10
15.6258429543
 20
12.7943519809
 30
0.0
 10
15.6254849058
 20
12.7943519804
 30
0.0
 10
15.6247472061
 20
12.7942559499
 30
0.0
 10
15.623672347
 20
12.7938337414
 30
0.0
 10
15.6226287499
 20
12.7931448642
 30
0.0
 10
15.6216240251
 20
12.7922009858
 30
0.0
 10
15.6206639803
 20
12.7910124587
 30
0.0
 10
15.6197556672
 20
12.7895903283
 30
0.0
 10
15.6189064881
 20
12.7879475346
 30
0.0
 10
15.6178263175
 20
12.785394086
 30
0.0
 10
15.6167019532
 20
12.7817527199
 30
0.0
 10
15.6157346427
 20
12.7769502715
 30
0.0
 10
15.6151452639
 20
12.7717520102
 30
0.0
 10
15.6150204949
 20
12.7681714325
 30
0.0
 10
15.6150261195
 20
12.766353519
 30
0.0
  0
SPLINE
  5
35E
100
AcDbEntity
  8
02___PRT_ALL_AXES
100
AcDbSpline
 62
7
  6
CONTINUOUS
 70
0
 71
3
 72
15
 73
11
 74
0
 42
0.0000001
 43
0.0000001
 44
0.0000000001
 40
0.0
 40
0.0
 40
0.0
 40
0.0
 40
0.0859280691
 40
0.1775576873
 40
0.2793902136
 40
0.3943084789
 40
0.5237786494
 40
0.6682114201
 40
0.8272512862
 40
1.0
 40
1.0
 40
1.0
 40
1.0
 10
15.6955647996
 20
12.7883068512
 30
0.0
 10
15.6951566953
 20
12.7883068426
 30
0.0
 10
15.6943091732
 20
12.7881802965
 30
0.0
 10
15.6930874316
 20
12.7876294352
 30
0.0
 10
15.6919128569
 20
12.7867381056
 30
0.0
 10
15.6907941397
 20
12.7855240802
 30
0.0
 10
15.6897390813
 20
12.7840028982
 30
0.0
 10
15.6887579486
 20
12.7821920784
 30
0.0
 10
15.6878616203
 20
12.7801128804
 30
0.0
 10
15.6873475711
 20
12.7786217368
 30
0.0
 10
15.6871044555
 20
12.7778381365
 30
0.0
  0
SPLINE
  5
35F
100
AcDbEntity
  8
02___PRT_ALL_AXES
100
AcDbSpline
 62
7
  6
CONTINUOUS
 70
0
 71
3
 72
23
 73
19
 74
0
 42
0.0000001
 43
0.0000001
 44
0.0000000001
 40
0.0
 40
0.0
 40
0.0
 40
0.0
 40
0.0376673679
 40
0.0768088319
 40
0.1183182054
 40
0.1629028827
 40
0.2110777655
 40
0.2631849916
 40
0.3194220213
 40
0.3798686949
 40
0.4445100954
 40
0.5132545295
 40
0.5859472964
 40
0.6623814732
 40
0.7423064607
 40
0.8254348458
 40
0.9114472221
 40
1.0
 40
1.0
 40
1.0
 40
1.0
 10
15.6541819566
 20
12.2330972092
 30
0.0
 10
15.6515529002
 20
12.233296895
 30
0.0
 10
15.6462189114
 20
12.234210858
 30
0.0
 10
15.6383952472
 20
12.2370391532
 30
0.0
 10
15.6306999347
 20
12.2413064206
 30
0.0
 10
15.6231718719
 20
12.2469761414
 30
0.0
 10
15.615840902
 20
12.2540116883
 30
0.0
 10
15.6087379892
 20
12.2623743794
 30
0.0
 10
15.6018945483
 20
12.272021313
 30
0.0
 10
15.5953426807
 20
12.2829038704
 30
0.0
 10
15.5891143672
 20
12.2949671613
 30
0.0
 10
15.5832408646
 20
12.3081499528
 30
0.0
 10
15.5777521391
 20
12.3223848704
 30
0.0
 10
15.5726764946
 20
12.3375987702
 30
0.0
 10
15.5680402944
 20
12.3537131513
 30
0.0
 10
15.5638677254
 20
12.3706446477
 30
0.0
 10
15.5601805875
 20
12.3883052681
 30
0.0
 10
15.5580864592
 20
12.4003462455
 30
0.0
 10
15.5571206814
 20
12.4064690351
 30
0.0
  0
SPLINE
  5
360
100
AcDbEntity
  8
02___PRT_ALL_AXES
100
AcDbSpline
 62
7
  6
CONTINUOUS
 70
0
 71
3
 72
11
 73
7
 74
0
 42
0.0000001
 43
0.0000001
 44
0.0000000001
 40
0.0
 40
0.0
 40
0.0
 40
0.0
 40
0.2614524813
 40
0.5137420462
 40
0.7590933045
 40
1.0
 40
1.0
 40
1.0
 40
1.0
 10
15.6347386822
 20
12.7823784375
 30
0.0
 10
15.6363046937
 20
12.783239222
 30
0.0
 10
15.6394618296
 20
12.7847908485
 30
0.0
 10
15.6443343095
 20
12.7866001816
 30
0.0
 10
15.6492379145
 20
12.787839434
 30
0.0
 10
15.6525401205
 20
12.7882852156
 30
0.0
 10
15.6541819566
 20
12.7884099142
 30
0.0
  0
SPLINE
  5
361
100
AcDbEntity
  8
02___PRT_ALL_AXES
100
AcDbSpline
 62
7
  6
CONTINUOUS
 70
0
 71
3
 72
23
 73
19
 74
0
 42
0.0000001
 43
0.0000001
 44
0.0000000001
 40
0.0
 40
0.0
 40
0.0
 40
0.0
 40
0.0726735179
 40
0.1459184371
 40
0.2192863668
 40
0.2923265406
 40
0.3645918941
 40
0.4356436875
 40
0.5050563495
 40
0.5724227013
 40
0.6373593185
 40
0.6995126576
 40
0.7585656972
 40
0.8142461349
 40
0.8663360818
 40
0.9146849506
 40
0.9592259842
 40
1.0
 40
1.0
 40
1.0
 40
1.0
 10
15.5512252663
 20
12.4573615283
 30
0.0
 10
15.5506318186
 20
12.4651421188
 30
0.0
 10
15.549708648
 20
12.4807861685
 30
0.0
 10
15.5491069926
 20
12.50432806
 30
0.0
 10
15.5492845156
 20
12.5279166074
 30
0.0
 10
15.5502399231
 20
12.5513811812
 30
0.0
 10
15.551966275
 20
12.5745524458
 30
0.0
 10
15.5544509505
 20
12.5972631458
 30
0.0
 10
15.5576758756
 20
12.6193494769
 30
0.0
 10
15.5616175226
 20
12.640652281
 30
0.0
 10
15.566247249
 20
12.6610182531
 30
0.0
 10
15.5715313994
 20
12.6803011477
 30
0.0
 10
15.5774317618
 20
12.6983628884
 30
0.0
 10
15.5839059103
 20
12.7150748212
 30
0.0
 10
15.5909076452
 20
12.7303184204
 30
0.0
 10
15.5983886429
 20
12.7439874269
 30
0.0
 10
15.606296389
 20
12.755984831
 30
0.0
 10
15.612070405
 20
12.7631238189
 30
0.0
 10
15.6150261195
 20
12.766353519
 30
0.0
  0
LINE
  5
362
100
AcDbEntity
  8
0
100
AcDbLine
 62
7
  6
CONTINUOUS
 10
14.951393574
 20
13.1878600202
 11
14.9520557727
 21
13.1888554511
  0
LINE
  5
363
100
AcDbEntity
  8
02___PRT_ALL_AXES
100
AcDbLine
 62
7
  6
CONTINUOUS
 10
15.6347386822
 20
12.7823784375
 11
15.6166628694
 21
12.7811249211
  0
SPLINE
  5
364
100
AcDbEntity
  8
0
100
AcDbSpline
 62
7
  6
CONTINUOUS
 70
0
 71
3
 72
13
 73
9
 74
0
 42
0.0000001
 43
0.0000001
 44
0.0000000001
 40
0.0
 40
0.0
 40
0.0
 40
0.0
 40
0.0809969398
 40
0.1689835902
 40
0.2691295044
 40
0.3843175585
 40
0.6624852666
 40
1.0
 40
1.0
 40
1.0
 40
1.0
 10
14.9410619594
 20
13.1878675274
 30
0.0
 10
14.9409960144
 20
13.1878675417
 30
0.0
 10
14.9408575879
 20
13.1878434339
 30
0.0
 10
14.9406613198
 20
13.1877401978
 30
0.0
 10
14.9404751432
 20
13.1875752074
 30
0.0
 10
14.9402267464
 20
13.1872573536
 30
0.0
 10
14.9399647884
 20
13.1867169189
 30
0.0
 10
14.939823164
 20
13.1862346338
 30
0.0
 10
14.9397612141
 20
13.1859669149
 30
0.0
  0
SPLINE
  5
365
100
AcDbEntity
  8
0
100
AcDbSpline
 62
7
  6
CONTINUOUS
 70
0
 71
3
 72
13
 73
9
 74
0
 42
0.0000001
 43
0.0000001
 44
0.0000000001
 40
0.0
 40
0.0
 40
0.0
 40
0.0
 40
0.0825344571
 40
0.1716415699
 40
0.2722740128
 40
0.3873370691
 40
0.6640483941
 40
1.0
 40
1.0
 40
1.0
 40
1.0
 10
14.9532877219
 20
13.240240063
 30
0.0
 10
14.953224702
 20
13.2402400628
 30
0.0
 10
14.9530928841
 20
13.2402182048
 30
0.0
 10
14.9529048954
 20
13.2401240032
 30
0.0
 10
14.9527257418
 20
13.2399728412
 30
0.0
 10
14.9524858506
 20
13.2396813804
 30
0.0
 10
14.9522289114
 20
13.23918281
 30
0.0
 10
14.9520865137
 20
13.2387358258
 30
0.0
 10
14.9520229636
 20
13.2384873037
 30
0.0
  0
SPLINE
  5
366
100
AcDbEntity
  8
0
100
AcDbSpline
 62
7
  6
CONTINUOUS
 70
0
 71
3
 72
13
 73
9
 74
0
 42
0.0000001
 43
0.0000001
 44
0.0000000001
 40
0.0
 40
0.0
 40
0.0
 40
0.0
 40
0.0841694284
 40
0.1744908709
 40
0.2756978204
 40
0.3906965078
 40
0.6659206004
 40
1.0
 40
1.0
 40
1.0
 40
1.0
 10
14.9664161842
 20
13.2911513257
 30
0.0
 10
14.9663560769
 20
13.291151324
 30
0.0
 10
14.9662307943
 20
13.2911315638
 30
0.0
 10
14.9660511424
 20
13.2910459893
 30
0.0
 10
14.9658791728
 20
13.2909080898
 30
0.0
 10
14.9656481549
 20
13.2906420529
 30
0.0
 10
14.965397015
 20
13.2901842613
 30
0.0
 10
14.9652546063
 20
13.2897717815
 30
0.0
 10
14.9651899599
 20
13.2895421335
 30
0.0
  0
SPLINE
  5
367
100
AcDbEntity
  8
0
100
AcDbSpline
 62
7
  6
CONTINUOUS
 70
0
 71
3
 72
13
 73
9
 74
0
 42
0.0000001
 43
0.0000001
 44
0.0000000001
 40
0.0
 40
0.0
 40
0.0
 40
0.0
 40
0.0859037298
 40
0.1775357176
 40
0.2794066666
 40
0.394403974
 40
0.6681122751
 40
1.0
 40
1.0
 40
1.0
 40
1.0
 10
14.9804209073
 20
13.3404987977
 30
0.0
 10
14.9803637015
 20
13.3404987989
 30
0.0
 10
14.9802448825
 20
13.3404809948
 30
0.0
 10
14.9800736249
 20
13.3404036241
 30
0.0
 10
14.9799089858
 20
13.3402784243
 30
0.0
 10
14.9796871935
 20
13.3400368023
 30
0.0
 10
14.9794426193
 20
13.339618607
 30
0.0
 10
14.9793009401
 20
13.3392397479
 30
0.0
 10
14.9792356864
 20
13.3390285868
 30
0.0
  0
SPLINE
  5
368
100
AcDbEntity
  8
02___PRT_ALL_AXES
100
AcDbSpline
 62
7
  6
CONTINUOUS
 70
0
 71
3
 72
18
 73
14
 74
0
 42
0.0000001
 43
0.0000001
 44
0.0000000001
 40
0.0
 40
0.0
 40
0.0
 40
0.0
 40
0.1486872992
 40
0.2889376899
 40
0.4213129943
 40
0.4847987363
 40
0.5466221758
 40
0.6657733184
 40
0.7800363547
 40
0.8358101089
 40
0.8909219558
 40
0.9455802813
 40
1.0
 40
1.0
 40
1.0
 40
1.0
 10
15.3478681203
 20
13.5722432537
 30
0.0
 10
15.355054373
 20
13.5807518955
 30
0.0
 10
15.369583509
 20
13.5968238385
 30
0.0
 10
15.392529671
 20
13.6185373791
 30
0.0
 10
15.4122931892
 20
13.634198974
 30
0.0
 10
15.4282806053
 20
13.6450274933
 30
0.0
 10
15.4439601063
 20
13.6544985571
 30
0.0
 10
15.4637980016
 20
13.6643846434
 30
0.0
 10
15.4842642336
 20
13.6716665229
 30
0.0
 10
15.5006398691
 20
13.6757417647
 30
0.0
 10
15.5128546411
 20
13.6779325121
 30
0.0
 10
15.5250883121
 20
13.6792788036
 30
0.0
 10
15.5332595407
 20
13.6796130079
 30
0.0
 10
15.537335719
 20
13.6796388808
 30
0.0
  0
SPLINE
  5
369
100
AcDbEntity
  8
02___PRT_ALL_AXES
100
AcDbSpline
 62
7
  6
CONTINUOUS
 70
0
 71
3
 72
16
 73
12
 74
0
 42
0.0000001
 43
0.0000001
 44
0.0000000001
 40
0.0
 40
0.0
 40
0.0
 40
0.0
 40
0.1088189969
 40
0.2194238971
 40
0.333496314
 40
0.452532133
 40
0.5143383621
 40
0.5778381287
 40
0.7103445936
 40
0.8508759753
 40
1.0
 40
1.0
 40
1.0
 40
1.0
 10
15.6509325825
 20
12.9968646739
 30
0.0
 10
15.6543824184
 20
12.9968646789
 30
0.0
 10
15.6613482423
 20
12.996372692
 30
0.0
 10
15.6717204991
 20
12.9941695102
 30
0.0
 10
15.6820164416
 20
12.9905127165
 30
0.0
 10
15.6903991681
 20
12.9863215973
 30
0.0
 10
15.697022234
 20
12.9822986247
 30
0.0
 10
15.703777722
 20
12.9776918699
 30
0.0
 10
15.7121261494
 20
12.9710203944
 30
0.0
 10
15.7218117556
 20
12.9617633595
 30
0.0
 10
15.7279381428
 20
12.9549096063
 30
0.0
 10
15.7309675849
 20
12.9512801786
 30
0.0
  0
SPLINE
  5
36A
100
AcDbEntity
  8
02___PRT_ALL_AXES
100
AcDbSpline
 62
7
  6
CONTINUOUS
 70
0
 71
3
 72
28
 73
24
 74
0
 42
0.0000001
 43
0.0000001
 44
0.0000000001
 40
0.0
 40
0.0
 40
0.0
 40
0.0
 40
0.0202801942
 40
0.0417793281
 40
0.0645084396
 40
0.0884624204
 40
0.1136224771
 40
0.1399580996
 40
0.1674286793
 40
0.1959848696
 40
0.225569678
 40
0.2561194251
 40
0.3198243408
 40
0.3864921845
 40
0.4554455593
 40
0.5259615318
 40
0.5972872376
 40
0.6686546476
 40
0.7392949596
 40
0.8084529653
 40
0.8754017568
 40
0.9394582299
 40
1.0
 40
1.0
 40
1.0
 40
1.0
 10
15.7362625078
 20
12.9449365954
 30
0.0
 10
15.7395380656
 20
12.9410123083
 30
0.0
 10
15.7459869856
 20
12.9326749663
 30
0.0
 10
15.7550964195
 20
12.9191957729
 30
0.0
 10
15.7638947397
 20
12.9044232728
 30
0.0
 10
15.7723542548
 20
12.8884044375
 30
0.0
 10
15.7804489615
 20
12.8711890573
 30
0.0
 10
15.7881534736
 20
12.852831194
 30
0.0
 10
15.7954435831
 20
12.8333885495
 30
0.0
 10
15.8022961826
 20
12.8129224421
 30
0.0
 10
15.8086897373
 20
12.7914973867
 30
0.0
 10
15.8166862879
 20
12.761320677
 30
0.0
 10
15.8253404181
 20
12.7216701872
 30
0.0
 10
15.8334781373
 20
12.6720724653
 30
0.0
 10
15.8394039077
 20
12.6204345464
 30
0.0
 10
15.8430416688
 20
12.5674098841
 30
0.0
 10
15.8443445719
 20
12.5136684026
 30
0.0
 10
15.8432958644
 20
12.4598900822
 30
0.0
 10
15.8399090276
 20
12.4067551596
 30
0.0
 10
15.834227695
 20
12.3549356922
 30
0.0
 10
15.8263247311
 20
12.305085195
 30
0.0
 10
15.8163022748
 20
12.2578345949
 30
0.0
 10
15.8080343535
 20
12.22751279
 30
0.0
 10
15.8035289572
 20
12.2129333221
 30
0.0
  0
SPLINE
  5
36B
100
AcDbEntity
  8
0
100
AcDbSpline
 62
7
  6
CONTINUOUS
 70
0
 71
3
 72
69
 73
65
 74
0
 42
0.0000001
 43
0.0000001
 44
0.0000000001
 40
0.0
 40
0.0
 40
0.0
 40
0.0
 40
0.0041772091
 40
0.0083684528
 40
0.0125875922
 40
0.0168481487
 40
0.0255413676
 40
0.0345484805
 40
0.0439534052
 40
0.0538263541
 40
0.0642238892
 40
0.0751897901
 40
0.0867563342
 40
0.0989456868
 40
0.1117712334
 40
0.1252387712
 40
0.1393475467
 40
0.1540911323
 40
0.16945816
 40
0.1854329321
 40
0.2019959408
 40
0.2191243094
 40
0.236792168
 40
0.2549709756
 40
0.273629808
 40
0.2927356165
 40
0.3122534603
 40
0.3321467165
 40
0.3523772778
 40
0.372905742
 40
0.4146912339
 40
0.4571708506
 40
0.4999999998
 40
0.5428291492
 40
0.5853087659
 40
0.6270942575
 40
0.6476227226
 40
0.6678532838
 40
0.6877465387
 40
0.7072643825
 40
0.7263701925
 40
0.7450290252
 40
0.7632078311
 40
0.7808756892
 40
0.7980040595
 40
0.8145670691
 40
0.8305418394
 40
0.8459088659
 40
0.8606524531
 40
0.8747612302
 40
0.8882287666
 40
0.9010543114
 40
0.9132436651
 40
0.924810211
 40
0.9357761113
 40
0.9461736445
 40
0.9560465939
 40
0.96545152
 40
0.9744586329
 40
0.9831518508
 40
0.9874124081
 40
0.991631547
 40
0.9958227908
 40
1.0
 40
1.0
 40
1.0
 40
1.0
 10
15.5407122836
 20
11.1461980168
 30
0.0
 10
15.5450613719
 20
11.1461980134
 30
0.0
 10
15.55377666
 20
11.1464731175
 30
0.0
 10
15.5668318033
 20
11.1477099731
 30
0.0
 10
15.5798710983
 20
11.1497706359
 30
0.0
 10
15.5973367856
 20
11.1536386873
 30
0.0
 10
15.6191763643
 20
11.1605982061
 30
0.0
 10
15.6449774327
 20
11.1721625329
 30
0.0
 10
15.6704968919
 20
11.1869568499
 30
0.0
 10
15.6956745057
 20
11.2049359911
 30
0.0
 10
15.7204563319
 20
11.2260509035
 30
0.0
 10
15.7447883812
 20
11.2502477411
 30
0.0
 10
15.768617321
 20
11.2774673217
 30
0.0
 10
15.7918899141
 20
11.3076444368
 30
0.0
 10
15.8145532803
 20
11.3407074278
 30
0.0
 10
15.8365551606
 20
11.3765779536
 30
0.0
 10
15.8578442097
 20
11.4151709719
 30
0.0
 10
15.8783702872
 20
11.4563948233
 30
0.0
 10
15.8980847114
 20
11.5001513923
 30
0.0
 10
15.9169405036
 20
11.5463363121
 30
0.0
 10
15.9348925649
 20
11.594839226
 30
0.0
 10
15.9518978386
 20
11.6455440711
 30
0.0
 10
15.9679154534
 20
11.6983293697
 30
0.0
 10
15.9829068654
 20
11.7530685297
 30
0.0
 10
15.9968359697
 20
11.809630168
 30
0.0
 10
16.0096691859
 20
11.8678784391
 30
0.0
 10
16.0213755681
 20
11.9276734033
 30
0.0
 10
16.0319268252
 20
11.988871254
 30
0.0
 10
16.0412976666
 20
12.0513251111
 30
0.0
 10
16.052251544
 20
12.1365704487
 30
0.0
 10
16.062801482
 20
12.2451971987
 30
0.0
 10
16.070402903
 20
12.3773347459
 30
0.0
 10
16.0729448827
 20
12.5107535646
 30
0.0
 10
16.0704029013
 20
12.6441723831
 30
0.0
 10
16.0628014858
 20
12.7763099306
 30
0.0
 10
16.0522515389
 20
12.8849366803
 30
0.0
 10
16.0412976704
 20
12.9701820194
 30
0.0
 10
16.0319268284
 20
13.032635876
 30
0.0
 10
16.0213755644
 20
13.0938337241
 30
0.0
 10
16.0096691826
 20
13.1536286886
 30
0.0
 10
15.9968359722
 20
13.2118769628
 30
0.0
 10
15.98290687
 20
13.2684386017
 30
0.0
 10
15.967915451
 20
13.3231777578
 30
0.0
 10
15.9518978343
 20
13.3759630551
 30
0.0
 10
15.9348925661
 20
13.4266679043
 30
0.0
 10
15.9169405089
 20
13.475170821
 30
0.0
 10
15.8980847107
 20
13.5213557361
 30
0.0
 10
15.8783702821
 20
13.5651123013
 30
0.0
 10
15.8578442095
 20
13.6063361572
 30
0.0
 10
15.8365551659
 20
13.6449291809
 30
0.0
 10
15.8145532816
 20
13.6807997025
 30
0.0
 10
15.7918899088
 20
13.7138626862
 30
0.0
 10
15.7686173195
 20
13.7440398053
 30
0.0
 10
15.7447883857
 20
13.7712593945
 30
0.0
 10
15.7204563348
 20
13.7954562303
 30
0.0
 10
15.6956745013
 20
13.8165711303
 30
0.0
 10
15.6704968898
 20
13.8345502743
 30
0.0
 10
15.6449774351
 20
13.8493446014
 30
0.0
 10
15.6191763678
 20
13.8609089379
 30
0.0
 10
15.5973367804
 20
13.8678684212
 30
0.0
 10
15.5798711021
 20
13.8717365123
 30
0.0
 10
15.566831801
 20
13.8737971391
 30
0.0
 10
15.5537766609
 20
13.8750340223
 30
0.0
 10
15.545061372
 20
13.8753091107
 30
0.0
 10
15.5407122836
 20
13.8753091163
 30
0.0
  0
SPLINE
  5
36C
100
AcDbEntity
  8
0
100
AcDbSpline
 62
7
  6
CONTINUOUS
 70
0
 71
3
 72
47
 73
43
 74
0
 42
0.0000001
 43
0.0000001
 44
0.0000000001
 40
0.0
 40
0.0
 40
0.0
 40
0.0
 40
0.0077401675
 40
0.0155261974
 40
0.0234029589
 40
0.0314134188
 40
0.0395978856
 40
0.0479934477
 40
0.0655388405
 40
0.0747537161
 40
0.084291255
 40
0.0941702831
 40
0.1044063639
 40
0.1150120491
 40
0.1259971313
 40
0.1373688882
 40
0.1491323144
 40
0.1612903358
 40
0.1738440032
 40
0.2001313509
 40
0.2279745509
 40
0.2573297426
 40
0.2881356576
 40
0.3203162379
 40
0.3537827929
 40
0.3884357913
 40
0.4241663678
 40
0.4608576703
 40
0.4983860531
 40
0.5366221634
 40
0.5754319775
 40
0.6146777678
 40
0.6542190394
 40
0.6939134486
 40
0.7336176974
 40
0.7731884278
 40
0.812483111
 40
0.8513609456
 40
0.8896837711
 40
0.9273169902
 40
0.9641305226
 40
1.0
 40
1.0
 40
1.0
 40
1.0
 10
15.4015297334
 20
11.1461980168
 30
0.0
 10
15.3957457157
 20
11.1461980214
 30
0.0
 10
15.3841375884
 20
11.146685765
 30
0.0
 10
15.3667678802
 20
11.148877362
 30
0.0
 10
15.3494378767
 20
11.152526374
 30
0.0
 10
15.3321692605
 20
11.15762734
 30
0.0
 10
15.3149800064
 20
11.1641736682
 30
0.0
 10
15.291858259
 20
11.1749727724
 30
0.0
 10
15.269279357
 20
11.1885764569
 30
0.0
 10
15.2473918473
 20
11.2046131749
 30
0.0
 10
15.2308718953
 20
11.2182285742
 30
0.0
 10
15.2145388401
 20
11.2332168884
 30
0.0
 10
15.1984073791
 20
11.2495630541
 30
0.0
 10
15.1824945792
 20
11.2672492637
 30
0.0
 10
15.1668166633
 20
11.2862568031
 30
0.0
 10
15.1513898707
 20
11.3065655098
 30
0.0
 10
15.1362302728
 20
11.3281538799
 30
0.0
 10
15.1213534599
 20
11.3509991912
 30
0.0
 10
15.1016127877
 20
11.3836048452
 30
0.0
 10
15.0778117015
 20
11.4274201141
 30
0.0
 10
15.0510483981
 20
11.4838035455
 30
0.0
 10
15.0257701724
 20
11.5445402843
 30
0.0
 10
15.0020838459
 20
11.6093736399
 30
0.0
 10
14.980089316
 20
11.6780313307
 30
0.0
 10
14.9598799673
 20
11.7502234536
 30
0.0
 10
14.9415418055
 20
11.8256447909
 30
0.0
 10
14.9251529877
 20
11.903975919
 30
0.0
 10
14.9107834552
 20
11.9848847434
 30
0.0
 10
14.898494597
 20
12.0680279575
 30
0.0
 10
14.8883388992
 20
12.1530525563
 30
0.0
 10
14.8803597765
 20
12.2395973906
 30
0.0
 10
14.8745913502
 20
12.327294738
 30
0.0
 10
14.8710582616
 20
12.4157718955
 30
0.0
 10
14.8697756313
 20
12.5046527959
 30
0.0
 10
14.8707489464
 20
12.5935596292
 30
0.0
 10
14.8739740279
 20
12.6821144756
 30
0.0
 10
14.8794371041
 20
12.7699409252
 30
0.0
 10
14.887114817
 20
12.8566657427
 30
0.0
 10
14.8969743139
 20
12.9419203384
 30
0.0
 10
14.9089735347
 20
13.0253428506
 30
0.0
 10
14.9230609639
 20
13.1065780034
 30
0.0
 10
14.9339585037
 20
13.1597982603
 30
0.0
 10
14.9397612141
 20
13.1859669149
 30
0.0
  0
SPLINE
  5
36D
100
AcDbEntity
  8
02___PRT_ALL_AXES
100
AcDbSpline
 62
7
  6
CONTINUOUS
 70
0
 71
3
 72
18
 73
14
 74
0
 42
0.0000001
 43
0.0000001
 44
0.0000000001
 40
0.0
 40
0.0
 40
0.0
 40
0.0
 40
0.148685676
 40
0.2889349606
 40
0.4213096814
 40
0.4847953223
 40
0.5466187827
 40
0.6657703116
 40
0.7800341251
 40
0.8358083781
 40
0.8909207757
 40
0.9455796849
 40
1.0
 40
1.0
 40
1.0
 40
1.0
 10
15.3478770411
 20
11.4492533155
 30
0.0
 10
15.3550629961
 20
11.4407455086
 30
0.0
 10
15.3695915177
 20
11.4246751442
 30
0.0
 10
15.3925366229
 20
11.402963773
 30
0.0
 10
15.4122991743
 20
11.3873037595
 30
0.0
 10
15.4282857854
 20
11.3764763313
 30
0.0
 10
15.443964516
 20
11.3670062017
 30
0.0
 10
15.4638014172
 20
11.3571210901
 30
0.0
 10
15.4842665643
 20
11.3498399275
 30
0.0
 10
15.5006413289
 20
11.3457650686
 30
0.0
 10
15.5128554572
 20
11.3435745145
 30
0.0
 10
15.5250884817
 20
11.3422283292
 30
0.0
 10
15.5332592779
 20
11.3418941304
 30
0.0
 10
15.5373352416
 20
11.3418682507
 30
0.0
  0
SPLINE
  5
36E
100
AcDbEntity
  8
02___PRT_ALL_AXES
100
AcDbSpline
 62
7
  6
CONTINUOUS
 70
0
 71
3
 72
16
 73
12
 74
0
 42
0.0000001
 43
0.0000001
 44
0.0000000001
 40
0.0
 40
0.0
 40
0.0
 40
0.0
 40
0.108819
 40
0.2194238904
 40
0.3334963133
 40
0.4525321508
 40
0.5143383578
 40
0.5778381225
 40
0.7103445897
 40
0.8508760038
 40
1.0
 40
1.0
 40
1.0
 40
1.0
 10
15.6509325825
 20
12.0246424554
 30
0.0
 10
15.6543824185
 20
12.0246424604
 30
0.0
 10
15.6613482414
 20
12.0251344395
 30
0.0
 10
15.6717205001
 20
12.0273376152
 30
0.0
 10
15.6820164428
 20
12.0309944109
 30
0.0
 10
15.6903991649
 20
12.035185538
 30
0.0
 10
15.6970222353
 20
12.0392085025
 30
0.0
 10
15.703777722
 20
12.043815258
 30
0.0
 10
15.7121261511
 20
12.0504867329
 30
0.0
 10
15.7218117533
 20
12.0597437724
 30
0.0
 10
15.727938139
 20
12.0665975265
 30
0.0
 10
15.7309675851
 20
12.0702269496
 30
0.0
  0
SPLINE
  5
36F
100
AcDbEntity
  8
02___PRT_ALL_AXES
100
AcDbSpline
 62
7
  6
CONTINUOUS
 70
0
 71
3
 72
15
 73
11
 74
0
 42
0.0000001
 43
0.0000001
 44
0.0000000001
 40
0.0
 40
0.0
 40
0.0
 40
0.0
 40
0.1030415343
 40
0.2124413808
 40
0.3282548616
 40
0.4504494309
 40
0.5789180682
 40
0.713490448
 40
0.8539413468
 40
1.0
 40
1.0
 40
1.0
 40
1.0
 10
15.736262508
 20
12.0765705328
 30
0.0
 10
15.7396293674
 20
12.0806041933
 30
0.0
 10
15.7462546764
 20
12.0891878078
 30
0.0
 10
15.7555970796
 20
12.1030877027
 30
0.0
 10
15.7646096909
 20
12.1183488901
 30
0.0
 10
15.7732625914
 20
12.1349202499
 30
0.0
 10
15.7815277579
 20
12.1527474563
 30
0.0
 10
15.7893778541
 20
12.1717715432
 30
0.0
 10
15.7967867724
 20
12.1919291777
 30
0.0
 10
15.8013300646
 20
12.2058177031
 30
0.0
 10
15.8035289572
 20
12.2129333221
 30
0.0
  0
SPLINE
  5
370
100
AcDbEntity
  8
0
100
AcDbSpline
 62
7
  6
CONTINUOUS
 70
0
 71
3
 72
11
 73
7
 74
0
 42
0.0000001
 43
0.0000001
 44
0.0000000001
 40
0.0
 40
0.0
 40
0.0
 40
0.0
 40
0.2634202279
 40
0.5226152405
 40
0.7703552118
 40
1.0
 40
1.0
 40
1.0
 40
1.0
 10
15.0938907069
 20
13.2003178291
 30
0.0
 10
15.0939292915
 20
13.2015683599
 30
0.0
 10
15.0939175054
 20
13.2040529523
 30
0.0
 10
15.0936403439
 20
13.2077044515
 30
0.0
 10
15.0931132965
 20
13.2111663245
 30
0.0
 10
15.0925828871
 20
13.2133748622
 30
0.0
 10
15.0922718696
 20
13.2144202865
 30
0.0
  0
SPLINE
  5
371
100
AcDbEntity
  8
0
100
AcDbSpline
 62
7
  6
CONTINUOUS
 70
0
 71
3
 72
11
 73
7
 74
0
 42
0.0000001
 43
0.0000001
 44
0.0000000001
 40
0.0
 40
0.0
 40
0.0
 40
0.0
 40
0.2459466166
 40
0.5073862122
 40
0.7650067065
 40
1.0
 40
1.0
 40
1.0
 40
1.0
 10
15.0890007203
 20
13.2294284315
 30
0.0
 10
15.0889196872
 20
13.2290782438
 30
0.0
 10
15.0888076057
 20
13.2283426651
 30
0.0
 10
15.0887694658
 20
13.2272230555
 30
0.0
 10
15.0888560542
 20
13.2261222277
 30
0.0
 10
15.0890011963
 20
13.2254140125
 30
0.0
 10
15.0890991269
 20
13.225084838
 30
0.0
  0
SPLINE
  5
372
100
AcDbEntity
  8
LAYER_CUT_FEAT
100
AcDbSpline
 62
7
  6
CONTINUOUS
 70
0
 71
3
 72
9
 73
5
 74
0
 42
0.0000001
 43
0.0000001
 44
0.0000000001
 40
0.0
 40
0.0
 40
0.0
 40
0.0
 40
0.4895534182
 40
1.0
 40
1.0
 40
1.0
 40
1.0
 10
15.6085061018
 20
11.3798071893
 30
0.0
 10
15.6094741946
 20
11.3798071784
 30
0.0
 10
15.6114578152
 20
11.3800388
 30
0.0
 10
15.6133379274
 20
11.3807014053
 30
0.0
 10
15.6142542118
 20
11.3811248785
 30
0.0
  0
SPLINE
  5
373
100
AcDbEntity
  8
LAYER_CUT_FEAT
100
AcDbSpline
 62
7
  6
CONTINUOUS
 70
0
 71
3
 72
23
 73
19
 74
0
 42
0.0000001
 43
0.0000001
 44
0.0000000001
 40
0.0
 40
0.0
 40
0.0
 40
0.0
 40
0.0415262415
 40
0.085231535
 40
0.1314310205
 40
0.1803654228
 40
0.2322092053
 40
0.2870789283
 40
0.3450414905
 40
0.4061213733
 40
0.470306853
 40
0.5375552046
 40
0.6077969369
 40
0.6809393086
 40
0.7568693133
 40
0.8354561634
 40
0.9165529703
 40
1.0
 40
1.0
 40
1.0
 40
1.0
 10
15.6142542118
 20
11.3811248785
 30
0.0
 10
15.6222292023
 20
11.3848106277
 30
0.0
 10
15.6381586538
 20
11.3933549346
 30
0.0
 10
15.6611767235
 20
11.4090316664
 30
0.0
 10
15.6838147022
 20
11.4278112374
 30
0.0
 10
15.7060113753
 20
11.4496344645
 30
0.0
 10
15.7277120566
 20
11.4744389507
 30
0.0
 10
15.7488602972
 20
11.5021549172
 30
0.0
 10
15.7694003568
 20
11.532705478
 30
0.0
 10
15.7892769527
 20
11.5660059982
 30
0.0
 10
15.8084358615
 20
11.6019641274
 30
0.0
 10
15.8268242176
 20
11.6404799024
 30
0.0
 10
15.844390899
 20
11.6814459492
 30
0.0
 10
15.8610868145
 20
11.7247477827
 30
0.0
 10
15.8768650968
 20
11.7702641208
 30
0.0
 10
15.8916813316
 20
11.8178673513
 30
0.0
 10
15.9054937047
 20
11.8674233727
 30
0.0
 10
15.9138928699
 20
11.9012119816
 30
0.0
 10
15.9179257221
 20
11.9183996908
 30
0.0
  0
SPLINE
  5
374
100
AcDbEntity
  8
LAYER_CUT_FEAT
100
AcDbSpline
 62
7
  6
CONTINUOUS
 70
0
 71
3
 72
23
 73
19
 74
0
 42
0.0000001
 43
0.0000001
 44
0.0000000001
 40
0.0
 40
0.0
 40
0.0
 40
0.0
 40
0.0661502421
 40
0.1351595751
 40
0.2063301261
 40
0.278919662
 40
0.3521598549
 40
0.4252703833
 40
0.4974732933
 40
0.5680074313
 40
0.6361434255
 40
0.7011992329
 40
0.7625578708
 40
0.8196875034
 40
0.8721672536
 40
0.9197215875
 40
0.9622695396
 40
1.0
 40
1.0
 40
1.0
 40
1.0
 10
15.9179257221
 20
11.9183996908
 30
0.0
 10
15.918567898
 20
11.9211365956
 30
0.0
 10
15.91971921
 20
11.9267673556
 30
0.0
 10
15.9210367657
 20
11.9354396635
 30
0.0
 10
15.9219704251
 20
11.9444368321
 30
0.0
 10
15.922508257
 20
11.9536461595
 30
0.0
 10
15.9226434326
 20
11.9629525869
 30
0.0
 10
15.9223742198
 20
11.972239673
 30
0.0
 10
15.9217040643
 20
11.9813912669
 30
0.0
 10
15.9206414613
 20
11.990292979
 30
0.0
 10
15.9191999514
 20
11.9988337074
 30
0.0
 10
15.9173977798
 20
12.0069071279
 30
0.0
 10
15.915257765
 20
12.014413157
 30
0.0
 10
15.912806623
 20
12.0212594892
 30
0.0
 10
15.9100747447
 20
12.0273627378
 30
0.0
 10
15.9070937349
 20
12.0326507411
 30
0.0
 10
15.9038985368
 20
12.0370602586
 30
0.0
 10
15.9015079227
 20
12.0395203487
 30
0.0
 10
15.9002837548
 20
12.0405559606
 30
0.0
  0
SPLINE
  5
375
100
AcDbEntity
  8
0
100
AcDbSpline
 62
7
  6
CONTINUOUS
 70
0
 71
3
 72
11
 73
7
 74
0
 42
0.0000001
 43
0.0000001
 44
0.0000000001
 40
0.0
 40
0.0
 40
0.0
 40
0.0
 40
0.2606902009
 40
0.5190005018
 40
0.7676885148
 40
1.0
 40
1.0
 40
1.0
 40
1.0
 10
15.1063881333
 20
13.2511017324
 30
0.0
 10
15.1064487384
 20
13.2523509091
 30
0.0
 10
15.1064798706
 20
13.2548430454
 30
0.0
 10
15.106265851
 20
13.2585228597
 30
0.0
 10
15.1057987895
 20
13.2620420373
 30
0.0
 10
15.1053085531
 20
13.264300721
 30
0.0
 10
15.1050173127
 20
13.2653764956
 30
0.0
  0
SPLINE
  5
376
100
AcDbEntity
  8
0
100
AcDbSpline
 62
7
  6
CONTINUOUS
 70
0
 71
3
 72
11
 73
7
 74
0
 42
0.0000001
 43
0.0000001
 44
0.0000000001
 40
0.0
 40
0.0
 40
0.0
 40
0.0
 40
0.2417052042
 40
0.5016811278
 40
0.7607878688
 40
1.0
 40
1.0
 40
1.0
 40
1.0
 10
15.1020116674
 20
13.280746397
 30
0.0
 10
15.1019240406
 20
13.2804037194
 30
0.0
 10
15.1017990963
 20
13.2796775455
 30
0.0
 10
15.1017421431
 20
13.278563469
 30
0.0
 10
15.1018101346
 20
13.2774536719
 30
0.0
 10
15.101942611
 20
13.2767337318
 30
0.0
 10
15.1020340872
 20
13.2763958398
 30
0.0
  0
SPLINE
  5
377
100
AcDbEntity
  8
LAYER_CUT_FEAT
100
AcDbSpline
 62
7
  6
CONTINUOUS
 70
0
 71
3
 72
11
 73
7
 74
0
 42
0.0000001
 43
0.0000001
 44
0.0000000001
 40
0.0
 40
0.0
 40
0.0
 40
0.0
 40
0.2342463832
 40
0.4751617376
 40
0.7287744643
 40
1.0
 40
1.0
 40
1.0
 40
1.0
 10
15.1325914009
 20
12.1338514826
 30
0.0
 10
15.1332452241
 20
12.1338514821
 30
0.0
 10
15.1345745811
 20
12.1339766447
 30
0.0
 10
15.1365411843
 20
12.134534274
 30
0.0
 10
15.1384796328
 20
12.1354551265
 30
0.0
 10
15.1397003677
 20
12.1362744982
 30
0.0
 10
15.1403019655
 20
12.1367340496
 30
0.0
  0
SPLINE
  5
378
100
AcDbEntity
  8
0
100
AcDbSpline
 62
7
  6
CONTINUOUS
 70
0
 71
3
 72
11
 73
7
 74
0
 42
0.0000001
 43
0.0000001
 44
0.0000000001
 40
0.0
 40
0.0
 40
0.0
 40
0.0
 40
0.2579941499
 40
0.5154232581
 40
0.7650428521
 40
1.0
 40
1.0
 40
1.0
 40
1.0
 10
15.1197602308
 20
13.300394673
 30
0.0
 10
15.1198428883
 20
13.3016399629
 30
0.0
 10
15.1199171726
 20
13.3041346727
 30
0.0
 10
15.1197667386
 20
13.3078354963
 30
0.0
 10
15.1193606315
 20
13.3114050292
 30
0.0
 10
15.1189112469
 20
13.3137091992
 30
0.0
 10
15.1186401875
 20
13.3148129945
 30
0.0
  0
SPLINE
  5
379
100
AcDbEntity
  8
0
100
AcDbSpline
 62
7
  6
CONTINUOUS
 70
0
 71
3
 72
11
 73
7
 74
0
 42
0.0000001
 43
0.0000001
 44
0.0000000001
 40
0.0
 40
0.0
 40
0.0
 40
0.0
 40
0.2374800043
 40
0.4959789145
 40
0.7565568563
 40
1.0
 40
1.0
 40
1.0
 40
1.0
 10
15.1159060992
 20
13.3305136994
 30
0.0
 10
15.115811963
 20
13.3301792929
 30
0.0
 10
15.1156742725
 20
13.3294639888
 30
0.0
 10
15.1155986302
 20
13.3283576121
 30
0.0
 10
15.1156478768
 20
13.3272410023
 30
0.0
 10
15.1157675561
 20
13.3265107913
 30
0.0
 10
15.115852487
 20
13.3261649399
 30
0.0
  0
SPLINE
  5
37A
100
AcDbEntity
  8
0
100
AcDbSpline
 62
7
  6
CONTINUOUS
 70
0
 71
3
 72
11
 73
7
 74
0
 42
0.0000001
 43
0.0000001
 44
0.0000000001
 40
0.0
 40
0.0
 40
0.0
 40
0.0
 40
0.2553265308
 40
0.511876777
 40
0.7624139533
 40
1.0
 40
1.0
 40
1.0
 40
1.0
 10
15.1339800696
 20
13.3480973815
 30
0.0
 10
15.1340847689
 20
13.3493362514
 30
0.0
 10
15.1342023495
 20
13.3518285442
 30
0.0
 10
15.1341158129
 20
13.3555430243
 30
0.0
 10
15.1337715034
 20
13.3591558495
 30
0.0
 10
15.133363572
 20
13.3615007722
 30
0.0
 10
15.1331130594
 20
13.3626302247
 30
0.0
  0
SPLINE
  5
37B
100
AcDbEntity
  8
0
100
AcDbSpline
 62
7
  6
CONTINUOUS
 70
0
 71
3
 72
11
 73
7
 74
0
 42
0.0000001
 43
0.0000001
 44
0.0000000001
 40
0.0
 40
0.0
 40
0.0
 40
0.0
 40
0.2332642467
 40
0.4902698403
 40
0.7523067551
 40
1.0
 40
1.0
 40
1.0
 40
1.0
 10
15.130656034
 20
13.3786301139
 30
0.0
 10
15.1305554841
 20
13.3783047344
 30
0.0
 10
15.1304051885
 20
13.3776017461
 30
0.0
 10
15.130311022
 20
13.3765052177
 30
0.0
 10
15.1303414161
 20
13.3753839679
 30
0.0
 10
15.1304481919
 20
13.3746449577
 30
0.0
 10
15.1305264978
 20
13.37429191
 30
0.0
  0
SPLINE
  5
37C
100
AcDbEntity
  8
LAYER_CUT_FEAT
100
AcDbSpline
 62
7
  6
CONTINUOUS
 70
0
 71
3
 72
22
 73
18
 74
0
 42
0.0000001
 43
0.0000001
 44
0.0000000001
 40
0.0
 40
0.0
 40
0.0
 40
0.0
 40
0.0167499191
 40
0.0337217223
 40
0.06910191
 40
0.1076393324
 40
0.150347655
 40
0.1978388363
 40
0.2504018002
 40
0.3080815693
 40
0.370740385
 40
0.4381011987
 40
0.5097784216
 40
0.5853007327
 40
0.6641286144
 40
0.8292506563
 40
1.0
 40
1.0
 40
1.0
 40
1.0
 10
15.4413435354
 20
11.3905514977
 30
0.0
 10
15.4418739778
 20
11.3905514927
 30
0.0
 10
15.4429431402
 20
11.3906192357
 30
0.0
 10
15.4450976739
 20
11.3910285799
 30
0.0
 10
15.4478057739
 20
11.392081715
 30
0.0
 10
15.4509127917
 20
11.3941170442
 30
0.0
 10
15.4539077783
 20
11.3969065028
 30
0.0
 10
15.4567708711
 20
11.4004199884
 30
0.0
 10
15.459482296
 20
11.4046251644
 30
0.0
 10
15.4620197334
 20
11.4094843747
 30
0.0
 10
15.4643607876
 20
11.4149534799
 30
0.0
 10
15.466483827
 20
11.4209819877
 30
0.0
 10
15.4683687819
 20
11.4275135262
 30
0.0
 10
15.469997798
 20
11.4344866109
 30
0.0
 10
15.4718353723
 20
11.444438643
 30
0.0
 10
15.4733688025
 20
11.4574974853
 30
0.0
 10
15.4737862013
 20
11.468137441
 30
0.0
 10
15.4737947938
 20
11.4735447847
 30
0.0
  0
SPLINE
  5
37D
100
AcDbEntity
  8
0
100
AcDbSpline
 62
7
  6
CONTINUOUS
 70
0
 71
3
 72
47
 73
43
 74
0
 42
0.0000001
 43
0.0000001
 44
0.0000000001
 40
0.0
 40
0.0
 40
0.0
 40
0.0
 40
0.0358694774
 40
0.0726830098
 40
0.1103162289
 40
0.1486390544
 40
0.187516889
 40
0.2268115722
 40
0.2663823026
 40
0.3060865514
 40
0.3457809606
 40
0.3853222322
 40
0.4245680225
 40
0.4633778366
 40
0.5016139469
 40
0.5391423297
 40
0.5758336322
 40
0.6115642087
 40
0.6462172071
 40
0.6796837621
 40
0.7118643424
 40
0.7426702574
 40
0.7720254491
 40
0.7998686491
 40
0.8261559968
 40
0.8387096642
 40
0.8508676856
 40
0.8626311118
 40
0.8740028687
 40
0.8849879509
 40
0.8955936361
 40
0.9058297169
 40
0.915708745
 40
0.9252462839
 40
0.9344611595
 40
0.9520065523
 40
0.9604021144
 40
0.9685865812
 40
0.9765970411
 40
0.9844738026
 40
0.9922598325
 40
1.0
 40
1.0
 40
1.0
 40
1.0
 10
15.0789437643
 20
13.1859669149
 30
0.0
 10
15.0731410539
 20
13.1597982603
 30
0.0
 10
15.0622435141
 20
13.1065780034
 30
0.0
 10
15.0481560849
 20
13.0253428506
 30
0.0
 10
15.0361568641
 20
12.9419203384
 30
0.0
 10
15.0262973672
 20
12.8566657427
 30
0.0
 10
15.0186196543
 20
12.7699409252
 30
0.0
 10
15.0131565781
 20
12.6821144756
 30
0.0
 10
15.0099314966
 20
12.5935596292
 30
0.0
 10
15.0089581815
 20
12.5046527959
 30
0.0
 10
15.0102408118
 20
12.4157718955
 30
0.0
 10
15.0137739004
 20
12.327294738
 30
0.0
 10
15.0195423267
 20
12.2395973906
 30
0.0
 10
15.0275214494
 20
12.1530525563
 30
0.0
 10
15.0376771472
 20
12.0680279575
 30
0.0
 10
15.0499660054
 20
11.9848847434
 30
0.0
 10
15.0643355379
 20
11.903975919
 30
0.0
 10
15.0807243557
 20
11.8256447909
 30
0.0
 10
15.0990625175
 20
11.7502234536
 30
0.0
 10
15.1192718662
 20
11.6780313307
 30
0.0
 10
15.1412663962
 20
11.6093736399
 30
0.0
 10
15.1649527226
 20
11.5445402843
 30
0.0
 10
15.1902309483
 20
11.4838035455
 30
0.0
 10
15.2169942517
 20
11.4274201141
 30
0.0
 10
15.2407953379
 20
11.3836048452
 30
0.0
 10
15.2605360101
 20
11.3509991912
 30
0.0
 10
15.275412823
 20
11.3281538799
 30
0.0
 10
15.2905724209
 20
11.3065655098
 30
0.0
 10
15.3059992135
 20
11.2862568031
 30
0.0
 10
15.3216771294
 20
11.2672492637
 30
0.0
 10
15.3375899294
 20
11.2495630541
 30
0.0
 10
15.3537213903
 20
11.2332168884
 30
0.0
 10
15.3700544455
 20
11.2182285742
 30
0.0
 10
15.3865743975
 20
11.2046131749
 30
0.0
 10
15.4084619072
 20
11.1885764569
 30
0.0
 10
15.4310408092
 20
11.1749727724
 30
0.0
 10
15.4541625566
 20
11.1641736682
 30
0.0
 10
15.4713518107
 20
11.15762734
 30
0.0
 10
15.4886204269
 20
11.152526374
 30
0.0
 10
15.5059504304
 20
11.148877362
 30
0.0
 10
15.5233201386
 20
11.146685765
 30
0.0
 10
15.5349282659
 20
11.1461980214
 30
0.0
 10
15.5407122836
 20
11.1461980168
 30
0.0
  0
SPLINE
  5
37E
100
AcDbEntity
  8
LAYER_CUT_FEAT
100
AcDbSpline
 62
7
  6
CONTINUOUS
 70
0
 71
3
 72
17
 73
13
 74
0
 42
0.0000001
 43
0.0000001
 44
0.0000000001
 40
0.0
 40
0.0
 40
0.0
 40
0.0
 40
0.1496077219
 40
0.2966620764
 40
0.4386144125
 40
0.573078081
 40
0.6979218427
 40
0.8113806204
 40
0.863446381
 40
0.9122521778
 40
0.9577605721
 40
1.0
 40
1.0
 40
1.0
 40
1.0
 10
15.4745966145
 20
11.9781357503
 30
0.0
 10
15.4746029603
 20
11.9821292182
 30
0.0
 10
15.4743947309
 20
11.9900501866
 30
0.0
 10
15.4734242712
 20
12.0017240914
 30
0.0
 10
15.4718170667
 20
12.0129202477
 30
0.0
 10
15.469607015
 20
12.0234094631
 30
0.0
 10
15.4668403841
 20
12.032977404
 30
0.0
 10
15.464043742
 20
12.0402211126
 30
0.0
 10
15.4615442445
 20
12.0453706176
 30
0.0
 10
15.4596227558
 20
12.0487761991
 30
0.0
 10
15.4576106035
 20
12.0518193123
 30
0.0
 10
15.4561615736
 20
12.0536642195
 30
0.0
 10
15.4554222449
 20
12.0545154767
 30
0.0
  0
SPLINE
  5
37F
100
AcDbEntity
  8
LAYER_CUT_FEAT
100
AcDbSpline
 62
7
  6
CONTINUOUS
 70
0
 71
3
 72
15
 73
11
 74
0
 42
0.0000001
 43
0.0000001
 44
0.0000000001
 40
0.0
 40
0.0
 40
0.0
 40
0.0
 40
0.146499627
 40
0.287242257
 40
0.4219656125
 40
0.5504543521
 40
0.6725514999
 40
0.7881670099
 40
0.8972888817
 40
1.0
 40
1.0
 40
1.0
 40
1.0
 10
15.38437232
 20
12.1941807285
 30
0.0
 10
15.3867096579
 20
12.1868430151
 30
0.0
 10
15.3915338971
 20
12.1725311747
 30
0.0
 10
15.3993899471
 20
12.1517821048
 30
0.0
 10
15.4076999592
 20
12.1322343824
 30
0.0
 10
15.4164363284
 20
12.1139530986
 30
0.0
 10
15.4255701933
 20
12.0969987372
 30
0.0
 10
15.4350720361
 20
12.0814268746
 30
0.0
 10
15.4449103608
 20
12.0672896968
 30
0.0
 10
15.4518818631
 20
12.0585918441
 30
0.0
 10
15.4554222449
 20
12.0545154767
 30
0.0
  0
SPLINE
  5
380
100
AcDbEntity
  8
LAYER_CUT_FEAT
100
AcDbSpline
 62
7
  6
CONTINUOUS
 70
0
 71
3
 72
17
 73
13
 74
0
 42
0.0000001
 43
0.0000001
 44
0.0000000001
 40
0.0
 40
0.0
 40
0.0
 40
0.0
 40
0.1723353398
 40
0.3309694558
 40
0.4750651778
 40
0.6043277826
 40
0.7192132005
 40
0.8212147783
 40
0.868301458
 40
0.9133792261
 40
0.9570517844
 40
1.0
 40
1.0
 40
1.0
 40
1.0
 10
15.38437232
 20
12.1941807285
 30
0.0
 10
15.3836420153
 20
12.1964734079
 30
0.0
 10
15.3821014239
 20
12.2008347082
 30
0.0
 10
15.3794255052
 20
12.2069117748
 30
0.0
 10
15.3765052677
 20
12.2122003727
 30
0.0
 10
15.3733714627
 20
12.2166404742
 30
0.0
 10
15.3700556133
 20
12.2201812496
 30
0.0
 10
15.3670799602
 20
12.2224031987
 30
0.0
 10
15.3646568972
 20
12.2236321496
 30
0.0
 10
15.3628675011
 20
12.2242767817
 30
0.0
 10
15.3610645574
 20
12.2246651676
 30
0.0
 10
15.3598534296
 20
12.2247519156
 30
0.0
 10
15.3592537771
 20
12.2247519162
 30
0.0
  0
SPLINE
  5
381
100
AcDbEntity
  8
LAYER_CUT_FEAT
100
AcDbSpline
 62
7
  6
CONTINUOUS
 70
0
 71
3
 72
21
 73
17
 74
0
 42
0.0000001
 43
0.0000001
 44
0.0000000001
 40
0.0
 40
0.0
 40
0.0
 40
0.0
 40
0.0348093745
 40
0.0711241951
 40
0.1102327806
 40
0.1530939386
 40
0.2003346999
 40
0.2523025323
 40
0.3091262528
 40
0.3707670235
 40
0.4370565487
 40
0.5077248545
 40
0.5824206948
 40
0.6607271526
 40
0.8262145886
 40
1.0
 40
1.0
 40
1.0
 40
1.0
 10
15.9457651521
 20
12.2830060817
 30
0.0
 10
15.9467402268
 20
12.283006076
 30
0.0
 10
15.9487394555
 20
12.2832414464
 30
0.0
 10
15.9516698525
 20
12.2842818346
 30
0.0
 10
15.9545316661
 20
12.2859875265
 30
0.0
 10
15.9573051374
 20
12.2883336245
 30
0.0
 10
15.9599759206
 20
12.2912972791
 30
0.0
 10
15.9625278791
 20
12.2948547541
 30
0.0
 10
15.9649439042
 20
12.2989789741
 30
0.0
 10
15.9672063647
 20
12.3036384847
 30
0.0
 10
15.9692979896
 20
12.3087972906
 30
0.0
 10
15.9712023368
 20
12.314415056
 30
0.0
 10
15.9729043887
 20
12.3204475327
 30
0.0
 10
15.9749224603
 20
12.3291405751
 30
0.0
 10
15.976821651
 20
12.340696248
 30
0.0
 10
15.9776574081
 20
12.3501723549
 30
0.0
 10
15.9779166324
 20
12.3550334974
 30
0.0
  0
SPLINE
  5
382
100
AcDbEntity
  8
02___PRT_ALL_AXES
100
AcDbSpline
 62
7
  6
CONTINUOUS
 70
0
 71
3
 72
32
 73
28
 74
0
 42
0.0000001
 43
0.0000001
 44
0.0000000001
 40
0.0
 40
0.0
 40
0.0
 40
0.0
 40
0.0939308767
 40
0.1826439502
 40
0.2658269142
 40
0.3432634197
 40
0.4148561341
 40
0.448480458
 40
0.4806786638
 40
0.5114876316
 40
0.5409593256
 40
0.5691626012
 40
0.5961850089
 40
0.6470944675
 40
0.6713074796
 40
0.6948995662
 40
0.7180605585
 40
0.740993916
 40
0.7639106835
 40
0.7870224695
 40
0.8105343498
 40
0.834638621
 40
0.8595100785
 40
0.8853030895
 40
0.9121503572
 40
0.9401630295
 40
1.0
 40
1.0
 40
1.0
 40
1.0
 10
15.5112310618
 20
12.8085738072
 30
0.0
 10
15.5143013787
 20
12.8185093563
 30
0.0
 10
15.5207153608
 20
12.8376959485
 30
0.0
 10
15.5314972262
 20
12.8650950756
 30
0.0
 10
15.543109601
 20
12.8901580212
 30
0.0
 10
15.5554768601
 20
12.9127203361
 30
0.0
 10
15.5665705687
 20
12.9296605016
 30
0.0
 10
15.5757883805
 20
12.9417700952
 30
0.0
 10
15.5826937927
 20
12.9499476888
 30
0.0
 10
15.58972488
 20
12.9573978992
 30
0.0
 10
15.5968703645
 20
12.9641081304
 30
0.0
 10
15.6041206959
 20
12.9700677648
 30
0.0
 10
15.6137155066
 20
12.9768614659
 30
0.0
 10
15.6236923253
 20
12.9823222408
 30
0.0
 10
15.6339255637
 20
12.9861981363
 30
0.0
 10
15.6415193695
 20
12.9882643022
 30
0.0
 10
15.6491433007
 20
12.9895311901
 30
0.0
 10
15.6567834427
 20
12.9899957672
 30
0.0
 10
15.6644247285
 20
12.9896566324
 30
0.0
 10
15.6720522298
 20
12.988514766
 30
0.0
 10
15.6796513924
 20
12.9865732586
 30
0.0
 10
15.6872083914
 20
12.9838370413
 30
0.0
 10
15.6947102513
 20
12.9803124601
 30
0.0
 10
15.7021445608
 20
12.9760070799
 30
0.0
 10
15.7095000392
 20
12.9709290407
 30
0.0
 10
15.7194024834
 20
12.9629667854
 30
0.0
 10
15.726343946
 20
12.9561073177
 30
0.0
 10
15.7308018103
 20
12.9512070613
 30
0.0
  0
SPLINE
  5
383
100
AcDbEntity
  8
02___PRT_ALL_AXES
100
AcDbSpline
 62
7
  6
CONTINUOUS
 70
0
 71
3
 72
24
 73
20
 74
0
 42
0.0000001
 43
0.0000001
 44
0.0000000001
 40
0.0
 40
0.0
 40
0.0
 40
0.0
 40
0.0879794677
 40
0.1726859485
 40
0.2539647768
 40
0.3316859654
 40
0.405749492
 40
0.4760895652
 40
0.5426804216
 40
0.6055433561
 40
0.6647551847
 40
0.7204584886
 40
0.772873159
 40
0.7979485557
 40
0.8223261531
 40
0.8691914962
 40
0.9140016608
 40
0.9573722119
 40
1.0
 40
1.0
 40
1.0
 40
1.0
 10
15.5026483418
 20
12.812925077
 30
0.0
 10
15.504815692
 20
12.8199386247
 30
0.0
 10
15.5092900734
 20
12.8336381447
 30
0.0
 10
15.5165702804
 20
12.8535432416
 30
0.0
 10
15.5242739323
 20
12.8723674993
 30
0.0
 10
15.5323768432
 20
12.8900517669
 30
0.0
 10
15.5408537678
 20
12.9065409175
 30
0.0
 10
15.5496785111
 20
12.9217836363
 30
0.0
 10
15.5588241468
 20
12.9357326778
 30
0.0
 10
15.5682630998
 20
12.9483448224
 30
0.0
 10
15.5779678749
 20
12.9595811633
 30
0.0
 10
15.5879097479
 20
12.9694057848
 30
0.0
 10
15.5964940333
 20
12.976493069
 30
0.0
 10
15.603446941
 20
12.9813882547
 30
0.0
 10
15.6102586165
 20
12.9856587474
 30
0.0
 10
15.6188853493
 20
12.9901100609
 30
0.0
 10
15.6294953988
 20
12.9939979503
 30
0.0
 10
15.6401899004
 20
12.9963412089
 30
0.0
 10
15.647375823
 20
12.9968646688
 30
0.0
 10
15.6509325825
 20
12.9968646739
 30
0.0
  0
SPLINE
  5
384
100
AcDbEntity
  8
LAYER_CUT_FEAT
100
AcDbSpline
 62
7
  6
CONTINUOUS
 70
0
 71
3
 72
18
 73
14
 74
0
 42
0.0000001
 43
0.0000001
 44
0.0000000001
 40
0.0
 40
0.0
 40
0.0
 40
0.0
 40
0.1746080271
 40
0.3357065893
 40
0.4819200384
 40
0.6124634243
 40
0.7273811715
 40
0.7793678355
 40
0.8280417712
 40
0.8738246464
 40
0.9172703655
 40
0.9590639981
 40
1.0
 40
1.0
 40
1.0
 40
1.0
 10
15.2629934126
 20
13.2932992424
 30
0.0
 10
15.2622835811
 20
13.2960672146
 30
0.0
 10
15.2607532393
 20
13.3013490404
 30
0.0
 10
15.2580019435
 20
13.3087489775
 30
0.0
 10
15.2549187434
 20
13.315230432
 30
0.0
 10
15.2515480038
 20
13.3206991118
 30
0.0
 10
15.2484336681
 20
13.3244711375
 30
0.0
 10
15.2458255534
 20
13.3268549159
 30
0.0
 10
15.2438935228
 20
13.3282814516
 30
0.0
 10
15.2419267779
 20
13.3294004032
 30
0.0
 10
15.2399317356
 20
13.3302056053
 30
0.0
 10
15.2379169956
 20
13.3306915246
 30
0.0
 10
15.2365607265
 20
13.3308002166
 30
0.0
 10
15.2358907903
 20
13.3308002216
 30
0.0
  0
SPLINE
  5
385
100
AcDbEntity
  8
02___PRT_ALL_AXES
100
AcDbSpline
 62
7
  6
CONTINUOUS
 70
0
 71
3
 72
19
 73
15
 74
0
 42
0.0000001
 43
0.0000001
 44
0.0000000001
 40
0.0
 40
0.0
 40
0.0
 40
0.0
 40
0.0351164115
 40
0.0716900346
 40
0.1109756022
 40
0.1539175828
 40
0.201144302
 40
0.2530146429
 40
0.3096748846
 40
0.3711073174
 40
0.5075499686
 40
0.6601739732
 40
0.8256607712
 40
1.0
 40
1.0
 40
1.0
 40
1.0
 10
15.6711388971
 20
12.2169787318
 30
0.0
 10
15.6714569431
 20
12.2169787387
 30
0.0
 10
15.6721084013
 20
12.2170537171
 30
0.0
 10
15.6730643869
 20
12.2173855522
 30
0.0
 10
15.6739990774
 20
12.217930087
 30
0.0
 10
15.6749061275
 20
12.218679664
 30
0.0
 10
15.6757809602
 20
12.21962718
 30
0.0
 10
15.6766184783
 20
12.2207652952
 30
0.0
 10
15.6774134149
 20
12.2220856595
 30
0.0
 10
15.6784451199
 20
12.2241493334
 30
0.0
 10
15.6795685341
 20
12.2271272679
 30
0.0
 10
15.6806237803
 20
12.2311120358
 30
0.0
 10
15.6813970338
 20
12.2355092607
 30
0.0
 10
15.6817031544
 20
12.2385748377
 30
0.0
 10
15.6818063235
 20
12.2401504372
 30
0.0
  0
SPLINE
  5
386
100
AcDbEntity
  8
LAYER_CUT_FEAT
100
AcDbSpline
 62
7
  6
CONTINUOUS
 70
0
 71
3
 72
21
 73
17
 74
0
 42
0.0000001
 43
0.0000001
 44
0.0000000001
 40
0.0
 40
0.0
 40
0.0
 40
0.0
 40
0.0155242115
 40
0.0314094232
 40
0.0654579859
 40
0.1042627638
 40
0.148940491
 40
0.1999019203
 40
0.2570696637
 40
0.3200299861
 40
0.3881300606
 40
0.4605423391
 40
0.5363106335
 40
0.6936110262
 40
0.8511606205
 40
1.0
 40
1.0
 40
1.0
 40
1.0
 10
15.7332602809
 20
12.2984923369
 30
0.0
 10
15.733495858
 20
12.2984923364
 30
0.0
 10
15.7339734275
 20
12.2985327844
 30
0.0
 10
15.7349397938
 20
12.2987787173
 30
0.0
 10
15.7361477782
 20
12.2994167713
 30
0.0
 10
15.737485652
 20
12.3006144217
 30
0.0
 10
15.7387418392
 20
12.302232664
 30
0.0
 10
15.7399020576
 20
12.3042467298
 30
0.0
 10
15.7409510405
 20
12.3066259906
 30
0.0
 10
15.741872164
 20
12.3093328945
 30
0.0
 10
15.7426502074
 20
12.3123233748
 30
0.0
 10
15.7432720638
 20
12.3155480525
 30
0.0
 10
15.7438858062
 20
12.320144898
 30
0.0
 10
15.7441955815
 20
12.3260761092
 30
0.0
 10
15.7438658801
 20
12.3331150341
 30
0.0
 10
15.7431643546
 20
12.3377237405
 30
0.0
 10
15.7426792325
 20
12.3399296368
 30
0.0
  0
SPLINE
  5
387
100
AcDbEntity
  8
LAYER_CUT_FEAT
100
AcDbSpline
 62
7
  6
CONTINUOUS
 70
0
 71
3
 72
27
 73
23
 74
0
 42
0.0000001
 43
0.0000001
 44
0.0000000001
 40
0.0
 40
0.0
 40
0.0
 40
0.0
 40
0.0154541397
 40
0.0312983359
 40
0.0478883853
 40
0.0655224022
 40
0.1047267394
 40
0.1266309597
 40
0.1501503569
 40
0.1753087216
 40
0.2020980615
 40
0.2603941343
 40
0.324547305
 40
0.3937931996
 40
0.4671870002
 40
0.5436537449
 40
0.6220294153
 40
0.7010970395
 40
0.779620955
 40
0.8563801278
 40
0.9302020132
 40
1.0
 40
1.0
 40
1.0
 40
1.0
 10
15.4092707246
 20
12.9102302221
 30
0.0
 10
15.4098850147
 20
12.9102302158
 30
0.0
 10
15.4111317033
 20
12.9103403627
 30
0.0
 10
15.4129792862
 20
12.9108317589
 30
0.0
 10
15.41480442
 20
12.9116445594
 30
0.0
 10
15.4172819951
 20
12.9132025856
 30
0.0
 10
15.4195882337
 20
12.9153620723
 30
0.0
 10
15.421719785
 20
12.9179659448
 30
0.0
 10
15.4233197905
 20
12.92027452
 30
0.0
 10
15.4248542499
 20
12.9228543692
 30
0.0
 10
15.4268611755
 20
12.9267524949
 30
0.0
 10
15.4291351432
 20
12.9322428817
 30
0.0
 10
15.4314339079
 20
12.9395152868
 30
0.0
 10
15.4333328412
 20
12.9475195124
 30
0.0
 10
15.4347967595
 20
12.9561103032
 30
0.0
 10
15.4357983519
 20
12.9651318715
 30
0.0
 10
15.436318835
 20
12.9744194745
 30
0.0
 10
15.4363484498
 20
12.9838032787
 30
0.0
 10
15.4358866615
 20
12.9931114726
 30
0.0
 10
15.4349420799
 20
13.0021739571
 30
0.0
 10
15.4335325395
 20
13.01082464
 30
0.0
 10
15.4322587628
 20
13.0163948846
 30
0.0
 10
15.431539807
 20
13.0190745275
 30
0.0
  0
SPLINE
  5
388
100
AcDbEntity
  8
LAYER_CUT_FEAT
100
AcDbSpline
 62
7
  6
CONTINUOUS
 70
0
 71
3
 72
18
 73
14
 74
0
 42
0.0000001
 43
0.0000001
 44
0.0000000001
 40
0.0
 40
0.0
 40
0.0
 40
0.0
 40
0.0396921007
 40
0.0826193138
 40
0.1289574953
 40
0.1787844247
 40
0.2320965978
 40
0.2888257855
 40
0.4119707731
 40
0.5467999741
 40
0.6913423524
 40
0.8432678529
 40
1.0
 40
1.0
 40
1.0
 40
1.0
 10
15.3191323557
 20
12.4938898271
 30
0.0
 10
15.3199042077
 20
12.4945249087
 30
0.0
 10
15.3214283601
 20
12.4959488777
 30
0.0
 10
15.3235622772
 20
12.4984028037
 30
0.0
 10
15.3256203682
 20
12.5012420487
 30
0.0
 10
15.3275925113
 20
12.5044519068
 30
0.0
 10
15.3294694575
 20
12.5080164278
 30
0.0
 10
15.3318988779
 20
12.5133654994
 30
0.0
 10
15.3345998378
 20
12.5208298679
 30
0.0
 10
15.337244713
 20
12.5306245673
 30
0.0
 10
15.3393214531
 20
12.5412938547
 30
0.0
 10
15.3407865167
 20
12.5526188168
 30
0.0
 10
15.3413295843
 20
12.560377624
 30
0.0
 10
15.3414950574
 20
12.5643210436
 30
0.0
  0
SPLINE
  5
389
100
AcDbEntity
  8
02___PRT_ALL_AXES
100
AcDbSpline
 62
7
  6
CONTINUOUS
 70
0
 71
3
 72
13
 73
9
 74
0
 42
0.0000001
 43
0.0000001
 44
0.0000000001
 40
0.0
 40
0.0
 40
0.0
 40
0.0
 40
0.1179510828
 40
0.2361284772
 40
0.355498984
 40
0.4769944296
 40
0.7295325676
 40
1.0
 40
1.0
 40
1.0
 40
1.0
 10
15.6541819566
 20
12.7884099142
 30
0.0
 10
15.6555662285
 20
12.7885150506
 30
0.0
 10
15.6583497894
 20
12.7885891885
 30
0.0
 10
15.6625293589
 20
12.7882854772
 30
0.0
 10
15.6667006733
 20
12.7875673695
 30
0.0
 10
15.6723116879
 20
12.7860410231
 30
0.0
 10
15.6793229278
 20
12.7830399669
 30
0.0
 10
15.6845380755
 20
12.7797215823
 30
0.0
 10
15.6871044555
 20
12.7778381365
 30
0.0
  0
SPLINE
  5
38A
100
AcDbEntity
  8
LAYER_CUT_FEAT
100
AcDbSpline
 62
7
  6
CONTINUOUS
 70
0
 71
3
 72
11
 73
7
 74
0
 42
0.0000001
 43
0.0000001
 44
0.0000000001
 40
0.0
 40
0.0
 40
0.0
 40
0.0
 40
0.2358710917
 40
0.4829608343
 40
0.7386151384
 40
1.0
 40
1.0
 40
1.0
 40
1.0
 10
15.3712656855
 20
12.7810015806
 30
0.0
 10
15.3670857527
 20
12.7642931631
 30
0.0
 10
15.3595748936
 20
12.7298133416
 30
0.0
 10
15.3509322101
 20
12.6765540175
 30
0.0
 10
15.3447295685
 20
12.6210819691
 30
0.0
 10
15.3422952513
 20
12.5833906087
 30
0.0
 10
15.3414950574
 20
12.5643210436
 30
0.0
  0
SPLINE
  5
38B
100
AcDbEntity
  8
02___PRT_ALL_AXES
100
AcDbSpline
 62
7
  6
CONTINUOUS
 70
0
 71
3
 72
26
 73
22
 74
0
 42
0.0000001
 43
0.0000001
 44
0.0000000001
 40
0.0
 40
0.0
 40
0.0
 40
0.0
 40
0.0208360718
 40
0.0428628886
 40
0.0660818099
 40
0.0904810276
 40
0.1160367685
 40
0.142715327
 40
0.1992553326
 40
0.2596850287
 40
0.3234836582
 40
0.3900574705
 40
0.4587572769
 40
0.5288937299
 40
0.599751312
 40
0.6706016376
 40
0.740716451
 40
0.8093806272
 40
0.8759054736
 40
0.9396427196
 40
1.0
 40
1.0
 40
1.0
 40
1.0
 10
15.7063512031
 20
12.7584353057
 30
0.0
 10
15.708174203
 20
12.7560584625
 30
0.0
 10
15.7117598182
 20
12.7510411545
 30
0.0
 10
15.7168235278
 20
12.7429977488
 30
0.0
 10
15.7217069343
 20
12.7342521988
 30
0.0
 10
15.7263952689
 20
12.7248310873
 30
0.0
 10
15.7308748358
 20
12.7147623741
 30
0.0
 10
15.7366630917
 20
12.7002317606
 30
0.0
 10
15.7432379947
 20
12.6806365635
 30
0.0
 10
15.7499555035
 20
12.6555174689
 30
0.0
 10
15.7555649096
 20
12.6286537303
 30
0.0
 10
15.7599977314
 20
12.6003686992
 30
0.0
 10
15.7631996765
 20
12.5710022215
 30
0.0
 10
15.7651314695
 20
12.5409084195
 30
0.0
 10
15.7657693998
 20
12.5104504692
 30
0.0
 10
15.7651056382
 20
12.4799961888
 30
0.0
 10
15.7631483265
 20
12.4499132962
 30
0.0
 10
15.7599215175
 20
12.4205649855
 30
0.0
 10
15.7554646891
 20
12.3923046036
 30
0.0
 10
15.7498327818
 20
12.3654735996
 30
0.0
 10
15.7452007097
 20
12.3482323227
 30
0.0
 10
15.7426792325
 20
12.3399296368
 30
0.0
  0
SPLINE
  5
38C
100
AcDbEntity
  8
LAYER_CUT_FEAT
100
AcDbSpline
 62
7
  6
CONTINUOUS
 70
0
 71
3
 72
15
 73
11
 74
0
 42
0.0000001
 43
0.0000001
 44
0.0000000001
 40
0.0
 40
0.0
 40
0.0
 40
0.0
 40
0.1175180371
 40
0.2415543203
 40
0.3700229518
 40
0.5006963395
 40
0.6312791837
 40
0.7594789389
 40
0.883076386
 40
1.0
 40
1.0
 40
1.0
 40
1.0
 10
15.3712656855
 20
12.7810015806
 30
0.0
 10
15.3721373691
 20
12.7844859557
 30
0.0
 10
15.3736554554
 20
12.7917182204
 30
0.0
 10
15.3752557478
 20
12.8029203384
 30
0.0
 10
15.3762191048
 20
12.814598607
 30
0.0
 10
15.3765250147
 20
12.8265122009
 30
0.0
 10
15.3761670537
 20
12.838416134
 30
0.0
 10
15.3751527455
 20
12.8500656419
 30
0.0
 10
15.3735036833
 20
12.8612205183
 30
0.0
 10
15.3719530285
 20
12.8684136882
 30
0.0
 10
15.3710653259
 20
12.8718752643
 30
0.0
  0
SPLINE
  5
38D
100
AcDbEntity
  8
02___PRT_ALL_AXES
100
AcDbSpline
 62
7
  6
CONTINUOUS
 70
0
 71
3
 72
14
 73
10
 74
0
 42
0.0000001
 43
0.0000001
 44
0.0000000001
 40
0.0
 40
0.0
 40
0.0
 40
0.0
 40
0.1526756344
 40
0.2973720468
 40
0.4339709977
 40
0.5624608388
 40
0.6829626532
 40
0.7957548127
 40
1.0
 40
1.0
 40
1.0
 40
1.0
 10
15.7284636412
 20
12.3013726076
 30
0.0
 10
15.7268433158
 20
12.297745154
 30
0.0
 10
15.7235288884
 20
12.2907488723
 30
0.0
 10
15.7181800063
 20
12.2807974573
 30
0.0
 10
15.7126035427
 20
12.2717006449
 30
0.0
 10
15.7068203178
 20
12.2634926768
 30
0.0
 10
15.7008473267
 20
12.2562006776
 30
0.0
 10
15.6929289099
 20
12.2480140131
 30
0.0
 10
15.6863733097
 20
12.2428688914
 30
0.0
 10
15.6818063235
 20
12.2401504372
 30
0.0
  0
SPLINE
  5
38E
100
AcDbEntity
  8
LAYER_CUT_FEAT
100
AcDbSpline
 62
7
  6
CONTINUOUS
 70
0
 71
3
 72
23
 73
19
 74
0
 42
0.0000001
 43
0.0000001
 44
0.0000000001
 40
0.0
 40
0.0
 40
0.0
 40
0.0
 40
0.0602565465
 40
0.1240190221
 40
0.1906779605
 40
0.2595614808
 40
0.3299545698
 40
0.4011136939
 40
0.4722811133
 40
0.5426989387
 40
0.6116231834
 40
0.6783379952
 40
0.7421709861
 40
0.8025095956
 40
0.858820492
 40
0.9106732263
 40
0.9577714604
 40
1.0
 40
1.0
 40
1.0
 40
1.0
 10
15.7408258114
 20
13.4170853825
 30
0.0
 10
15.741608459
 20
13.4195999543
 30
0.0
 10
15.7430462745
 20
13.4248303009
 30
0.0
 10
15.7447938536
 20
13.4329825643
 30
0.0
 10
15.7461777463
 20
13.4415864008
 30
0.0
 10
15.7471802816
 20
13.450534189
 30
0.0
 10
15.7477887425
 20
13.459714339
 30
0.0
 10
15.7479953732
 20
13.4690120508
 30
0.0
 10
15.7477975648
 20
13.4783110373
 30
0.0
 10
15.7471978063
 20
13.4874949802
 30
0.0
 10
15.7462037608
 20
13.4964490701
 30
0.0
 10
15.7448280287
 20
13.5050615152
 30
0.0
 10
15.7430881067
 20
13.5132250275
 30
0.0
 10
15.7410059471
 20
13.5208383639
 30
0.0
 10
15.7386077966
 20
13.5278075566
 30
0.0
 10
15.7359229356
 20
13.5340481375
 30
0.0
 10
15.7329845913
 20
13.5394839234
 30
0.0
 10
15.7307567157
 20
13.5427047283
 30
0.0
 10
15.7295988225
 20
13.5441419565
 30
0.0
  0
SPLINE
  5
38F
100
AcDbEntity
  8
LAYER_CUT_FEAT
100
AcDbSpline
 62
7
  6
CONTINUOUS
 70
0
 71
3
 72
18
 73
14
 74
0
 42
0.0000001
 43
0.0000001
 44
0.0000000001
 40
0.0
 40
0.0
 40
0.0
 40
0.0
 40
0.1501056041
 40
0.2913117514
 40
0.4241766898
 40
0.5494840267
 40
0.6682717514
 40
0.7256475839
 40
0.7819056642
 40
0.8372489003
 40
0.8918933393
 40
0.9460656618
 40
1.0
 40
1.0
 40
1.0
 40
1.0
 10
15.7295988225
 20
13.5441419565
 30
0.0
 10
15.7222744817
 20
13.5532332526
 30
0.0
 10
15.7074543234
 20
13.5704033494
 30
0.0
 10
15.6839687637
 20
13.5936257307
 30
0.0
 10
15.6599846673
 20
13.6134391102
 30
0.0
 10
15.6355727263
 20
13.6297723121
 30
0.0
 10
15.6146828295
 20
13.6405559346
 30
0.0
 10
15.5978970281
 20
13.6472940386
 30
0.0
 10
15.5853983001
 20
13.6513887204
 30
0.0
 10
15.5728573565
 20
13.6545776002
 30
0.0
 10
15.5602839585
 20
13.6568577421
 30
0.0
 10
15.5476896709
 20
13.6582267676
 30
0.0
 10
15.5392783905
 20
13.6585313458
 30
0.0
 10
15.5350835775
 20
13.658531341
 30
0.0
  0
SPLINE
  5
390
100
AcDbEntity
  8
0
100
AcDbSpline
 62
7
  6
CONTINUOUS
 70
0
 71
3
 72
12
 73
8
 74
0
 42
0.0000001
 43
0.0000001
 44
0.0000000001
 40
0.0
 40
0.0
 40
0.0
 40
0.0
 40
0.1011633764
 40
0.2052052076
 40
0.4312047138
 40
0.6937137992
 40
1.0
 40
1.0
 40
1.0
 40
1.0
 10
15.0868679659
 20
13.1855213945
 30
0.0
 10
15.0870612487
 20
13.1855213954
 30
0.0
 10
15.0874542385
 20
13.1855583797
 30
0.0
 10
15.088250738
 20
13.1857837597
 30
0.0
 10
15.0892415209
 20
13.1863694198
 30
0.0
 10
15.09032001
 20
13.1874529278
 30
0.0
 10
15.0909381439
 20
13.188353116
 30
0.0
 10
15.0912383229
 20
13.1888554511
 30
0.0
  0
SPLINE
  5
391
100
AcDbEntity
  8
LAYER_CUT_FEAT
100
AcDbSpline
 62
7
  6
CONTINUOUS
 70
0
 71
3
 72
11
 73
7
 74
0
 42
0.0000001
 43
0.0000001
 44
0.0000000001
 40
0.0
 40
0.0
 40
0.0
 40
0.0
 40
0.2322367739
 40
0.4720532532
 40
0.7261839679
 40
1.0
 40
1.0
 40
1.0
 40
1.0
 10
15.1221027971
 20
12.3359466855
 30
0.0
 10
15.122944645
 20
12.3359466867
 30
0.0
 10
15.1246603681
 20
12.3361202933
 30
0.0
 10
15.1271922871
 20
12.3368922865
 30
0.0
 10
15.1296815749
 20
12.3381645321
 30
0.0
 10
15.1312383798
 20
12.3392902369
 30
0.0
 10
15.1320048487
 20
12.3399208893
 30
0.0
  0
SPLINE
  5
392
100
AcDbEntity
  8
0
100
AcDbSpline
 62
7
  6
CONTINUOUS
 70
0
 71
3
 72
13
 73
9
 74
0
 42
0.0000001
 43
0.0000001
 44
0.0000000001
 40
0.0
 40
0.0
 40
0.0
 40
0.0
 40
0.0809969398
 40
0.1689835902
 40
0.2691295044
 40
0.3843175585
 40
0.6624852666
 40
1.0
 40
1.0
 40
1.0
 40
1.0
 10
15.0802445096
 20
13.1878675274
 30
0.0
 10
15.0801785646
 20
13.1878675417
 30
0.0
 10
15.0800401382
 20
13.1878434339
 30
0.0
 10
15.07984387
 20
13.1877401978
 30
0.0
 10
15.0796576934
 20
13.1875752074
 30
0.0
 10
15.0794092966
 20
13.1872573536
 30
0.0
 10
15.0791473386
 20
13.1867169189
 30
0.0
 10
15.0790057142
 20
13.1862346338
 30
0.0
 10
15.0789437643
 20
13.1859669149
 30
0.0
  0
SPLINE
  5
393
100
AcDbEntity
  8
LAYER_CUT_FEAT
100
AcDbSpline
 62
7
  6
CONTINUOUS
 70
0
 71
3
 72
19
 73
15
 74
0
 42
0.0000001
 43
0.0000001
 44
0.0000000001
 40
0.0
 40
0.0
 40
0.0
 40
0.0
 40
0.1323553192
 40
0.2650669394
 40
0.3968643807
 40
0.5264924139
 40
0.5901140429
 40
0.6527405036
 40
0.7142288174
 40
0.7744411489
 40
0.8332455904
 40
0.8905170458
 40
0.9461379232
 40
1.0
 40
1.0
 40
1.0
 40
1.0
 10
15.9779166324
 20
12.3550334974
 30
0.0
 10
15.9800750919
 20
12.3955103328
 30
0.0
 10
15.9826899133
 20
12.4766736971
 30
0.0
 10
15.9815886267
 20
12.5982430361
 30
0.0
 10
15.9754943558
 20
12.7188297758
 30
0.0
 10
15.9662568173
 20
12.8179816066
 30
0.0
 10
15.9563812903
 20
12.8957256055
 30
0.0
 10
15.9478332109
 20
12.9525870641
 30
0.0
 10
15.9381226961
 20
13.00820201
 30
0.0
 10
15.9272770534
 20
13.0624140083
 30
0.0
 10
15.9153270304
 20
13.1150702155
 30
0.0
 10
15.90230634
 20
13.1660225327
 30
0.0
 10
15.8882520254
 20
13.2151269762
 30
0.0
 10
15.8780492289
 20
13.2470734702
 30
0.0
 10
15.8727718071
 20
13.2627019555
 30
0.0
  0
SPLINE
  5
394
100
AcDbEntity
  8
LAYER_CUT_FEAT
100
AcDbSpline
 62
7
  6
CONTINUOUS
 70
0
 71
3
 72
17
 73
13
 74
0
 42
0.0000001
 43
0.0000001
 44
0.0000000001
 40
0.0
 40
0.0
 40
0.0
 40
0.0
 40
0.1715023509
 40
0.3293314509
 40
0.4727901868
 40
0.6017075681
 40
0.7166403606
 40
0.819136815
 40
0.866631822
 40
0.9122089894
 40
0.9564485836
 40
1.0
 40
1.0
 40
1.0
 40
1.0
 10
15.8727718071
 20
13.2627019555
 30
0.0
 10
15.8720409539
 20
13.2648662941
 30
0.0
 10
15.8705066845
 20
13.2689803538
 30
0.0
 10
15.8678636228
 20
13.2747039866
 30
0.0
 10
15.8649976544
 20
13.2796768776
 30
0.0
 10
15.8619367349
 20
13.2838460735
 30
0.0
 10
15.8587094863
 20
13.2871665448
 30
0.0
 10
15.8558252067
 20
13.2892444668
 30
0.0
 10
15.8534812183
 20
13.2903932998
 30
0.0
 10
15.8517493174
 20
13.290996416
 30
0.0
 10
15.8500052957
 20
13.2913596683
 30
0.0
 10
15.8488343719
 20
13.291440777
 30
0.0
 10
15.8482542686
 20
13.2914407783
 30
0.0
  0
SPLINE
  5
395
100
AcDbEntity
  8
LAYER_CUT_FEAT
100
AcDbSpline
 62
7
  6
CONTINUOUS
 70
0
 71
3
 72
13
 73
9
 74
0
 42
0.0000001
 43
0.0000001
 44
0.0000000001
 40
0.0
 40
0.0
 40
0.0
 40
0.0
 40
0.0986110964
 40
0.2046493849
 40
0.3183618735
 40
0.4398223201
 40
0.7055082741
 40
1.0
 40
1.0
 40
1.0
 40
1.0
 10
15.6041255488
 20
12.9968600482
 30
0.0
 10
15.6048349738
 20
12.9975388931
 30
0.0
 10
15.6062328918
 20
12.9990266673
 30
0.0
 10
15.6081927951
 20
13.0015223453
 30
0.0
 10
15.6100821104
 20
13.0043497215
 30
0.0
 10
15.6125703225
 20
13.0086753742
 30
0.0
 10
15.61541606
 20
13.0148525335
 30
0.0
 10
15.6172723325
 20
13.0201198601
 30
0.0
 10
15.6181437685
 20
13.0229197007
 30
0.0
  0
SPLINE
  5
396
100
AcDbEntity
  8
0
100
AcDbSpline
 62
7
  6
CONTINUOUS
 70
0
 71
3
 72
11
 73
7
 74
0
 42
0.0000001
 43
0.0000001
 44
0.0000000001
 40
0.0
 40
0.0
 40
0.0
 40
0.0
 40
0.2091431429
 40
0.4373671754
 40
0.6984862063
 40
1.0
 40
1.0
 40
1.0
 40
1.0
 10
15.0994730824
 20
13.2371085872
 30
0.0
 10
15.0998325117
 20
13.2371085883
 30
0.0
 10
15.1005889145
 20
13.2372445461
 30
0.0
 10
15.1016571239
 20
13.2378246184
 30
0.0
 10
15.1026666351
 20
13.2387492328
 30
0.0
 10
15.1032525511
 20
13.2395241181
 30
0.0
 10
15.1035381588
 20
13.239956477
 30
0.0
  0
SPLINE
  5
397
100
AcDbEntity
  8
0
100
AcDbSpline
 62
7
  6
CONTINUOUS
 70
0
 71
3
 72
13
 73
9
 74
0
 42
0.0000001
 43
0.0000001
 44
0.0000000001
 40
0.0
 40
0.0
 40
0.0
 40
0.0
 40
0.0825344571
 40
0.1716415699
 40
0.2722740128
 40
0.3873370691
 40
0.6640483941
 40
1.0
 40
1.0
 40
1.0
 40
1.0
 10
15.0924702721
 20
13.240240063
 30
0.0
 10
15.0924072522
 20
13.2402400628
 30
0.0
 10
15.0922754343
 20
13.2402182048
 30
0.0
 10
15.0920874456
 20
13.2401240032
 30
0.0
 10
15.091908292
 20
13.2399728412
 30
0.0
 10
15.0916684008
 20
13.2396813804
 30
0.0
 10
15.0914114616
 20
13.23918281
 30
0.0
 10
15.0912690639
 20
13.2387358258
 30
0.0
 10
15.0912055138
 20
13.2384873037
 30
0.0
  0
SPLINE
  5
398
100
AcDbEntity
  8
LAYER_CUT_FEAT
100
AcDbSpline
 62
7
  6
CONTINUOUS
 70
0
 71
3
 72
21
 73
17
 74
0
 42
0.0000001
 43
0.0000001
 44
0.0000000001
 40
0.0
 40
0.0
 40
0.0
 40
0.0
 40
0.0338246478
 40
0.0693370689
 40
0.1079482947
 40
0.1506641473
 40
0.198100019
 40
0.2505551279
 40
0.308088693
 40
0.3705794321
 40
0.4377682761
 40
0.5092887843
 40
0.5846894257
 40
0.663450711
 40
0.8286847468
 40
1.0
 40
1.0
 40
1.0
 40
1.0
 10
15.5245763152
 20
11.3633134154
 30
0.0
 10
15.5254525151
 20
11.3633134242
 30
0.0
 10
15.5272557178
 20
11.3635429832
 30
0.0
 10
15.5298868529
 20
11.3645536321
 30
0.0
 10
15.5324450117
 20
11.3662045056
 30
0.0
 10
15.534911709
 20
11.368468505
 30
0.0
 10
15.5372730345
 20
11.3713214289
 30
0.0
 10
15.5395124521
 20
11.3747376277
 30
0.0
 10
15.5416122797
 20
11.3786872609
 30
0.0
 10
15.5435544632
 20
11.383135406
 30
0.0
 10
15.545321595
 20
11.3880421004
 30
0.0
 10
15.5468974226
 20
11.393362706
 30
0.0
 10
15.5482674278
 20
11.3990484868
 30
0.0
 10
15.5498269151
 20
11.4071764549
 30
0.0
 10
15.5511589825
 20
11.4178648413
 30
0.0
 10
15.5515675354
 20
11.4265826511
 30
0.0
 10
15.5516107886
 20
11.4310202224
 30
0.0
  0
SPLINE
  5
399
100
AcDbEntity
  8
0
100
AcDbSpline
 62
7
  6
CONTINUOUS
 70
0
 71
3
 72
11
 73
7
 74
0
 42
0.0000001
 43
0.0000001
 44
0.0000000001
 40
0.0
 40
0.0
 40
0.0
 40
0.0
 40
0.2138323427
 40
0.4442356565
 40
0.7037903995
 40
1.0
 40
1.0
 40
1.0
 40
1.0
 10
15.112966796
 20
13.2871916108
 30
0.0
 10
15.1132953404
 20
13.2871916181
 30
0.0
 10
15.1139817497
 20
13.2873036653
 30
0.0
 10
15.1149624831
 20
13.287787343
 30
0.0
 10
15.1158980407
 20
13.2885645682
 30
0.0
 10
15.1164491119
 20
13.2892220934
 30
0.0
 10
15.1167184051
 20
13.2895889853
 30
0.0
  0
SPLINE
  5
39A
100
AcDbEntity
  8
LAYER_CUT_FEAT
100
AcDbSpline
 62
7
  6
CONTINUOUS
 70
0
 71
3
 72
11
 73
7
 74
0
 42
0.0000001
 43
0.0000001
 44
0.0000000001
 40
0.0
 40
0.0
 40
0.0
 40
0.0
 40
0.2413671767
 40
0.4862967609
 40
0.7381615885
 40
1.0
 40
1.0
 40
1.0
 40
1.0
 10
15.5350835775
 20
13.0107535585
 30
0.0
 10
15.5317219021
 20
13.0107535597
 30
0.0
 10
15.5249406023
 20
13.0103001172
 30
0.0
 10
15.5148346142
 20
13.0082681594
 30
0.0
 10
15.5047949165
 20
13.0048940023
 30
0.0
 10
15.4983110662
 20
13.0018279597
 30
0.0
 10
15.4951006249
 20
13.0000981753
 30
0.0
  0
SPLINE
  5
39B
100
AcDbEntity
  8
0
100
AcDbSpline
 62
7
  6
CONTINUOUS
 70
0
 71
3
 72
13
 73
9
 74
0
 42
0.0000001
 43
0.0000001
 44
0.0000000001
 40
0.0
 40
0.0
 40
0.0
 40
0.0
 40
0.0841694284
 40
0.1744908709
 40
0.2756978204
 40
0.3906965078
 40
0.6659206004
 40
1.0
 40
1.0
 40
1.0
 40
1.0
 10
15.1055987344
 20
13.2911513257
 30
0.0
 10
15.1055386271
 20
13.291151324
 30
0.0
 10
15.1054133445
 20
13.2911315638
 30
0.0
 10
15.1052336926
 20
13.2910459893
 30
0.0
 10
15.105061723
 20
13.2909080898
 30
0.0
 10
15.1048307051
 20
13.2906420529
 30
0.0
 10
15.1045795652
 20
13.2901842613
 30
0.0
 10
15.1044371565
 20
13.2897717815
 30
0.0
 10
15.1043725101
 20
13.2895421335
 30
0.0
  0
SPLINE
  5
39C
100
AcDbEntity
  8
0
100
AcDbSpline
 62
7
  6
CONTINUOUS
 70
0
 71
3
 72
11
 73
7
 74
0
 42
0.0000001
 43
0.0000001
 44
0.0000000001
 40
0.0
 40
0.0
 40
0.0
 40
0.0
 40
0.218567832
 40
0.4512684462
 40
0.7093204576
 40
1.0
 40
1.0
 40
1.0
 40
1.0
 10
15.127321932
 20
13.3356695836
 30
0.0
 10
15.1276197472
 20
13.335669574
 30
0.0
 10
15.1282376548
 20
13.3357604972
 30
0.0
 10
15.1291295866
 20
13.3361567783
 30
0.0
 10
15.1299879611
 20
13.336798432
 30
0.0
 10
15.1305012
 20
13.3373468975
 30
0.0
 10
15.1307525187
 20
13.3376530227
 30
0.0
  0
SPLINE
  5
39D
100
AcDbEntity
  8
0
100
AcDbSpline
 62
7
  6
CONTINUOUS
 70
0
 71
3
 72
13
 73
9
 74
0
 42
0.0000001
 43
0.0000001
 44
0.0000000001
 40
0.0
 40
0.0
 40
0.0
 40
0.0
 40
0.0859037298
 40
0.1775357175
 40
0.2794066666
 40
0.394403974
 40
0.6681122751
 40
1.0
 40
1.0
 40
1.0
 40
1.0
 10
15.1196034575
 20
13.3404987977
 30
0.0
 10
15.1195462517
 20
13.3404987989
 30
0.0
 10
15.1194274327
 20
13.3404809948
 30
0.0
 10
15.1192561751
 20
13.3404036241
 30
0.0
 10
15.119091536
 20
13.3402784243
 30
0.0
 10
15.1188697437
 20
13.3400368023
 30
0.0
 10
15.1186251695
 20
13.339618607
 30
0.0
 10
15.1184834903
 20
13.3392397479
 30
0.0
 10
15.1184182366
 20
13.3390285868
 30
0.0
  0
SPLINE
  5
39E
100
AcDbEntity
  8
LAYER_CUT_FEAT
100
AcDbSpline
 62
7
  6
CONTINUOUS
 70
0
 71
3
 72
28
 73
24
 74
0
 42
0.0000001
 43
0.0000001
 44
0.0000000001
 40
0.0
 40
0.0
 40
0.0
 40
0.0
 40
0.0680170943
 40
0.1405006229
 40
0.2163535779
 40
0.2943742231
 40
0.3732976845
 40
0.4518335271
 40
0.5287022443
 40
0.6026723334
 40
0.672599348
 40
0.7374692505
 40
0.7964513145
 40
0.8235529669
 40
0.8489938822
 40
0.8727599224
 40
0.8948697162
 40
0.9153822131
 40
0.9344057982
 40
0.9521083645
 40
0.9687261357
 40
0.9845666963
 40
1.0
 40
1.0
 40
1.0
 40
1.0
 10
15.8118048825
 20
13.3247994147
 30
0.0
 10
15.8125961971
 20
13.3274539692
 30
0.0
 10
15.8140087344
 20
13.333005021
 30
0.0
 10
15.8156029072
 20
13.3416761081
 30
0.0
 10
15.8167187567
 20
13.3508320725
 30
0.0
 10
15.8173342288
 20
13.36029747
 30
0.0
 10
15.817437289
 20
13.3698914572
 30
0.0
 10
15.8170259041
 20
13.3794302666
 30
0.0
 10
15.8161081458
 20
13.3887313744
 30
0.0
 10
15.8147020328
 20
13.3976170045
 30
0.0
 10
15.8128350881
 20
13.4059184442
 30
0.0
 10
15.810543566
 20
13.4134779331
 30
0.0
 10
15.8082562275
 20
13.4191958613
 30
0.0
 10
15.8062266821
 20
13.423261584
 30
0.0
 10
15.8046708594
 20
13.4259542907
 30
0.0
 10
15.8030456422
 20
13.4283645669
 30
0.0
 10
15.8013581147
 20
13.4304811503
 30
0.0
 10
15.7996154577
 20
13.4322940769
 30
0.0
 10
15.7978246397
 20
13.4337944594
 30
0.0
 10
15.7959926542
 20
13.4349741082
 30
0.0
 10
15.7941266217
 20
13.4358251058
 30
0.0
 10
15.7922361886
 20
13.4363398509
 30
0.0
 10
15.7909597877
 20
13.4364552662
 30
0.0
 10
15.7903312681
 20
13.4364552716
 30
0.0
  0
SPLINE
  5
39F
100
AcDbEntity
  8
02___PRT_ALL_AXES
100
AcDbSpline
 62
7
  6
CONTINUOUS
 70
0
 71
3
 72
55
 73
51
 74
0
 42
0.0000001
 43
0.0000001
 44
0.0000000001
 40
0.0
 40
0.0
 40
0.0
 40
0.0
 40
0.0114385761
 40
0.022368877
 40
0.0328132376
 40
0.0428008923
 40
0.0523686822
 40
0.0615616225
 40
0.0704332157
 40
0.0790453152
 40
0.0874673807
 40
0.0957750052
 40
0.1040477293
 40
0.1123663383
 40
0.1208099856
 40
0.129453541
 40
0.1383654973
 40
0.1476065982
 40
0.1572291832
 40
0.1672771295
 40
0.1777861998
 40
0.1887846479
 40
0.2002939221
 40
0.2123293985
 40
0.2249010753
 40
0.2380142008
 40
0.2516698387
 40
0.2658653468
 40
0.280594804
 40
0.2958493658
 40
0.3116175768
 40
0.32788564
 40
0.344637645
 40
0.3618557783
 40
0.3976083237
 40
0.4349716491
 40
0.47375066
 40
0.5137333099
 40
0.5546939017
 40
0.5963960896
 40
0.6385956868
 40
0.6810433502
 40
0.7234871947
 40
0.7656753741
 40
0.8073586627
 40
0.848293071
 40
0.8882425339
 40
0.9269817223
 40
0.9642990545
 40
1.0
 40
1.0
 40
1.0
 40
1.0
 10
15.347859941
 20
13.572246499
 30
0.0
 10
15.3534969469
 20
13.5789999185
 30
0.0
 10
15.3648697055
 20
13.5919212196
 30
0.0
 10
15.3826357763
 20
13.6098640324
 30
0.0
 10
15.4006861838
 20
13.6258891349
 30
0.0
 10
15.4189909891
 20
13.6399668485
 30
0.0
 10
15.4375206226
 20
13.6520709591
 30
0.0
 10
15.4562447001
 20
13.6621773866
 30
0.0
 10
15.4751317399
 20
13.6702645064
 30
0.0
 10
15.4941485525
 20
13.6763133219
 30
0.0
 10
15.5132597521
 20
13.6803081886
 30
0.0
 10
15.5324276622
 20
13.6822378709
 30
0.0
 10
15.5516128618
 20
13.682096593
 30
0.0
 10
15.570775331
 20
13.6798848063
 30
0.0
 10
15.5898758276
 20
13.6756090512
 30
0.0
 10
15.608876974
 20
13.6692812561
 30
0.0
 10
15.6277437012
 20
13.66091757
 30
0.0
 10
15.6464430815
 20
13.6505373714
 30
0.0
 10
15.6649438258
 20
13.6381626505
 30
0.0
 10
15.6832156786
 20
13.6238177338
 30
0.0
 10
15.7012290066
 20
13.6075293786
 30
0.0
 10
15.7189544817
 20
13.5893268895
 30
0.0
 10
15.7363630067
 20
13.5692423505
 30
0.0
 10
15.7534256903
 20
13.5473107547
 30
0.0
 10
15.7701139104
 20
13.5235701088
 30
0.0
 10
15.7863994252
 20
13.4980614874
 30
0.0
 10
15.8022544359
 20
13.4708290133
 30
0.0
 10
15.8176517313
 20
13.4419198471
 30
0.0
 10
15.8325647341
 20
13.4113841058
 30
0.0
 10
15.8469676119
 20
13.3792748059
 30
0.0
 10
15.860835355
 20
13.3456477518
 30
0.0
 10
15.8741437557
 20
13.3105614957
 30
0.0
 10
15.8868698116
 20
13.2740770104
 30
0.0
 10
15.9032363957
 20
13.2230105154
 30
0.0
 10
15.9220132888
 20
13.1560964546
 30
0.0
 10
15.9416238861
 20
13.0722830879
 30
0.0
 10
15.9584492189
 20
12.9845530544
 30
0.0
 10
15.9723709396
 20
12.8935183687
 30
0.0
 10
15.9832910578
 20
12.7998127241
 30
0.0
 10
15.9911326474
 20
12.7040896605
 30
0.0
 10
15.9958404523
 20
12.6070170231
 30
0.0
 10
15.9973812917
 20
12.5092723708
 30
0.0
 10
15.9957443051
 20
12.4115380593
 30
0.0
 10
15.9909410291
 20
12.3144963683
 30
0.0
 10
15.9830053215
 20
12.2188246419
 30
0.0
 10
15.9719930865
 20
12.1251903348
 30
0.0
 10
15.9579819527
 20
12.0342465546
 30
0.0
 10
15.9410703437
 20
11.9466260494
 30
0.0
 10
15.9213778949
 20
11.8629410612
 30
0.0
 10
15.9061242553
 20
11.8088729725
 30
0.0
 10
15.89801799
 20
11.7826410885
 30
0.0
  0
SPLINE
  5
3A0
100
AcDbEntity
  8
02___PRT_ALL_AXES
100
AcDbSpline
 62
7
  6
CONTINUOUS
 70
0
 71
3
 72
47
 73
43
 74
0
 42
0.0000001
 43
0.0000001
 44
0.0000000001
 40
0.0
 40
0.0
 40
0.0
 40
0.0
 40
0.0076946036
 40
0.0154416899
 40
0.0232924363
 40
0.031295536
 40
0.0394962469
 40
0.0479357182
 40
0.0566506003
 40
0.0656729046
 40
0.0847369457
 40
0.0948288066
 40
0.1053126299
 40
0.1162001079
 40
0.1274998075
 40
0.139217477
 40
0.1513563282
 40
0.1639172882
 40
0.1768992247
 40
0.2041095594
 40
0.2329473084
 40
0.2633466413
 40
0.2952229725
 40
0.3284758898
 40
0.3629915492
 40
0.3986446846
 40
0.4353003615
 40
0.4728155295
 40
0.5110404478
 40
0.5498200171
 40
0.5889950425
 40
0.628403458
 40
0.66788152
 40
0.7072649867
 40
0.7463902929
 40
0.7850957316
 40
0.8232226513
 40
0.8606166831
 40
0.8971290167
 40
0.9326177402
 40
0.9669492891
 40
1.0
 40
1.0
 40
1.0
 40
1.0
 10
15.5384608012
 20
13.6796424517
 30
0.0
 10
15.5437793738
 20
13.6796424537
 30
0.0
 10
15.5544589519
 20
13.6791605929
 30
0.0
 10
15.5704330042
 20
13.6769960243
 30
0.0
 10
15.5863643599
 20
13.673392773
 30
0.0
 10
15.602230163
 20
13.6683570981
 30
0.0
 10
15.6180106031
 20
13.6618972276
 30
0.0
 10
15.6336858601
 20
13.6540231868
 30
0.0
 10
15.6492377563
 20
13.6447460704
 30
0.0
 10
15.6701653994
 20
13.6302586161
 30
0.0
 10
15.6903787343
 20
13.6131811569
 30
0.0
 10
15.7098417604
 20
13.5938863213
 30
0.0
 10
15.7245052118
 20
13.5778127332
 30
0.0
 10
15.7389374045
 20
13.5604344498
 30
0.0
 10
15.7531225765
 20
13.5417712535
 30
0.0
 10
15.7670434473
 20
13.5218462628
 30
0.0
 10
15.7806833813
 20
13.5006836227
 30
0.0
 10
15.7940261466
 20
13.4783090115
 30
0.0
 10
15.8116751177
 20
13.4463952145
 30
0.0
 10
15.8328191336
 20
13.4035891308
 30
0.0
 10
15.8563713435
 20
13.348646755
 30
0.0
 10
15.8783736248
 20
13.2896130118
 30
0.0
 10
15.8987185949
 20
13.2267753734
 30
0.0
 10
15.9173070217
 20
13.1604382753
 30
0.0
 10
15.9340477475
 20
13.0909246799
 30
0.0
 10
15.9488585603
 20
13.018573429
 30
0.0
 10
15.9616666008
 20
12.9437377266
 30
0.0
 10
15.9724088189
 20
12.8667832416
 30
0.0
 10
15.9810323077
 20
12.7880862611
 30
0.0
 10
15.9874945724
 20
12.7080317802
 30
0.0
 10
15.9917637737
 20
12.6270115697
 30
0.0
 10
15.9938188681
 20
12.5454222137
 30
0.0
 10
15.9936497244
 20
12.4636631318
 30
0.0
 10
15.991257182
 20
12.382134588
 30
0.0
 10
15.9866530266
 20
12.3012357
 30
0.0
 10
15.9798599531
 20
12.2213624446
 30
0.0
 10
15.9709114398
 20
12.1429056976
 30
0.0
 10
15.9598515599
 20
12.0662492216
 30
0.0
 10
15.9467348258
 20
11.9917679328
 30
0.0
 10
15.9316256747
 20
11.9198252834
 30
0.0
 10
15.9145988483
 20
11.8507739794
 30
0.0
 10
15.9017657525
 20
11.8059870929
 30
0.0
 10
15.8950208497
 20
11.7841605795
 30
0.0
  0
SPLINE
  5
3A1
100
AcDbEntity
  8
LAYER_CUT_FEAT
100
AcDbSpline
 62
7
  6
CONTINUOUS
 70
0
 71
3
 72
18
 73
14
 74
0
 42
0.0000001
 43
0.0000001
 44
0.0000000001
 40
0.0
 40
0.0
 40
0.0
 40
0.0
 40
0.1742283053
 40
0.3348722986
 40
0.4806713713
 40
0.6109448563
 40
0.7258263662
 40
0.7779030306
 40
0.8267439981
 40
0.8727690329
 40
0.9165236609
 40
0.958676889
 40
1.0
 40
1.0
 40
1.0
 40
1.0
 10
15.3191060769
 20
13.4381298679
 30
0.0
 10
15.3185090939
 20
13.4403549025
 30
0.0
 10
15.3172285116
 20
13.4445978009
 30
0.0
 10
15.3149439401
 20
13.4505356428
 30
0.0
 10
15.3123985745
 20
13.4557294346
 30
0.0
 10
15.309627363
 20
13.460106836
 30
0.0
 10
15.3070760619
 20
13.463121284
 30
0.0
 10
15.3049445138
 20
13.4650246195
 30
0.0
 10
15.3033658208
 20
13.4661640322
 30
0.0
 10
15.301759999
 20
13.467057417
 30
0.0
 10
15.3001321374
 20
13.4677000571
 30
0.0
 10
15.2984890003
 20
13.4680877526
 30
0.0
 10
15.2973833882
 20
13.468174434
 30
0.0
 10
15.2968369945
 20
13.4681744396
 30
0.0
  0
SPLINE
  5
3A2
100
AcDbEntity
  8
LAYER_CUT_FEAT
100
AcDbSpline
 62
7
  6
CONTINUOUS
 70
0
 71
3
 72
33
 73
29
 74
0
 42
0.0000001
 43
0.0000001
 44
0.0000000001
 40
0.0
 40
0.0
 40
0.0
 40
0.0
 40
0.0202497625
 40
0.0425576203
 40
0.0670589522
 40
0.0937945504
 40
0.1227334418
 40
0.1537885889
 40
0.1868288348
 40
0.2216875883
 40
0.2960393476
 40
0.3750475487
 40
0.4566551309
 40
0.5386805466
 40
0.6189227459
 40
0.6952648909
 40
0.731370727
 40
0.7658034445
 40
0.798374192
 40
0.8289243276
 40
0.8573325405
 40
0.883524219
 40
0.9074841782
 40
0.9292741178
 40
0.9490558393
 40
0.9671188144
 40
0.9839035435
 40
1.0
 40
1.0
 40
1.0
 40
1.0
 10
15.3302467536
 20
12.2818299808
 30
0.0
 10
15.3310542374
 20
12.2824468054
 30
0.0
 10
15.332646063
 20
12.2838835038
 30
0.0
 10
15.3348379365
 20
12.2864457388
 30
0.0
 10
15.3369299049
 20
12.2894931581
 30
0.0
 10
15.3389066911
 20
12.2930021776
 30
0.0
 10
15.3407542065
 20
12.2969464741
 30
0.0
 10
15.3424582707
 20
12.3012957741
 30
0.0
 10
15.3440057884
 20
12.3060164601
 30
0.0
 10
15.3458840553
 20
12.3129055482
 30
0.0
 10
15.3477306986
 20
12.3221808307
 30
0.0
 10
15.3491278257
 20
12.3338985289
 30
0.0
 10
15.3497051536
 20
12.3460704059
 30
0.0
 10
15.3494441579
 20
12.3583149277
 30
0.0
 10
15.348353069
 20
12.3702482432
 30
0.0
 10
15.3467538414
 20
12.3797958898
 30
0.0
 10
15.3450646661
 20
12.3869723709
 30
0.0
 10
15.3436438195
 20
12.3919496368
 30
0.0
 10
15.342057072
 20
12.3965830982
 30
0.0
 10
15.3403167834
 20
12.400836709
 30
0.0
 10
15.338436462
 20
12.4046776038
 30
0.0
 10
15.3364302789
 20
12.4080764624
 30
0.0
 10
15.3343126856
 20
12.4110076611
 30
0.0
 10
15.3320976985
 20
12.4134491299
 30
0.0
 10
15.3297985504
 20
12.4153814916
 30
0.0
 10
15.3274270582
 20
12.4167860734
 30
0.0
 10
15.3249995208
 20
12.4176425766
 30
0.0
 10
15.3233438999
 20
12.4178362881
 30
0.0
 10
15.3225361891
 20
12.4178362886
 30
0.0
  0
SPLINE
  5
3A3
100
AcDbEntity
  8
02___PRT_ALL_AXES
100
AcDbSpline
 62
7
  6
CONTINUOUS
 70
0
 71
3
 72
15
 73
11
 74
0
 42
0.0000001
 43
0.0000001
 44
0.0000000001
 40
0.0
 40
0.0
 40
0.0
 40
0.0
 40
0.1742908854
 40
0.3349812683
 40
0.4808254834
 40
0.6111480586
 40
0.7260925006
 40
0.8269564586
 40
0.9166462463
 40
1.0
 40
1.0
 40
1.0
 40
1.0
 10
15.6347386822
 20
12.7823784375
 30
0.0
 10
15.6344997069
 20
12.7832654472
 30
0.0
 10
15.6339873289
 20
12.7849567541
 30
0.0
 10
15.6330738056
 20
12.7873235085
 30
0.0
 10
15.632056696
 20
12.7893932922
 30
0.0
 10
15.630949307
 20
12.79113803
 30
0.0
 10
15.6297644046
 20
12.7925348293
 30
0.0
 10
15.6285114287
 20
12.7935641424
 30
0.0
 10
15.6271994406
 20
12.7942039022
 30
0.0
 10
15.6262822882
 20
12.7943519816
 30
0.0
 10
15.6258429543
 20
12.7943519809
 30
0.0
  0
SPLINE
  5
3A4
100
AcDbEntity
  8
0
100
AcDbSpline
 62
7
  6
CONTINUOUS
 70
0
 71
3
 72
26
 73
22
 74
0
 42
0.0000001
 43
0.0000001
 44
0.0000000001
 40
0.0
 40
0.0
 40
0.0
 40
0.0
 40
0.0214705211
 40
0.0430318346
 40
0.0647733251
 40
0.0867816443
 40
0.1091395429
 40
0.1319249382
 40
0.1790413999
 40
0.2286597047
 40
0.2811853579
 40
0.3369282003
 40
0.3961118866
 40
0.4588851768
 40
0.5253327689
 40
0.5954850373
 40
0.6693262623
 40
0.7468013658
 40
0.8278215801
 40
0.912268691
 40
1.0
 40
1.0
 40
1.0
 40
1.0
 10
15.5407122836
 20
13.8753091163
 30
0.0
 10
15.5358306783
 20
13.8753091226
 30
0.0
 10
15.5260433171
 20
13.8749622349
 30
0.0
 10
15.5113874738
 20
13.873402963
 30
0.0
 10
15.4967548526
 20
13.8708058512
 30
0.0
 10
15.482158329
 20
13.8671735009
 30
0.0
 10
15.4676087714
 20
13.8625090798
 30
0.0
 10
15.4480730658
 20
13.8548359488
 30
0.0
 10
15.4237531437
 20
13.8425568405
 30
0.0
 10
15.3953031347
 20
13.8239450598
 30
0.0
 10
15.3673309551
 20
13.8013607182
 30
0.0
 10
15.3399146931
 20
13.7748802623
 30
0.0
 10
15.3131267522
 20
13.7445859551
 30
0.0
 10
15.2870411808
 20
13.7105692869
 30
0.0
 10
15.2617314045
 20
13.6729315978
 30
0.0
 10
15.2372703135
 20
13.6317847204
 30
0.0
 10
15.2137294821
 20
13.5872510498
 30
0.0
 10
15.1911785701
 20
13.5394635246
 30
0.0
 10
15.1696848916
 20
13.488565007
 30
0.0
 10
15.1493131483
 20
13.4347089183
 30
0.0
 10
15.1367518462
 20
13.3976227065
 30
0.0
 10
15.130656034
 20
13.3786301139
 30
0.0
  0
SPLINE
  5
3A5
100
AcDbEntity
  8
LAYER_CUT_FEAT
100
AcDbSpline
 62
7
  6
CONTINUOUS
 70
0
 71
3
 72
21
 73
17
 74
0
 42
0.0000001
 43
0.0000001
 44
0.0000000001
 40
0.0
 40
0.0
 40
0.0
 40
0.0
 40
0.1699435788
 40
0.3349081011
 40
0.4138336517
 40
0.4895335498
 40
0.5614399304
 40
0.6290535939
 40
0.6919619551
 40
0.749862234
 40
0.8025931325
 40
0.8501795548
 40
0.8928956505
 40
0.9313479286
 40
0.9665605853
 40
1.0
 40
1.0
 40
1.0
 40
1.0
 10
15.5565693936
 20
11.9397497799
 30
0.0
 10
15.5566142178
 20
11.9443485315
 30
0.0
 10
15.5563541205
 20
11.9534182423
 30
0.0
 10
15.5551551786
 20
11.964566569
 30
0.0
 10
15.5536657359
 20
11.9730887087
 30
0.0
 10
15.55232738
 20
11.979073747
 30
0.0
 10
15.5507651369
 20
11.9846874861
 30
0.0
 10
15.5489943821
 20
11.9898750797
 30
0.0
 10
15.5470325276
 20
11.9945861728
 30
0.0
 10
15.5448983997
 20
11.9987756029
 30
0.0
 10
15.5426116814
 20
12.0024038814
 30
0.0
 10
15.5401917679
 20
12.0054373554
 30
0.0
 10
15.5376567709
 20
12.0078473366
 30
0.0
 10
15.5350215617
 20
12.0096070534
 30
0.0
 10
15.5323054234
 20
12.0106862217
 30
0.0
 10
15.5304398491
 20
12.0109318588
 30
0.0
 10
15.5295349202
 20
12.0109318497
 30
0.0
  0
SPLINE
  5
3A6
100
AcDbEntity
  8
02___PRT_ALL_AXES
100
AcDbSpline
 62
7
  6
CONTINUOUS
 70
0
 71
3
 72
39
 73
35
 74
0
 42
0.0000001
 43
0.0000001
 44
0.0000000001
 40
0.0
 40
0.0
 40
0.0
 40
0.0
 40
0.0316446948
 40
0.0618858683
 40
0.0907850226
 40
0.1184226333
 40
0.1449000802
 40
0.170341231
 40
0.1948932836
 40
0.2187264307
 40
0.242031823
 40
0.2650175611
 40
0.2879027214
 40
0.3109099536
 40
0.3342575777
 40
0.3581522862
 40
0.3827833426
 40
0.4083187709
 40
0.4349035048
 40
0.4626591783
 40
0.4916850748
 40
0.5220597413
 40
0.5538429509
 40
0.5870776865
 40
0.6217920689
 40
0.6580010907
 40
0.6957081574
 40
0.7349064436
 40
0.7755800336
 40
0.8177049412
 40
0.8612499508
 40
0.9061773681
 40
0.9524435965
 40
1.0
 40
1.0
 40
1.0
 40
1.0
 10
15.3478599412
 20
11.4492606314
 30
0.0
 10
15.3534865257
 20
11.4425197012
 30
0.0
 10
15.3648380816
 20
11.4296212273
 30
0.0
 10
15.3825697067
 20
11.4117071507
 30
0.0
 10
15.4005846738
 20
11.3957034466
 30
0.0
 10
15.4188532003
 20
11.3816396258
 30
0.0
 10
15.4373458929
 20
11.369541782
 30
0.0
 10
15.4560325214
 20
11.3594338417
 30
0.0
 10
15.4748818091
 20
11.351337345
 30
0.0
 10
15.4938607675
 20
11.3452711756
 30
0.0
 10
15.5129342588
 20
11.3412509349
 30
0.0
 10
15.5320648683
 20
11.3392878627
 30
0.0
 10
15.5512134439
 20
11.3393877779
 30
0.0
 10
15.5703402135
 20
11.3415503896
 30
0.0
 10
15.5894061538
 20
11.3457692936
 30
0.0
 10
15.608374056
 20
11.3520327932
 30
0.0
 10
15.6272090041
 20
11.3603249211
 30
0.0
 10
15.6458782036
 20
11.3706265127
 30
0.0
 10
15.6643504922
 20
11.3829157942
 30
0.0
 10
15.6825957677
 20
11.3971686432
 30
0.0
 10
15.7005845209
 20
11.4133585646
 30
0.0
 10
15.718287595
 20
11.4314564941
 30
0.0
 10
15.7356760245
 20
11.4514306521
 30
0.0
 10
15.7527210772
 20
11.4732463485
 30
0.0
 10
15.7693942754
 20
11.4968659153
 30
0.0
 10
15.7856675057
 20
11.5222486438
 30
0.0
 10
15.8015131198
 20
11.5493507849
 30
0.0
 10
15.8169040083
 20
11.5781255926
 30
0.0
 10
15.8318137292
 20
11.6085233617
 30
0.0
 10
15.8462165467
 20
11.6404915299
 30
0.0
 10
15.860087536
 20
11.6739747206
 30
0.0
 10
15.8734026475
 20
11.7089149456
 30
0.0
 10
15.8861386734
 20
11.7452513264
 30
0.0
 10
15.8941220043
 20
11.7700336739
 30
0.0
 10
15.89801799
 20
11.7826410885
 30
0.0
  0
SPLINE
  5
3A7
100
AcDbEntity
  8
02___PRT_ALL_AXES
100
AcDbSpline
 62
7
  6
CONTINUOUS
 70
0
 71
3
 72
26
 73
22
 74
0
 42
0.0000001
 43
0.0000001
 44
0.0000000001
 40
0.0
 40
0.0
 40
0.0
 40
0.0
 40
0.0212794957
 40
0.0426527837
 40
0.0642121391
 40
0.0860468993
 40
0.108242225
 40
0.1308780987
 40
0.1777406411
 40
0.2271730205
 40
0.2795845528
 40
0.3352845317
 40
0.3944928264
 40
0.4573519977
 40
0.5239388815
 40
0.5942747509
 40
0.6683338478
 40
0.7460503966
 40
0.8273243319
 40
0.9120259842
 40
1.0
 40
1.0
 40
1.0
 40
1.0
 10
15.5384608012
 20
11.3418646776
 30
0.0
 10
15.5427303961
 20
11.3418646792
 30
0.0
 10
15.5512916026
 20
11.3421744941
 30
0.0
 10
15.5641104021
 20
11.343567156
 30
0.0
 10
15.5769079625
 20
11.3458866589
 30
0.0
 10
15.5896725335
 20
11.3491305699
 30
0.0
 10
15.6023941843
 20
11.3532959359
 30
0.0
 10
15.6194792667
 20
11.360150311
 30
0.0
 10
15.6407418032
 20
11.3711199396
 30
0.0
 10
15.6655899415
 20
11.3877353099
 30
0.0
 10
15.6900028564
 20
11.40789081
 30
0.0
 10
15.7139099043
 20
11.4315157537
 30
0.0
 10
15.7372454003
 20
11.4585340667
 30
0.0
 10
15.7599421412
 20
11.4888609439
 30
0.0
 10
15.7819334398
 20
11.5224023923
 30
0.0
 10
15.8031531751
 20
11.5590546041
 30
0.0
 10
15.8235365493
 20
11.5987039398
 30
0.0
 10
15.8430205657
 20
11.6412270226
 30
0.0
 10
15.861544573
 20
11.6864913274
 30
0.0
 10
15.8790503392
 20
11.7343545595
 30
0.0
 10
15.889809313
 20
11.7672960406
 30
0.0
 10
15.8950208497
 20
11.7841605795
 30
0.0
  0
SPLINE
  5
3A8
100
AcDbEntity
  8
LAYER_CUT_FEAT
100
AcDbSpline
 62
7
  6
CONTINUOUS
 70
0
 71
3
 72
10
 73
6
 74
0
 42
0.0000001
 43
0.0000001
 44
0.0000000001
 40
0.0
 40
0.0
 40
0.0
 40
0.0
 40
0.24157928
 40
0.4867201361
 40
1.0
 40
1.0
 40
1.0
 40
1.0
 10
15.4884367995
 20
12.9983222851
 30
0.0
 10
15.4889970778
 20
12.9983222911
 30
0.0
 10
15.4901274725
 20
12.9983979755
 30
0.0
 10
15.492406086
 20
12.9988555503
 30
0.0
 10
15.4940526468
 20
12.9995335251
 30
0.0
 10
15.4951006249
 20
13.0000981753
 30
0.0
  0
SPLINE
  5
3A9
100
AcDbEntity
  8
LAYER_CUT_FEAT
100
AcDbSpline
 62
7
  6
CONTINUOUS
 70
0
 71
3
 72
33
 73
29
 74
0
 42
0.0000001
 43
0.0000001
 44
0.0000000001
 40
0.0
 40
0.0
 40
0.0
 40
0.0
 40
0.015988923
 40
0.0326385919
 40
0.0505182828
 40
0.0700570006
 40
0.0915406314
 40
0.1151329323
 40
0.1409012043
 40
0.1688383007
 40
0.1988793571
 40
0.2309140631
 40
0.2647957165
 40
0.3003480994
 40
0.3756291805
 40
0.4549604615
 40
0.5363298422
 40
0.6176319436
 40
0.6967644227
 40
0.7717244641
 40
0.8070754034
 40
0.8407318096
 40
0.8725208829
 40
0.9023001299
 40
0.9299644232
 40
0.9554555499
 40
0.9787745527
 40
1.0
 40
1.0
 40
1.0
 40
1.0
 10
15.9310819088
 20
12.0825287772
 30
0.0
 10
15.9318753062
 20
12.0825287849
 30
0.0
 10
15.9335002757
 20
12.0827154152
 30
0.0
 10
15.9358851115
 20
12.0835413568
 30
0.0
 10
15.9382170878
 20
12.0848968405
 30
0.0
 10
15.9404804023
 20
12.0867628709
 30
0.0
 10
15.9426636465
 20
12.0891218232
 30
0.0
 10
15.944754205
 20
12.0919554715
 30
0.0
 10
15.9467387575
 20
12.0952431498
 30
0.0
 10
15.948603551
 20
12.0989609172
 30
0.0
 10
15.9503350573
 20
12.1030813876
 30
0.0
 10
15.9519203291
 20
12.1075738475
 30
0.0
 10
15.9533474664
 20
12.1124045786
 30
0.0
 10
15.9550570916
 20
12.1193813302
 30
0.0
 10
15.9567030246
 20
12.1286843918
 30
0.0
 10
15.9578811646
 20
12.1403442507
 30
0.0
 10
15.9582606678
 20
12.1523561851
 30
0.0
 10
15.9578298589
 20
12.164356545
 30
0.0
 10
15.9566020255
 20
12.1759820373
 30
0.0
 10
15.9549158734
 20
12.1852416765
 30
0.0
 10
15.9531754633
 20
12.1921726058
 30
0.0
 10
15.9517276089
 20
12.1969623695
 30
0.0
 10
15.9501230946
 20
12.2014094147
 30
0.0
 10
15.9483739221
 20
12.2054804096
 30
0.0
 10
15.9464932105
 20
12.2091449939
 30
0.0
 10
15.9444943017
 20
12.2123764041
 30
0.0
 10
15.9423917053
 20
12.2151504887
 30
0.0
 10
15.940860098
 20
12.2167540034
 30
0.0
 10
15.9400795677
 20
12.2174611754
 30
0.0
  0
SPLINE
  5
3AA
100
AcDbEntity
  8
02___PRT_ALL_AXES
100
AcDbSpline
 62
7
  6
CONTINUOUS
 70
0
 71
3
 72
19
 73
15
 74
0
 42
0.0000001
 43
0.0000001
 44
0.0000000001
 40
0.0
 40
0.0
 40
0.0
 40
0.0
 40
0.1684224181
 40
0.3330373305
 40
0.4880665323
 40
0.628372716
 40
0.6917296469
 40
0.7500341537
 40
0.8030828313
 40
0.8508639607
 40
0.8936243334
 40
0.931959481
 40
0.9669106094
 40
1.0
 40
1.0
 40
1.0
 40
1.0
 10
15.7063512031
 20
12.7584353057
 30
0.0
 10
15.7064071495
 20
12.7603358888
 30
0.0
 10
15.7063676205
 20
12.7641001667
 30
0.0
 10
15.7058688233
 20
12.7695937785
 30
0.0
 10
15.7049520181
 20
12.7747117107
 30
0.0
 10
15.7038384328
 20
12.7786156428
 30
0.0
 10
15.7027465069
 20
12.7813666394
 30
0.0
 10
15.7018801605
 20
12.7831411099
 30
0.0
 10
15.7009473495
 20
12.7846799674
 30
0.0
 10
15.6999564334
 20
12.7859680485
 30
0.0
 10
15.6989153673
 20
12.7869925399
 30
0.0
 10
15.6978305094
 20
12.7877416304
 30
0.0
 10
15.6967098699
 20
12.7882018655
 30
0.0
 10
15.6959383626
 20
12.7883068592
 30
0.0
 10
15.6955647996
 20
12.7883068512
 30
0.0
  0
SPLINE
  5
3AB
100
AcDbEntity
  8
02___PRT_ALL_AXES
100
AcDbSpline
 62
7
  6
CONTINUOUS
 70
0
 71
3
 72
49
 73
45
 74
0
 42
0.0000001
 43
0.0000001
 44
0.0000000001
 40
0.0
 40
0.0
 40
0.0
 40
0.0
 40
0.0355764363
 40
0.0727467267
 40
0.1113219823
 40
0.151096843
 40
0.1918526315
 40
0.2333602192
 40
0.2753827034
 40
0.3176779649
 40
0.3600011541
 40
0.4021071433
 40
0.4437529749
 40
0.4847003375
 40
0.5247181028
 40
0.5635849711
 40
0.6010922862
 40
0.6370471134
 40
0.6712757145
 40
0.7036276239
 40
0.7339806243
 40
0.7622470693
 40
0.7755846254
 40
0.7883880199
 40
0.8006602392
 40
0.8124085477
 40
0.8236450522
 40
0.8343873317
 40
0.8446591163
 40
0.8544909799
 40
0.8729786757
 40
0.8817512208
 40
0.8902842458
 40
0.8986468908
 40
0.9069137622
 40
0.9151627248
 40
0.9234722684
 40
0.9319187889
 40
0.9405741504
 40
0.9495038112
 40
0.9587656378
 40
0.9684093808
 40
0.9784766826
 40
1.0
 40
1.0
 40
1.0
 40
1.0
 10
15.5112310618
 20
12.8085738072
 30
0.0
 10
15.5079566006
 20
12.7979776466
 30
0.0
 10
15.5017898356
 20
12.7761444408
 30
0.0
 10
15.493811928
 20
12.7423609004
 30
0.0
 10
15.4869428885
 20
12.7070005183
 30
0.0
 10
15.4812301281
 20
12.6703044259
 30
0.0
 10
15.4767128016
 20
12.6325217892
 30
0.0
 10
15.4734219779
 20
12.5939097923
 30
0.0
 10
15.4713802756
 20
12.5547313169
 30
0.0
 10
15.4706017363
 20
12.5152532326
 30
0.0
 10
15.4710917135
 20
12.4757444918
 30
0.0
 10
15.4728468377
 20
12.4364742627
 30
0.0
 10
15.4758550395
 20
12.397710049
 30
0.0
 10
15.4800956359
 20
12.3597158198
 30
0.0
 10
15.4855394794
 20
12.3227501577
 30
0.0
 10
15.4921491746
 20
12.2870644249
 30
0.0
 10
15.4998793603
 20
12.2529009841
 30
0.0
 10
15.5086770948
 20
12.2204913718
 30
0.0
 10
15.5184822634
 20
12.1900548035
 30
0.0
 10
15.5292283992
 20
12.161795718
 30
0.0
 10
15.540842755
 20
12.1359048524
 30
0.0
 10
15.5513764876
 20
12.1160753657
 30
0.0
 10
15.5602092739
 20
12.101590991
 30
0.0
 10
15.5668718429
 20
12.0916359798
 30
0.0
 10
15.5736895037
 20
12.0823949054
 30
0.0
 10
15.5806511668
 20
12.0738833608
 30
0.0
 10
15.5877455701
 20
12.0661157131
 30
0.0
 10
15.5949608111
 20
12.059105463
 30
0.0
 10
15.6022869794
 20
12.0528639215
 30
0.0
 10
15.6119823582
 20
12.0457309463
 30
0.0
 10
15.622075874
 20
12.0399552113
 30
0.0
 10
15.6324474828
 20
12.0358014224
 30
0.0
 10
15.6401413243
 20
12.0335540868
 30
0.0
 10
15.6478688979
 20
12.0321279279
 30
0.0
 10
15.6556157416
 20
12.0315265269
 30
0.0
 10
15.6633661381
 20
12.0317517249
 30
0.0
 10
15.6711044251
 20
12.0328028364
 30
0.0
 10
15.678815288
 20
12.0346768841
 30
0.0
 10
15.6864841738
 20
12.0373688797
 30
0.0
 10
15.6940974504
 20
12.0408722899
 30
0.0
 10
15.7016421199
 20
12.0451792725
 30
0.0
 10
15.7091064009
 20
12.050281368
 30
0.0
 10
15.7191572921
 20
12.0583088762
 30
0.0
 10
15.7261968235
 20
12.0652450649
 30
0.0
 10
15.7307153813
 20
12.0702051242
 30
0.0
  0
SPLINE
  5
3AC
100
AcDbEntity
  8
02___PRT_ALL_AXES
100
AcDbSpline
 62
7
  6
CONTINUOUS
 70
0
 71
3
 72
9
 73
5
 74
0
 42
0.0000001
 43
0.0000001
 44
0.0000000001
 40
0.0
 40
0.0
 40
0.0
 40
0.0
 40
0.4904786222
 40
1.0
 40
1.0
 40
1.0
 40
1.0
 10
15.5026483418
 20
12.812925077
 30
0.0
 10
15.4998371694
 20
12.8038281199
 30
0.0
 10
15.4944892188
 20
12.7851609319
 30
0.0
 10
15.4898428106
 20
12.766307959
 30
0.0
 10
15.4876406413
 20
12.7566651412
 30
0.0
  0
SPLINE
  5
3AD
100
AcDbEntity
  8
02___PRT_ALL_AXES
100
AcDbSpline
 62
7
  6
CONTINUOUS
 70
0
 71
3
 72
37
 73
33
 74
0
 42
0.0000001
 43
0.0000001
 44
0.0000000001
 40
0.0
 40
0.0
 40
0.0
 40
0.0
 40
0.0356483779
 40
0.0722689947
 40
0.1097370779
 40
0.1479220177
 40
0.2258901706
 40
0.3050574117
 40
0.3842696666
 40
0.4623717264
 40
0.5006559442
 40
0.5382440432
 40
0.5750046007
 40
0.6108118725
 40
0.6455469114
 40
0.6790987853
 40
0.7113659082
 40
0.7422576083
 40
0.7716959018
 40
0.7996176804
 40
0.8259773655
 40
0.8507502268
 40
0.8739366208
 40
0.8955672717
 40
0.9157098783
 40
0.9344768103
 40
0.9520331808
 40
0.9686032568
 40
0.9766113108
 40
0.9844841774
 40
0.9922652831
 40
1.0
 40
1.0
 40
1.0
 40
1.0
 10
15.4876406413
 20
12.7566651412
 30
0.0
 10
15.4855133525
 20
12.7473502086
 30
0.0
 10
15.4815129164
 20
12.7283937574
 30
0.0
 10
15.4763266989
 20
12.6994378562
 30
0.0
 10
15.4718895957
 20
12.6696699428
 30
0.0
 10
15.4669647918
 20
12.6287863358
 30
0.0
 10
15.4628307963
 20
12.5765716544
 30
0.0
 10
15.4610947517
 20
12.5132208221
 30
0.0
 10
15.462581003
 20
12.4498277616
 30
0.0
 10
15.466507949
 20
12.397522498
 30
0.0
 10
15.4712691005
 20
12.3565242229
 30
0.0
 10
15.4755880246
 20
12.3266417573
 30
0.0
 10
15.4806593321
 20
12.2975513308
 30
0.0
 10
15.4864612621
 20
12.2693776751
 30
0.0
 10
15.4929687082
 20
12.242241764
 30
0.0
 10
15.5001535869
 20
12.2162599158
 30
0.0
 10
15.5079849561
 20
12.1915433581
 30
0.0
 10
15.5164291513
 20
12.1681976779
 30
0.0
 10
15.5254500496
 20
12.146322343
 30
0.0
 10
15.5350092912
 20
12.126010222
 30
0.0
 10
15.5450666157
 20
12.107347158
 30
0.0
 10
15.5555803175
 20
12.0904116299
 30
0.0
 10
15.5665076894
 20
12.0752745249
 30
0.0
 10
15.5778058518
 20
12.0619992247
 30
0.0
 10
15.5894319308
 20
12.0506421693
 30
0.0
 10
15.6013447345
 20
12.0412539308
 30
0.0
 10
15.6134994153
 20
12.0338818326
 30
0.0
 10
15.6239164974
 20
12.0294046538
 30
0.0
 10
15.6322614767
 20
12.0269247533
 30
0.0
 10
15.6384729639
 20
12.0256086987
 30
0.0
 10
15.6446986723
 20
12.0248183708
 30
0.0
 10
15.6488594639
 20
12.0246424524
 30
0.0
 10
15.6509325825
 20
12.0246424554
 30
0.0
  0
ENDSEC
  0
SECTION
  2
OBJECTS
  0
DICTIONARY
  5
C
100
AcDbDictionary
280
0
281
1
  3
ACAD_GROUP
350
D
  3
ACAD_MLINESTYLE
350
17
  3
ACAD_LAYOUT
350
1A
  3
ACAD_PLOTSETTINGS
350
19
  3
ACAD_PLOTSTYLENAME
350
E
  0
DICTIONARY
  5
D
102
{ACAD_REACTORS
330
C
102
}
100
AcDbDictionary
280
0
281
1
  0
ACDBDICTIONARYWDFLT
  5
E
102
{ACAD_REACTORS
330
C
102
}
100
AcDbDictionary
281
1
  3
Normal
350
F
100
AcDbDictionaryWithDefault
340
F
  0
DICTIONARY
  5
17
102
{ACAD_REACTORS
330
C
102
}
100
AcDbDictionary
280
0
281
1
  3
Standard
350
18
  0
DICTIONARY
  5
19
102
{ACAD_REACTORS
330
C
102
}
100
AcDbDictionary
281
1
  0
DICTIONARY
  5
1A
102
{ACAD_REACTORS
330
C
102
}
100
AcDbDictionary
281
1
  3
Model
350
3AE
  3
Layout1
350
3AF
  0
ACDBPLACEHOLDER
  5
F
102
{ACAD_REACTORS
330
E
102
}
  0
MLINESTYLE
  5
18
102
{ACAD_REACTORS
330
17
102
}
100
AcDbMlineStyle
  2
STANDARD
 70
0
  3

 62
256
 51
90.0
 52
90.0
 71
2
 49
0.5
 62
256
  6
BYLAYER
 49
-0.5
 62
256
  6
BYLAYER
  0
LAYOUT
  5
3AE
102
{ACAD_REACTORS
330
1A
102
}
100
AcDbPlotSettings
  1

  2
none_device
  4
ANSI_C_(22.00_x_17.00_Inches)
  6

 40
0.0
 41
0.0
 42
0.0
 43
0.0
 44
558.8
 45
431.8
 46
0.0
 47
0.0
 48
0.0
 49
0.0
140
0.0
141
0.0
142
1.0
143
1.0
 70
1024
 72
0
 73
0
 74
0
  7

 75
0
147
1.0
148
0.0
149
0.0
100
AcDbLayout
  1
Model
 70
0
 71
0
 10
0.0
 20
0.0
 11
22.0
 21
17.0
 12
0.0
 22
0.0
 32
0.0
 14
0.0
 24
0.0
 34
0.0
 15
0.0
 25
0.0
 35
0.0
146
0.0
 13
0.0
 23
0.0
 33
0.0
 16
1.0
 26
0.0
 36
0.0
 17
0.0
 27
1.0
 37
0.0
 76
0
330
222
345
0
346
0
  0
LAYOUT
  5
3AF
102
{ACAD_REACTORS
330
1A
102
}
100
AcDbPlotSettings
  1

  2
none_device
  4
ANSI_C_(22.00_x_17.00_Inches)
  6

 40
0.0
 41
0.0
 42
0.0
 43
0.0
 44
558.8
 45
431.8
 46
0.0
 47
0.0
 48
0.0
 49
0.0
140
0.0
141
0.0
142
1.0
143
1.0
 70
0
 72
0
 73
0
 74
0
  7

 75
0
147
1.0
148
0.0
149
0.0
100
AcDbLayout
  1
Layout1
 70
0
 71
1
 10
0.0
 20
0.0
 11
22.0
 21
17.0
 12
0.0
 22
0.0
 32
0.0
 14
0.0
 24
0.0
 34
0.0
 15
0.0
 25
0.0
 35
0.0
146
0.0
 13
0.0
 23
0.0
 33
0.0
 16
1.0
 26
0.0
 36
0.0
 17
0.0
 27
1.0
 37
0.0
 76
0
330
223
345
0
346
0
  0
ENDSEC
  0
EOF