999
DXF file: _cgs_temp_output.dxf
999
Pro/ENGINEER 2016360 by Parametric Technology Corporation
  0
SECTION
  2
HEADER
  9
$ACADVER
  1
AC1021
  9
$DWGCODEPAGE
  3
ANSI_1252
  9
$EXTMAX
 10
22.0
 20
17.0
 30
0.0
  9
$EXTMIN
 10
0.0
 20
0.0
 30
0.0
  9
$LIMMIN
 10
0.0
 20
0.0
  9
$LIMMAX
 10
22.0
 20
17.0
  9
$VIEWCTR
 10
11.0
 20
8.5
  9
$VIEWSIZE
 40
17.0
  9
$CLAYER
  8
0
  9
$LTSCALE
 40
1.21
  9
$CELTYPE
  6
BYLAYER
  9
$DIMSCALE
 40
1.0
  9
$DIMASZ
 40
0.1875
  9
$DIMEXO
 40
0.0625
  9
$DIMDLI
 40
0.836
  9
$DIMEXE
 40
0.125
  9
$DIMCEN
 40
0.198
  9
$DIMLFAC
 40
1.0
  9
$DIMBLK
  1
_CLOSED
  9
$DIMALT
 70
0
  9
$DIMALTF
 40
25.4
  9
$DIMTXT
 40
0.15625
  9
$DIMTOL
 70
0
  9
$DIMLIM
 70
0
  9
$DIMTFAC
 40
1.0
  9
$DIMGAP
 40
0.09
  9
$DIMDSEP
 70
46
  9
$AUNITS
 70
0
  9
$PDMODE
 70
3
  9
$PDSIZE
 40
0.3125
  9
$HANDSEED
  5
357
  9
$TILEMODE
 70
1
  9
$MEASUREMENT
 70
0
  9
$INSUNITS
 70
1
  0
ENDSEC
  0
SECTION
  2
CLASSES
  0
CLASS
  1
ACDBDICTIONARYWDFLT
  2
AcDbDictionaryWithDefault
  3
AutoCAD 2000
 90
0
 91
1
280
0
281
0
  0
CLASS
  1
ACDBPLACEHOLDER
  2
AcDbPlaceHolder
  3
AutoCAD 2000
 90
0
 91
1
280
0
281
0
  0
CLASS
  1
LAYOUT
  2
AcDbLayout
  3
AutoCAD 2000
 90
0
 91
0
280
0
281
0
  0
ENDSEC
  0
SECTION
  2
TABLES
  0
TABLE
  2
VPORT
  5
8
100
AcDbSymbolTable
 70
2
  0
VPORT
  5
1F4
100
AcDbSymbolTableRecord
100
AcDbViewportTableRecord
  2
*ACTIVE
 70
0
 10
0.0
 20
0.0
 11
1.0
 21
1.0
 12
11.0
 22
8.5
 13
0.0
 23
0.0
 14
1.0
 24
1.0
 15
0.0
 25
0.0
 16
0.0
 26
0.0
 36
1.0
 17
0.0
 27
0.0
 37
0.0
 40
17.0
 41
1.2941176471
 42
50.0
 43
0.0
 44
0.0
 50
0.0
 51
0.0
 71
0
 72
100
 73
1
 74
1
 75
0
 76
0
 77
0
 78
0
  0
ENDTAB
  0
TABLE
  2
LTYPE
  5
5
100
AcDbSymbolTable
 70
6
  0
LTYPE
  5
14
100
AcDbSymbolTableRecord
100
AcDbLinetypeTableRecord
  2
BYBLOCK
 70
0
  3

 72
65
 73
0
 40
0.0
  0
LTYPE
  5
15
100
AcDbSymbolTableRecord
100
AcDbLinetypeTableRecord
  2
BYLAYER
 70
0
  3

 72
65
 73
0
 40
0.0
  0
LTYPE
  5
16
100
AcDbSymbolTableRecord
100
AcDbLinetypeTableRecord
  2
CONTINUOUS
 70
64
  3
Solid line
 72
65
 73
0
 40
0.0
  0
LTYPE
  5
1F5
100
AcDbSymbolTableRecord
100
AcDbLinetypeTableRecord
  2
CENTER
 70
64
  3
____ _ ____ _ ____ _ ____ _ ____ _ ____ _ ____
 72
65
 73
4
 40
0.6
 49
0.375
 74
0
 49
-0.075
 74
0
 49
0.075
 74
0
 49
-0.075
 74
0
  0
LTYPE
  5
1F6
100
AcDbSymbolTableRecord
100
AcDbLinetypeTableRecord
  2
HIDDEN
 70
64
  3
- - - - - - - - - - - - - - - - - - - -
 72
65
 73
2
 40
0.2
 49
0.1
 74
0
 49
-0.1
 74
0
  0
LTYPE
  5
1F7
100
AcDbSymbolTableRecord
100
AcDbLinetypeTableRecord
  2
PHANTOM
 70
64
  3
_____ _ _ _____ _ _ _____ _ _ _____
 72
65
 73
6
 40
0.8
 49
0.45
 74
0
 49
-0.05
 74
0
 49
0.1
 74
0
 49
-0.05
 74
0
 49
0.1
 74
0
 49
-0.05
 74
0
  0
LTYPE
  5
1F8
100
AcDbSymbolTableRecord
100
AcDbLinetypeTableRecord
  2
DOT
 70
64
  3
. . . . . . . . . . . . . . . . . . . .
 72
65
 73
2
 40
0.2
 49
0.1
 74
0
 49
-0.1
 74
0
  0
LTYPE
  5
1F9
100
AcDbSymbolTableRecord
100
AcDbLinetypeTableRecord
  2
DASHED
 70
64
  3
- - - - - - - - - - - - - - - - - - - -
 72
65
 73
2
 40
0.2
 49
0.1
 74
0
 49
-0.1
 74
0
  0
ENDTAB
  0
TABLE
  2
LAYER
  5
2
100
AcDbSymbolTable
 70
36
  0
LAYER
  5
10
100
AcDbSymbolTableRecord
100
AcDbLayerTableRecord
  2
0
 70
0
 62
7
  6
CONTINUOUS
370
-3
390
F
  0
LAYER
  5
1FA
100
AcDbSymbolTableRecord
100
AcDbLayerTableRecord
  2
DEFAULT_1
 70
0
 62
7
  6
CENTER
370
-3
390
F
  0
LAYER
  5
1FB
100
AcDbSymbolTableRecord
100
AcDbLayerTableRecord
  2
DEFAULT_2
 70
0
 62
8
  6
HIDDEN
370
-3
390
F
  0
LAYER
  5
1FC
100
AcDbSymbolTableRecord
100
AcDbLayerTableRecord
  2
DEFAULT_3
 70
0
 62
7
  6
PHANTOM
370
-3
390
F
  0
LAYER
  5
1FD
100
AcDbSymbolTableRecord
100
AcDbLayerTableRecord
  2
01_ALL_DTM_PLN
 70
0
 62
7
  6
CONTINUOUS
370
-3
390
F
  0
LAYER
  5
1FE
100
AcDbSymbolTableRecord
100
AcDbLayerTableRecord
  2
01__ASM_ALL_DTM_PLN
 70
0
 62
7
  6
CONTINUOUS
370
-3
390
F
  0
LAYER
  5
1FF
100
AcDbSymbolTableRecord
100
AcDbLayerTableRecord
  2
01__ASM_DEF_DTM_PLN
 70
0
 62
7
  6
CONTINUOUS
370
-3
390
F
  0
LAYER
  5
200
100
AcDbSymbolTableRecord
100
AcDbLayerTableRecord
  2
01___PRT_ALL_DTM_PLN
 70
0
 62
7
  6
CONTINUOUS
370
-3
390
F
  0
LAYER
  5
201
100
AcDbSymbolTableRecord
100
AcDbLayerTableRecord
  2
01___PRT_DEF_DTM_PLN
 70
0
 62
7
  6
CONTINUOUS
370
-3
390
F
  0
LAYER
  5
202
100
AcDbSymbolTableRecord
100
AcDbLayerTableRecord
  2
02_ALL_AXES
 70
0
 62
7
  6
CONTINUOUS
370
-3
390
F
  0
LAYER
  5
203
100
AcDbSymbolTableRecord
100
AcDbLayerTableRecord
  2
02__ASM_ALL_AXES
 70
0
 62
7
  6
CONTINUOUS
370
-3
390
F
  0
LAYER
  5
204
100
AcDbSymbolTableRecord
100
AcDbLayerTableRecord
  2
02___PRT_ALL_AXES
 70
0
 62
7
  6
CONTINUOUS
370
-3
390
F
  0
LAYER
  5
205
100
AcDbSymbolTableRecord
100
AcDbLayerTableRecord
  2
03_ALL_CURVES
 70
0
 62
7
  6
CONTINUOUS
370
-3
390
F
  0
LAYER
  5
206
100
AcDbSymbolTableRecord
100
AcDbLayerTableRecord
  2
03__ASM_ALL_CURVES
 70
0
 62
7
  6
CONTINUOUS
370
-3
390
F
  0
LAYER
  5
207
100
AcDbSymbolTableRecord
100
AcDbLayerTableRecord
  2
03___PRT_ALL_CURVES
 70
0
 62
7
  6
CONTINUOUS
370
-3
390
F
  0
LAYER
  5
208
100
AcDbSymbolTableRecord
100
AcDbLayerTableRecord
  2
04_ALL_DTM_PNT
 70
0
 62
7
  6
CONTINUOUS
370
-3
390
F
  0
LAYER
  5
209
100
AcDbSymbolTableRecord
100
AcDbLayerTableRecord
  2
04__ASM_ALL_DTM_PNT
 70
0
 62
7
  6
CONTINUOUS
370
-3
390
F
  0
LAYER
  5
20A
100
AcDbSymbolTableRecord
100
AcDbLayerTableRecord
  2
04___PRT_ALL_DTM_PNT
 70
0
 62
7
  6
CONTINUOUS
370
-3
390
F
  0
LAYER
  5
20B
100
AcDbSymbolTableRecord
100
AcDbLayerTableRecord
  2
05_ALL_DTM_CSYS
 70
0
 62
7
  6
CONTINUOUS
370
-3
390
F
  0
LAYER
  5
20C
100
AcDbSymbolTableRecord
100
AcDbLayerTableRecord
  2
05__ASM_ALL_DTM_CSYS
 70
0
 62
7
  6
CONTINUOUS
370
-3
390
F
  0
LAYER
  5
20D
100
AcDbSymbolTableRecord
100
AcDbLayerTableRecord
  2
05__ASM_DEF_DTM_CSYS
 70
0
 62
7
  6
CONTINUOUS
370
-3
390
F
  0
LAYER
  5
20E
100
AcDbSymbolTableRecord
100
AcDbLayerTableRecord
  2
05___PRT_ALL_DTM_CSYS
 70
0
 62
7
  6
CONTINUOUS
370
-3
390
F
  0
LAYER
  5
20F
100
AcDbSymbolTableRecord
100
AcDbLayerTableRecord
  2
05___PRT_DEF_DTM_CSYS
 70
0
 62
7
  6
CONTINUOUS
370
-3
390
F
  0
LAYER
  5
210
100
AcDbSymbolTableRecord
100
AcDbLayerTableRecord
  2
06_ALL_SURFS
 70
0
 62
7
  6
CONTINUOUS
370
-3
390
F
  0
LAYER
  5
211
100
AcDbSymbolTableRecord
100
AcDbLayerTableRecord
  2
06__ASM_ALL_SURFS
 70
0
 62
7
  6
CONTINUOUS
370
-3
390
F
  0
LAYER
  5
212
100
AcDbSymbolTableRecord
100
AcDbLayerTableRecord
  2
06___PRT_ALL_SURFS
 70
0
 62
7
  6
CONTINUOUS
370
-3
390
F
  0
LAYER
  5
213
100
AcDbSymbolTableRecord
100
AcDbLayerTableRecord
  2
07__ASM_ALL_SKELETONS
 70
0
 62
7
  6
CONTINUOUS
370
-3
390
F
  0
LAYER
  5
214
100
AcDbSymbolTableRecord
100
AcDbLayerTableRecord
  2
LAYER_AXIS
 70
0
 62
7
  6
CONTINUOUS
370
-3
390
F
  0
LAYER
  5
215
100
AcDbSymbolTableRecord
100
AcDbLayerTableRecord
  2
LAYER_CHAMFER_FEAT
 70
0
 62
7
  6
CONTINUOUS
370
-3
390
F
  0
LAYER
  5
216
100
AcDbSymbolTableRecord
100
AcDbLayerTableRecord
  2
LAYER_CUT_FEAT
 70
0
 62
7
  6
CONTINUOUS
370
-3
390
F
  0
LAYER
  5
217
100
AcDbSymbolTableRecord
100
AcDbLayerTableRecord
  2
LAYER_DATUM
 70
0
 62
7
  6
CONTINUOUS
370
-3
390
F
  0
LAYER
  5
218
100
AcDbSymbolTableRecord
100
AcDbLayerTableRecord
  2
LAYER_DIM
 70
0
 62
7
  6
CONTINUOUS
370
-3
390
F
  0
LAYER
  5
219
100
AcDbSymbolTableRecord
100
AcDbLayerTableRecord
  2
LAYER_FEATURE
 70
0
 62
7
  6
CONTINUOUS
370
-3
390
F
  0
LAYER
  5
21A
100
AcDbSymbolTableRecord
100
AcDbLayerTableRecord
  2
LAYER_GEOM_FEAT
 70
0
 62
7
  6
CONTINUOUS
370
-3
390
F
  0
LAYER
  5
21B
100
AcDbSymbolTableRecord
100
AcDbLayerTableRecord
  2
LAYER_NOGEOM_FEAT
 70
0
 62
7
  6
CONTINUOUS
370
-3
390
F
  0
LAYER
  5
21C
100
AcDbSymbolTableRecord
100
AcDbLayerTableRecord
  2
LAYER_PARAMETER_DIM
 70
0
 62
7
  6
CONTINUOUS
370
-3
390
F
  0
LAYER
  5
21D
100
AcDbSymbolTableRecord
100
AcDbLayerTableRecord
  2
LAYER_PROTRUSION_FEAT
 70
0
 62
7
  6
CONTINUOUS
370
-3
390
F
  0
LAYER
  5
21E
100
AcDbSymbolTableRecord
100
AcDbLayerTableRecord
  2
LAYER_QUILT
 70
0
 62
7
  6
CONTINUOUS
370
-3
390
F
  0
LAYER
  5
21F
100
AcDbSymbolTableRecord
100
AcDbLayerTableRecord
  2
LAYER_ROUND_FEAT
 70
0
 62
7
  6
CONTINUOUS
370
-3
390
F
  0
ENDTAB
  0
TABLE
  2
STYLE
  5
3
100
AcDbSymbolTable
 70
1
  0
STYLE
  5
11
100
AcDbSymbolTableRecord
100
AcDbTextStyleTableRecord
  2
STANDARD
 70
0
 40
0.0
 41
0.8
 50
0.0
 71
0
 42
0.2
  3
txt
  4

  0
STYLE
  5
220
100
AcDbSymbolTableRecord
100
AcDbTextStyleTableRecord
  2
TEXTSTYLE_1
 70
0
 40
0.0
 41
0.8
 50
0.0
 71
0
 42
0.2
  3
gdt
  4

  0
ENDTAB
  0
TABLE
  2
VIEW
  5
6
100
AcDbSymbolTable
 70
0
  0
ENDTAB
  0
TABLE
  2
UCS
  5
7
100
AcDbSymbolTable
 70
0
  0
ENDTAB
  0
TABLE
  2
APPID
  5
9
100
AcDbSymbolTable
 70
1
  0
APPID
  5
221
100
AcDbSymbolTableRecord
100
AcDbRegAppTableRecord
  2
ACAD
 70
0
  0
ENDTAB
  0
TABLE
  2
BLOCK_RECORD
  5
1
100
AcDbSymbolTable
 70
0
  0
BLOCK_RECORD
  5
222
100
AcDbSymbolTableRecord
100
AcDbBlockTableRecord
  2
*Model_Space
  0
BLOCK_RECORD
  5
223
100
AcDbSymbolTableRecord
100
AcDbBlockTableRecord
  2
*Paper_Space
  0
ENDTAB
  0
TABLE
  2
DIMSTYLE
  5
A
100
AcDbSymbolTable
 70
1
100
AcDbDimStyleTable
 71
0
  0
DIMSTYLE
105
224
100
AcDbSymbolTableRecord
100
AcDbDimStyleTableRecord
  2
STANDARD
 70
0
  3

  4

 40
1.0
 41
0.1875
 42
0.0625
 43
0.38
 44
0.125
 45
0.0
 46
0.0
 47
0.0001
 48
0.0001
140
0.15625
141
0.09
142
0.0
143
25.4
144
1.0
145
0.0
146
1.0
147
0.09
 71
0.0
 72
0.0
 73
1
 74
1
 75
0
 76
0
 77
0
 78
4
 79
1
170
0
171
3
172
0
173
0
174
0
175
0
176
0
177
0
178
0
270
2
179
4
271
4
272
4
273
2
274
2
275
0
280
0
281
0
282
0
283
1
284
4
285
0
286
0
287
3
288
0
340
11
278
46
  0
ENDTAB
  0
ENDSEC
  0
SECTION
  2
BLOCKS
  0
BLOCK
  5
20
100
AcDbEntity
  8
0
100
AcDbBlockBegin
  2
*Model_Space
 70
0
 10
0.0
 20
0.0
 30
0.0
  3
*Model_Space
  1

  0
ENDBLK
  5
21
100
AcDbEntity
  8
0
100
AcDbBlockEnd
  0
BLOCK
  5
1C
100
AcDbEntity
  8
0
100
AcDbBlockBegin
  2
*Paper_Space
 70
0
 10
0.0
 20
0.0
 30
0.0
  3
*Paper_Space
  1

  0
ENDBLK
  5
1D
100
AcDbEntity
  8
0
100
AcDbBlockEnd
  0
ENDSEC
  0
SECTION
  2
ENTITIES
  0
MTEXT
  5
225
100
AcDbEntity
  8
0
100
AcDbMText
 62
7
  6
CONTINUOUS
  7
STANDARD
 71
1
 72
1
 10
15.9560215477
 20
0.9479130325
 30
0.0
 11
1.0
 21
0.0
 31
0.0
 44
0.9
  1
SCALE: 1:0.143
 40
0.3
 41
3.36
  0
LINE
  5
226
100
AcDbEntity
  8
0
100
AcDbLine
 62
7
  6
CONTINUOUS
 10
0.0
 20
0.0
 11
0.0
 21
17.0
  0
LINE
  5
227
100
AcDbEntity
  8
0
100
AcDbLine
 62
7
  6
CONTINUOUS
 10
0.0
 20
0.0
 11
22.0
 21
0.0
  0
LINE
  5
228
100
AcDbEntity
  8
0
100
AcDbLine
 62
7
  6
CONTINUOUS
 10
0.0
 20
17.0
 11
22.0
 21
17.0
  0
LINE
  5
229
100
AcDbEntity
  8
0
100
AcDbLine
 62
7
  6
CONTINUOUS
 10
22.0
 20
0.0
 11
22.0
 21
17.0
  0
LINE
  5
22A
100
AcDbEntity
  8
02___PRT_ALL_AXES
100
AcDbLine
 62
7
  6
CONTINUOUS
 10
5.8303672762
 20
4.1245848886
 11
6.4303672762
 21
4.1245848886
  0
LINE
  5
22B
100
AcDbEntity
  8
0
100
AcDbLine
 62
7
  6
CONTINUOUS
 10
5.8303672762
 20
4.1245849055
 11
5.8303672762
 21
6.9156350183
  0
LINE
  5
22C
100
AcDbEntity
  8
0
100
AcDbLine
 62
7
  6
CONTINUOUS
 10
6.4303672762
 20
4.1245849055
 11
6.4303672762
 21
6.9156350183
  0
LINE
  5
22D
100
AcDbEntity
  8
0
100
AcDbLine
 62
7
  6
CONTINUOUS
 10
5.8303672762
 20
6.8904763917
 11
6.4303672762
 21
6.8904763917
  0
LINE
  5
22E
100
AcDbEntity
  8
0
100
AcDbLine
 62
7
  6
CONTINUOUS
 10
5.8303672762
 20
6.8905476245
 11
6.4303672762
 21
6.8905476245
  0
LINE
  5
22F
100
AcDbEntity
  8
0
100
AcDbLine
 62
7
  6
CONTINUOUS
 10
5.8303672762
 20
6.9013642962
 11
6.4303672762
 21
6.9013642962
  0
LINE
  5
230
100
AcDbEntity
  8
0
100
AcDbLine
 62
7
  6
CONTINUOUS
 10
5.8303672762
 20
6.9032225939
 11
6.4303672762
 21
6.9032225939
  0
LINE
  5
231
100
AcDbEntity
  8
0
100
AcDbLine
 62
7
  6
CONTINUOUS
 10
5.8303672762
 20
6.9032542944
 11
6.4303672762
 21
6.9032542944
  0
LINE
  5
232
100
AcDbEntity
  8
0
100
AcDbLine
 62
7
  6
CONTINUOUS
 10
5.8303672762
 20
6.9105002848
 11
6.4303672762
 21
6.9105002848
  0
LINE
  5
233
100
AcDbEntity
  8
0
100
AcDbLine
 62
7
  6
CONTINUOUS
 10
5.8303672762
 20
6.9116176073
 11
6.4303672762
 21
6.9116176073
  0
LINE
  5
234
100
AcDbEntity
  8
0
100
AcDbLine
 62
7
  6
CONTINUOUS
 10
5.8303672762
 20
6.9152621864
 11
6.4303672762
 21
6.9152621864
  0
LINE
  5
235
100
AcDbEntity
  8
0
100
AcDbLine
 62
7
  6
CONTINUOUS
 10
5.8303672762
 20
6.9156350183
 11
6.4303672762
 21
6.9156350183
  0
LINE
  5
236
100
AcDbEntity
  8
02___PRT_ALL_AXES
100
AcDbLine
 62
7
  6
CONTINUOUS
 10
5.7708720839
 20
11.2043736433
 11
6.3708720839
 21
11.2043736433
  0
LINE
  5
237
100
AcDbEntity
  8
0
100
AcDbLine
 62
7
  6
CONTINUOUS
 10
5.7708720839
 20
11.2043736433
 11
5.7708720839
 21
13.9958021663
  0
LINE
  5
238
100
AcDbEntity
  8
0
100
AcDbLine
 62
7
  6
CONTINUOUS
 10
5.7708720839
 20
12.3343196834
 11
6.3708720839
 21
12.3343196834
  0
LINE
  5
239
100
AcDbEntity
  8
0
100
AcDbLine
 62
7
  6
CONTINUOUS
 10
6.3708720839
 20
12.3634247344
 11
5.7708720839
 21
12.3634247344
  0
LINE
  5
23A
100
AcDbEntity
  8
0
100
AcDbLine
 62
7
  6
CONTINUOUS
 10
6.3708720839
 20
12.3803253804
 11
5.7708720839
 21
12.3803253804
  0
LINE
  5
23B
100
AcDbEntity
  8
0
100
AcDbLine
 62
7
  6
CONTINUOUS
 10
5.7708720839
 20
12.3984012996
 11
6.3708720839
 21
12.3984012996
  0
LINE
  5
23C
100
AcDbEntity
  8
0
100
AcDbLine
 62
7
  6
CONTINUOUS
 10
5.7708720839
 20
12.4115642354
 11
6.3708720839
 21
12.4115642354
  0
LINE
  5
23D
100
AcDbEntity
  8
0
100
AcDbLine
 62
7
  6
CONTINUOUS
 10
6.3708720839
 20
12.439028394
 11
5.7708720839
 21
12.439028394
  0
LINE
  5
23E
100
AcDbEntity
  8
0
100
AcDbLine
 62
7
  6
CONTINUOUS
 10
6.3708720839
 20
12.4560634605
 11
5.7708720839
 21
12.4560634605
  0
LINE
  5
23F
100
AcDbEntity
  8
0
100
AcDbLine
 62
7
  6
CONTINUOUS
 10
5.7708720839
 20
12.4761555291
 11
6.3708720839
 21
12.4761555291
  0
LINE
  5
240
100
AcDbEntity
  8
0
100
AcDbLine
 62
7
  6
CONTINUOUS
 10
5.7708720839
 20
12.4894019527
 11
6.3708720839
 21
12.4894019527
  0
LINE
  5
241
100
AcDbEntity
  8
0
100
AcDbLine
 62
7
  6
CONTINUOUS
 10
6.3708720839
 20
12.5151388065
 11
5.7708720839
 21
12.5151388065
  0
LINE
  5
242
100
AcDbEntity
  8
0
100
AcDbLine
 62
7
  6
CONTINUOUS
 10
6.3708720839
 20
12.5322546948
 11
5.7708720839
 21
12.5322546948
  0
LINE
  5
243
100
AcDbEntity
  8
0
100
AcDbLine
 62
7
  6
CONTINUOUS
 10
5.7708720839
 20
12.5542996957
 11
6.3708720839
 21
12.5542996957
  0
LINE
  5
244
100
AcDbEntity
  8
0
100
AcDbLine
 62
7
  6
CONTINUOUS
 10
5.7708720839
 20
12.567587929
 11
6.3708720839
 21
12.567587929
  0
LINE
  5
245
100
AcDbEntity
  8
0
100
AcDbLine
 62
7
  6
CONTINUOUS
 10
6.3708720839
 20
12.5915165004
 11
5.7708720839
 21
12.5915165004
  0
LINE
  5
246
100
AcDbEntity
  8
0
100
AcDbLine
 62
7
  6
CONTINUOUS
 10
6.3708720839
 20
12.6086593576
 11
5.7708720839
 21
12.6086593576
  0
LINE
  5
247
100
AcDbEntity
  8
0
100
AcDbLine
 62
7
  6
CONTINUOUS
 10
5.7708720839
 20
12.632587929
 11
6.3708720839
 21
12.632587929
  0
LINE
  5
248
100
AcDbEntity
  8
0
100
AcDbLine
 62
7
  6
CONTINUOUS
 10
6.3708720839
 20
11.2043736433
 11
6.3708720839
 21
13.9958021663
  0
LINE
  5
249
100
AcDbEntity
  8
02___PRT_ALL_AXES
100
AcDbLine
 62
7
  6
CONTINUOUS
 10
5.7708720839
 20
13.9958022147
 11
6.3708720839
 21
13.9958022147
  0
LINE
  5
24A
100
AcDbEntity
  8
0
100
AcDbLine
 62
7
  6
CONTINUOUS
 10
15.3509871829
 20
6.8212195162
 11
15.3546266286
 21
6.8379692143
  0
LINE
  5
24B
100
AcDbEntity
  8
0
100
AcDbLine
 62
7
  6
CONTINUOUS
 10
15.4275957282
 20
6.8308209435
 11
15.4321686114
 21
6.8473402259
  0
LINE
  5
24C
100
AcDbEntity
  8
0
100
AcDbLine
 62
7
  6
CONTINUOUS
 10
15.5046221104
 20
6.8361117907
 11
15.5101140432
 21
6.8523486816
  0
LINE
  5
24D
100
AcDbEntity
  8
0
100
AcDbLine
 62
7
  6
CONTINUOUS
 10
15.581823976
 20
6.8370754106
 11
15.5882176787
 21
6.8529788228
  0
LINE
  5
24E
100
AcDbEntity
  8
LAYER_CUT_FEAT
100
AcDbLine
 62
7
  6
CONTINUOUS
 10
15.5688947024
 20
6.2947816247
 11
15.6346605683
 21
6.5098920795
  0
LINE
  5
24F
100
AcDbEntity
  8
LAYER_CUT_FEAT
100
AcDbLine
 62
7
  6
CONTINUOUS
 10
14.5999752428
 20
5.0322082943
 11
14.7796196989
 21
5.1675801017
  0
LINE
  5
250
100
AcDbEntity
  8
LAYER_CUT_FEAT
100
AcDbLine
 62
7
  6
CONTINUOUS
 10
16.5893138616
 20
5.2430243701
 11
16.3644088917
 21
5.2390986392
  0
LINE
  5
251
100
AcDbEntity
  8
LAYER_CUT_FEAT
100
AcDbLine
 62
7
  6
CONTINUOUS
 10
14.7698619605
 20
5.7266005591
 11
14.585602531
 21
5.8556204006
  0
LINE
  5
252
100
AcDbEntity
  8
LAYER_CUT_FEAT
100
AcDbLine
 62
7
  6
CONTINUOUS
 10
15.6712279745
 20
4.4149467776
 11
15.5979949248
 21
4.6276309972
  0
LINE
  5
253
100
AcDbEntity
  8
LAYER_CUT_FEAT
100
AcDbLine
 62
7
  6
CONTINUOUS
 10
16.0854694127
 20
6.3720659842
 11
16.0197035468
 21
6.1569555295
  0
LINE
  5
254
100
AcDbEntity
  8
LAYER_CUT_FEAT
100
AcDbLine
 62
7
  6
CONTINUOUS
 10
15.0633195691
 20
4.7910976581
 11
14.883675113
 21
4.6557258506
  0
LINE
  5
255
100
AcDbEntity
  8
LAYER_CUT_FEAT
100
AcDbLine
 62
7
  6
CONTINUOUS
 10
16.3561817036
 20
5.710433934
 11
16.5810866734
 21
5.7143596648
  0
LINE
  5
256
100
AcDbEntity
  8
LAYER_CUT_FEAT
100
AcDbLine
 62
7
  6
CONTINUOUS
 10
14.8559905311
 20
6.241774484
 11
15.0402499606
 21
6.1127546425
  0
LINE
  5
257
100
AcDbEntity
  8
LAYER_CUT_FEAT
100
AcDbLine
 62
7
  6
CONTINUOUS
 10
16.0437190873
 20
4.7811061343
 11
16.116952137
 21
4.5684219146
  0
LINE
  5
258
100
AcDbEntity
  8
0
100
AcDbLine
 62
7
  6
CONTINUOUS
 10
15.299768281
 20
6.8286484062
 11
15.3087355678
 21
6.814040678
  0
LINE
  5
259
100
AcDbEntity
  8
0
100
AcDbLine
 62
7
  6
CONTINUOUS
 10
15.3768739443
 20
6.8411100132
 11
15.385008062
 21
6.826022466
  0
LINE
  5
25A
100
AcDbEntity
  8
0
100
AcDbLine
 62
7
  6
CONTINUOUS
 10
15.454557034
 20
6.8492286669
 11
15.4618323897
 21
6.8337087715
  0
LINE
  5
25B
100
AcDbEntity
  8
0
100
AcDbLine
 62
7
  6
CONTINUOUS
 10
15.5325731304
 20
6.8529788228
 11
15.5389668331
 21
6.8370754106
  0
LINE
  5
25C
100
AcDbEntity
  8
0
100
AcDbLine
 62
7
  6
CONTINUOUS
 10
15.32373221
 20
6.8025329739
 11
15.340632856
 21
6.8054045092
  0
LINE
  5
25D
100
AcDbEntity
  8
0
100
AcDbLine
 62
7
  6
CONTINUOUS
 10
15.3993358696
 20
6.8136919972
 11
15.416370936
 21
6.8156113882
  0
LINE
  5
25E
100
AcDbEntity
  8
0
100
AcDbLine
 62
7
  6
CONTINUOUS
 10
15.4754462821
 20
6.8205943342
 11
15.4925621704
 21
6.8215555419
  0
LINE
  5
25F
100
AcDbEntity
  8
0
100
AcDbLine
 62
7
  6
CONTINUOUS
 10
15.551823976
 20
6.8232182678
 11
15.5689668331
 21
6.8232182678
  0
LINE
  5
260
100
AcDbEntity
  8
02___PRT_ALL_AXES
100
AcDbLine
 62
7
  6
CONTINUOUS
 10
15.194791339
 20
11.1151239569
 11
15.7474279354
 21
11.1151239569
  0
LINE
  5
261
100
AcDbEntity
  8
0
100
AcDbLine
 62
7
  6
CONTINUOUS
 10
14.7282196334
 20
13.1594857099
 11
14.7314347722
 21
13.1745094156
  0
LINE
  5
262
100
AcDbEntity
  8
0
100
AcDbLine
 62
7
  6
CONTINUOUS
 10
14.7431167641
 20
13.225644651
 11
14.7466548854
 21
13.2401817896
  0
LINE
  5
263
100
AcDbEntity
  8
0
100
AcDbLine
 62
7
  6
CONTINUOUS
 10
14.7598671385
 20
13.2911264041
 11
14.7632850016
 21
13.3035593789
  0
LINE
  5
264
100
AcDbEntity
  8
0
100
AcDbLine
 62
7
  6
CONTINUOUS
 10
14.7782442767
 20
13.3546424809
 11
14.7812727964
 21
13.3644427742
  0
LINE
  5
265
100
AcDbEntity
  8
02___PRT_ALL_AXES
100
AcDbLine
 62
7
  6
CONTINUOUS
 10
15.5399260515
 20
11.7608382426
 11
15.6470322871
 21
11.7608382426
  0
LINE
  5
266
100
AcDbEntity
  8
02___PRT_ALL_AXES
100
AcDbLine
 62
7
  6
CONTINUOUS
 10
15.6555253739
 20
12.0554813998
 11
15.6500793142
 21
12.0556801992
  0
LINE
  5
267
100
AcDbEntity
  8
02___PRT_ALL_AXES
100
AcDbLine
 62
7
  6
CONTINUOUS
 10
15.6555253739
 20
12.0554813998
 11
15.6455195496
 21
12.0562318636
  0
LINE
  5
268
100
AcDbEntity
  8
0
100
AcDbLine
 62
7
  6
CONTINUOUS
 10
14.7291169668
 20
13.1924510045
 11
14.7248885949
 21
13.2057136596
  0
LINE
  5
269
100
AcDbEntity
  8
0
100
AcDbLine
 62
7
  6
CONTINUOUS
 10
14.7447324784
 20
13.2584288825
 11
14.7408003467
 21
13.2722794956
  0
LINE
  5
26A
100
AcDbEntity
  8
0
100
AcDbLine
 62
7
  6
CONTINUOUS
 10
14.7617640416
 20
13.3220545637
 11
14.7581405221
 21
13.3364495557
  0
LINE
  5
26B
100
AcDbEntity
  8
0
100
AcDbLine
 62
7
  6
CONTINUOUS
 10
14.780158069
 20
13.3831278583
 11
14.7768545626
 21
13.3980219372
  0
LINE
  5
26C
100
AcDbEntity
  8
0
100
AcDbLine
 62
7
  6
CONTINUOUS
 10
15.2808562298
 20
13.1594857099
 11
15.2840713686
 21
13.1745094156
  0
LINE
  5
26D
100
AcDbEntity
  8
0
100
AcDbLine
 62
7
  6
CONTINUOUS
 10
15.2957533605
 20
13.225644651
 11
15.2992914818
 21
13.2401817896
  0
LINE
  5
26E
100
AcDbEntity
  8
0
100
AcDbLine
 62
7
  6
CONTINUOUS
 10
15.3120716264
 20
13.2895545468
 11
15.315921598
 21
13.3035593789
  0
LINE
  5
26F
100
AcDbEntity
  8
0
100
AcDbLine
 62
7
  6
CONTINUOUS
 10
15.3297596844
 20
13.3510143129
 11
15.3339093928
 21
13.3644427742
  0
LINE
  5
270
100
AcDbEntity
  8
LAYER_CUT_FEAT
100
AcDbLine
 62
7
  6
CONTINUOUS
 10
15.479983648
 20
13.3079810998
 11
15.5276805991
 21
13.4679859199
  0
LINE
  5
271
100
AcDbEntity
  8
02___PRT_ALL_AXES
100
AcDbLine
 62
7
  6
CONTINUOUS
 10
15.4918899277
 20
12.3324237541
 11
15.4921745365
 21
12.3324286536
  0
LINE
  5
272
100
AcDbEntity
  8
02___PRT_ALL_AXES
100
AcDbLine
 62
7
  6
CONTINUOUS
 10
15.4918903478
 20
12.3324289876
 11
15.4921745365
 21
12.3324286536
  0
LINE
  5
273
100
AcDbEntity
  8
02___PRT_ALL_AXES
100
AcDbLine
 62
7
  6
CONTINUOUS
 10
15.4918899848
 20
12.3324309187
 11
15.4921745365
 21
12.3324286536
  0
LINE
  5
274
100
AcDbEntity
  8
LAYER_CUT_FEAT
100
AcDbLine
 62
7
  6
CONTINUOUS
 10
15.8774955692
 20
11.9475411135
 11
15.8525893231
 21
11.9701065408
  0
LINE
  5
275
100
AcDbEntity
  8
LAYER_CUT_FEAT
100
AcDbLine
 62
7
  6
CONTINUOUS
 10
15.4315123154
 20
11.6584605411
 11
15.4320825579
 21
11.716964735
  0
LINE
  5
276
100
AcDbEntity
  8
LAYER_CUT_FEAT
100
AcDbLine
 62
7
  6
CONTINUOUS
 10
15.6481219797
 20
13.2893715315
 11
15.7013663866
 21
13.4679859199
  0
LINE
  5
277
100
AcDbEntity
  8
0
100
AcDbLine
 62
7
  6
CONTINUOUS
 10
15.2817535632
 20
13.1924510045
 11
15.2775251913
 21
13.2057136596
  0
LINE
  5
278
100
AcDbEntity
  8
0
100
AcDbLine
 62
7
  6
CONTINUOUS
 10
15.2973690748
 20
13.2584288825
 11
15.2934369431
 21
13.2722794956
  0
LINE
  5
279
100
AcDbEntity
  8
0
100
AcDbLine
 62
7
  6
CONTINUOUS
 10
15.314400638
 20
13.3220545637
 11
15.3107771185
 21
13.3364495557
  0
LINE
  5
27A
100
AcDbEntity
  8
0
100
AcDbLine
 62
7
  6
CONTINUOUS
 10
15.3327946654
 20
13.3831278583
 11
15.329491159
 21
13.3980219372
  0
LINE
  5
27B
100
AcDbEntity
  8
LAYER_CUT_FEAT
100
AcDbLine
 62
7
  6
CONTINUOUS
 10
15.6155996498
 20
11.7051692378
 11
15.6134078456
 21
11.4803004363
  0
LINE
  5
27C
100
AcDbEntity
  8
LAYER_CUT_FEAT
100
AcDbLine
 62
7
  6
CONTINUOUS
 10
15.8471349099
 20
13.1814437802
 11
15.8255437234
 21
13.1090137016
  0
LINE
  5
27D
100
AcDbEntity
  8
LAYER_CUT_FEAT
100
AcDbLine
 62
7
  6
CONTINUOUS
 10
15.4213084984
 20
13.337485801
 11
15.4304641684
 21
13.3033614116
  0
LINE
  5
27E
100
AcDbEntity
  8
0
100
AcDbLine
 62
7
  6
CONTINUOUS
 10
14.712496381
 20
13.1543706408
 11
15.2651329774
 21
13.1543706408
  0
LINE
  5
27F
100
AcDbEntity
  8
0
100
AcDbLine
 62
7
  6
CONTINUOUS
 10
14.7142169777
 20
13.1569841327
 11
15.2668535741
 21
13.1569841327
  0
LINE
  5
280
100
AcDbEntity
  8
0
100
AcDbLine
 62
7
  6
CONTINUOUS
 10
15.2808562298
 20
13.1594857099
 11
14.7282196334
 21
13.1594857099
  0
LINE
  5
281
100
AcDbEntity
  8
0
100
AcDbLine
 62
7
  6
CONTINUOUS
 10
15.2670890695
 20
13.1569477325
 11
15.2668535741
 21
13.1569841219
  0
LINE
  5
282
100
AcDbEntity
  8
0
100
AcDbLine
 62
7
  6
CONTINUOUS
 10
15.2670890695
 20
13.1569477325
 11
15.2737157163
 21
13.1548917401
  0
LINE
  5
283
100
AcDbEntity
  8
0
100
AcDbLine
 62
7
  6
CONTINUOUS
 10
15.281952442
 20
13.2250929326
 11
15.2885237716
 21
13.2220860361
  0
LINE
  5
284
100
AcDbEntity
  8
0
100
AcDbLine
 62
7
  6
CONTINUOUS
 10
15.2982803727
 20
13.2909908232
 11
15.3047757091
 21
13.2870424834
  0
LINE
  5
285
100
AcDbEntity
  8
0
100
AcDbLine
 62
7
  6
CONTINUOUS
 10
15.3160214877
 20
13.3544340652
 11
15.3224203944
 21
13.3495567051
  0
LINE
  5
286
100
AcDbEntity
  8
02___PRT_ALL_AXES
100
AcDbLine
 62
7
  6
CONTINUOUS
 10
15.7705148629
 20
11.8311686056
 11
15.7773226209
 21
11.8393246413
  0
LINE
  5
287
100
AcDbEntity
  8
02___PRT_ALL_AXES
100
AcDbLine
 62
7
  6
CONTINUOUS
 10
15.7697996118
 20
11.8306456699
 11
15.7703652832
 21
11.8312982623
  0
LINE
  5
288
100
AcDbEntity
  8
02___PRT_ALL_AXES
100
AcDbLine
 62
7
  6
CONTINUOUS
 10
15.7697996118
 20
11.8306456699
 11
15.7703685511
 21
11.8312789599
  0
LINE
  5
289
100
AcDbEntity
  8
0
100
AcDbLine
 62
7
  6
CONTINUOUS
 10
15.2840713686
 20
13.1745094156
 11
14.7314347722
 21
13.1745094156
  0
LINE
  5
28A
100
AcDbEntity
  8
0
100
AcDbLine
 62
7
  6
CONTINUOUS
 10
14.7246871155
 20
13.2113355251
 11
15.2773237119
 21
13.2113355251
  0
LINE
  5
28B
100
AcDbEntity
  8
0
100
AcDbLine
 62
7
  6
CONTINUOUS
 10
14.7273065604
 20
13.2228015433
 11
15.2799431568
 21
13.2228015433
  0
LINE
  5
28C
100
AcDbEntity
  8
0
100
AcDbLine
 62
7
  6
CONTINUOUS
 10
14.7289714328
 20
13.2251711147
 11
15.2816080292
 21
13.2251711147
  0
LINE
  5
28D
100
AcDbEntity
  8
0
100
AcDbLine
 62
7
  6
CONTINUOUS
 10
15.2957533605
 20
13.225644651
 11
14.7431167641
 21
13.225644651
  0
LINE
  5
28E
100
AcDbEntity
  8
0
100
AcDbLine
 62
7
  6
CONTINUOUS
 10
15.2992914818
 20
13.2401817896
 11
14.7466548854
 21
13.2401817896
  0
LINE
  5
28F
100
AcDbEntity
  8
02___PRT_ALL_AXES
100
AcDbLine
 62
7
  6
CONTINUOUS
 10
15.5399260515
 20
13.2608382426
 11
15.6470322871
 21
13.2608382426
  0
LINE
  5
290
100
AcDbEntity
  8
0
100
AcDbLine
 62
7
  6
CONTINUOUS
 10
14.7407219369
 20
13.277921527
 11
15.2933585333
 21
13.277921527
  0
LINE
  5
291
100
AcDbEntity
  8
02___PRT_ALL_AXES
100
AcDbLine
 62
7
  6
CONTINUOUS
 10
15.7705148629
 20
13.1905078797
 11
15.7773226209
 21
13.182351844
  0
LINE
  5
292
100
AcDbEntity
  8
0
100
AcDbLine
 62
7
  6
CONTINUOUS
 10
14.7435876198
 20
13.2889923459
 11
15.2962242162
 21
13.2889923459
  0
LINE
  5
293
100
AcDbEntity
  8
0
100
AcDbLine
 62
7
  6
CONTINUOUS
 10
15.3120716264
 20
13.2895545468
 11
15.300643163
 21
13.2895545468
  0
LINE
  5
294
100
AcDbEntity
  8
0
100
AcDbLine
 62
7
  6
CONTINUOUS
 10
14.7451915296
 20
13.2911264041
 11
15.297828126
 21
13.2911264041
  0
LINE
  5
295
100
AcDbEntity
  8
0
100
AcDbLine
 62
7
  6
CONTINUOUS
 10
15.315921598
 20
13.3035593789
 11
14.7632850016
 21
13.3035593789
  0
LINE
  5
296
100
AcDbEntity
  8
LAYER_CUT_FEAT
100
AcDbLine
 62
7
  6
CONTINUOUS
 10
15.429224693
 20
13.3079810998
 11
15.5316365026
 21
13.3079810998
  0
LINE
  5
297
100
AcDbEntity
  8
0
100
AcDbLine
 62
7
  6
CONTINUOUS
 10
14.7581854287
 20
13.342094001
 11
15.3108220251
 21
13.342094001
  0
LINE
  5
298
100
AcDbEntity
  8
0
100
AcDbLine
 62
7
  6
CONTINUOUS
 10
15.3297596844
 20
13.3510143129
 11
15.3205080696
 21
13.3510143129
  0
LINE
  5
299
100
AcDbEntity
  8
0
100
AcDbLine
 62
7
  6
CONTINUOUS
 10
14.7612883331
 20
13.3527347877
 11
15.3139249295
 21
13.3527347877
  0
LINE
  5
29A
100
AcDbEntity
  8
0
100
AcDbLine
 62
7
  6
CONTINUOUS
 10
14.7628262338
 20
13.3546424809
 11
15.3154628302
 21
13.3546424809
  0
LINE
  5
29B
100
AcDbEntity
  8
0
100
AcDbLine
 62
7
  6
CONTINUOUS
 10
15.3339093928
 20
13.3644427742
 11
14.7812727964
 21
13.3644427742
  0
LINE
  5
29C
100
AcDbEntity
  8
0
100
AcDbLine
 62
7
  6
CONTINUOUS
 10
14.7770226441
 20
13.4036510369
 11
15.3296592405
 21
13.4036510369
  0
LINE
  5
29D
100
AcDbEntity
  8
02___PRT_ALL_AXES
100
AcDbLine
 62
7
  6
CONTINUOUS
 10
15.194791339
 20
13.9065525284
 11
15.7474279354
 21
13.9065525284
  0
ARC
  5
29E
100
AcDbEntity
  8
LAYER_CUT_FEAT
100
AcDbCircle
 62
7
  6
CONTINUOUS
 10
14.9159152035
 20
4.6129418055
 40
0.0535714286
100
AcDbArc
 50
127.0
 51
232.7606708717
  0
ARC
  5
29F
100
AcDbEntity
  8
LAYER_CUT_FEAT
100
AcDbCircle
 62
7
  6
CONTINUOUS
 10
14.5677351523
 20
5.0749923395
 40
0.0535714286
100
AcDbArc
 50
201.2393291283
 51
307.0
  0
ARC
  5
2A0
100
AcDbEntity
  8
LAYER_CUT_FEAT
100
AcDbCircle
 62
7
  6
CONTINUOUS
 10
14.7473796083
 20
5.2103641469
 40
0.0535714286
100
AcDbArc
 50
307.0
 51
17.1208257554
  0
ARC
  5
2A1
100
AcDbEntity
  8
02___PRT_ALL_AXES
100
AcDbCircle
 62
7
  6
CONTINUOUS
 10
15.5222336401
 20
5.0246130178
 40
0.0535714286
100
AcDbArc
 50
152.6255906631
 51
17.3744093369
  0
ARC
  5
2A2
100
AcDbEntity
  8
LAYER_CUT_FEAT
100
AcDbCircle
 62
7
  6
CONTINUOUS
 10
15.547342144
 20
4.6101898461
 40
0.0535714286
100
AcDbArc
 50
19.0
 51
89.1208257554
  0
ARC
  5
2A3
100
AcDbEntity
  8
LAYER_CUT_FEAT
100
AcDbCircle
 62
7
  6
CONTINUOUS
 10
15.0955596596
 20
4.7483136129
 40
0.0535714286
100
AcDbArc
 50
56.8791742446
 51
127.0
  0
ARC
  5
2A4
100
AcDbEntity
  8
0
100
AcDbCircle
 62
7
  6
CONTINUOUS
 10
15.5603954046
 20
5.460803982
 40
1.3957142857
100
AcDbArc
 50
97.7628567997
 51
98.3085717718
  0
ARC
  5
2A5
100
AcDbEntity
  8
0
100
AcDbCircle
 62
7
  6
CONTINUOUS
 10
15.5603954046
 20
5.460803982
 40
1.3957142857
100
AcDbArc
 50
94.5485710854
 51
95.0942860575
  0
ARC
  5
2A6
100
AcDbEntity
  8
0
100
AcDbCircle
 62
7
  6
CONTINUOUS
 10
15.5603954046
 20
5.460803982
 40
1.3957142857
100
AcDbArc
 50
91.3342853711
 51
91.8800003432
  0
ARC
  5
2A7
100
AcDbEntity
  8
0
100
AcDbCircle
 62
7
  6
CONTINUOUS
 10
15.5603954046
 20
5.460803982
 40
1.3957142857
100
AcDbArc
 50
100.977142514
 51
88.6657146289
  0
CIRCLE
  5
2A8
100
AcDbEntity
  8
02___PRT_ALL_AXES
100
AcDbCircle
 62
7
  6
CONTINUOUS
 10
15.5603954046
 20
5.460803982
 40
1.1768571429
  0
CIRCLE
  5
2A9
100
AcDbEntity
  8
02___PRT_ALL_AXES
100
AcDbCircle
 62
7
  6
CONTINUOUS
 10
15.5603954046
 20
5.460803982
 40
1.1678571429
  0
ARC
  5
2AA
100
AcDbEntity
  8
LAYER_CUT_FEAT
100
AcDbCircle
 62
7
  6
CONTINUOUS
 10
15.5603954046
 20
5.460803982
 40
1.1185714286
100
AcDbArc
 50
232.7606708717
 51
273.2393291283
  0
ARC
  5
2AB
100
AcDbEntity
  8
LAYER_CUT_FEAT
100
AcDbCircle
 62
7
  6
CONTINUOUS
 10
15.5603954046
 20
5.460803982
 40
1.1185714286
100
AcDbArc
 50
160.7606708717
 51
201.2393291283
  0
ARC
  5
2AC
100
AcDbEntity
  8
LAYER_CUT_FEAT
100
AcDbCircle
 62
7
  6
CONTINUOUS
 10
15.5603954046
 20
5.460803982
 40
1.1185714286
100
AcDbArc
 50
88.7606708717
 51
129.2393291283
  0
ARC
  5
2AD
100
AcDbEntity
  8
LAYER_CUT_FEAT
100
AcDbCircle
 62
7
  6
CONTINUOUS
 10
15.5603954046
 20
5.460803982
 40
1.1185714286
100
AcDbArc
 50
16.7606708717
 51
57.2393291283
  0
ARC
  5
2AE
100
AcDbEntity
  8
LAYER_CUT_FEAT
100
AcDbCircle
 62
7
  6
CONTINUOUS
 10
15.5603954046
 20
5.460803982
 40
1.1185714286
100
AcDbArc
 50
304.7606708717
 51
345.2393291283
  0
ARC
  5
2AF
100
AcDbEntity
  8
LAYER_CUT_FEAT
100
AcDbCircle
 62
7
  6
CONTINUOUS
 10
15.5603954046
 20
5.460803982
 40
0.7971428571
100
AcDbArc
 50
236.8791742446
 51
269.1208257554
  0
ARC
  5
2B0
100
AcDbEntity
  8
LAYER_CUT_FEAT
100
AcDbCircle
 62
7
  6
CONTINUOUS
 10
15.5603954046
 20
5.460803982
 40
0.7971428571
100
AcDbArc
 50
164.8791742446
 51
197.1208257554
  0
ARC
  5
2B1
100
AcDbEntity
  8
LAYER_CUT_FEAT
100
AcDbCircle
 62
7
  6
CONTINUOUS
 10
15.5603954046
 20
5.460803982
 40
0.7971428571
100
AcDbArc
 50
92.8791742446
 51
125.1208257554
  0
ARC
  5
2B2
100
AcDbEntity
  8
LAYER_CUT_FEAT
100
AcDbCircle
 62
7
  6
CONTINUOUS
 10
15.5603954046
 20
5.460803982
 40
0.7971428571
100
AcDbArc
 50
20.8791742446
 51
53.1208257554
  0
ARC
  5
2B3
100
AcDbEntity
  8
LAYER_CUT_FEAT
100
AcDbCircle
 62
7
  6
CONTINUOUS
 10
15.5603954046
 20
5.460803982
 40
0.7971428571
100
AcDbArc
 50
308.8791742446
 51
341.1208257554
  0
CIRCLE
  5
2B4
100
AcDbEntity
  8
02___PRT_ALL_AXES
100
AcDbCircle
 62
7
  6
CONTINUOUS
 10
15.5603954046
 20
5.460803982
 40
0.75
  0
CIRCLE
  5
2B5
100
AcDbEntity
  8
02___PRT_ALL_AXES
100
AcDbCircle
 62
7
  6
CONTINUOUS
 10
15.5603954046
 20
5.460803982
 40
0.741
  0
ARC
  5
2B6
100
AcDbEntity
  8
02___PRT_ALL_AXES
100
AcDbCircle
 62
7
  6
CONTINUOUS
 10
15.5603954046
 20
5.460803982
 40
0.4553571429
100
AcDbArc
 50
231.5004358716
 51
258.4995641284
  0
ARC
  5
2B7
100
AcDbEntity
  8
02___PRT_ALL_AXES
100
AcDbCircle
 62
7
  6
CONTINUOUS
 10
15.5603954046
 20
5.460803982
 40
0.4553571429
100
AcDbArc
 50
151.5004358716
 51
218.4995641284
  0
ARC
  5
2B8
100
AcDbEntity
  8
02___PRT_ALL_AXES
100
AcDbCircle
 62
7
  6
CONTINUOUS
 10
15.5603954046
 20
5.460803982
 40
0.4553571429
100
AcDbArc
 50
63.5004358716
 51
138.4995641284
  0
ARC
  5
2B9
100
AcDbEntity
  8
02___PRT_ALL_AXES
100
AcDbCircle
 62
7
  6
CONTINUOUS
 10
15.5603954046
 20
5.460803982
 40
0.4553571429
100
AcDbArc
 50
271.5004358716
 51
10.4995641284
  0
ARC
  5
2BA
100
AcDbEntity
  8
02___PRT_ALL_AXES
100
AcDbCircle
 62
7
  6
CONTINUOUS
 10
15.5603954046
 20
5.460803982
 40
0.4553571429
100
AcDbArc
 50
23.5004358716
 51
50.4995641284
  0
ARC
  5
2BB
100
AcDbEntity
  8
02___PRT_ALL_AXES
100
AcDbCircle
 62
7
  6
CONTINUOUS
 10
15.5603954046
 20
5.460803982
 40
0.4378754399
100
AcDbArc
 50
217.9856802133
 51
232.0143197867
  0
ARC
  5
2BC
100
AcDbEntity
  8
02___PRT_ALL_AXES
100
AcDbCircle
 62
7
  6
CONTINUOUS
 10
15.5603954046
 20
5.460803982
 40
0.4378754399
100
AcDbArc
 50
49.9856802133
 51
64.0143197867
  0
ARC
  5
2BD
100
AcDbEntity
  8
02___PRT_ALL_AXES
100
AcDbCircle
 62
7
  6
CONTINUOUS
 10
15.5603954046
 20
5.460803982
 40
0.4203937369
100
AcDbArc
 50
23.7673448343
 51
138.2326551657
  0
ARC
  5
2BE
100
AcDbEntity
  8
02___PRT_ALL_AXES
100
AcDbCircle
 62
7
  6
CONTINUOUS
 10
15.5603954046
 20
5.460803982
 40
0.4203937369
100
AcDbArc
 50
151.7673448343
 51
258.2326551657
  0
ARC
  5
2BF
100
AcDbEntity
  8
02___PRT_ALL_AXES
100
AcDbCircle
 62
7
  6
CONTINUOUS
 10
15.5603954046
 20
5.460803982
 40
0.4203937369
100
AcDbArc
 50
271.7673448343
 51
10.2326551657
  0
ARC
  5
2C0
100
AcDbEntity
  8
02___PRT_ALL_AXES
100
AcDbCircle
 62
7
  6
CONTINUOUS
 10
15.2507836497
 20
5.1511922271
 40
0.0535714286
100
AcDbArc
 50
131.5123725022
 51
318.4876274978
  0
ARC
  5
2C1
100
AcDbEntity
  8
02___PRT_ALL_AXES
100
AcDbCircle
 62
7
  6
CONTINUOUS
 10
15.2017238309
 20
5.7119485217
 40
0.0535714286
100
AcDbArc
 50
32.6255906631
 51
257.3744093369
  0
ARC
  5
2C2
100
AcDbEntity
  8
LAYER_CUT_FEAT
100
AcDbCircle
 62
7
  6
CONTINUOUS
 10
14.5548752219
 20
5.8117372554
 40
0.0535714286
100
AcDbArc
 50
55.0
 51
160.7606708717
  0
ARC
  5
2C3
100
AcDbEntity
  8
LAYER_CUT_FEAT
100
AcDbCircle
 62
7
  6
CONTINUOUS
 10
14.7391346514
 20
5.6827174139
 40
0.0535714286
100
AcDbArc
 50
344.8791742446
 51
55.0
  0
ARC
  5
2C4
100
AcDbEntity
  8
LAYER_CUT_FEAT
100
AcDbCircle
 62
7
  6
CONTINUOUS
 10
14.8867178402
 20
6.2856576292
 40
0.0535714286
100
AcDbArc
 50
129.2393291283
 51
235.0
  0
ARC
  5
2C5
100
AcDbEntity
  8
LAYER_CUT_FEAT
100
AcDbCircle
 62
7
  6
CONTINUOUS
 10
15.0709772697
 20
6.1566377878
 40
0.0535714286
100
AcDbArc
 50
235.0
 51
305.1208257554
  0
ARC
  5
2C6
100
AcDbEntity
  8
LAYER_CUT_FEAT
100
AcDbCircle
 62
7
  6
CONTINUOUS
 10
15.5176640904
 20
6.3104443946
 40
0.0535714286
100
AcDbArc
 50
272.8791742446
 51
343.0
  0
ARC
  5
2C7
100
AcDbEntity
  8
0
100
AcDbCircle
 62
7
  6
CONTINUOUS
 10
15.5573028945
 20
6.8469337042
 40
0.0264285714
100
AcDbArc
 50
296.189295886
 51
338.0982258445
  0
ARC
  5
2C8
100
AcDbEntity
  8
0
100
AcDbCircle
 62
7
  6
CONTINUOUS
 10
15.5634879146
 20
6.8469337042
 40
0.0264285714
100
AcDbArc
 50
201.9017741555
 51
243.810704114
  0
ARC
  5
2C9
100
AcDbEntity
  8
0
100
AcDbCircle
 62
7
  6
CONTINUOUS
 10
15.4795868462
 20
6.8445796673
 40
0.0264285714
100
AcDbArc
 50
299.4035816003
 51
341.3125115588
  0
ARC
  5
2CA
100
AcDbEntity
  8
0
100
AcDbCircle
 62
7
  6
CONTINUOUS
 10
15.4857621361
 20
6.8449264641
 40
0.0264285714
100
AcDbArc
 50
205.1160598698
 51
247.0249898283
  0
ARC
  5
2CB
100
AcDbEntity
  8
0
100
AcDbCircle
 62
7
  6
CONTINUOUS
 10
15.4021250514
 20
6.8378717601
 40
0.0264285714
100
AcDbArc
 50
302.6178673145
 51
344.526797273
  0
ARC
  5
2CC
100
AcDbEntity
  8
0
100
AcDbCircle
 62
7
  6
CONTINUOUS
 10
15.4082711814
 20
6.8385642627
 40
0.0264285714
100
AcDbArc
 50
208.3303455841
 51
250.2392755426
  0
ARC
  5
2CD
100
AcDbEntity
  8
0
100
AcDbCircle
 62
7
  6
CONTINUOUS
 10
15.3251612338
 20
6.8268310883
 40
0.0264285714
100
AcDbArc
 50
305.8321530288
 51
347.7410829873
  0
ARC
  5
2CE
100
AcDbEntity
  8
0
100
AcDbCircle
 62
7
  6
CONTINUOUS
 10
15.3312588658
 20
6.8278671177
 40
0.0264285714
100
AcDbArc
 50
211.5446312984
 51
253.4535612569
  0
ARC
  5
2CF
100
AcDbEntity
  8
0
100
AcDbCircle
 62
7
  6
CONTINUOUS
 10
15.5278954046
 20
6.8510982208
 40
0.0050416052
100
AcDbArc
 50
21.9017741555
 51
90.0
  0
ARC
  5
2D0
100
AcDbEntity
  8
0
100
AcDbCircle
 62
7
  6
CONTINUOUS
 10
15.5148898563
 20
6.8507333203
 40
0.0050416052
100
AcDbArc
 50
93.2142857142
 51
161.3125115587
  0
ARC
  5
2D1
100
AcDbEntity
  8
0
100
AcDbCircle
 62
7
  6
CONTINUOUS
 10
15.4499921133
 20
6.8470887412
 40
0.0050416052
100
AcDbArc
 50
25.1160598698
 51
93.2142857144
  0
ARC
  5
2D2
100
AcDbEntity
  8
0
100
AcDbCircle
 62
7
  6
CONTINUOUS
 10
15.4370274853
 20
6.8459951879
 40
0.0050416052
100
AcDbArc
 50
96.4285714287
 51
164.526797273
  0
ARC
  5
2D3
100
AcDbEntity
  8
0
100
AcDbCircle
 62
7
  6
CONTINUOUS
 10
15.3724361917
 20
6.8387174969
 40
0.0050416052
100
AcDbArc
 50
28.3303455841
 51
96.4285714287
  0
ARC
  5
2D4
100
AcDbEntity
  8
0
100
AcDbCircle
 62
7
  6
CONTINUOUS
 10
15.3595532754
 20
6.8368987315
 40
0.0050416052
100
AcDbArc
 50
99.642857143
 51
167.7410829873
  0
ARC
  5
2D5
100
AcDbEntity
  8
0
100
AcDbCircle
 62
7
  6
CONTINUOUS
 10
15.2954716592
 20
6.826010827
 40
0.0050416052
100
AcDbArc
 50
31.5446312984
 51
99.642857143
  0
ARC
  5
2D6
100
AcDbEntity
  8
02___PRT_ALL_AXES
100
AcDbCircle
 62
7
  6
CONTINUOUS
 10
15.9791202727
 20
5.5888210213
 40
0.0535714286
100
AcDbArc
 50
264.6255906631
 51
129.3744093369
  0
ARC
  5
2D7
100
AcDbEntity
  8
LAYER_CUT_FEAT
100
AcDbCircle
 62
7
  6
CONTINUOUS
 10
15.6205751937
 20
4.3975056265
 40
0.0535714286
100
AcDbArc
 50
273.2393291283
 51
19.0
  0
ARC
  5
2D8
100
AcDbEntity
  8
LAYER_CUT_FEAT
100
AcDbCircle
 62
7
  6
CONTINUOUS
 10
16.1676049179
 20
4.5858630658
 40
0.0535714286
100
AcDbArc
 50
199.0
 51
304.7606708717
  0
ARC
  5
2D9
100
AcDbEntity
  8
LAYER_CUT_FEAT
100
AcDbCircle
 62
7
  6
CONTINUOUS
 10
16.590248812
 20
5.1894611007
 40
0.0535714286
100
AcDbArc
 50
345.2393291283
 51
91.0
  0
ARC
  5
2DA
100
AcDbEntity
  8
LAYER_CUT_FEAT
100
AcDbCircle
 62
7
  6
CONTINUOUS
 10
16.3653438421
 20
5.1855353698
 40
0.0535714286
100
AcDbArc
 50
91.0
 51
161.1208257554
  0
ARC
  5
2DB
100
AcDbEntity
  8
LAYER_CUT_FEAT
100
AcDbCircle
 62
7
  6
CONTINUOUS
 10
16.0943718681
 20
4.7985472854
 40
0.0535714286
100
AcDbArc
 50
128.8791742446
 51
199.0
  0
ARC
  5
2DC
100
AcDbEntity
  8
02___PRT_ALL_AXES
100
AcDbCircle
 62
7
  6
CONTINUOUS
 10
15.7988694963
 20
5.8280218807
 40
0.0535714286
100
AcDbArc
 50
323.5123725022
 51
150.4876274978
  0
ARC
  5
2DD
100
AcDbEntity
  8
LAYER_CUT_FEAT
100
AcDbCircle
 62
7
  6
CONTINUOUS
 10
15.5834299564
 20
6.5255548493
 40
0.0535714286
100
AcDbArc
 50
343.0
 51
88.7606708717
  0
ARC
  5
2DE
100
AcDbEntity
  8
LAYER_CUT_FEAT
100
AcDbCircle
 62
7
  6
CONTINUOUS
 10
16.5801517231
 20
5.7679229342
 40
0.0535714286
100
AcDbArc
 50
271.0
 51
16.7606708717
  0
ARC
  5
2DF
100
AcDbEntity
  8
LAYER_CUT_FEAT
100
AcDbCircle
 62
7
  6
CONTINUOUS
 10
16.1367000246
 20
6.3564032143
 40
0.0535714286
100
AcDbArc
 50
57.2393291283
 51
163.0
  0
ARC
  5
2E0
100
AcDbEntity
  8
LAYER_CUT_FEAT
100
AcDbCircle
 62
7
  6
CONTINUOUS
 10
16.0709341587
 20
6.1412927596
 40
0.0535714286
100
AcDbArc
 50
163.0
 51
233.1208257553
  0
ARC
  5
2E1
100
AcDbEntity
  8
LAYER_CUT_FEAT
100
AcDbCircle
 62
7
  6
CONTINUOUS
 10
16.3552467532
 20
5.7639972034
 40
0.0535714286
100
AcDbArc
 50
200.8791742446
 51
271.0
  0
ARC
  5
2E2
100
AcDbEntity
  8
0
100
AcDbCircle
 62
7
  6
CONTINUOUS
 10
15.5928954046
 20
6.8510982208
 40
0.0050416052
100
AcDbArc
 50
89.9999999999
 51
158.0982258445
  0
ARC
  5
2E3
100
AcDbEntity
  8
02___PRT_ALL_AXES
100
AcDbCircle
 62
7
  6
CONTINUOUS
 10
13.0692243992
 20
-20.2062469652
 40
32.3801921464
100
AcDbArc
 50
85.3479298754
 51
85.5087890337
  0
ARC
  5
2E4
100
AcDbEntity
  8
02___PRT_ALL_AXES
100
AcDbCircle
 62
7
  6
CONTINUOUS
 10
17.5883292696
 20
-16.4462051228
 40
29.4575425078
100
AcDbArc
 50
93.6733924137
 51
93.9068716748
  0
ARC
  5
2E5
100
AcDbEntity
  8
02___PRT_ALL_AXES
100
AcDbCircle
 62
7
  6
CONTINUOUS
 10
14.3342440401
 20
30.2008559488
 40
17.3446463251
100
AcDbArc
 50
274.0634696828
 51
274.6434975856
  0
ARC
  5
2E6
100
AcDbEntity
  8
02___PRT_ALL_AXES
100
AcDbCircle
 62
7
  6
CONTINUOUS
 10
16.2809711279
 20
25.82892491
 40
13.6761433366
100
AcDbArc
 50
266.8794241411
 51
267.856538426
  0
ARC
  5
2E7
100
AcDbEntity
  8
0
100
AcDbCircle
 62
7
  6
CONTINUOUS
 10
17.1486047138
 20
12.6636167846
 40
2.4850296462
100
AcDbArc
 50
166.9958655978
 51
167.2670416425
  0
ARC
  5
2E8
100
AcDbEntity
  8
0
100
AcDbCircle
 62
7
  6
CONTINUOUS
 10
17.6957903431
 20
12.6648620737
 40
2.4794382589
100
AcDbArc
 50
166.9955598324
 51
167.267347408
  0
ARC
  5
2E9
100
AcDbEntity
  8
0
100
AcDbCircle
 62
7
  6
CONTINUOUS
 10
16.9537873941
 20
12.7109755441
 40
2.2845320014
100
AcDbArc
 50
165.3441089589
 51
165.6309151262
  0
ARC
  5
2EA
100
AcDbEntity
  8
0
100
AcDbCircle
 62
7
  6
CONTINUOUS
 10
17.5008646067
 20
12.7124145913
 40
2.2787894063
100
AcDbArc
 50
165.3437475795
 51
165.6312765056
  0
ARC
  5
2EB
100
AcDbEntity
  8
0
100
AcDbCircle
 62
7
  6
CONTINUOUS
 10
16.7569799364
 20
12.7650087385
 40
2.0804343018
100
AcDbArc
 50
163.590434221
 51
163.8956903727
  0
ARC
  5
2EC
100
AcDbEntity
  8
0
100
AcDbCircle
 62
7
  6
CONTINUOUS
 10
17.3040555064
 20
12.7666303605
 40
2.074641683
100
AcDbArc
 50
163.5900080662
 51
163.8961165274
  0
ARC
  5
2ED
100
AcDbEntity
  8
02___PRT_ALL_AXES
100
AcDbCircle
 62
7
  6
CONTINUOUS
 10
14.5306209203
 20
12.9667144208
 40
1.057269184
100
AcDbArc
 50
23.1982143086
 51
27.1806918268
  0
ARC
  5
2EE
100
AcDbEntity
  8
02___PRT_ALL_AXES
100
AcDbCircle
 62
7
  6
CONTINUOUS
 10
14.5764733516
 20
12.9787284911
 40
1.0131986028
100
AcDbArc
 50
23.7822057786
 51
27.8460698946
  0
ARC
  5
2EF
100
AcDbEntity
  8
02___PRT_ALL_AXES
100
AcDbCircle
 62
7
  6
CONTINUOUS
 10
15.9182166876
 20
13.2593577482
 40
0.4836289554
100
AcDbArc
 50
138.8948692849
 51
139.6520450466
  0
ARC
  5
2F0
100
AcDbEntity
  8
02___PRT_ALL_AXES
100
AcDbCircle
 62
7
  6
CONTINUOUS
 10
15.9165987466
 20
11.7609211077
 40
0.4814909708
100
AcDbArc
 50
220.5234650309
 51
221.1023849769
  0
ARC
  5
2F1
100
AcDbEntity
  8
02___PRT_ALL_AXES
100
AcDbCircle
 62
7
  6
CONTINUOUS
 10
15.5450872952
 20
12.033022862
 40
0.3024107246
100
AcDbArc
 50
318.1549142931
 51
320.1698628594
  0
ARC
  5
2F2
100
AcDbEntity
  8
02___PRT_ALL_AXES
100
AcDbCircle
 62
7
  6
CONTINUOUS
 10
15.5451627259
 20
12.9887184853
 40
0.3023112522
100
AcDbArc
 50
39.8298534837
 51
41.8561296771
  0
ARC
  5
2F3
100
AcDbEntity
  8
LAYER_CUT_FEAT
100
AcDbCircle
 62
7
  6
CONTINUOUS
 10
15.4717718643
 20
11.9391726733
 40
0.242980171
100
AcDbArc
 50
310.5866689077
 51
312.7209670064
  0
ARC
  5
2F4
100
AcDbEntity
  8
0
100
AcDbCircle
 62
7
  6
CONTINUOUS
 10
14.7301288644
 20
13.2337906919
 40
0.0153311291
100
AcDbArc
 50
325.6601582152
 51
327.9039676125
  0
SPLINE
  5
2F5
100
AcDbEntity
  8
0
100
AcDbSpline
 62
7
  6
CONTINUOUS
 70
0
 71
3
 72
11
 73
7
 74
0
 42
0.0000001
 43
0.0000001
 44
0.0000000001
 40
0.0
 40
0.0
 40
0.0
 40
0.0
 40
0.265493368
 40
0.5253548118
 40
0.7723713844
 40
1.0
 40
1.0
 40
1.0
 40
1.0
 10
14.7314347722
 20
13.1745094156
 30
0.0
 10
14.7314632074
 20
13.1761164137
 30
0.0
 10
14.7314069346
 20
13.1792994445
 30
0.0
 10
14.7309901725
 20
13.1839608098
 30
0.0
 10
14.7302556093
 20
13.1883507675
 30
0.0
 10
14.7295355468
 20
13.1911380922
 30
0.0
 10
14.7291169668
 20
13.1924510045
 30
0.0
  0
SPLINE
  5
2F6
100
AcDbEntity
  8
0
100
AcDbSpline
 62
7
  6
CONTINUOUS
 70
0
 71
3
 72
11
 73
7
 74
0
 42
0.0000001
 43
0.0000001
 44
0.0000000001
 40
0.0
 40
0.0
 40
0.0
 40
0.0
 40
0.2332605325
 40
0.4902697556
 40
0.7523106374
 40
1.0
 40
1.0
 40
1.0
 40
1.0
 10
14.7770226441
 20
13.4036510369
 30
0.0
 10
14.7768921762
 20
13.4032288426
 30
0.0
 10
14.7766971588
 20
13.4023166702
 30
0.0
 10
14.7765749625
 20
13.4008938469
 30
0.0
 10
14.7766144097
 20
13.3994389457
 30
0.0
 10
14.7767529571
 20
13.3984800323
 30
0.0
 10
14.7768545626
 20
13.3980219372
 30
0.0
  0
SPLINE
  5
2F7
100
AcDbEntity
  8
0
100
AcDbSpline
 62
7
  6
CONTINUOUS
 70
0
 71
3
 72
11
 73
7
 74
0
 42
0.0000001
 43
0.0000001
 44
0.0000000001
 40
0.0
 40
0.0
 40
0.0
 40
0.0
 40
0.2553265308
 40
0.511876777
 40
0.7624139533
 40
1.0
 40
1.0
 40
1.0
 40
1.0
 10
14.7812727964
 20
13.3644427742
 30
0.0
 10
14.7814074097
 20
13.366035607
 30
0.0
 10
14.7815585848
 20
13.3692399834
 30
0.0
 10
14.7814473234
 20
13.3740157435
 30
0.0
 10
14.7810046398
 20
13.3786608045
 30
0.0
 10
14.7804801565
 20
13.3816757051
 30
0.0
 10
14.780158069
 20
13.3831278583
 30
0.0
  0
SPLINE
  5
2F8
100
AcDbEntity
  8
0
100
AcDbSpline
 62
7
  6
CONTINUOUS
 70
0
 71
3
 72
11
 73
7
 74
0
 42
0.0000001
 43
0.0000001
 44
0.0000000001
 40
0.0
 40
0.0
 40
0.0
 40
0.0
 40
0.2385313852
 40
0.4974047088
 40
0.757619944
 40
1.0
 40
1.0
 40
1.0
 40
1.0
 10
14.7581854287
 20
13.342094001
 30
0.0
 10
14.7580653833
 20
13.3416573186
 30
0.0
 10
14.7578908406
 20
13.3407254626
 30
0.0
 10
14.7577987256
 20
13.3392871001
 30
0.0
 10
14.7578687309
 20
13.3378401661
 30
0.0
 10
14.7580281871
 20
13.3368958239
 30
0.0
 10
14.7581405221
 20
13.3364495557
 30
0.0
  0
SPLINE
  5
2F9
100
AcDbEntity
  8
0
100
AcDbSpline
 62
7
  6
CONTINUOUS
 70
0
 71
3
 72
11
 73
7
 74
0
 42
0.0000001
 43
0.0000001
 44
0.0000000001
 40
0.0
 40
0.0
 40
0.0
 40
0.0
 40
0.2586652807
 40
0.5163144187
 40
0.7657025236
 40
1.0
 40
1.0
 40
1.0
 40
1.0
 10
14.7632850016
 20
13.3035593789
 30
0.0
 10
14.7633841865
 20
13.3051620207
 30
0.0
 10
14.7634658026
 20
13.3083692783
 30
0.0
 10
14.763251905
 20
13.3131216113
 30
0.0
 10
14.7627100668
 20
13.3176956711
 30
0.0
 10
14.7621190793
 20
13.3206441218
 30
0.0
 10
14.7617640416
 20
13.3220545637
 30
0.0
  0
SPLINE
  5
2FA
100
AcDbEntity
  8
0
100
AcDbSpline
 62
7
  6
CONTINUOUS
 70
0
 71
3
 72
11
 73
7
 74
0
 42
0.0000001
 43
0.0000001
 44
0.0000000001
 40
0.0
 40
0.0
 40
0.0
 40
0.0
 40
0.2438196096
 40
0.5045327422
 40
0.7629021501
 40
1.0
 40
1.0
 40
1.0
 40
1.0
 10
14.7407219369
 20
13.277921527
 30
0.0
 10
14.7406125024
 20
13.2774718914
 30
0.0
 10
14.7404587082
 20
13.2765232933
 30
0.0
 10
14.7403969878
 20
13.2750737576
 30
0.0
 10
14.7404973128
 20
13.2736391881
 30
0.0
 10
14.7406774491
 20
13.2727123922
 30
0.0
 10
14.7408003467
 20
13.2722794956
 30
0.0
  0
SPLINE
  5
2FB
100
AcDbEntity
  8
0
100
AcDbSpline
 62
7
  6
CONTINUOUS
 70
0
 71
3
 72
11
 73
7
 74
0
 42
0.0000001
 43
0.0000001
 44
0.0000000001
 40
0.0
 40
0.0
 40
0.0
 40
0.0
 40
0.2620506212
 40
0.5208027721
 40
0.7690189814
 40
1.0
 40
1.0
 40
1.0
 40
1.0
 10
14.7466548854
 20
13.2401817896
 30
0.0
 10
14.7467186415
 20
13.2417891511
 30
0.0
 10
14.7467310336
 20
13.2449892734
 30
0.0
 10
14.7464151924
 20
13.2497034301
 30
0.0
 10
14.7457759568
 20
13.2541923553
 30
0.0
 10
14.7451197122
 20
13.2570648831
 30
0.0
 10
14.7447324784
 20
13.2584288825
 30
0.0
  0
SPLINE
  5
2FC
100
AcDbEntity
  8
0
100
AcDbSpline
 62
7
  6
CONTINUOUS
 70
0
 71
3
 72
11
 73
7
 74
0
 42
0.0000001
 43
0.0000001
 44
0.0000000001
 40
0.0
 40
0.0
 40
0.0
 40
0.0
 40
0.2491386722
 40
0.5116728492
 40
0.7681704889
 40
1.0
 40
1.0
 40
1.0
 40
1.0
 10
14.7246871155
 20
13.2113355251
 30
0.0
 10
14.7245884508
 20
13.2108744848
 30
0.0
 10
14.7244556165
 20
13.2099121309
 30
0.0
 10
14.7244245013
 20
13.2084558284
 30
0.0
 10
14.7245548046
 20
13.2070379752
 30
0.0
 10
14.724755331
 20
13.2061316531
 30
0.0
 10
14.7248885949
 20
13.2057136596
 30
0.0
  0
SPLINE
  5
2FD
100
AcDbEntity
  8
LAYER_CUT_FEAT
100
AcDbSpline
 62
7
  6
CONTINUOUS
 70
0
 71
3
 72
16
 73
12
 74
0
 42
0.0000001
 43
0.0000001
 44
0.0000000001
 40
0.0
 40
0.0
 40
0.0
 40
0.0
 40
0.0423022728
 40
0.0853700482
 40
0.1763992149
 40
0.277909847
 40
0.3927952197
 40
0.5224776836
 40
0.6672937061
 40
0.8267997891
 40
1.0
 40
1.0
 40
1.0
 40
1.0
 10
15.8637002696
 20
13.2024521103
 30
0.0
 10
15.8633006666
 20
13.202452112
 30
0.0
 10
15.8624929697
 20
13.2023920459
 30
0.0
 10
15.860861785
 20
13.2020279543
 30
0.0
 10
15.8588153847
 20
13.2010863902
 30
0.0
 10
15.8565079573
 20
13.1992926038
 30
0.0
 10
15.8543124868
 20
13.1968522898
 30
0.0
 10
15.8522478777
 20
13.1937971913
 30
0.0
 10
15.8503342659
 20
13.190163946
 30
0.0
 10
15.8485942358
 20
13.1859970227
 30
0.0
 10
15.8476023054
 20
13.1830117113
 30
0.0
 10
15.8471349099
 20
13.1814437802
 30
0.0
  0
SPLINE
  5
2FE
100
AcDbEntity
  8
LAYER_CUT_FEAT
100
AcDbSpline
 62
7
  6
CONTINUOUS
 70
0
 71
3
 72
11
 73
7
 74
0
 42
0.0000001
 43
0.0000001
 44
0.0000000001
 40
0.0
 40
0.0
 40
0.0
 40
0.0
 40
0.234126484
 40
0.4790418943
 40
0.7344556081
 40
1.0
 40
1.0
 40
1.0
 40
1.0
 10
15.6146736673
 20
11.6071816908
 30
0.0
 10
15.6210550072
 20
11.6191364505
 30
0.0
 10
15.633534173
 20
11.6439085858
 30
0.0
 10
15.6510485998
 20
11.6826552665
 30
0.0
 10
15.6677385952
 20
11.7237330397
 30
0.0
 10
15.6780890931
 20
11.7520614191
 30
0.0
 10
15.6831287602
 20
11.7665814688
 30
0.0
  0
SPLINE
  5
2FF
100
AcDbEntity
  8
02___PRT_ALL_AXES
100
AcDbSpline
 62
7
  6
CONTINUOUS
 70
0
 71
3
 72
21
 73
17
 74
0
 42
0.0000001
 43
0.0000001
 44
0.0000000001
 40
0.0
 40
0.0
 40
0.0
 40
0.0
 40
0.0332702841
 40
0.0683547344
 40
0.1067457253
 40
0.1494755558
 40
0.1971458501
 40
0.25001822
 40
0.3081006978
 40
0.3712126092
 40
0.4390301309
 40
0.5111184232
 40
0.5869552763
 40
0.6659495845
 40
0.8307549514
 40
1.0
 40
1.0
 40
1.0
 40
1.0
 10
15.6010315494
 20
12.9794791491
 30
0.0
 10
15.6003230349
 20
12.9794791581
 30
0.0
 10
15.5988611675
 20
12.9792836682
 30
0.0
 10
15.5967350847
 20
12.9784256886
 30
0.0
 10
15.5946744505
 20
12.9770278413
 30
0.0
 10
15.5926944147
 20
12.9751146749
 30
0.0
 10
15.590806817
 20
12.9727078185
 30
0.0
 10
15.5890262301
 20
12.9698305828
 30
0.0
 10
15.5873682572
 20
12.9665104132
 30
0.0
 10
15.5858486949
 20
12.9627795369
 30
0.0
 10
15.5844825945
 20
12.9586747973
 30
0.0
 10
15.5832838077
 20
12.9542372425
 30
0.0
 10
15.5822644928
 20
12.9495115334
 30
0.0
 10
15.581143364
 20
12.9427954828
 30
0.0
 10
15.5802700071
 20
12.9340320685
 30
0.0
 10
15.5801262511
 20
12.926911419
 30
0.0
 10
15.5801944339
 20
12.9233078695
 30
0.0
  0
SPLINE
  5
300
100
AcDbEntity
  8
02___PRT_ALL_AXES
100
AcDbSpline
 62
7
  6
CONTINUOUS
 70
0
 71
3
 72
17
 73
13
 74
0
 42
0.0000001
 43
0.0000001
 44
0.0000000001
 40
0.0
 40
0.0
 40
0.0
 40
0.0
 40
0.0422199781
 40
0.0852101016
 40
0.1296909563
 40
0.1762951502
 40
0.277730983
 40
0.3925951444
 40
0.5223008283
 40
0.6671698573
 40
0.8267411218
 40
1.0
 40
1.0
 40
1.0
 40
1.0
 10
15.7176304688
 20
12.9719847893
 30
0.0
 10
15.7172292206
 20
12.9719847943
 30
0.0
 10
15.7164181699
 20
12.9719242821
 30
0.0
 10
15.7152116469
 20
12.9716535721
 30
0.0
 10
15.7140150857
 20
12.971204457
 30
0.0
 10
15.7123938155
 20
12.9703473467
 30
0.0
 10
15.7104080854
 20
12.9687986545
 30
0.0
 10
15.7082068434
 20
12.9663393116
 30
0.0
 10
15.706136054
 20
12.9632603115
 30
0.0
 10
15.7042185728
 20
12.9595995272
 30
0.0
 10
15.7024764569
 20
12.9554019134
 30
0.0
 10
15.7014845687
 20
12.9523952277
 30
0.0
 10
15.7010175345
 20
12.9508162401
 30
0.0
  0
SPLINE
  5
301
100
AcDbEntity
  8
LAYER_CUT_FEAT
100
AcDbSpline
 62
7
  6
CONTINUOUS
 70
0
 71
3
 72
17
 73
13
 74
0
 42
0.0000001
 43
0.0000001
 44
0.0000000001
 40
0.0
 40
0.0
 40
0.0
 40
0.0
 40
0.117966943
 40
0.2453268959
 40
0.3785705667
 40
0.5138778191
 40
0.647323793
 40
0.7750779303
 40
0.8357148048
 40
0.8936425472
 40
0.9485056292
 40
1.0
 40
1.0
 40
1.0
 40
1.0
 10
15.5276805991
 20
13.4679859199
 30
0.0
 10
15.5285035425
 20
13.4707465766
 30
0.0
 10
15.5299036363
 20
13.4765825705
 30
0.0
 10
15.5312851939
 20
13.4857323248
 30
0.0
 10
15.5319976705
 20
13.4953829993
 30
0.0
 10
15.5320157795
 20
13.5052079666
 30
0.0
 10
15.5313387515
 20
13.5148751023
 30
0.0
 10
15.5301965857
 20
13.5226604239
 30
0.0
 10
15.528936708
 20
13.5285438226
 30
0.0
 10
15.5278565818
 20
13.5326406427
 30
0.0
 10
15.5266344661
 20
13.5364636533
 30
0.0
 10
15.5257007478
 20
13.5388893833
 30
0.0
 10
15.5252089124
 20
13.5400466788
 30
0.0
  0
SPLINE
  5
302
100
AcDbEntity
  8
02___PRT_ALL_AXES
100
AcDbSpline
 62
7
  6
CONTINUOUS
 70
0
 71
3
 72
25
 73
21
 74
0
 42
0.0000001
 43
0.0000001
 44
0.0000000001
 40
0.0
 40
0.0
 40
0.0
 40
0.0
 40
0.018855614
 40
0.0379498464
 40
0.0574069019
 40
0.0773416574
 40
0.1190226099
 40
0.1637241868
 40
0.2119586575
 40
0.2640706462
 40
0.3202636617
 40
0.3806259217
 40
0.4451525241
 40
0.5137628294
 40
0.5863140382
 40
0.662611833
 40
0.7424185475
 40
0.8254600172
 40
0.9114306432
 40
1.0
 40
1.0
 40
1.0
 40
1.0
 10
15.6500793138
 20
12.0556801665
 30
0.0
 10
15.6479690898
 20
12.0558404402
 30
0.0
 10
15.6437342848
 20
12.0563576058
 30
0.0
 10
15.6374263326
 20
12.0577089201
 30
0.0
 10
15.6311429396
 20
12.059636785
 30
0.0
 10
15.6226865055
 20
12.063020409
 30
0.0
 10
15.6121738032
 20
12.0687681744
 30
0.0
 10
15.6000092723
 20
12.0777957992
 30
0.0
 10
15.5881520589
 20
12.0889991065
 30
0.0
 10
15.5766534903
 20
12.1023171683
 30
0.0
 10
15.5655621323
 20
12.1176837531
 30
0.0
 10
15.5549285801
 20
12.1350235652
 30
0.0
 10
15.5448030328
 20
12.1542517984
 30
0.0
 10
15.5352346823
 20
12.1752738004
 30
0.0
 10
15.5262707856
 20
12.1979854267
 30
0.0
 10
15.5179561612
 20
12.2222735731
 30
0.0
 10
15.5103326092
 20
12.2480167389
 30
0.0
 10
15.50343867
 20
12.2750858466
 30
0.0
 10
15.4973092877
 20
12.3033445019
 30
0.0
 10
15.4938008358
 20
12.3226218078
 30
0.0
 10
15.4921745365
 20
12.3324286536
 30
0.0
  0
LINE
  5
303
100
AcDbEntity
  8
0
100
AcDbLine
 62
7
  6
CONTINUOUS
 10
14.7264839786
 20
13.1569679196
 11
14.7282196334
 21
13.1594857099
  0
SPLINE
  5
304
100
AcDbEntity
  8
0
100
AcDbSpline
 62
7
  6
CONTINUOUS
 70
0
 71
3
 72
14
 73
10
 74
0
 42
0.0000001
 43
0.0000001
 44
0.0000000001
 40
0.0
 40
0.0
 40
0.0
 40
0.0
 40
0.0798618753
 40
0.1670373113
 40
0.2668341577
 40
0.3821051763
 40
0.5138220106
 40
0.661652387
 40
1.0
 40
1.0
 40
1.0
 40
1.0
 10
14.7142169777
 20
13.1569841251
 30
0.0
 10
14.7141285639
 20
13.1569841382
 30
0.0
 10
14.7139424624
 20
13.1569505744
 30
0.0
 10
14.7136797732
 20
13.1568074836
 30
0.0
 10
14.7134315646
 20
13.156579416
 30
0.0
 10
14.7131995442
 20
13.156271617
 30
0.0
 10
14.7129859779
 20
13.155889023
 30
0.0
 10
14.7127180853
 20
13.1552586144
 30
0.0
 10
14.7125747677
 20
13.1547369263
 30
0.0
 10
14.712496381
 20
13.1543706408
 30
0.0
  0
SPLINE
  5
305
100
AcDbEntity
  8
02___PRT_ALL_AXES
100
AcDbSpline
 62
7
  6
CONTINUOUS
 70
0
 71
3
 72
30
 73
26
 74
0
 42
0.0000001
 43
0.0000001
 44
0.0000000001
 40
0.0
 40
0.0
 40
0.0
 40
0.0
 40
0.0260466569
 40
0.054027126
 40
0.0838730759
 40
0.1154862281
 40
0.1834725852
 40
0.256759426
 40
0.3338568515
 40
0.413118132
 40
0.4928123367
 40
0.5711920942
 40
0.6465604341
 40
0.7173403107
 40
0.7821521677
 40
0.8119776726
 40
0.8399360799
 40
0.8659608566
 40
0.8900255991
 40
0.9121543683
 40
0.932435262
 40
0.9510373913
 40
0.9682286987
 40
0.9843882727
 40
1.0
 40
1.0
 40
1.0
 40
1.0
 10
15.4807268278
 20
12.4312516258
 30
0.0
 10
15.4802354002
 20
12.4304522881
 30
0.0
 10
15.4792838292
 20
12.4287520432
 30
0.0
 10
15.4779897695
 20
12.4260196611
 30
0.0
 10
15.476785012
 20
12.4230294789
 30
0.0
 10
15.4752716553
 20
12.4186168196
 30
0.0
 10
15.4736777034
 20
12.412587104
 30
0.0
 10
15.4722667344
 20
12.4048412962
 30
0.0
 10
15.471351267
 20
12.3966129753
 30
0.0
 10
15.4709553961
 20
12.3881129185
 30
0.0
 10
15.4710896487
 20
12.3795585261
 30
0.0
 10
15.4717504624
 20
12.371169115
 30
0.0
 10
15.4729202946
 20
12.3631589085
 30
0.0
 10
15.4745683952
 20
12.3557326679
 30
0.0
 10
15.4763504016
 20
12.3500356925
 30
0.0
 10
15.4780038615
 20
12.3459381404
 30
0.0
 10
15.4792990507
 20
12.3432086263
 30
0.0
 10
15.4806754387
 20
12.3407540645
 30
0.0
 10
15.4821247939
 20
12.3385897424
 30
0.0
 10
15.483638719
 20
12.3367290685
 30
0.0
 10
15.4852091253
 20
12.3351837419
 30
0.0
 10
15.486828212
 20
12.3339643026
 30
0.0
 10
15.4884885182
 20
12.3330810115
 30
0.0
 10
15.4901796999
 20
12.3325444858
 30
0.0
 10
15.4913275226
 20
12.3324236889
 30
0.0
 10
15.4918899277
 20
12.3324236729
 30
0.0
  0
SPLINE
  5
306
100
AcDbEntity
  8
02___PRT_ALL_AXES
100
AcDbSpline
 62
7
  6
CONTINUOUS
 70
0
 71
3
 72
20
 73
16
 74
0
 42
0.0000001
 43
0.0000001
 44
0.0000000001
 40
0.0
 40
0.0
 40
0.0
 40
0.0
 40
0.176202215
 40
0.3403421739
 40
0.4899080872
 40
0.5586409678
 40
0.6231061537
 40
0.6832241985
 40
0.7390026135
 40
0.7905569389
 40
0.8381372335
 40
0.8821589838
 40
0.9232324659
 40
0.9621770856
 40
1.0
 40
1.0
 40
1.0
 40
1.0
 10
15.6555253739
 20
12.0554813998
 30
0.0
 10
15.6559046789
 20
12.0531124446
 30
0.0
 10
15.6567822054
 20
12.0485578059
 30
0.0
 10
15.6585202664
 20
12.0421114587
 30
0.0
 10
15.6603031862
 20
12.0372093198
 30
0.0
 10
15.6619105074
 20
12.0337087335
 30
0.0
 10
15.6631520404
 20
12.031385702
 30
0.0
 10
15.6644570213
 20
12.0293027464
 30
0.0
 10
15.665818985
 20
12.0274707907
 30
0.0
 10
15.6672313729
 20
12.0258994654
 30
0.0
 10
15.6686878551
 20
12.0245972911
 30
0.0
 10
15.6701821735
 20
12.0235720579
 30
0.0
 10
15.6717080871
 20
12.0228313328
 30
0.0
 10
15.67325702
 20
12.0223826286
 30
0.0
 10
15.6743048163
 20
12.0222818383
 30
0.0
 10
15.6748198045
 20
12.0222818459
 30
0.0
  0
SPLINE
  5
307
100
AcDbEntity
  8
02___PRT_ALL_AXES
100
AcDbSpline
 62
7
  6
CONTINUOUS
 70
0
 71
3
 72
14
 73
10
 74
0
 42
0.0000001
 43
0.0000001
 44
0.0000000001
 40
0.0
 40
0.0
 40
0.0
 40
0.0
 40
0.2951450407
 40
0.4289628503
 40
0.5544930202
 40
0.672811753
 40
0.7853158318
 40
0.8937202183
 40
1.0
 40
1.0
 40
1.0
 40
1.0
 10
15.7694596225
 20
12.1623506303
 30
0.0
 10
15.7701562187
 20
12.1614135017
 30
0.0
 10
15.7712607028
 20
12.1601119245
 30
0.0
 10
15.7729011917
 20
12.1586510766
 30
0.0
 10
15.774116336
 20
12.1577763079
 30
0.0
 10
15.775352214
 20
12.1570904868
 30
0.0
 10
15.7766049791
 20
12.1565971599
 30
0.0
 10
15.7778694315
 20
12.1562995832
 30
0.0
 10
15.7787201933
 20
12.1562330306
 30
0.0
 10
15.779140664
 20
12.1562330336
 30
0.0
  0
SPLINE
  5
308
100
AcDbEntity
  8
LAYER_CUT_FEAT
100
AcDbSpline
 62
7
  6
CONTINUOUS
 70
0
 71
3
 72
21
 73
17
 74
0
 42
0.0000001
 43
0.0000001
 44
0.0000000001
 40
0.0
 40
0.0
 40
0.0
 40
0.0
 40
0.1699435403
 40
0.3349080389
 40
0.413833597
 40
0.4895335287
 40
0.5614399525
 40
0.6290536054
 40
0.6919619033
 40
0.7498621391
 40
0.8025930571
 40
0.8501795093
 40
0.8928956157
 40
0.9313478896
 40
0.9665605525
 40
1.0
 40
1.0
 40
1.0
 40
1.0
 10
15.6134078456
 20
11.4803004363
 30
0.0
 10
15.6133732669
 20
11.4767528288
 30
0.0
 10
15.6135739118
 20
11.4697561959
 30
0.0
 10
15.6144988136
 20
11.4611560598
 30
0.0
 10
15.6156478128
 20
11.4545818376
 30
0.0
 10
15.6166802558
 20
11.4499648056
 30
0.0
 10
15.6178854118
 20
11.4456342046
 30
0.0
 10
15.6192514227
 20
11.4416323474
 30
0.0
 10
15.6207648563
 20
11.4379980794
 30
0.0
 10
15.6224111855
 20
11.4347662365
 30
0.0
 10
15.6241752234
 20
11.4319672777
 30
0.0
 10
15.6260420123
 20
11.4296271662
 30
0.0
 10
15.6279975811
 20
11.4277680365
 30
0.0
 10
15.6300304574
 20
11.4264105404
 30
0.0
 10
15.6321257638
 20
11.4255780403
 30
0.0
 10
15.6335649221
 20
11.4253885401
 30
0.0
 10
15.6342630108
 20
11.4253885528
 30
0.0
  0
SPLINE
  5
309
100
AcDbEntity
  8
LAYER_CUT_FEAT
100
AcDbSpline
 62
7
  6
CONTINUOUS
 70
0
 71
3
 72
18
 73
14
 74
0
 42
0.0000001
 43
0.0000001
 44
0.0000000001
 40
0.0
 40
0.0
 40
0.0
 40
0.0
 40
0.0394407753
 40
0.0822927249
 40
0.1287178306
 40
0.1787729654
 40
0.2324250576
 40
0.2895720077
 40
0.4136318921
 40
0.5492020703
 40
0.6939551609
 40
0.8451974557
 40
1.0
 40
1.0
 40
1.0
 40
1.0
 10
15.6298541656
 20
11.754648015
 30
0.0
 10
15.6293283675
 20
11.7541976707
 30
0.0
 10
15.62829208
 20
11.753185816
 30
0.0
 10
15.6268495483
 20
11.7514426876
 30
0.0
 10
15.6254640462
 20
11.7494238213
 30
0.0
 10
15.6241432284
 20
11.7471409442
 30
0.0
 10
15.6228941195
 20
11.7446067762
 30
0.0
 10
15.6212899101
 20
11.7408072031
 30
0.0
 10
15.6195360977
 20
11.7355210689
 30
0.0
 10
15.6178697249
 20
11.7286147066
 30
0.0
 10
15.6166269172
 20
11.7211360478
 30
0.0
 10
15.6158370821
 20
11.713257925
 30
0.0
 10
15.6156261333
 20
11.7078863262
 30
0.0
 10
15.6155996498
 20
11.7051692378
 30
0.0
  0
SPLINE
  5
30A
100
AcDbEntity
  8
LAYER_CUT_FEAT
100
AcDbSpline
 62
7
  6
CONTINUOUS
 70
0
 71
3
 72
18
 73
14
 74
0
 42
0.0000001
 43
0.0000001
 44
0.0000000001
 40
0.0
 40
0.0
 40
0.0
 40
0.0
 40
0.1742286334
 40
0.3348720571
 40
0.4806714529
 40
0.6109447349
 40
0.7258264458
 40
0.777902914
 40
0.8267439391
 40
0.8727691039
 40
0.9165236592
 40
0.9586767993
 40
1.0
 40
1.0
 40
1.0
 40
1.0
 10
15.4304641684
 20
13.3033614116
 30
0.0
 10
15.430924699
 20
13.3016449532
 30
0.0
 10
15.4319125735
 20
13.2983718614
 30
0.0
 10
15.433674967
 20
13.2937912446
 30
0.0
 10
15.4356385182
 20
13.289784601
 30
0.0
 10
15.4377763293
 20
13.2864077591
 30
0.0
 10
15.4397444555
 20
13.2840823117
 30
0.0
 10
15.4413888077
 20
13.2826140399
 30
0.0
 10
15.4426066524
 20
13.2817350606
 30
0.0
 10
15.4438454233
 20
13.2810458642
 30
0.0
 10
15.4451012085
 20
13.2805501259
 30
0.0
 10
15.4463687704
 20
13.2802510585
 30
0.0
 10
15.4472216702
 20
13.2801841619
 30
0.0
 10
15.4476431748
 20
13.2801841671
 30
0.0
  0
SPLINE
  5
30B
100
AcDbEntity
  8
LAYER_CUT_FEAT
100
AcDbSpline
 62
7
  6
CONTINUOUS
 70
0
 71
3
 72
15
 73
11
 74
0
 42
0.0000001
 43
0.0000001
 44
0.0000000001
 40
0.0
 40
0.0
 40
0.0
 40
0.0
 40
0.1393203242
 40
0.2732780262
 40
0.4023967117
 40
0.5272947886
 40
0.6486787019
 40
0.7673400487
 40
0.8841418828
 40
1.0
 40
1.0
 40
1.0
 40
1.0
 10
15.6252644212
 20
13.2708580237
 30
0.0
 10
15.6215621157
 20
13.2738656226
 30
0.0
 10
15.6141089147
 20
13.2795355778
 30
0.0
 10
15.6025730456
 20
13.2870892975
 30
0.0
 10
15.5909261186
 20
13.2935052927
 30
0.0
 10
15.5791852221
 20
13.2987720413
 30
0.0
 10
15.567367405
 20
13.3028798592
 30
0.0
 10
15.5554903071
 20
13.3058204881
 30
0.0
 10
15.5435743724
 20
13.3075875683
 30
0.0
 10
15.5356031959
 20
13.3079811033
 30
0.0
 10
15.5316365026
 20
13.3079810992
 30
0.0
  0
SPLINE
  5
30C
100
AcDbEntity
  8
LAYER_CUT_FEAT
100
AcDbSpline
 62
7
  6
CONTINUOUS
 70
0
 71
3
 72
11
 73
7
 74
0
 42
0.0000001
 43
0.0000001
 44
0.0000000001
 40
0.0
 40
0.0
 40
0.0
 40
0.0
 40
0.2733522504
 40
0.5273943941
 40
0.7674035845
 40
1.0
 40
1.0
 40
1.0
 40
1.0
 10
15.6252644212
 20
13.2708580237
 30
0.0
 10
15.6257521537
 20
13.2704618101
 30
0.0
 10
15.6267426601
 20
13.2697547029
 30
0.0
 10
15.6283244854
 20
13.268956319
 30
0.0
 10
15.6299326684
 20
13.2684720718
 30
0.0
 10
15.6310219245
 20
13.2683631999
 30
0.0
 10
15.63155662
 20
13.2683632001
 30
0.0
  0
SPLINE
  5
30D
100
AcDbEntity
  8
LAYER_CUT_FEAT
100
AcDbSpline
 62
7
  6
CONTINUOUS
 70
0
 71
3
 72
10
 73
6
 74
0
 42
0.0000001
 43
0.0000001
 44
0.0000000001
 40
0.0
 40
0.0
 40
0.0
 40
0.0
 40
0.520941859
 40
0.7633421619
 40
1.0
 40
1.0
 40
1.0
 40
1.0
 10
15.9400250331
 20
12.3909267175
 30
0.0
 10
15.9408621183
 20
12.3903403282
 30
0.0
 10
15.9422033741
 20
12.3896157508
 30
0.0
 10
15.9441088612
 20
12.3891199778
 30
0.0
 10
15.9450507867
 20
12.389038377
 30
0.0
 10
15.9455150873
 20
12.389038372
 30
0.0
  0
SPLINE
  5
30E
100
AcDbEntity
  8
0
100
AcDbSpline
 62
7
  6
CONTINUOUS
 70
0
 71
3
 72
14
 73
10
 74
0
 42
0.0000001
 43
0.0000001
 44
0.0000000001
 40
0.0
 40
0.0
 40
0.0
 40
0.0
 40
0.0817150546
 40
0.1702150006
 40
0.2705525592
 40
0.3856226875
 40
0.5165883778
 40
0.6633758057
 40
1.0
 40
1.0
 40
1.0
 40
1.0
 10
14.7289714328
 20
13.2251711166
 30
0.0
 10
14.728887769
 20
13.2251711159
 30
0.0
 10
14.7287124596
 20
13.22514132
 30
0.0
 10
14.7284631242
 20
13.2250133273
 30
0.0
 10
14.7282261378
 20
13.2248082423
 30
0.0
 10
14.728003179
 20
13.2245306407
 30
0.0
 10
14.7277961763
 20
13.2241846465
 30
0.0
 10
14.7275330884
 20
13.2236123384
 30
0.0
 10
14.7273880642
 20
13.2231364194
 30
0.0
 10
14.7273065604
 20
13.2228015433
 30
0.0
  0
SPLINE
  5
30F
100
AcDbEntity
  8
02___PRT_ALL_AXES
100
AcDbSpline
 62
7
  6
CONTINUOUS
 70
0
 71
3
 72
39
 73
35
 74
0
 42
0.0000001
 43
0.0000001
 44
0.0000000001
 40
0.0
 40
0.0
 40
0.0
 40
0.0
 40
0.0297975658
 40
0.060545425
 40
0.0921728848
 40
0.1246042269
 40
0.157759371
 40
0.1915544533
 40
0.2259023684
 40
0.260713281
 40
0.2958951168
 40
0.3313540369
 40
0.3669948996
 40
0.4027217152
 40
0.4384380951
 40
0.4740476989
 40
0.5094546821
 40
0.5445641462
 40
0.5792825948
 40
0.6135183977
 40
0.6471822683
 40
0.6801877578
 40
0.7124517743
 40
0.7438951321
 40
0.7744431444
 40
0.8040262702
 40
0.8325808366
 40
0.8600498572
 40
0.8863839806
 40
0.9115426073
 40
0.9354952276
 40
0.9582230442
 40
0.9797209581
 40
1.0
 40
1.0
 40
1.0
 40
1.0
 10
15.3884372358
 20
13.2423843739
 30
0.0
 10
15.3829900666
 20
13.2247573278
 30
0.0
 10
15.3725154061
 20
13.1887553243
 30
0.0
 10
15.3582500689
 20
13.1334889847
 30
0.0
 10
15.3452180955
 20
13.0762452091
 30
0.0
 10
15.3334612271
 20
13.0172062296
 30
0.0
 10
15.3230168721
 20
12.9565590752
 30
0.0
 10
15.3139183519
 20
12.8944962526
 30
0.0
 10
15.3061946819
 20
12.8312147551
 30
0.0
 10
15.2998705033
 20
12.7669155242
 30
0.0
 10
15.2949659929
 20
12.7018027712
 30
0.0
 10
15.2914967998
 20
12.6360833252
 30
0.0
 10
15.289473994
 20
12.5699659649
 30
0.0
 10
15.2889040307
 20
12.5036607477
 30
0.0
 10
15.2897887289
 20
12.4373783343
 30
0.0
 10
15.2921252662
 20
12.3713293127
 30
0.0
 10
15.2959061861
 20
12.3057235207
 30
0.0
 10
15.3011194233
 20
12.2407693719
 30
0.0
 10
15.3077483436
 20
12.1766731848
 30
0.0
 10
15.3157717973
 20
12.1136385184
 30
0.0
 10
15.3251641896
 20
12.0518655146
 30
0.0
 10
15.3358955651
 20
11.9915502499
 30
0.0
 10
15.347931709
 20
11.9328840975
 30
0.0
 10
15.3612342625
 20
11.876053101
 30
0.0
 10
15.3757608599
 20
11.8212373627
 30
0.0
 10
15.3914652831
 20
11.7686104453
 30
0.0
 10
15.4082976364
 20
11.7183387935
 30
0.0
 10
15.4262045566
 20
11.6705811639
 30
0.0
 10
15.4451294271
 20
11.6254881104
 30
0.0
 10
15.4650127325
 20
11.5832013795
 30
0.0
 10
15.485792126
 20
11.5438537596
 30
0.0
 10
15.5074037518
 20
11.5075675628
 30
0.0
 10
15.5297795663
 20
11.4744581548
 30
0.0
 10
15.5456202598
 20
11.4539788425
 30
0.0
 10
15.5536661338
 20
11.4443394873
 30
0.0
  0
SPLINE
  5
310
100
AcDbEntity
  8
02___PRT_ALL_AXES
100
AcDbSpline
 62
7
  6
CONTINUOUS
 70
0
 71
3
 72
15
 73
11
 74
0
 42
0.0000001
 43
0.0000001
 44
0.0000000001
 40
0.0
 40
0.0
 40
0.0
 40
0.0
 40
0.1460583456
 40
0.286509593
 40
0.4210819384
 40
0.5495505739
 40
0.6717451306
 40
0.7875586248
 40
0.8969584636
 40
1.0
 40
1.0
 40
1.0
 40
1.0
 10
15.3884372358
 20
13.2423843739
 30
0.0
 10
15.3938384401
 20
13.2598626774
 30
0.0
 10
15.4049982874
 20
13.2939775461
 30
0.0
 10
15.423197062
 20
13.3434914427
 30
0.0
 10
15.4424795439
 20
13.3902209977
 30
0.0
 10
15.4627815486
 20
13.4340105773
 30
0.0
 10
15.4840359771
 20
13.4747153743
 30
0.0
 10
15.5061739545
 20
13.5122019606
 30
0.0
 10
15.5291220265
 20
13.5463447504
 30
0.0
 10
15.5453960051
 20
13.5674289745
 30
0.0
 10
15.5536661338
 20
13.5773369978
 30
0.0
  0
LINE
  5
311
100
AcDbEntity
  8
0
100
AcDbLine
 62
7
  6
CONTINUOUS
 10
15.2737157163
 20
13.1548917401
 11
15.2749502053
 21
13.1547009243
  0
LINE
  5
312
100
AcDbEntity
  8
0
100
AcDbLine
 62
7
  6
CONTINUOUS
 10
15.281952442
 20
13.2250929326
 11
15.2816080292
 21
13.2251711166
  0
SPLINE
  5
313
100
AcDbEntity
  8
0
100
AcDbSpline
 62
7
  6
CONTINUOUS
 70
0
 71
3
 72
9
 73
5
 74
0
 42
0.0000001
 43
0.0000001
 44
0.0000000001
 40
0.0
 40
0.0
 40
0.0
 40
0.0
 40
0.5102342919
 40
1.0
 40
1.0
 40
1.0
 40
1.0
 10
15.2885237716
 20
13.2220860361
 30
0.0
 10
15.2888117817
 20
13.221954249
 30
0.0
 10
15.289402555
 20
13.2217481828
 30
0.0
 10
15.2900251926
 20
13.2216761988
 30
0.0
 10
15.2903292163
 20
13.2216761976
 30
0.0
  0
LINE
  5
314
100
AcDbEntity
  8
0
100
AcDbLine
 62
7
  6
CONTINUOUS
 10
15.2982803727
 20
13.2909908232
 11
15.297828126
 21
13.2911264039
  0
SPLINE
  5
315
100
AcDbEntity
  8
0
100
AcDbSpline
 62
7
  6
CONTINUOUS
 70
0
 71
3
 72
9
 73
5
 74
0
 42
0.0000001
 43
0.0000001
 44
0.0000000001
 40
0.0
 40
0.0
 40
0.0
 40
0.0
 40
0.5171064287
 40
1.0
 40
1.0
 40
1.0
 40
1.0
 10
15.3047757091
 20
13.2870424834
 30
0.0
 10
15.3051437548
 20
13.2868187584
 30
0.0
 10
15.3059072802
 20
13.2864613394
 30
0.0
 10
15.3067442163
 20
13.2863317501
 30
0.0
 10
15.307146429
 20
13.286331763
 30
0.0
  0
LINE
  5
316
100
AcDbEntity
  8
0
100
AcDbLine
 62
7
  6
CONTINUOUS
 10
15.3160214877
 20
13.3544340652
 11
15.3154628302
 21
13.3546424815
  0
SPLINE
  5
317
100
AcDbEntity
  8
0
100
AcDbSpline
 62
7
  6
CONTINUOUS
 70
0
 71
3
 72
10
 73
6
 74
0
 42
0.0000001
 43
0.0000001
 44
0.0000000001
 40
0.0
 40
0.0
 40
0.0
 40
0.0
 40
0.5240814434
 40
0.7653652031
 40
1.0
 40
1.0
 40
1.0
 40
1.0
 10
15.3224203944
 20
13.3495567051
 30
0.0
 10
15.3228614929
 20
13.3492204919
 30
0.0
 10
15.3235730315
 20
13.3488007435
 30
0.0
 10
15.3245956993
 20
13.3485116654
 30
0.0
 10
15.3251006215
 20
13.3484641849
 30
0.0
 10
15.3253489301
 20
13.3484641769
 30
0.0
  0
SPLINE
  5
318
100
AcDbEntity
  8
0
100
AcDbSpline
 62
7
  6
CONTINUOUS
 70
0
 71
3
 72
26
 73
22
 74
0
 42
0.0000001
 43
0.0000001
 44
0.0000000001
 40
0.0
 40
0.0
 40
0.0
 40
0.0
 40
0.0876656739
 40
0.1720448544
 40
0.2529978924
 40
0.3304095502
 40
0.4041939131
 40
0.4742986145
 40
0.540710464
 40
0.6034621231
 40
0.6626402591
 40
0.7183951541
 40
0.77095137
 40
0.820618813
 40
0.8678019341
 40
0.8906264588
 40
0.9130268331
 40
0.9350804416
 40
0.9568694171
 40
0.9784797215
 40
1.0
 40
1.0
 40
1.0
 40
1.0
 10
14.7770226441
 20
13.4036510369
 30
0.0
 10
14.7832594893
 20
13.4228955815
 30
0.0
 10
14.7961055351
 20
13.4604707306
 30
0.0
 10
14.8169221123
 20
13.5150291968
 30
0.0
 10
14.8388690741
 20
13.5665830091
 30
0.0
 10
14.861881077
 20
13.6149784446
 30
0.0
 10
14.8858901927
 20
13.6600723914
 30
0.0
 10
14.9108261655
 20
13.701731688
 30
0.0
 10
14.9366168424
 20
13.739833742
 30
0.0
 10
14.9631887786
 20
13.7742665321
 30
0.0
 10
14.990467999
 20
13.8049285344
 30
0.0
 10
15.0183799059
 20
13.8317280631
 30
0.0
 10
15.0468515323
 20
13.854582643
 30
0.0
 10
15.0758041332
 20
13.8734156301
 30
0.0
 10
15.1005472846
 20
13.8858384584
 30
0.0
 10
15.1204214128
 20
13.8936015561
 30
0.0
 10
15.1352238468
 20
13.8983210535
 30
0.0
 10
15.1500735174
 20
13.9019962344
 30
0.0
 10
15.1649594914
 20
13.904623941
 30
0.0
 10
15.1798688171
 20
13.9062015649
 30
0.0
 10
15.1898252666
 20
13.9065525296
 30
0.0
 10
15.194791339
 20
13.9065525234
 30
0.0
  0
SPLINE
  5
319
100
AcDbEntity
  8
0
100
AcDbSpline
 62
7
  6
CONTINUOUS
 70
0
 71
3
 72
13
 73
9
 74
0
 42
0.0000001
 43
0.0000001
 44
0.0000000001
 40
0.0
 40
0.0
 40
0.0
 40
0.0
 40
0.0837533074
 40
0.1737619339
 40
0.2748159983
 40
0.3898245947
 40
0.6654298666
 40
1.0
 40
1.0
 40
1.0
 40
1.0
 10
14.7451915296
 20
13.2911264039
 30
0.0
 10
14.7451125913
 20
13.2911264038
 30
0.0
 10
14.7449479186
 20
13.2911000875
 30
0.0
 10
14.7447120891
 20
13.2909863208
 30
0.0
 10
14.7444866022
 20
13.2908031478
 30
0.0
 10
14.7441839194
 20
13.2904498161
 30
0.0
 10
14.7438560788
 20
13.2898427095
 30
0.0
 10
14.7436712057
 20
13.2892964016
 30
0.0
 10
14.7435876198
 20
13.2889923459
 30
0.0
  0
SPLINE
  5
31A
100
AcDbEntity
  8
0
100
AcDbSpline
 62
7
  6
CONTINUOUS
 70
0
 71
3
 72
13
 73
9
 74
0
 42
0.0000001
 43
0.0000001
 44
0.0000000001
 40
0.0
 40
0.0
 40
0.0
 40
0.0
 40
0.0859076675
 40
0.1775404594
 40
0.2794089932
 40
0.3944022973
 40
0.6681190727
 40
1.0
 40
1.0
 40
1.0
 40
1.0
 10
14.7628262338
 20
13.3546424815
 30
0.0
 10
14.7627520021
 20
13.35464248
 30
0.0
 10
14.7625978187
 20
13.354619397
 30
0.0
 10
14.7623756111
 20
13.3545189701
 30
0.0
 10
14.7621619778
 20
13.3543565335
 30
0.0
 10
14.761874177
 20
13.3540430166
 30
0.0
 10
14.7615568483
 20
13.3535003693
 30
0.0
 10
14.7613730024
 20
13.3530087775
 30
0.0
 10
14.7612883331
 20
13.3527347877
 30
0.0
  0
SPLINE
  5
31B
100
AcDbEntity
  8
02___PRT_ALL_AXES
100
AcDbSpline
 62
7
  6
CONTINUOUS
 70
0
 71
3
 72
19
 73
15
 74
0
 42
0.0000001
 43
0.0000001
 44
0.0000000001
 40
0.0
 40
0.0
 40
0.0
 40
0.0
 40
0.1478561535
 40
0.2875078487
 40
0.4195316745
 40
0.482936555
 40
0.5447425138
 40
0.6640451143
 40
0.7218921408
 40
0.7787439734
 40
0.8347835453
 40
0.8902041101
 40
0.9452071722
 40
1.0
 40
1.0
 40
1.0
 40
1.0
 10
15.5538000824
 20
13.5773160856
 30
0.0
 10
15.5608591848
 20
13.5854057433
 30
0.0
 10
15.5751250355
 20
13.6006793549
 30
0.0
 10
15.5976160016
 20
13.6212749461
 30
0.0
 10
15.6169593418
 20
13.6360992866
 30
0.0
 10
15.6325948109
 20
13.6463328952
 30
0.0
 10
15.6479370004
 20
13.6552808437
 30
0.0
 10
15.6636200866
 20
13.6628091972
 30
0.0
 10
15.6795447739
 20
13.6687608433
 30
0.0
 10
15.6914112582
 20
13.6723815964
 30
0.0
 10
15.7033121829
 20
13.6752007599
 30
0.0
 10
15.715239675
 20
13.6772162495
 30
0.0
 10
15.72718421
 20
13.6784262414
 30
0.0
 10
15.7351596147
 20
13.6786953866
 30
0.0
 10
15.7391383865
 20
13.6786953842
 30
0.0
  0
SPLINE
  5
31C
100
AcDbEntity
  8
02___PRT_ALL_AXES
100
AcDbSpline
 62
7
  6
CONTINUOUS
 70
0
 71
3
 72
11
 73
7
 74
0
 42
0.0000001
 43
0.0000001
 44
0.0000000001
 40
0.0
 40
0.0
 40
0.0
 40
0.0
 40
0.2614258609
 40
0.5137070899
 40
0.7590715279
 40
1.0
 40
1.0
 40
1.0
 40
1.0
 10
15.6182549495
 20
12.9561357765
 30
0.0
 10
15.6208184052
 20
12.957542889
 30
0.0
 10
15.6259862841
 20
12.9600793164
 30
0.0
 10
15.6339614408
 20
12.9630370223
 30
0.0
 10
15.6419873422
 20
12.9650631525
 30
0.0
 10
15.6473920779
 20
12.9657922264
 30
0.0
 10
15.6500793136
 20
12.9659963349
 30
0.0
  0
SPLINE
  5
31D
100
AcDbEntity
  8
02___PRT_ALL_AXES
100
AcDbSpline
 62
7
  6
CONTINUOUS
 70
0
 71
3
 72
25
 73
21
 74
0
 42
0.0000001
 43
0.0000001
 44
0.0000000001
 40
0.0
 40
0.0
 40
0.0
 40
0.0
 40
0.0722603544
 40
0.1449936168
 40
0.2177879265
 40
0.2902302707
 40
0.3619111876
 40
0.4324287433
 40
0.5013927093
 40
0.5684289097
 40
0.633183805
 40
0.6953295791
 40
0.7545697359
 40
0.8106457045
 40
0.8633448736
 40
0.912510579
 40
0.9357423887
 40
0.9580647304
 40
0.9794809691
 40
1.0
 40
1.0
 40
1.0
 40
1.0
 10
15.4807268278
 20
12.4312516258
 30
0.0
 10
15.4798772982
 20
12.4435412184
 30
0.0
 10
15.4785773416
 20
12.4682305867
 30
0.0
 10
15.4778130801
 20
12.5053570863
 30
0.0
 10
15.4782294912
 20
12.5425205451
 30
0.0
 10
15.4798238187
 20
12.5794725342
 30
0.0
 10
15.4825852991
 20
12.6159666628
 30
0.0
 10
15.4864953633
 20
12.6517595106
 30
0.0
 10
15.4915276871
 20
12.6866125099
 30
0.0
 10
15.4976484115
 20
12.7202935364
 30
0.0
 10
15.5048164232
 20
12.752578527
 30
0.0
 10
15.5129836183
 20
12.7832531336
 30
0.0
 10
15.5220953339
 20
12.8121140673
 30
0.0
 10
15.5320910306
 20
12.8389713033
 30
0.0
 10
15.5429043311
 20
12.8636471727
 30
0.0
 10
15.5527160693
 20
12.8826044245
 30
0.0
 10
15.5609487002
 20
12.8965002754
 30
0.0
 10
15.5671646222
 20
12.9060811543
 30
0.0
 10
15.5735281462
 20
12.9150023426
 30
0.0
 10
15.5779562135
 20
12.9206195775
 30
0.0
 10
15.5801944339
 20
12.9233078695
 30
0.0
  0
SPLINE
  5
31E
100
AcDbEntity
  8
02___PRT_ALL_AXES
100
AcDbSpline
 62
7
  6
CONTINUOUS
 70
0
 71
3
 72
18
 73
14
 74
0
 42
0.0000001
 43
0.0000001
 44
0.0000000001
 40
0.0
 40
0.0
 40
0.0
 40
0.0
 40
0.0543228828
 40
0.1088711278
 40
0.1638666666
 40
0.2195247738
 40
0.333582447
 40
0.4526028996
 40
0.5144011257
 40
0.5778926754
 40
0.7103820319
 40
0.8508952566
 40
1.0
 40
1.0
 40
1.0
 40
1.0
 10
15.6470322871
 20
13.2608382407
 30
0.0
 10
15.6496896959
 20
13.2608382437
 30
0.0
 10
15.6550174213
 20
13.2606512237
 30
0.0
 10
15.6629955017
 20
13.2598105927
 30
0.0
 10
15.67096141
 20
13.2584102698
 30
0.0
 10
15.6816416511
 20
13.2557784918
 30
0.0
 10
15.6949911691
 20
13.2510379678
 30
0.0
 10
15.7079234655
 20
13.2445717875
 30
0.0
 10
15.7181420592
 20
13.2383649056
 30
0.0
 10
15.7285647763
 20
13.2312573495
 30
0.0
 10
15.7414452226
 20
13.2209642072
 30
0.0
 10
15.7563887231
 20
13.2066819261
 30
0.0
 10
15.7658408659
 20
13.1961075646
 30
0.0
 10
15.7705148624
 20
13.190507877
 30
0.0
  0
SPLINE
  5
31F
100
AcDbEntity
  8
02___PRT_ALL_AXES
100
AcDbSpline
 62
7
  6
CONTINUOUS
 70
0
 71
3
 72
35
 73
31
 74
0
 42
0.0000001
 43
0.0000001
 44
0.0000000001
 40
0.0
 40
0.0
 40
0.0
 40
0.0
 40
0.0202793978
 40
0.0417776905
 40
0.0645059069
 40
0.0884589494
 40
0.1136180191
 40
0.139952606
 40
0.1674221098
 40
0.1959771783
 40
0.2255608251
 40
0.2561093749
 40
0.2875532869
 40
0.3198178709
 40
0.3528239417
 40
0.3864884041
 40
0.42072481
 40
0.4554438693
 40
0.5259570743
 40
0.5972799809
 40
0.6686445905
 40
0.7392821298
 40
0.7740936544
 40
0.8084421747
 40
0.8422378511
 40
0.8753935801
 40
0.907825493
 40
0.9394535113
 40
0.9702018659
 40
1.0
 40
1.0
 40
1.0
 40
1.0
 10
15.7773226204
 20
13.1823518414
 30
0.0
 10
15.7823886448
 20
13.1762824842
 30
0.0
 10
15.792362637
 20
13.1633878335
 30
0.0
 10
15.8064514098
 20
13.1425407194
 30
0.0
 10
15.8200590234
 20
13.1196933666
 30
0.0
 10
15.833142624
 20
13.0949184074
 30
0.0
 10
15.8456620108
 20
13.0682928584
 30
0.0
 10
15.8575779249
 20
13.0399003276
 30
0.0
 10
15.8688528942
 20
13.0098300653
 30
0.0
 10
15.8794512702
 20
12.9781768662
 30
0.0
 10
15.8893394515
 20
12.9450406898
 30
0.0
 10
15.8984860243
 20
12.9105263376
 30
0.0
 10
15.9068618844
 20
12.8747430908
 30
0.0
 10
15.9144403593
 20
12.8378043543
 30
0.0
 10
15.9211973002
 20
12.7998272534
 30
0.0
 10
15.9271111358
 20
12.7609323442
 30
0.0
 10
15.9321631299
 20
12.7212428586
 30
0.0
 10
15.9377565056
 20
12.6671561538
 30
0.0
 10
15.9424686833
 20
12.5984630898
 30
0.0
 10
15.9444839132
 20
12.5153463847
 30
0.0
 10
15.9428618275
 20
12.4321726292
 30
0.0
 10
15.9384759993
 20
12.3633571328
 30
0.0
 10
15.9331413792
 20
12.3091154904
 30
0.0
 10
15.9282781461
 20
12.2692705881
 30
0.0
 10
15.9225493427
 20
12.2301931965
 30
0.0
 10
15.9159731258
 20
12.1920071225
 30
0.0
 10
15.908570491
 20
12.1548336377
 30
0.0
 10
15.9003650059
 20
12.1187905037
 30
0.0
 10
15.8913829336
 20
12.083992434
 30
0.0
 10
15.8847876369
 20
12.0613240207
 30
0.0
 10
15.8813578592
 20
12.0502252562
 30
0.0
  0
LINE
  5
320
100
AcDbEntity
  8
02___PRT_ALL_AXES
100
AcDbLine
 62
7
  6
CONTINUOUS
 10
15.6182549495
 20
12.9561357765
 11
15.5832502729
 21
12.9537046197
  0
SPLINE
  5
321
100
AcDbEntity
  8
0
100
AcDbSpline
 62
7
  6
CONTINUOUS
 70
0
 71
3
 72
73
 73
69
 74
0
 42
0.0000001
 43
0.0000001
 44
0.0000000001
 40
0.0
 40
0.0
 40
0.0
 40
0.0
 40
0.0041771609
 40
0.008368356
 40
0.0125874461
 40
0.0168479541
 40
0.0211629134
 40
0.0255447461
 40
0.034551754
 40
0.0439565711
 40
0.0538294067
 40
0.0642268199
 40
0.0751925924
 40
0.086759004
 40
0.0989482172
 40
0.1117736138
 40
0.1252409938
 40
0.1393496071
 40
0.1540930239
 40
0.1694598727
 40
0.1854344578
 40
0.2019972754
 40
0.2191254475
 40
0.2367931011
 40
0.2549716964
 40
0.273630313
 40
0.2927359017
 40
0.3122535195
 40
0.332146544
 40
0.352376871
 40
0.3729050983
 40
0.3936907046
 40
0.4146922218
 40
0.4571713467
 40
0.5
 40
0.5428286532
 40
0.5853077782
 40
0.6063092957
 40
0.6270949017
 40
0.6476231285
 40
0.6678534559
 40
0.6877464811
 40
0.7072640984
 40
0.7263696863
 40
0.7450283033
 40
0.7632068998
 40
0.7808745528
 40
0.7980027238
 40
0.8145655417
 40
0.8305401283
 40
0.8459069765
 40
0.8606503921
 40
0.8747590056
 40
0.8882263872
 40
0.9010517834
 40
0.9132409952
 40
0.9248074069
 40
0.935773181
 40
0.9461705938
 40
0.9560434285
 40
0.9654482455
 40
0.9744552544
 40
0.9788370862
 40
0.983152046
 40
0.9874125539
 40
0.9916316439
 40
0.9958228392
 40
1.0
 40
1.0
 40
1.0
 40
1.0
 10
15.7474279354
 20
11.115123957
 30
0.0
 10
15.7518763324
 20
11.1151239583
 30
0.0
 10
15.7607906125
 20
11.1154053408
 30
0.0
 10
15.7741439317
 20
11.1166704873
 30
0.0
 10
15.7874807091
 20
11.1187780208
 30
0.0
 10
15.8007916861
 20
11.1217263527
 30
0.0
 10
15.8140690807
 20
11.1255135138
 30
0.0
 10
15.8318764113
 20
11.1317333287
 30
0.0
 10
15.8540756633
 20
11.1416817292
 30
0.0
 10
15.8801755866
 20
11.1568133935
 30
0.0
 10
15.9059287583
 20
11.1752032224
 30
0.0
 10
15.9312762796
 20
11.1968002293
 30
0.0
 10
15.9561639948
 20
11.2215495909
 30
0.0
 10
15.980537031
 20
11.2493907175
 30
0.0
 10
16.0043410374
 20
11.2802569146
 30
0.0
 10
16.0275219109
 20
11.3140748709
 30
0.0
 10
16.0500261961
 20
11.3507644706
 30
0.0
 10
16.0718013618
 20
11.3902387395
 30
0.0
 10
16.0927961325
 20
11.4324039162
 30
0.0
 10
16.1129607264
 20
11.4771596347
 30
0.0
 10
16.1322470851
 20
11.5243991515
 30
0.0
 10
16.1506090665
 20
11.5740095997
 30
0.0
 10
16.1680026382
 20
11.6258722611
 30
0.0
 10
16.1843860064
 20
11.6798628763
 30
0.0
 10
16.1997197448
 20
11.7358519653
 30
0.0
 10
16.2139669087
 20
11.7937051512
 30
0.0
 10
16.2270931588
 20
11.8532834894
 30
0.0
 10
16.2390668414
 20
11.9144438213
 30
0.0
 10
16.2498590633
 20
11.9770391253
 30
0.0
 10
16.2594437798
 20
12.0409189095
 30
0.0
 10
16.2677978214
 20
12.1059294544
 30
0.0
 10
16.2749011641
 20
12.1719146577
 30
0.0
 10
16.2827104477
 20
12.2613171194
 30
0.0
 10
16.2892135784
 20
12.3743737966
 30
0.0
 10
16.2918137745
 20
12.5108382424
 30
0.0
 10
16.2892135793
 20
12.6473026884
 30
0.0
 10
16.2827104451
 20
12.7603593657
 30
0.0
 10
16.2749011676
 20
12.849761828
 30
0.0
 10
16.2677978218
 20
12.9157470305
 30
0.0
 10
16.2594437769
 20
12.9807575744
 30
0.0
 10
16.2498590622
 20
13.0446373596
 30
0.0
 10
16.2390668449
 20
13.1072326651
 30
0.0
 10
16.2270931595
 20
13.1683929959
 30
0.0
 10
16.213966906
 20
13.2279713323
 30
0.0
 10
16.1997197432
 20
13.2858245192
 30
0.0
 10
16.18438601
 20
13.3418136107
 30
0.0
 10
16.1680026392
 20
13.3958042246
 30
0.0
 10
16.150609064
 20
13.4476668833
 30
0.0
 10
16.1322470829
 20
13.4972773324
 30
0.0
 10
16.1129607303
 20
13.5445168531
 30
0.0
 10
16.0927961338
 20
13.5892725701
 30
0.0
 10
16.0718013595
 20
13.631437743
 30
0.0
 10
16.0500261932
 20
13.6709120122
 30
0.0
 10
16.0275219148
 20
13.7076016179
 30
0.0
 10
16.004341039
 20
13.7414195726
 30
0.0
 10
15.980537029
 20
13.7722857647
 30
0.0
 10
15.9561639915
 20
13.8001268902
 30
0.0
 10
15.9312762834
 20
13.8248762609
 30
0.0
 10
15.9059287597
 20
13.8464732658
 30
0.0
 10
15.8801755854
 20
13.8648630893
 30
0.0
 10
15.8540756596
 20
13.8799947459
 30
0.0
 10
15.831876417
 20
13.8899431708
 30
0.0
 10
15.8140690768
 20
13.8961629601
 30
0.0
 10
15.8007916885
 20
13.8999501405
 30
0.0
 10
15.7874807088
 20
13.9028984644
 30
0.0
 10
15.774143931
 20
13.9050059891
 30
0.0
 10
15.7607906134
 20
13.9062711603
 30
0.0
 10
15.7518763324
 20
13.906552518
 30
0.0
 10
15.7474279354
 20
13.9065525234
 30
0.0
  0
SPLINE
  5
322
100
AcDbEntity
  8
0
100
AcDbSpline
 62
7
  6
CONTINUOUS
 70
0
 71
3
 72
49
 73
45
 74
0
 42
0.0000001
 43
0.0000001
 44
0.0000000001
 40
0.0
 40
0.0
 40
0.0
 40
0.0
 40
0.0077604572
 40
0.0155652293
 40
0.0234577052
 40
0.0314794988
 40
0.0396697384
 40
0.0480645306
 40
0.0655860613
 40
0.0747766808
 40
0.0842814772
 40
0.0941192139
 40
0.104305517
 40
0.1148531047
 40
0.1257720263
 40
0.1370698943
 40
0.1487521033
 40
0.1608220318
 40
0.1732812238
 40
0.1861295591
 40
0.199365403
 40
0.2129857392
 40
0.2269862876
 40
0.2561032079
 40
0.2866626042
 40
0.318594085
 40
0.3518148181
 40
0.3862312782
 40
0.4217407258
 40
0.4582324776
 40
0.49558907
 40
0.5336872968
 40
0.5723991809
 40
0.6115929043
 40
0.651133682
 40
0.6908846269
 40
0.7307075888
 40
0.7704639865
 40
0.8100156373
 40
0.8492255872
 40
0.887958956
 40
0.9260837827
 40
0.9634718898
 40
1.0
 40
1.0
 40
1.0
 40
1.0
 10
15.194791339
 20
11.115123957
 30
0.0
 10
15.1889842367
 20
11.1151239553
 30
0.0
 10
15.1773312394
 20
11.1156045435
 30
0.0
 10
15.1598927719
 20
11.1177640433
 30
0.0
 10
15.1424925804
 20
11.1213597709
 30
0.0
 10
15.1251516195
 20
11.1263865743
 30
0.0
 10
15.1078872663
 20
11.1328382663
 30
0.0
 10
15.0846693611
 20
11.1434776817
 30
0.0
 10
15.0619769057
 20
11.1568860314
 30
0.0
 10
15.0399601129
 20
11.1727044984
 30
0.0
 10
15.0233432547
 20
11.1861307361
 30
0.0
 10
15.0069074006
 20
11.2009129763
 30
0.0
 10
14.9906668016
 20
11.2170368704
 30
0.0
 10
14.9746380228
 20
11.2344854603
 30
0.0
 10
14.9588368037
 20
11.25324093
 30
0.0
 10
14.9432789285
 20
11.2732840909
 30
0.0
 10
14.9279799578
 20
11.2945945147
 30
0.0
 10
14.9129552734
 20
11.3171504908
 30
0.0
 10
14.8982200283
 20
11.3409290365
 30
0.0
 10
14.8837891219
 20
11.3659059273
 30
0.0
 10
14.8696772383
 20
11.3920556773
 30
0.0
 10
14.8558985638
 20
11.4193517161
 30
0.0
 10
14.8377532782
 20
11.4577397851
 30
0.0
 10
14.816055745
 20
11.5084468179
 30
0.0
 10
14.7918948063
 20
11.5726181547
 30
0.0
 10
14.7693782454
 20
11.6406260698
 30
0.0
 10
14.7485983367
 20
11.7121927109
 30
0.0
 10
14.729640147
 20
11.7870269383
 30
0.0
 10
14.7125815588
 20
11.8648233277
 30
0.0
 10
14.6974926608
 20
11.9452641385
 30
0.0
 10
14.6844355424
 20
12.0280205141
 30
0.0
 10
14.6734639544
 20
12.112753928
 30
0.0
 10
14.6646230494
 20
12.1991175985
 30
0.0
 10
14.6579492602
 20
12.2867579563
 30
0.0
 10
14.6534700637
 20
12.3753161173
 30
0.0
 10
14.6512039024
 20
12.4644293809
 30
0.0
 10
14.6511601338
 20
12.5537327403
 30
0.0
 10
14.6533389151
 20
12.6428604004
 30
0.0
 10
14.6577312799
 20
12.7314472881
 30
0.0
 10
14.6643191488
 20
12.8191306054
 30
0.0
 10
14.67307535
 20
12.9055512093
 30
0.0
 10
14.6839638951
 20
12.990355545
 30
0.0
 10
14.6969397496
 20
13.0731955753
 30
0.0
 10
14.7070754188
 20
13.127579829
 30
0.0
 10
14.712496381
 20
13.1543706408
 30
0.0
  0
SPLINE
  5
323
100
AcDbEntity
  8
02___PRT_ALL_AXES
100
AcDbSpline
 62
7
  6
CONTINUOUS
 70
0
 71
3
 72
19
 73
15
 74
0
 42
0.0000001
 43
0.0000001
 44
0.0000000001
 40
0.0
 40
0.0
 40
0.0
 40
0.0
 40
0.1478601137
 40
0.2875145149
 40
0.4195397951
 40
0.4829449384
 40
0.5447508564
 40
0.6640525224
 40
0.7218987134
 40
0.7787495019
 40
0.8347878541
 40
0.8902070616
 40
0.9452086718
 40
1.0
 40
1.0
 40
1.0
 40
1.0
 10
15.553777953
 20
11.4443857595
 30
0.0
 10
15.5608377642
 20
11.4362941381
 30
0.0
 10
15.5751050642
 20
11.4210167998
 30
0.0
 10
15.5975985294
 20
11.400416087
 30
0.0
 10
15.6169441447
 20
11.3855879932
 30
0.0
 10
15.6325815077
 20
11.3753517843
 30
0.0
 10
15.6479255097
 20
11.3664016008
 30
0.0
 10
15.6636105224
 20
11.3588713392
 30
0.0
 10
15.6795372276
 20
11.352918172
 30
0.0
 10
15.6914052002
 20
11.3492964977
 30
0.0
 10
15.703307627
 20
11.3464766144
 30
0.0
 10
15.7152366318
 20
11.3444606105
 30
0.0
 10
15.7271826866
 20
11.3432503074
 30
0.0
 10
15.7351591092
 20
11.3429811035
 30
0.0
 10
15.7391383865
 20
11.3429811011
 30
0.0
  0
SPLINE
  5
324
100
AcDbEntity
  8
02___PRT_ALL_AXES
100
AcDbSpline
 62
7
  6
CONTINUOUS
 70
0
 71
3
 72
18
 73
14
 74
0
 42
0.0000001
 43
0.0000001
 44
0.0000000001
 40
0.0
 40
0.0
 40
0.0
 40
0.0
 40
0.0543228826
 40
0.1088711312
 40
0.1638666716
 40
0.2195247706
 40
0.3335824558
 40
0.4526028901
 40
0.5144011292
 40
0.5778926897
 40
0.7103820231
 40
0.8508952672
 40
1.0
 40
1.0
 40
1.0
 40
1.0
 10
15.6470322871
 20
11.7608382446
 30
0.0
 10
15.6496896959
 20
11.7608382475
 30
0.0
 10
15.6550174218
 20
11.7610252516
 30
0.0
 10
15.6629955017
 20
11.7618658957
 30
0.0
 10
15.6709614088
 20
11.7632662208
 30
0.0
 10
15.6816416538
 20
11.7658979853
 30
0.0
 10
15.6949911648
 20
11.7706385271
 30
0.0
 10
15.7079234689
 20
11.7771046912
 30
0.0
 10
15.718142059
 20
11.7833115803
 30
0.0
 10
15.728564773
 20
11.7904191404
 30
0.0
 10
15.7414452269
 20
11.8007122736
 30
0.0
 10
15.7563887217
 20
11.8149945606
 30
0.0
 10
15.7658408607
 20
11.8255689251
 30
0.0
 10
15.7705148625
 20
11.8311686076
 30
0.0
  0
SPLINE
  5
325
100
AcDbEntity
  8
02___PRT_ALL_AXES
100
AcDbSpline
 62
7
  6
CONTINUOUS
 70
0
 71
3
 72
15
 73
11
 74
0
 42
0.0000001
 43
0.0000001
 44
0.0000000001
 40
0.0
 40
0.0
 40
0.0
 40
0.0
 40
0.1030415364
 40
0.2124413717
 40
0.3282548704
 40
0.4504494221
 40
0.5789180704
 40
0.7134904025
 40
0.8539414506
 40
1.0
 40
1.0
 40
1.0
 40
1.0
 10
15.7773226206
 20
11.8393246432
 30
0.0
 10
15.7825298518
 20
11.8455631605
 30
0.0
 10
15.7927766474
 20
11.8588386991
 30
0.0
 10
15.807225746
 20
11.8803364695
 30
0.0
 10
15.8211647679
 20
11.903939642
 30
0.0
 10
15.8345474766
 20
11.9295691361
 30
0.0
 10
15.8473304893
 20
11.9571409452
 30
0.0
 10
15.8594715692
 20
11.9865638713
 30
0.0
 10
15.8709303013
 20
12.0177399551
 30
0.0
 10
15.8779570234
 20
12.0392201473
 30
0.0
 10
15.8813578592
 20
12.0502252562
 30
0.0
  0
SPLINE
  5
326
100
AcDbEntity
  8
02___PRT_ALL_AXES
100
AcDbSpline
 62
7
  6
CONTINUOUS
 70
0
 71
3
 72
27
 73
23
 74
0
 42
0.0000001
 43
0.0000001
 44
0.0000000001
 40
0.0
 40
0.0
 40
0.0
 40
0.0
 40
0.0154982749
 40
0.0313648203
 40
0.0479373492
 40
0.0655015681
 40
0.0842824405
 40
0.1044453689
 40
0.1261025215
 40
0.1493210784
 40
0.2005082013
 40
0.2579437906
 40
0.3211885659
 40
0.3895617029
 40
0.4622061363
 40
0.5381356263
 40
0.6162728937
 40
0.6954824261
 40
0.7746013647
 40
0.8524690984
 40
0.9279563916
 40
1.0
 40
1.0
 40
1.0
 40
1.0
 10
15.779140664
 20
12.1562330336
 30
0.0
 10
15.7796000646
 20
12.1562330369
 30
0.0
 10
15.7805316142
 20
12.1563127574
 30
0.0
 10
15.7819133278
 20
12.1566687459
 30
0.0
 10
15.7832793201
 20
12.1572579652
 30
0.0
 10
15.7846230858
 20
12.1580757154
 30
0.0
 10
15.7859397506
 20
12.1591169895
 30
0.0
 10
15.7872245517
 20
12.1603765778
 30
0.0
 10
15.7884729345
 20
12.1618487947
 30
0.0
 10
15.790136566
 20
12.1641628326
 30
0.0
 10
15.7920717134
 20
12.1675710501
 30
0.0
 10
15.7941020681
 20
12.172251185
 30
0.0
 10
15.7958786137
 20
12.1775724973
 30
0.0
 10
15.797370903
 20
12.1834452396
 30
0.0
 10
15.7985531187
 20
12.1897704133
 30
0.0
 10
15.799404537
 20
12.1964399247
 30
0.0
 10
15.7999101709
 20
12.2033393906
 30
0.0
 10
15.8000611361
 20
12.2103501572
 30
0.0
 10
15.7998547474
 20
12.2173515041
 30
0.0
 10
15.7992946574
 20
12.2242230052
 30
0.0
 10
15.798390768
 20
12.2308461515
 30
0.0
 10
15.7975460036
 20
12.2351403327
 30
0.0
 10
15.7970634377
 20
12.2372206156
 30
0.0
  0
SPLINE
  5
327
100
AcDbEntity
  8
02___PRT_ALL_AXES
100
AcDbSpline
 62
7
  6
CONTINUOUS
 70
0
 71
3
 72
21
 73
17
 74
0
 42
0.0000001
 43
0.0000001
 44
0.0000000001
 40
0.0
 40
0.0
 40
0.0
 40
0.0
 40
0.0350550149
 40
0.0715760708
 40
0.1108240481
 40
0.1537460911
 40
0.2009703327
 40
0.2528535732
 40
0.3095388635
 40
0.3710045628
 40
0.4371014862
 40
0.5075800871
 40
0.5821105106
 40
0.6602977824
 40
0.825774627
 40
1.0
 40
1.0
 40
1.0
 40
1.0
 10
15.6748198045
 20
12.0222818459
 30
0.0
 10
15.675435693
 20
12.0222818549
 30
0.0
 10
15.6766974563
 20
12.0224277044
 30
0.0
 10
15.678548644
 20
12.0230730094
 30
0.0
 10
15.6803582104
 20
12.0241317626
 30
0.0
 10
15.6821138309
 20
12.0255889711
 30
0.0
 10
15.683806596
 20
12.0274307586
 30
0.0
 10
15.6854266102
 20
12.0296427613
 30
0.0
 10
15.6869634134
 20
12.0322086663
 30
0.0
 10
15.6884062105
 20
12.0351095612
 30
0.0
 10
15.689744394
 20
12.0383238088
 30
0.0
 10
15.6909678262
 20
12.0418271501
 30
0.0
 10
15.692067203
 20
12.0455929485
 30
0.0
 10
15.6933807747
 20
12.0510286202
 30
0.0
 10
15.6946382323
 20
12.0582707102
 30
0.0
 10
15.695219006
 20
12.0642164027
 30
0.0
 10
15.6954120752
 20
12.0672713079
 30
0.0
  0
SPLINE
  5
328
100
AcDbEntity
  8
0
100
AcDbSpline
 62
7
  6
CONTINUOUS
 70
0
 71
3
 72
13
 73
9
 74
0
 42
0.0000001
 43
0.0000001
 44
0.0000000001
 40
0.0
 40
0.0
 40
0.0
 40
0.0
 40
0.1023361444
 40
0.2073670941
 40
0.4342901379
 40
0.5603660411
 40
0.6962883703
 40
1.0
 40
1.0
 40
1.0
 40
1.0
 10
15.2903292163
 20
13.2216761976
 30
0.0
 10
15.290568007
 20
13.2216761966
 30
0.0
 10
15.2910529618
 20
13.2217200362
 30
0.0
 10
15.2920350625
 20
13.2219867406
 30
0.0
 10
15.2929809348
 20
13.2225215995
 30
0.0
 10
15.2938565937
 20
13.2232544527
 30
0.0
 10
15.294773888
 20
13.2242069611
 30
0.0
 10
15.295376496
 20
13.2250444847
 30
0.0
 10
15.2957533605
 20
13.225644651
 30
0.0
  0
SPLINE
  5
329
100
AcDbEntity
  8
0
100
AcDbSpline
 62
7
  6
CONTINUOUS
 70
0
 71
3
 72
11
 73
7
 74
0
 42
0.0000001
 43
0.0000001
 44
0.0000000001
 40
0.0
 40
0.0
 40
0.0
 40
0.0
 40
0.2586652807
 40
0.5163144187
 40
0.7657025236
 40
1.0
 40
1.0
 40
1.0
 40
1.0
 10
15.315921598
 20
13.3035593789
 30
0.0
 10
15.3160207829
 20
13.3051620207
 30
0.0
 10
15.316102399
 20
13.3083692783
 30
0.0
 10
15.3158885014
 20
13.3131216113
 30
0.0
 10
15.3153466632
 20
13.3176956711
 30
0.0
 10
15.3147556757
 20
13.3206441218
 30
0.0
 10
15.314400638
 20
13.3220545637
 30
0.0
  0
SPLINE
  5
32A
100
AcDbEntity
  8
0
100
AcDbSpline
 62
7
  6
CONTINUOUS
 70
0
 71
3
 72
11
 73
7
 74
0
 42
0.0000001
 43
0.0000001
 44
0.0000000001
 40
0.0
 40
0.0
 40
0.0
 40
0.0
 40
0.2385313852
 40
0.4974047088
 40
0.757619944
 40
1.0
 40
1.0
 40
1.0
 40
1.0
 10
15.3108220251
 20
13.342094001
 30
0.0
 10
15.3107019797
 20
13.3416573186
 30
0.0
 10
15.3105274371
 20
13.3407254626
 30
0.0
 10
15.310435322
 20
13.3392871001
 30
0.0
 10
15.3105053273
 20
13.3378401661
 30
0.0
 10
15.3106647835
 20
13.3368958239
 30
0.0
 10
15.3107771185
 20
13.3364495557
 30
0.0
  0
SPLINE
  5
32B
100
AcDbEntity
  8
LAYER_CUT_FEAT
100
AcDbSpline
 62
7
  6
CONTINUOUS
 70
0
 71
3
 72
18
 73
14
 74
0
 42
0.0000001
 43
0.0000001
 44
0.0000000001
 40
0.0
 40
0.0
 40
0.0
 40
0.0
 40
0.1514473361
 40
0.3003893039
 40
0.4439183937
 40
0.5793192815
 40
0.7041902921
 40
0.7620659633
 40
0.8166296871
 40
0.8677443142
 40
0.915331192
 40
0.9593880388
 40
1.0
 40
1.0
 40
1.0
 40
1.0
 10
15.4320825579
 20
11.716964735
 30
0.0
 10
15.4321091277
 20
11.7196906726
 30
0.0
 10
15.4320016964
 20
11.725100422
 30
0.0
 10
15.4313646895
 20
11.7330702944
 30
0.0
 10
15.4302673446
 20
11.7406992591
 30
0.0
 10
15.4287356522
 20
11.7478107383
 30
0.0
 10
15.4270883462
 20
11.7533040341
 30
0.0
 10
15.4255631126
 20
11.7572958789
 30
0.0
 10
15.4243648214
 20
11.759986754
 30
0.0
 10
15.4230901749
 20
11.7624355833
 30
0.0
 10
15.4217461243
 20
11.7646286397
 30
0.0
 10
15.4203402384
 20
11.7665532202
 30
0.0
 10
15.4193262573
 20
11.7676954262
 30
0.0
 10
15.4188098303
 20
11.7682128163
 30
0.0
  0
SPLINE
  5
32C
100
AcDbEntity
  8
LAYER_CUT_FEAT
100
AcDbSpline
 62
7
  6
CONTINUOUS
 70
0
 71
3
 72
11
 73
7
 74
0
 42
0.0000001
 43
0.0000001
 44
0.0000000001
 40
0.0
 40
0.0
 40
0.0
 40
0.0
 40
0.2653023224
 40
0.5202774085
 40
0.7650942296
 40
1.0
 40
1.0
 40
1.0
 40
1.0
 10
15.3761306395
 20
11.8209299646
 30
0.0
 10
15.3794837482
 20
11.8159460547
 30
0.0
 10
15.3862555712
 20
11.8063020922
 30
0.0
 10
15.3968283909
 20
11.7925722635
 30
0.0
 10
15.4075989101
 20
11.779886572
 30
0.0
 10
15.4150524759
 20
11.7719771778
 30
0.0
 10
15.4188098303
 20
11.7682128163
 30
0.0
  0
SPLINE
  5
32D
100
AcDbEntity
  8
0
100
AcDbSpline
 62
7
  6
CONTINUOUS
 70
0
 71
3
 72
11
 73
7
 74
0
 42
0.0000001
 43
0.0000001
 44
0.0000000001
 40
0.0
 40
0.0
 40
0.0
 40
0.0
 40
0.2553265308
 40
0.511876777
 40
0.7624139533
 40
1.0
 40
1.0
 40
1.0
 40
1.0
 10
15.3339093928
 20
13.3644427742
 30
0.0
 10
15.3340440061
 20
13.366035607
 30
0.0
 10
15.3341951812
 20
13.3692399834
 30
0.0
 10
15.3340839198
 20
13.3740157435
 30
0.0
 10
15.3336412362
 20
13.3786608045
 30
0.0
 10
15.3331167529
 20
13.3816757051
 30
0.0
 10
15.3327946654
 20
13.3831278583
 30
0.0
  0
SPLINE
  5
32E
100
AcDbEntity
  8
0
100
AcDbSpline
 62
7
  6
CONTINUOUS
 70
0
 71
3
 72
11
 73
7
 74
0
 42
0.0000001
 43
0.0000001
 44
0.0000000001
 40
0.0
 40
0.0
 40
0.0
 40
0.0
 40
0.2332605325
 40
0.4902697556
 40
0.7523106374
 40
1.0
 40
1.0
 40
1.0
 40
1.0
 10
15.3296592405
 20
13.4036510369
 30
0.0
 10
15.3295287726
 20
13.4032288426
 30
0.0
 10
15.3293337552
 20
13.4023166702
 30
0.0
 10
15.3292115589
 20
13.4008938469
 30
0.0
 10
15.3292510061
 20
13.3994389457
 30
0.0
 10
15.3293895535
 20
13.3984800323
 30
0.0
 10
15.329491159
 20
13.3980219372
 30
0.0
  0
SPLINE
  5
32F
100
AcDbEntity
  8
0
100
AcDbSpline
 62
7
  6
CONTINUOUS
 70
0
 71
3
 72
49
 73
45
 74
0
 42
0.0000001
 43
0.0000001
 44
0.0000000001
 40
0.0
 40
0.0
 40
0.0
 40
0.0
 40
0.0365281102
 40
0.0739162173
 40
0.112041044
 40
0.1507744128
 40
0.1899843627
 40
0.2295360135
 40
0.2692924112
 40
0.3091153731
 40
0.348866318
 40
0.3884070957
 40
0.4276008191
 40
0.4663127032
 40
0.50441093
 40
0.5417675224
 40
0.5782592742
 40
0.6137687218
 40
0.6481851819
 40
0.681405915
 40
0.7133373958
 40
0.7438967921
 40
0.7730137124
 40
0.7870142608
 40
0.800634597
 40
0.8138704409
 40
0.8267187762
 40
0.8391779682
 40
0.8512478967
 40
0.8629301057
 40
0.8742279737
 40
0.8851468953
 40
0.895694483
 40
0.9058807861
 40
0.9157185228
 40
0.9252233192
 40
0.9344139387
 40
0.9519354694
 40
0.9603302616
 40
0.9685205012
 40
0.9765422948
 40
0.9844347707
 40
0.9922395428
 40
1.0
 40
1.0
 40
1.0
 40
1.0
 10
15.2651329774
 20
13.1543706408
 30
0.0
 10
15.2597120152
 20
13.127579829
 30
0.0
 10
15.249576346
 20
13.0731955753
 30
0.0
 10
15.2366004915
 20
12.990355545
 30
0.0
 10
15.2257119464
 20
12.9055512093
 30
0.0
 10
15.2169557452
 20
12.8191306054
 30
0.0
 10
15.2103678763
 20
12.7314472881
 30
0.0
 10
15.2059755115
 20
12.6428604004
 30
0.0
 10
15.2037967302
 20
12.5537327403
 30
0.0
 10
15.2038404988
 20
12.4644293809
 30
0.0
 10
15.2061066601
 20
12.3753161173
 30
0.0
 10
15.2105858566
 20
12.2867579563
 30
0.0
 10
15.2172596458
 20
12.1991175985
 30
0.0
 10
15.2261005508
 20
12.112753928
 30
0.0
 10
15.2370721388
 20
12.0280205141
 30
0.0
 10
15.2501292572
 20
11.9452641385
 30
0.0
 10
15.2652181552
 20
11.8648233277
 30
0.0
 10
15.2822767434
 20
11.7870269383
 30
0.0
 10
15.3012349331
 20
11.7121927109
 30
0.0
 10
15.3220148418
 20
11.6406260698
 30
0.0
 10
15.3445314027
 20
11.5726181547
 30
0.0
 10
15.3686923414
 20
11.5084468179
 30
0.0
 10
15.3903898746
 20
11.4577397851
 30
0.0
 10
15.4085351603
 20
11.4193517161
 30
0.0
 10
15.4223138347
 20
11.3920556773
 30
0.0
 10
15.4364257183
 20
11.3659059273
 30
0.0
 10
15.4508566247
 20
11.3409290365
 30
0.0
 10
15.4655918698
 20
11.3171504908
 30
0.0
 10
15.4806165542
 20
11.2945945147
 30
0.0
 10
15.4959155249
 20
11.2732840909
 30
0.0
 10
15.5114734001
 20
11.25324093
 30
0.0
 10
15.5272746192
 20
11.2344854603
 30
0.0
 10
15.543303398
 20
11.2170368704
 30
0.0
 10
15.559543997
 20
11.2009129763
 30
0.0
 10
15.5759798511
 20
11.1861307361
 30
0.0
 10
15.5925967093
 20
11.1727044984
 30
0.0
 10
15.6146135021
 20
11.1568860314
 30
0.0
 10
15.6373059575
 20
11.1434776817
 30
0.0
 10
15.6605238627
 20
11.1328382663
 30
0.0
 10
15.677788216
 20
11.1263865743
 30
0.0
 10
15.6951291768
 20
11.1213597709
 30
0.0
 10
15.7125293683
 20
11.1177640433
 30
0.0
 10
15.7299678358
 20
11.1156045435
 30
0.0
 10
15.7416208331
 20
11.1151239553
 30
0.0
 10
15.7474279354
 20
11.115123957
 30
0.0
  0
SPLINE
  5
330
100
AcDbEntity
  8
0
100
AcDbSpline
 62
7
  6
CONTINUOUS
 70
0
 71
3
 72
12
 73
8
 74
0
 42
0.0000001
 43
0.0000001
 44
0.0000000001
 40
0.0
 40
0.0
 40
0.0
 40
0.0
 40
0.1054580512
 40
0.2131674815
 40
0.4428638245
 40
0.7026349932
 40
1.0
 40
1.0
 40
1.0
 40
1.0
 10
15.307146429
 20
13.286331763
 30
0.0
 10
15.3073609637
 20
13.2863317699
 30
0.0
 10
15.3077954022
 20
13.2863669598
 30
0.0
 10
15.3086738926
 20
13.2865807254
 30
0.0
 10
15.3097736925
 20
13.2871348564
 30
0.0
 10
15.3109995631
 20
13.288180248
 30
0.0
 10
15.3117199443
 20
13.289062343
 30
0.0
 10
15.3120716264
 20
13.2895545468
 30
0.0
  0
SPLINE
  5
331
100
AcDbEntity
  8
0
100
AcDbSpline
 62
7
  6
CONTINUOUS
 70
0
 71
3
 72
13
 73
9
 74
0
 42
0.0000001
 43
0.0000001
 44
0.0000000001
 40
0.0
 40
0.0
 40
0.0
 40
0.0
 40
0.0837533074
 40
0.1737619339
 40
0.2748159983
 40
0.3898245947
 40
0.6654298666
 40
1.0
 40
1.0
 40
1.0
 40
1.0
 10
15.297828126
 20
13.2911264039
 30
0.0
 10
15.2977491877
 20
13.2911264038
 30
0.0
 10
15.297584515
 20
13.2911000875
 30
0.0
 10
15.2973486855
 20
13.2909863208
 30
0.0
 10
15.2971231986
 20
13.2908031478
 30
0.0
 10
15.2968205158
 20
13.2904498161
 30
0.0
 10
15.2964926752
 20
13.2898427095
 30
0.0
 10
15.2963078021
 20
13.2892964016
 30
0.0
 10
15.2962242162
 20
13.2889923459
 30
0.0
  0
SPLINE
  5
332
100
AcDbEntity
  8
02___PRT_ALL_AXES
100
AcDbSpline
 62
7
  6
CONTINUOUS
 70
0
 71
3
 72
38
 73
34
 74
0
 42
0.0000001
 43
0.0000001
 44
0.0000000001
 40
0.0
 40
0.0
 40
0.0
 40
0.0
 40
0.093907208
 40
0.138921526
 40
0.1825826874
 40
0.2248541075
 40
0.2657051848
 40
0.3051120679
 40
0.3430584079
 40
0.3795362691
 40
0.4145471741
 40
0.4481033155
 40
0.4802289447
 40
0.5109619437
 40
0.5403555587
 40
0.5684802404
 40
0.5954254723
 40
0.6213013902
 40
0.6462398932
 40
0.6703948519
 40
0.6939409796
 40
0.7170709988
 40
0.7399909708
 40
0.7629140361
 40
0.7860532292
 40
0.8096143083
 40
0.8337895328
 40
0.8587530455
 40
0.8846580909
 40
0.9116359313
 40
0.939796087
 40
0.9692274674
 40
1.0
 40
1.0
 40
1.0
 40
1.0
 10
15.4292858129
 20
12.9714512291
 30
0.0
 10
15.4340538337
 20
12.9868805501
 30
0.0
 10
15.4416341554
 20
13.009550481
 30
0.0
 10
15.4527760945
 20
13.0389090441
 30
0.0
 10
15.4613536463
 20
13.0597339775
 30
0.0
 10
15.4702554398
 20
13.0796406948
 30
0.0
 10
15.4794668538
 20
13.098596298
 30
0.0
 10
15.4889725595
 20
13.1165692217
 30
0.0
 10
15.4987568567
 20
13.1335296442
 30
0.0
 10
15.5088036426
 20
13.1494494397
 30
0.0
 10
15.5190964811
 20
13.164302237
 30
0.0
 10
15.5296186523
 20
13.1780634354
 30
0.0
 10
15.5403532087
 20
13.1907102117
 30
0.0
 10
15.5512830279
 20
13.2022215015
 30
0.0
 10
15.562390851
 20
13.2125779533
 30
0.0
 10
15.5736592922
 20
13.2217618525
 30
0.0
 10
15.5850707957
 20
13.2297570217
 30
0.0
 10
15.5966075138
 20
13.2365487222
 30
0.0
 10
15.6082510889
 20
13.2421236056
 30
0.0
 10
15.619982355
 20
13.2464697889
 30
0.0
 10
15.6317810331
 20
13.249577125
 30
0.0
 10
15.6436255569
 20
13.2514376905
 30
0.0
 10
15.6554931865
 20
13.2520463966
 30
0.0
 10
15.667360476
 20
13.2514015128
 30
0.0
 10
15.6792039905
 20
13.2495048708
 30
0.0
 10
15.6910010186
 20
13.2463616492
 30
0.0
 10
15.7027300318
 20
13.2419798436
 30
0.0
 10
15.714370785
 20
13.2363696591
 30
0.0
 10
15.7259041465
 20
13.2295430171
 30
0.0
 10
15.7373117521
 20
13.2215133349
 30
0.0
 10
15.7485758656
 20
13.2122952795
 30
0.0
 10
15.7596785369
 20
13.2019055203
 30
0.0
 10
15.7667993759
 20
13.1943805555
 30
0.0
 10
15.7703310015
 20
13.1904394334
 30
0.0
  0
SPLINE
  5
333
100
AcDbEntity
  8
02___PRT_ALL_AXES
100
AcDbSpline
 62
7
  6
CONTINUOUS
 70
0
 71
3
 72
25
 73
21
 74
0
 42
0.0000001
 43
0.0000001
 44
0.0000000001
 40
0.0
 40
0.0
 40
0.0
 40
0.0
 40
0.0879762407
 40
0.1726797608
 40
0.2539556189
 40
0.3316740207
 40
0.4057348687
 40
0.476072412
 40
0.5426608697
 40
0.6055215364
 40
0.6647312304
 40
0.7204325337
 40
0.7728453054
 40
0.8222788596
 40
0.8691425117
 40
0.9139510599
 40
0.9357863367
 40
0.9573462039
 40
0.9787199997
 40
1.0
 40
1.0
 40
1.0
 40
1.0
 10
15.4182508871
 20
12.9770457188
 30
0.0
 10
15.4215947966
 20
12.987866614
 30
0.0
 10
15.4284981314
 20
13.0090030198
 30
0.0
 10
15.4397304424
 20
13.0397137431
 30
0.0
 10
15.4516160912
 20
13.0687568863
 30
0.0
 10
15.464117712
 20
13.0960411863
 30
0.0
 10
15.4771964036
 20
13.1214815852
 30
0.0
 10
15.4908117233
 20
13.1449989294
 30
0.0
 10
15.5049221116
 20
13.1665202919
 30
0.0
 10
15.5194851425
 20
13.1859790837
 30
0.0
 10
15.5344579724
 20
13.2033149626
 30
0.0
 10
15.5497977218
 20
13.2184735969
 30
0.0
 10
15.565461375
 20
13.2314059286
 30
0.0
 10
15.5814066244
 20
13.2420674068
 30
0.0
 10
15.5975864884
 20
13.2504164214
 30
0.0
 10
15.6113502723
 20
13.2554591736
 30
0.0
 10
15.6223630941
 20
13.2582574924
 30
0.0
 10
15.6305746457
 20
13.2597458959
 30
0.0
 10
15.6387995845
 20
13.2606394483
 30
0.0
 10
15.6442927656
 20
13.2608382377
 30
0.0
 10
15.6470322871
 20
13.2608382407
 30
0.0
  0
SPLINE
  5
334
100
AcDbEntity
  8
0
100
AcDbSpline
 62
7
  6
CONTINUOUS
 70
0
 71
3
 72
11
 73
7
 74
0
 42
0.0000001
 43
0.0000001
 44
0.0000000001
 40
0.0
 40
0.0
 40
0.0
 40
0.0
 40
0.218567832
 40
0.4512684462
 40
0.7093204576
 40
1.0
 40
1.0
 40
1.0
 40
1.0
 10
15.3253489301
 20
13.3484641769
 30
0.0
 10
15.3257318354
 20
13.3484641647
 30
0.0
 10
15.326526288
 20
13.3485810659
 30
0.0
 10
15.3276730575
 20
13.3490905701
 30
0.0
 10
15.3287766818
 20
13.3499155535
 30
0.0
 10
15.3294365604
 20
13.3506207234
 30
0.0
 10
15.3297596844
 20
13.3510143129
 30
0.0
  0
SPLINE
  5
335
100
AcDbEntity
  8
0
100
AcDbSpline
 62
7
  6
CONTINUOUS
 70
0
 71
3
 72
13
 73
9
 74
0
 42
0.0000001
 43
0.0000001
 44
0.0000000001
 40
0.0
 40
0.0
 40
0.0
 40
0.0
 40
0.0859076675
 40
0.1775404594
 40
0.2794089932
 40
0.3944022973
 40
0.6681190727
 40
1.0
 40
1.0
 40
1.0
 40
1.0
 10
15.3154628302
 20
13.3546424815
 30
0.0
 10
15.3153885985
 20
13.35464248
 30
0.0
 10
15.3152344151
 20
13.354619397
 30
0.0
 10
15.3150122075
 20
13.3545189701
 30
0.0
 10
15.3147985742
 20
13.3543565335
 30
0.0
 10
15.3145107734
 20
13.3540430166
 30
0.0
 10
15.3141934447
 20
13.3535003693
 30
0.0
 10
15.3140095988
 20
13.3530087775
 30
0.0
 10
15.3139249295
 20
13.3527347877
 30
0.0
  0
SPLINE
  5
336
100
AcDbEntity
  8
LAYER_CUT_FEAT
100
AcDbSpline
 62
7
  6
CONTINUOUS
 70
0
 71
3
 72
23
 73
19
 74
0
 42
0.0000001
 43
0.0000001
 44
0.0000000001
 40
0.0
 40
0.0
 40
0.0
 40
0.0
 40
0.0618973173
 40
0.1273213839
 40
0.1956024256
 40
0.2660054004
 40
0.3377528078
 40
0.4100403773
 40
0.4820533009
 40
0.5529821107
 40
0.6220387266
 40
0.6884729216
 40
0.751590188
 40
0.8107718303
 40
0.8654986943
 40
0.9153823493
 40
0.9602078144
 40
1.0
 40
1.0
 40
1.0
 40
1.0
 10
15.7013663866
 20
13.4679859199
 30
0.0
 10
15.7018699646
 20
13.4696752293
 30
0.0
 10
15.702789391
 20
13.4731855119
 30
0.0
 10
15.7038901933
 20
13.4786488047
 30
0.0
 10
15.7047406811
 20
13.4844015437
 30
0.0
 10
15.7053293194
 20
13.4903676409
 30
0.0
 10
15.7056482237
 20
13.4964683799
 30
0.0
 10
15.705693098
 20
13.5026230831
 30
0.0
 10
15.7054633277
 20
13.5087503551
 30
0.0
 10
15.7049620089
 20
13.5147691717
 30
0.0
 10
15.7041959004
 20
13.5206000166
 30
0.0
 10
15.7031752898
 20
13.5261659963
 30
0.0
 10
15.7019138699
 20
13.5313939339
 30
0.0
 10
15.7004284416
 20
13.536215525
 30
0.0
 10
15.6987386962
 20
13.5405682179
 30
0.0
 10
15.6968659351
 20
13.5443969011
 30
0.0
 10
15.6948341883
 20
13.5476527756
 30
0.0
 10
15.693298626
 20
13.5495238409
 30
0.0
 10
15.6925054798
 20
13.5503332542
 30
0.0
  0
SPLINE
  5
337
100
AcDbEntity
  8
02___PRT_ALL_AXES
100
AcDbSpline
 62
7
  6
CONTINUOUS
 70
0
 71
3
 72
58
 73
54
 74
0
 42
0.0000001
 43
0.0000001
 44
0.0000000001
 40
0.0
 40
0.0
 40
0.0
 40
0.0
 40
0.0114385033
 40
0.0223687358
 40
0.0328130293
 40
0.0428006212
 40
0.0523683504
 40
0.0615612324
 40
0.0704327696
 40
0.0790448144
 40
0.0874668265
 40
0.0957743985
 40
0.1040470701
 40
0.1123656265
 40
0.12080922
 40
0.129452721
 40
0.1383646208
 40
0.1476056628
 40
0.1523672801
 40
0.1572300845
 40
0.1672779661
 40
0.1777869706
 40
0.1887853489
 40
0.2002945496
 40
0.2123299506
 40
0.2249015471
 40
0.2380145899
 40
0.2516701414
 40
0.2658655593
 40
0.2805949233
 40
0.2958493886
 40
0.3116174994
 40
0.3278854596
 40
0.3446373589
 40
0.3618553824
 40
0.3795199887
 40
0.3976100671
 40
0.4161030879
 40
0.4349752288
 40
0.4737539939
 40
0.5137363901
 40
0.5546967225
 40
0.5963986464
 40
0.6385979762
 40
0.6810453707
 40
0.7234889463
 40
0.7656768583
 40
0.8073598829
 40
0.8482940323
 40
0.888243242
 40
0.9269821847
 40
0.9642992821
 40
1.0
 40
1.0
 40
1.0
 40
1.0
 10
15.5536661338
 20
13.5773369978
 30
0.0
 10
15.5593297265
 20
13.5841222619
 30
0.0
 10
15.5707561142
 20
13.5971045003
 30
0.0
 10
15.5886059638
 20
13.6151319314
 30
0.0
 10
15.6067414985
 20
13.6312326008
 30
0.0
 10
15.6251326231
 20
13.6453767057
 30
0.0
 10
15.64374964
 20
13.6575378968
 30
0.0
 10
15.6625620176
 20
13.6676919832
 30
0.0
 10
15.6815381249
 20
13.6758172419
 30
0.0
 10
15.7006446177
 20
13.6818945823
 30
0.0
 10
15.7198459425
 20
13.6859082873
 30
0.0
 10
15.7391042455
 20
13.6878470695
 30
0.0
 10
15.7583799177
 20
13.687705129
 30
0.0
 10
15.77763276
 20
13.6854829018
 30
0.0
 10
15.796823306
 20
13.6811870071
 30
0.0
 10
15.8159141619
 20
13.6748293022
 30
0.0
 10
15.8348694506
 20
13.6664264214
 30
0.0
 10
15.8503703934
 20
13.6578216521
 30
0.0
 10
15.8626594636
 20
13.6499756726
 30
0.0
 10
15.8751395419
 20
13.6412917461
 30
0.0
 10
15.8906037531
 20
13.6291511436
 30
0.0
 10
15.9087015126
 20
13.6127863479
 30
0.0
 10
15.9265107256
 20
13.5944979118
 30
0.0
 10
15.9440013069
 20
13.5743186905
 30
0.0
 10
15.9611444629
 20
13.5522836571
 30
0.0
 10
15.9779113822
 20
13.5284310592
 30
0.0
 10
15.9942736955
 20
13.5028021416
 30
0.0
 10
16.010203476
 20
13.4754412442
 30
0.0
 10
16.0256733829
 20
13.4463957473
 30
0.0
 10
16.0406567124
 20
13.415716005
 30
0.0
 10
16.0551275131
 20
13.3834552813
 30
0.0
 10
16.0690606466
 20
13.3496696541
 30
0.0
 10
16.0824318407
 20
13.3144179136
 30
0.0
 10
16.0952177791
 20
13.2777614646
 30
0.0
 10
16.1073961229
 20
13.23976421
 30
0.0
 10
16.1189455829
 20
13.200492422
 30
0.0
 10
16.1298459229
 20
13.1600146863
 30
0.0
 10
16.1400781843
 20
13.1184015343
 30
0.0
 10
16.152922016
 20
13.060981802
 30
0.0
 10
16.1671348303
 20
12.9868715753
 30
0.0
 10
16.1811222257
 20
12.895408244
 30
0.0
 10
16.1920938354
 20
12.8012605166
 30
0.0
 10
16.1999724054
 20
12.7050860896
 30
0.0
 10
16.2047024113
 20
12.6075556603
 30
0.0
 10
16.2062505178
 20
12.5093500645
 30
0.0
 10
16.2046058104
 20
12.4111548537
 30
0.0
 10
16.1997798823
 20
12.3136555309
 30
0.0
 10
16.1918067521
 20
12.2175326326
 30
0.0
 10
16.1807425867
 20
12.1234567615
 30
0.0
 10
16.166665378
 20
12.032084106
 30
0.0
 10
16.1496740156
 20
11.9440503968
 30
0.0
 10
16.1298887002
 20
11.8599707645
 30
0.0
 10
16.1145631278
 20
11.8056476995
 30
0.0
 10
16.1064186351
 20
11.7792921114
 30
0.0
  0
SPLINE
  5
338
100
AcDbEntity
  8
LAYER_CUT_FEAT
100
AcDbSpline
 62
7
  6
CONTINUOUS
 70
0
 71
3
 72
12
 73
8
 74
0
 42
0.0000001
 43
0.0000001
 44
0.0000000001
 40
0.0
 40
0.0
 40
0.0
 40
0.0
 40
0.2729152698
 40
0.5292030541
 40
0.7707155944
 40
0.8867239027
 40
1.0
 40
1.0
 40
1.0
 40
1.0
 10
15.6925054798
 20
13.5503332542
 30
0.0
 10
15.6848516949
 20
13.558144015
 30
0.0
 10
15.6693749301
 20
13.5726898895
 30
0.0
 10
15.6448966375
 20
13.5916010295
 30
0.0
 10
15.6238533651
 20
13.6044532514
 30
0.0
 10
15.6068990567
 20
13.6127490469
 30
0.0
 10
15.5983959019
 20
13.6162496361
 30
0.0
 10
15.5941422497
 20
13.6178334513
 30
0.0
  0
SPLINE
  5
339
100
AcDbEntity
  8
02___PRT_ALL_AXES
100
AcDbSpline
 62
7
  6
CONTINUOUS
 70
0
 71
3
 72
49
 73
45
 74
0
 42
0.0000001
 43
0.0000001
 44
0.0000000001
 40
0.0
 40
0.0
 40
0.0
 40
0.0
 40
0.0076945792
 40
0.015441641
 40
0.0232923623
 40
0.0312954364
 40
0.0394961211
 40
0.0479355658
 40
0.0656625543
 40
0.0750196784
 40
0.0847346899
 40
0.0948265189
 40
0.1053103089
 40
0.116197752
 40
0.1274974155
 40
0.1392150481
 40
0.1513538612
 40
0.1639147818
 40
0.1768966768
 40
0.1902965524
 40
0.2041097288
 40
0.2183299949
 40
0.2329497434
 40
0.2633489798
 40
0.2952252094
 40
0.3284780214
 40
0.3629935711
 40
0.3986465937
 40
0.4353021539
 40
0.4728172027
 40
0.5110420001
 40
0.549821446
 40
0.588996347
 40
0.6284046375
 40
0.6678825742
 40
0.7072659158
 40
0.7463910979
 40
0.7850964136
 40
0.8232232122
 40
0.8606171258
 40
0.8971293432
 40
0.932617954
 40
0.9669493945
 40
1.0
 40
1.0
 40
1.0
 40
1.0
 10
15.7391383865
 20
13.6786953842
 30
0.0
 10
15.7444522646
 20
13.678695381
 30
0.0
 10
15.755122418
 20
13.6782139491
 30
0.0
 10
15.7710823617
 20
13.6760512925
 30
0.0
 10
15.786999687
 20
13.6724512049
 30
0.0
 10
15.8028513647
 20
13.6674200518
 30
0.0
 10
15.8186183464
 20
13.6609655936
 30
0.0
 10
15.8398439518
 20
13.6503037717
 30
0.0
 10
15.8604969332
 20
13.6368974289
 30
0.0
 10
15.8804475489
 20
13.6211407317
 30
0.0
 10
15.8955065332
 20
13.6077482959
 30
0.0
 10
15.9103686342
 20
13.5930143235
 30
0.0
 10
15.9250184213
 20
13.5769557238
 30
0.0
 10
15.9394380796
 20
13.559592554
 30
0.0
 10
15.9536106754
 20
13.5409458949
 30
0.0
 10
15.9675192656
 20
13.5210384765
 30
0.0
 10
15.9811471908
 20
13.4998945047
 30
0.0
 10
15.9944780378
 20
13.4775397002
 30
0.0
 10
16.007495691
 20
13.454001268
 30
0.0
 10
16.0201843749
 20
13.4293078663
 30
0.0
 10
16.0325286237
 20
13.403489614
 30
0.0
 10
16.0445135546
 20
13.3765779029
 30
0.0
 10
16.0601984933
 20
13.3387894586
 30
0.0
 10
16.0787512422
 20
13.2890096681
 30
0.0
 10
16.0990781729
 20
13.2262281941
 30
0.0
 10
16.1176502149
 20
13.1599494504
 30
0.0
 10
16.1343761581
 20
13.0904972691
 30
0.0
 10
16.149173898
 20
13.0182098645
 30
0.0
 10
16.1619706343
 20
12.9434402224
 30
0.0
 10
16.1727033715
 20
12.8665536618
 30
0.0
 10
16.1813192454
 20
12.7879261449
 30
0.0
 10
16.1877758084
 20
12.707942326
 30
0.0
 10
16.1920412418
 20
12.62699363
 30
0.0
 10
16.1940945205
 20
12.5454762907
 30
0.0
 10
16.1939255271
 20
12.4637893752
 30
0.0
 10
16.1915350956
 20
12.3823327944
 30
0.0
 10
16.1869350061
 20
12.3015053135
 30
0.0
 10
16.1801479275
 20
12.2217025603
 30
0.0
 10
16.1712073112
 20
12.1433150651
 30
0.0
 10
16.1601571969
 20
12.0667262511
 30
0.0
 10
16.1470520386
 20
11.992310705
 30
0.0
 10
16.131956223
 20
11.9204315574
 30
0.0
 10
16.1149444273
 20
11.8514412028
 30
0.0
 10
16.1021226584
 20
11.8066938484
 30
0.0
 10
16.0953837093
 20
11.7848866011
 30
0.0
  0
SPLINE
  5
33A
100
AcDbEntity
  8
02___PRT_ALL_AXES
100
AcDbSpline
 62
7
  6
CONTINUOUS
 70
0
 71
3
 72
28
 73
24
 74
0
 42
0.0000001
 43
0.0000001
 44
0.0000000001
 40
0.0
 40
0.0
 40
0.0
 40
0.0
 40
0.0211181239
 40
0.0434000138
 40
0.0668433506
 40
0.0914333514
 40
0.1171448496
 40
0.1439435347
 40
0.1717871859
 40
0.2006266351
 40
0.2304066067
 40
0.2610664373
 40
0.3247544803
 40
0.3911261645
 40
0.4595593237
 40
0.5293944437
 40
0.599947494
 40
0.6705221408
 40
0.7404216832
 40
0.808960982
 40
0.8754786459
 40
0.9393498228
 40
1.0
 40
1.0
 40
1.0
 40
1.0
 10
15.7383908423
 20
12.9131398504
 30
0.0
 10
15.7412896251
 20
12.9091928232
 30
0.0
 10
15.7469892822
 20
12.9008897422
 30
0.0
 10
15.7550416897
 20
12.8876371986
 30
0.0
 10
15.7628038484
 20
12.8732905468
 30
0.0
 10
15.7702532048
 20
12.8578915724
 30
0.0
 10
15.7773685646
 20
12.841484363
 30
0.0
 10
15.7841293731
 20
12.8241162576
 30
0.0
 10
15.7905160825
 20
12.8058374058
 30
0.0
 10
15.79651011
 20
12.7867007329
 30
0.0
 10
15.8020941585
 20
12.7667615893
 30
0.0
 10
15.8090589041
 20
12.7388291884
 30
0.0
 10
15.8165855056
 20
12.7023085636
 30
0.0
 10
15.8236501014
 20
12.6568081691
 30
0.0
 10
15.8287749783
 20
12.6096151648
 30
0.0
 10
15.8318998938
 20
12.5612771519
 30
0.0
 10
15.8329880088
 20
12.5123541053
 30
0.0
 10
15.8320265126
 20
12.4634135074
 30
0.0
 10
15.8290267222
 20
12.4150228743
 30
0.0
 10
15.8240240186
 20
12.3677433345
 30
0.0
 10
15.8170771562
 20
12.3221217117
 30
0.0
 10
15.808268331
 20
12.2786875482
 30
0.0
 10
15.8010147795
 20
12.2507184801
 30
0.0
 10
15.7970634377
 20
12.2372206156
 30
0.0
  0
SPLINE
  5
33B
100
AcDbEntity
  8
02___PRT_ALL_AXES
100
AcDbSpline
 62
7
  6
CONTINUOUS
 70
0
 71
3
 72
14
 73
10
 74
0
 42
0.0000001
 43
0.0000001
 44
0.0000000001
 40
0.0
 40
0.0
 40
0.0
 40
0.0
 40
0.1518930473
 40
0.2959919539
 40
0.4322084512
 40
0.5605542491
 40
0.6811643381
 40
0.7943194153
 40
1.0
 40
1.0
 40
1.0
 40
1.0
 10
15.7694596225
 20
12.1623506303
 30
0.0
 10
15.7668610843
 20
12.1567383624
 30
0.0
 10
15.7615539623
 20
12.1459118374
 30
0.0
 10
15.7530198027
 20
12.1305123401
 30
0.0
 10
15.7441461156
 20
12.1164244821
 30
0.0
 10
15.7349636293
 20
12.1036975353
 30
0.0
 10
15.7254974521
 20
12.092370654
 30
0.0
 10
15.7129508629
 20
12.0796045158
 30
0.0
 10
15.7026060096
 20
12.071558897
 30
0.0
 10
15.6954120752
 20
12.0672713079
 30
0.0
  0
SPLINE
  5
33C
100
AcDbEntity
  8
LAYER_CUT_FEAT
100
AcDbSpline
 62
7
  6
CONTINUOUS
 70
0
 71
3
 72
14
 73
10
 74
0
 42
0.0000001
 43
0.0000001
 44
0.0000000001
 40
0.0
 40
0.0
 40
0.0
 40
0.0
 40
0.1183207857
 40
0.2373176944
 40
0.3576526184
 40
0.479960561
 40
0.6048384965
 40
0.7328361868
 40
1.0
 40
1.0
 40
1.0
 40
1.0
 10
15.5316365026
 20
13.3079810992
 30
0.0
 10
15.528318738
 20
13.3079810958
 30
0.0
 10
15.5216610294
 20
13.3077064361
 30
0.0
 10
15.5116979298
 20
13.3064722255
 30
0.0
 10
15.5017566994
 20
13.3044171865
 30
0.0
 10
15.4918493767
 20
13.3015442845
 30
0.0
 10
15.4819856954
 20
13.2978569107
 30
0.0
 10
15.4687214381
 20
13.2917767
 30
0.0
 10
15.4591472288
 20
13.2861175561
 30
0.0
 10
15.4529324272
 20
13.2819346027
 30
0.0
  0
SPLINE
  5
33D
100
AcDbEntity
  8
LAYER_CUT_FEAT
100
AcDbSpline
 62
7
  6
CONTINUOUS
 70
0
 71
3
 72
10
 73
6
 74
0
 42
0.0000001
 43
0.0000001
 44
0.0000000001
 40
0.0
 40
0.0
 40
0.0
 40
0.0
 40
0.2380812879
 40
0.4812611335
 40
1.0
 40
1.0
 40
1.0
 40
1.0
 10
15.6342630108
 20
11.4253885528
 30
0.0
 10
15.6346988342
 20
11.4253885608
 30
0.0
 10
15.6355815397
 20
11.4254602678
 30
0.0
 10
15.6373655863
 20
11.4258952735
 30
0.0
 10
15.6386312619
 20
11.4265338635
 30
0.0
 10
15.63942531
 20
11.4270546325
 30
0.0
  0
SPLINE
  5
33E
100
AcDbEntity
  8
02___PRT_ALL_AXES
100
AcDbSpline
 62
7
  6
CONTINUOUS
 70
0
 71
3
 72
18
 73
14
 74
0
 42
0.0000001
 43
0.0000001
 44
0.0000000001
 40
0.0
 40
0.0
 40
0.0
 40
0.0
 40
0.1743001422
 40
0.3350267269
 40
0.4809013822
 40
0.6112228715
 40
0.7261100523
 40
0.7781697364
 40
0.8269801032
 40
0.8729609193
 40
0.9166592104
 40
0.9587471209
 40
1.0
 40
1.0
 40
1.0
 40
1.0
 10
15.6182549495
 20
12.9561357765
 30
0.0
 10
15.6177951156
 20
12.9578635103
 30
0.0
 10
15.6168078715
 20
12.9611584962
 30
0.0
 10
15.6150442071
 20
12.9657706654
 30
0.0
 10
15.6130772363
 20
12.9698058805
 30
0.0
 10
15.6109341224
 20
12.9732074711
 30
0.0
 10
15.6089598561
 20
12.975550638
 30
0.0
 10
15.6073096834
 20
12.9770303339
 30
0.0
 10
15.6060874917
 20
12.9779161021
 30
0.0
 10
15.6048441187
 20
12.9786106555
 30
0.0
 10
15.6035835284
 20
12.9791102855
 30
0.0
 10
15.6023110076
 20
12.9794117357
 30
0.0
 10
15.6014546997
 20
12.9794791438
 30
0.0
 10
15.6010315494
 20
12.9794791491
 30
0.0
  0
SPLINE
  5
33F
100
AcDbEntity
  8
02___PRT_ALL_AXES
100
AcDbSpline
 62
7
  6
CONTINUOUS
 70
0
 71
3
 72
14
 73
10
 74
0
 42
0.0000001
 43
0.0000001
 44
0.0000000001
 40
0.0
 40
0.0
 40
0.0
 40
0.0
 40
0.118755066
 40
0.2376715479
 40
0.3576157308
 40
0.4794268729
 40
0.6038970655
 40
0.7317540075
 40
1.0
 40
1.0
 40
1.0
 40
1.0
 10
15.6500793136
 20
12.9659963349
 30
0.0
 10
15.6522180052
 20
12.9661587788
 30
0.0
 10
15.656516108
 20
12.9662854541
 30
0.0
 10
15.6629707099
 20
12.9658719931
 30
0.0
 10
15.6694144374
 20
12.9648557115
 30
0.0
 10
15.6758369776
 20
12.9632386477
 30
0.0
 10
15.6822299593
 20
12.9610234808
 30
0.0
 10
15.6908367295
 20
12.9572190498
 30
0.0
 10
15.6970203013
 20
12.9535538467
 30
0.0
 10
15.7010175345
 20
12.9508162401
 30
0.0
  0
SPLINE
  5
340
100
AcDbEntity
  8
02___PRT_ALL_AXES
100
AcDbSpline
 62
7
  6
CONTINUOUS
 70
0
 71
3
 72
11
 73
7
 74
0
 42
0.0000001
 43
0.0000001
 44
0.0000000001
 40
0.0
 40
0.0
 40
0.0
 40
0.0
 40
0.25058278
 40
0.5007941013
 40
0.7506131608
 40
1.0
 40
1.0
 40
1.0
 40
1.0
 10
15.5091899095
 20
12.2532915269
 30
0.0
 10
15.5332508088
 20
12.2522496301
 30
0.0
 10
15.581330804
 20
12.2500227668
 30
0.0
 10
15.6533735657
 20
12.2462460829
 30
0.0
 10
15.7252762504
 20
12.2420198257
 30
0.0
 10
15.7731523713
 20
12.2388789762
 30
0.0
 10
15.7970634377
 20
12.2372206156
 30
0.0
  0
SPLINE
  5
341
100
AcDbEntity
  8
LAYER_CUT_FEAT
100
AcDbSpline
 62
7
  6
CONTINUOUS
 70
0
 71
3
 72
17
 73
13
 74
0
 42
0.0000001
 43
0.0000001
 44
0.0000000001
 40
0.0
 40
0.0
 40
0.0
 40
0.0
 40
0.131725388
 40
0.2632120943
 40
0.3935921677
 40
0.5220104351
 40
0.647634515
 40
0.7696653454
 40
0.8290987169
 40
0.8873551667
 40
0.9443491692
 40
1.0
 40
1.0
 40
1.0
 40
1.0
 10
15.9663339296
 20
12.4391777847
 30
0.0
 10
15.9671564203
 20
12.4720785281
 30
0.0
 10
15.9676659103
 20
12.5378542839
 30
0.0
 10
15.9650531629
 20
12.6361753798
 30
0.0
 10
15.9590850563
 20
12.7335237809
 30
0.0
 10
15.9498084408
 20
12.8291421293
 30
0.0
 10
15.9372960929
 20
12.9222872401
 30
0.0
 10
15.9241415701
 20
12.9978988756
 30
0.0
 10
15.9120333011
 20
13.0565592448
 30
0.0
 10
15.9022914715
 20
13.0991059006
 30
0.0
 10
15.8918288754
 20
13.1405067871
 30
0.0
 10
15.8842933149
 20
13.1676263986
 30
0.0
 10
15.8804036784
 20
13.1809753803
 30
0.0
  0
SPLINE
  5
342
100
AcDbEntity
  8
LAYER_CUT_FEAT
100
AcDbSpline
 62
7
  6
CONTINUOUS
 70
0
 71
3
 72
17
 73
13
 74
0
 42
0.0000001
 43
0.0000001
 44
0.0000000001
 40
0.0
 40
0.0
 40
0.0
 40
0.0
 40
0.173427493
 40
0.3331773199
 40
0.4781972919
 40
0.6079928677
 40
0.722857856
 40
0.8241877429
 40
0.8706992688
 40
0.915064539
 40
0.9579220133
 40
1.0
 40
1.0
 40
1.0
 40
1.0
 10
15.8804036784
 20
13.1809753803
 30
0.0
 10
15.8799374062
 20
13.1825755961
 30
0.0
 10
15.8789456994
 20
13.1856233494
 30
0.0
 10
15.8771998382
 20
13.1898799249
 30
0.0
 10
15.8752747947
 20
13.1935937504
 30
0.0
 10
15.8731931083
 20
13.1967185057
 30
0.0
 10
15.8709781857
 20
13.1992152167
 30
0.0
 10
15.8689780087
 20
13.200788531
 30
0.0
 10
15.8673440396
 20
13.2016593879
 30
0.0
 10
15.8661382418
 20
13.202115598
 30
0.0
 10
15.8649222259
 20
13.2023906504
 30
0.0
 10
15.8641046694
 20
13.2024521084
 30
0.0
 10
15.8637002696
 20
13.2024521103
 30
0.0
  0
SPLINE
  5
343
100
AcDbEntity
  8
LAYER_CUT_FEAT
100
AcDbSpline
 62
7
  6
CONTINUOUS
 70
0
 71
3
 72
21
 73
17
 74
0
 42
0.0000001
 43
0.0000001
 44
0.0000000001
 40
0.0
 40
0.0
 40
0.0
 40
0.0
 40
0.0341502295
 40
0.0699229752
 40
0.1086860854
 40
0.1514297864
 40
0.1987748018
 40
0.2510385372
 40
0.3083057987
 40
0.3704853153
 40
0.4373508987
 40
0.5085709499
 40
0.5837300716
 40
0.6623456986
 40
0.8277237835
 40
1.0
 40
1.0
 40
1.0
 40
1.0
 10
15.9455150873
 20
12.389038372
 30
0.0
 10
15.9461737236
 20
12.3890383648
 30
0.0
 10
15.9475273798
 20
12.3892061291
 30
0.0
 10
15.9495058248
 20
12.3899457502
 30
0.0
 10
15.9514324865
 20
12.391155528
 30
0.0
 10
15.9532936271
 20
12.3928163479
 30
0.0
 10
15.9550790689
 20
12.3949110074
 30
0.0
 10
15.9567769393
 20
12.3974214172
 30
0.0
 10
15.9583745706
 20
12.4003266742
 30
0.0
 10
15.9598589802
 20
12.4036023688
 30
0.0
 10
15.961217577
 20
12.4072205613
 30
0.0
 10
15.9624385218
 20
12.4111500037
 30
0.0
 10
15.9635111518
 20
12.4153565212
 30
0.0
 10
15.9647513971
 20
12.4213875186
 30
0.0
 10
15.9658525048
 20
12.4293495421
 30
0.0
 10
15.9662508935
 20
12.4358562278
 30
0.0
 10
15.9663339296
 20
12.4391777847
 30
0.0
  0
SPLINE
  5
344
100
AcDbEntity
  8
02___PRT_ALL_AXES
100
AcDbSpline
 62
7
  6
CONTINUOUS
 70
0
 71
3
 72
22
 73
18
 74
0
 42
0.0000001
 43
0.0000001
 44
0.0000000001
 40
0.0
 40
0.0
 40
0.0
 40
0.0
 40
0.1676348651
 40
0.3320218642
 40
0.4111390276
 40
0.4872539119
 40
0.5597250278
 40
0.6279802962
 40
0.6915363696
 40
0.7500232296
 40
0.8032175472
 40
0.8510901411
 40
0.893874485
 40
0.9321602531
 40
0.9669956653
 40
0.9836208524
 40
1.0
 40
1.0
 40
1.0
 40
1.0
 10
15.7383908423
 20
12.9131398504
 30
0.0
 10
15.7385340156
 20
12.916856606
 30
0.0
 10
15.7385177134
 20
12.9242326402
 30
0.0
 10
15.7377608572
 20
12.9333350472
 30
0.0
 10
15.7367042603
 20
12.9403498833
 30
0.0
 10
15.7357164072
 20
12.9453068048
 30
0.0
 10
15.7345342678
 20
12.9499730357
 30
0.0
 10
15.7331706163
 20
12.9542986334
 30
0.0
 10
15.7316401852
 20
12.9582375812
 30
0.0
 10
15.7299591745
 20
12.961748493
 30
0.0
 10
15.7281446466
 20
12.9647951203
 30
0.0
 10
15.7262138461
 20
12.9673466617
 30
0.0
 10
15.7241820138
 20
12.9693770763
 30
0.0
 10
15.7220639696
 20
12.970862749
 30
0.0
 10
15.7202060436
 20
12.9716355065
 30
0.0
 10
15.7187271631
 20
12.9719352632
 30
0.0
 10
15.7179938922
 20
12.9719847848
 30
0.0
 10
15.7176304688
 20
12.9719847893
 30
0.0
  0
SPLINE
  5
345
100
AcDbEntity
  8
02___PRT_ALL_AXES
100
AcDbSpline
 62
7
  6
CONTINUOUS
 70
0
 71
3
 72
54
 73
50
 74
0
 42
0.0000001
 43
0.0000001
 44
0.0000000001
 40
0.0
 40
0.0
 40
0.0
 40
0.0
 40
0.0355911886
 40
0.0727789809
 40
0.1113737814
 40
0.1511694844
 40
0.1919466095
 40
0.2334751897
 40
0.2755174644
 40
0.3178304542
 40
0.3601684621
 40
0.4022855414
 40
0.4439379593
 40
0.4848866895
 40
0.524899968
 40
0.563755957
 40
0.6012455819
 40
0.6371756348
 40
0.6713722836
 40
0.6877740346
 40
0.703688294
 40
0.7191007887
 40
0.7339994185
 40
0.7483744972
 40
0.7622190326
 40
0.7755290502
 40
0.7883039693
 40
0.800547039
 40
0.8122658419
 40
0.8234728661
 40
0.8341861424
 40
0.8444299303
 40
0.854235414
 40
0.8636413406
 40
0.8726944957
 40
0.8814498718
 40
0.8899703633
 40
0.8983258351
 40
0.9065914927
 40
0.9148456167
 40
0.9231668919
 40
0.9316316798
 40
0.9403116052
 40
0.9492717253
 40
0.9585693981
 40
0.968253807
 40
0.9783660089
 40
0.9889393361
 40
1.0
 40
1.0
 40
1.0
 40
1.0
 10
15.4292858129
 20
12.9714512291
 30
0.0
 10
15.4242136829
 20
12.9550378105
 30
0.0
 10
15.4146623636
 20
12.9212168767
 30
0.0
 10
15.4023090217
 20
12.8688824049
 30
0.0
 10
15.3916760469
 20
12.8141029516
 30
0.0
 10
15.3828370517
 20
12.7572532014
 30
0.0
 10
15.3758528015
 20
12.6987203185
 30
0.0
 10
15.3707714794
 20
12.6389039299
 30
0.0
 10
15.3676281159
 20
12.5782125076
 30
0.0
 10
15.3664443932
 20
12.5170607029
 30
0.0
 10
15.3672284756
 20
12.4558663766
 30
0.0
 10
15.3699749549
 20
12.395047691
 30
0.0
 10
15.3746648887
 20
12.3350201762
 30
0.0
 10
15.3812659336
 20
12.2761938291
 30
0.0
 10
15.3897325807
 20
12.2189701797
 30
0.0
 10
15.4000064875
 20
12.1637396052
 30
0.0
 10
15.4120169596
 20
12.1108779487
 30
0.0
 10
15.4256814084
 20
12.0607458299
 30
0.0
 10
15.4385417076
 20
12.0209893429
 30
0.0
 10
15.4496249274
 20
11.9908549544
 30
0.0
 10
15.4581736693
 20
11.9694586059
 30
0.0
 10
15.4670594656
 20
11.9489884059
 30
0.0
 10
15.4762673368
 20
11.9294791153
 30
0.0
 10
15.4857816101
 20
11.9109639293
 30
0.0
 10
15.4955861941
 20
11.8934742853
 30
0.0
 10
15.5056645661
 20
11.8770398485
 30
0.0
 10
15.5159998388
 20
11.8616884623
 30
0.0
 10
15.5265748132
 20
11.8474461229
 30
0.0
 10
15.5373720384
 20
11.8343369678
 30
0.0
 10
15.5483738693
 20
11.8223832885
 30
0.0
 10
15.5595625137
 20
11.8116055722
 30
0.0
 10
15.5709200527
 20
11.8020225771
 30
0.0
 10
15.5824284102
 20
11.7936514357
 30
0.0
 10
15.5940692438
 20
11.7865077654
 30
0.0
 10
15.6058237328
 20
11.7806057408
 30
0.0
 10
15.6176722704
 20
11.7759580503
 30
0.0
 10
15.6295941242
 20
11.7725756533
 30
0.0
 10
15.6415672047
 20
11.7704672973
 30
0.0
 10
15.653568118
 20
11.7696388685
 30
0.0
 10
15.6655726044
 20
11.7700927878
 30
0.0
 10
15.6775562843
 20
11.7718277199
 30
0.0
 10
15.6894954483
 20
11.7748387377
 30
0.0
 10
15.7013676046
 20
11.77911786
 30
0.0
 10
15.7131516369
 20
11.7846547118
 30
0.0
 10
15.7248276499
 20
11.7914370817
 30
0.0
 10
15.736376602
 20
11.7994511882
 30
0.0
 10
15.7477801428
 20
11.8086819561
 30
0.0
 10
15.7590197149
 20
11.8191122419
 30
0.0
 10
15.7662258721
 20
11.8266794261
 30
0.0
 10
15.7697996118
 20
11.8306456699
 30
0.0
  0
SPLINE
  5
346
100
AcDbEntity
  8
02___PRT_ALL_AXES
100
AcDbSpline
 62
7
  6
CONTINUOUS
 70
0
 71
3
 72
46
 73
42
 74
0
 42
0.0000001
 43
0.0000001
 44
0.0000000001
 40
0.0
 40
0.0
 40
0.0
 40
0.0
 40
0.033050908
 40
0.0673826253
 40
0.102871538
 40
0.1393840674
 40
0.1767783002
 40
0.2149054246
 40
0.2536110715
 40
0.2927365885
 40
0.332120267
 40
0.3715985412
 40
0.4110071686
 40
0.4501824049
 40
0.4889621829
 40
0.5271873071
 40
0.5647026764
 40
0.60135855
 40
0.6370118773
 40
0.6715277221
 40
0.7047808193
 40
0.7366573225
 40
0.7670568183
 40
0.7958947222
 40
0.8231052021
 40
0.848644844
 40
0.8607837609
 40
0.8725014938
 40
0.8838012541
 40
0.894688791
 40
0.9051726712
 40
0.9152645868
 40
0.9249796813
 40
0.934336885
 40
0.9520640241
 40
0.9605035408
 40
0.9687042957
 40
0.9767074384
 40
0.9845582269
 40
0.992305355
 40
1.0
 40
1.0
 40
1.0
 40
1.0
 10
15.4182508871
 20
12.9770457188
 30
0.0
 10
15.413923119
 20
12.9630410562
 30
0.0
 10
15.4056889536
 20
12.9343042223
 30
0.0
 10
15.39476395
 20
12.8899984887
 30
0.0
 10
15.3850693924
 20
12.8438375763
 30
0.0
 10
15.3766532362
 20
12.7960477773
 30
0.0
 10
15.369556831
 20
12.7468623013
 30
0.0
 10
15.3638151501
 20
12.6965217084
 30
0.0
 10
15.3594564764
 20
12.6452722338
 30
0.0
 10
15.3565022908
 20
12.5933646772
 30
0.0
 10
15.3549671514
 20
12.5410531116
 30
0.0
 10
15.3548586243
 20
12.4885936247
 30
0.0
 10
15.356177244
 20
12.43624304
 30
0.0
 10
15.3589165117
 20
12.3842576387
 30
0.0
 10
15.3630629273
 20
12.3328918833
 30
0.0
 10
15.3685960582
 20
12.2823971476
 30
0.0
 10
15.3754886425
 20
12.2330204587
 30
0.0
 10
15.3837067303
 20
12.1850032544
 30
0.0
 10
15.3932098644
 20
12.138580163
 30
0.0
 10
15.4039513026
 20
12.0939778016
 30
0.0
 10
15.4158782789
 20
12.051413622
 30
0.0
 10
15.4289323468
 20
12.01109471
 30
0.0
 10
15.4430496984
 20
11.9732168897
 30
0.0
 10
15.4581619058
 20
11.937962928
 30
0.0
 10
15.4741956556
 20
11.905504066
 30
0.0
 10
15.4884952659
 20
11.8805035357
 30
0.0
 10
15.5003655817
 20
11.8620858304
 30
0.0
 10
15.509297812
 20
11.8493012124
 30
0.0
 10
15.5183994516
 20
11.8373263028
 30
0.0
 10
15.5276597892
 20
11.8261756399
 30
0.0
 10
15.5370679072
 20
11.8158627771
 30
0.0
 10
15.546612376
 20
11.8064005922
 30
0.0
 10
15.5562832834
 20
11.7977999458
 30
0.0
 10
15.5690956057
 20
11.7876809674
 30
0.0
 10
15.582358989
 20
11.7790713919
 30
0.0
 10
15.5959901115
 20
11.7722243511
 30
0.0
 10
15.6061156958
 20
11.7680792857
 30
0.0
 10
15.6162956722
 20
11.7648482695
 30
0.0
 10
15.6265178076
 20
11.762536285
 30
0.0
 10
15.6367673127
 20
11.761147426
 30
0.0
 10
15.6436197048
 20
11.7608382408
 30
0.0
 10
15.6470322871
 20
11.7608382446
 30
0.0
  0
SPLINE
  5
347
100
AcDbEntity
  8
0
100
AcDbSpline
 62
7
  6
CONTINUOUS
 70
0
 71
3
 72
14
 73
10
 74
0
 42
0.0000001
 43
0.0000001
 44
0.0000000001
 40
0.0
 40
0.0
 40
0.0
 40
0.0
 40
0.0817150546
 40
0.1702150006
 40
0.2705525592
 40
0.3856226875
 40
0.5165883778
 40
0.6633758057
 40
1.0
 40
1.0
 40
1.0
 40
1.0
 10
15.2816080292
 20
13.2251711166
 30
0.0
 10
15.2815243654
 20
13.2251711159
 30
0.0
 10
15.281349056
 20
13.22514132
 30
0.0
 10
15.2810997206
 20
13.2250133273
 30
0.0
 10
15.2808627342
 20
13.2248082423
 30
0.0
 10
15.2806397754
 20
13.2245306407
 30
0.0
 10
15.2804327727
 20
13.2241846465
 30
0.0
 10
15.2801696848
 20
13.2236123384
 30
0.0
 10
15.2800246606
 20
13.2231364194
 30
0.0
 10
15.2799431568
 20
13.2228015433
 30
0.0
  0
SPLINE
  5
348
100
AcDbEntity
  8
LAYER_CUT_FEAT
100
AcDbSpline
 62
7
  6
CONTINUOUS
 70
0
 71
3
 72
17
 73
13
 74
0
 42
0.0000001
 43
0.0000001
 44
0.0000000001
 40
0.0
 40
0.0
 40
0.0
 40
0.0
 40
0.0422945055
 40
0.0853544628
 40
0.1298961088
 40
0.1765491074
 40
0.2780412713
 40
0.3929057504
 40
0.522564594
 40
0.667354231
 40
0.8268313315
 40
1.0
 40
1.0
 40
1.0
 40
1.0
 10
15.63155662
 20
13.2683632001
 30
0.0
 10
15.6319562223
 20
13.2683632003
 30
0.0
 10
15.6327638803
 20
13.2684231918
 30
0.0
 10
15.6339654419
 20
13.268691682
 30
0.0
 10
15.6351571827
 20
13.2691371004
 30
0.0
 10
15.6367718251
 20
13.2699870734
 30
0.0
 10
15.6387499942
 20
13.2715229937
 30
0.0
 10
15.6409440602
 20
13.2739629293
 30
0.0
 10
15.6430091199
 20
13.2770181484
 30
0.0
 10
15.6449225899
 20
13.2806513556
 30
0.0
 10
15.6466626644
 20
13.2848182915
 30
0.0
 10
15.6476545842
 20
13.2878036004
 30
0.0
 10
15.6481219797
 20
13.2893715315
 30
0.0
  0
SPLINE
  5
349
100
AcDbEntity
  8
LAYER_CUT_FEAT
100
AcDbSpline
 62
7
  6
CONTINUOUS
 70
0
 71
3
 72
22
 73
18
 74
0
 42
0.0000001
 43
0.0000001
 44
0.0000000001
 40
0.0
 40
0.0
 40
0.0
 40
0.0
 40
0.0907431539
 40
0.1394807966
 40
0.190616867
 40
0.2442406886
 40
0.3004115861
 40
0.3591626433
 40
0.4205039314
 40
0.4844253383
 40
0.5508989858
 40
0.6198812886
 40
0.6913147288
 40
0.7651293105
 40
0.8412440239
 40
0.9195675061
 40
1.0
 40
1.0
 40
1.0
 40
1.0
 10
15.63942531
 20
11.4270546325
 30
0.0
 10
15.6524229313
 20
11.4355789999
 30
0.0
 10
15.6712723764
 20
11.450460338
 30
0.0
 10
15.6947042072
 20
11.4732132229
 30
0.0
 10
15.7123787543
 20
11.4927052179
 30
0.0
 10
15.7296933654
 20
11.5141718497
 30
0.0
 10
15.7466199169
 20
11.5375751632
 30
0.0
 10
15.7631255915
 20
11.5628691258
 30
0.0
 10
15.7791795076
 20
11.5900053771
 30
0.0
 10
15.7947509857
 20
11.6189315945
 30
0.0
 10
15.8098102025
 20
11.6495920345
 30
0.0
 10
15.8243281492
 20
11.6819274867
 30
0.0
 10
15.8382767658
 20
11.7158754256
 30
0.0
 10
15.8516290254
 20
11.751370108
 30
0.0
 10
15.8643589992
 20
11.7883427775
 30
0.0
 10
15.8764418838
 20
11.8267214419
 30
0.0
 10
15.8839538742
 20
11.8528602714
 30
0.0
 10
15.887602708
 20
11.8661457569
 30
0.0
  0
SPLINE
  5
34A
100
AcDbEntity
  8
LAYER_CUT_FEAT
100
AcDbSpline
 62
7
  6
CONTINUOUS
 70
0
 71
3
 72
23
 73
19
 74
0
 42
0.0000001
 43
0.0000001
 44
0.0000000001
 40
0.0
 40
0.0
 40
0.0
 40
0.0
 40
0.0636819477
 40
0.1306982397
 40
0.2003502997
 40
0.2718801603
 40
0.3444929762
 40
0.4173724775
 40
0.4896971911
 40
0.5606564693
 40
0.6294668029
 40
0.6953887322
 40
0.7577454887
 40
0.8159443647
 40
0.8695025908
 40
0.9180822397
 40
0.9615392898
 40
1.0
 40
1.0
 40
1.0
 40
1.0
 10
15.887602708
 20
11.8661457569
 30
0.0
 10
15.8880791096
 20
11.867880346
 30
0.0
 10
15.8889430192
 20
11.8714722928
 30
0.0
 10
15.8899604914
 20
11.877041836
 30
0.0
 10
15.8907233865
 20
11.88287553
 30
0.0
 10
15.8912213512
 20
11.8888961771
 30
0.0
 10
15.8914477158
 20
11.8950242939
 30
0.0
 10
15.8913994311
 20
11.9011788256
 30
0.0
 10
15.8910771369
 20
11.9072783783
 30
0.0
 10
15.8904851746
 20
11.9132423125
 30
0.0
 10
15.8896315213
 20
11.9189918755
 30
0.0
 10
15.8885276332
 20
11.9244513143
 30
0.0
 10
15.8871883015
 20
11.9295489624
 30
0.0
 10
15.8856313027
 20
11.9342183986
 30
0.0
 10
15.883877166
 20
11.9383993083
 30
0.0
 10
15.8819476067
 20
11.9420391792
 30
0.0
 10
15.8798669242
 20
11.945091952
 30
0.0
 10
15.8783006701
 20
11.9468116801
 30
0.0
 10
15.8774955692
 20
11.9475411135
 30
0.0
  0
SPLINE
  5
34B
100
AcDbEntity
  8
0
100
AcDbSpline
 62
7
  6
CONTINUOUS
 70
0
 71
3
 72
26
 73
22
 74
0
 42
0.0000001
 43
0.0000001
 44
0.0000000001
 40
0.0
 40
0.0
 40
0.0
 40
0.0
 40
0.0215202785
 40
0.0431305829
 40
0.0649195584
 40
0.0869731669
 40
0.1093735412
 40
0.1321980659
 40
0.179381187
 40
0.22904863
 40
0.2816048459
 40
0.3373597409
 40
0.3965378769
 40
0.459289536
 40
0.5257013855
 40
0.5958060869
 40
0.6695904498
 40
0.7470021076
 40
0.8279551456
 40
0.9123343261
 40
1.0
 40
1.0
 40
1.0
 40
1.0
 10
15.7474279354
 20
13.9065525234
 30
0.0
 10
15.742461863
 20
13.9065525296
 30
0.0
 10
15.7325054135
 20
13.9062015649
 30
0.0
 10
15.7175960878
 20
13.904623941
 30
0.0
 10
15.7027101138
 20
13.9019962344
 30
0.0
 10
15.6878604432
 20
13.8983210535
 30
0.0
 10
15.6730580092
 20
13.8936015561
 30
0.0
 10
15.653183881
 20
13.8858384584
 30
0.0
 10
15.6284407296
 20
13.8734156301
 30
0.0
 10
15.5994881287
 20
13.854582643
 30
0.0
 10
15.5710165023
 20
13.8317280631
 30
0.0
 10
15.5431045954
 20
13.8049285344
 30
0.0
 10
15.515825375
 20
13.7742665321
 30
0.0
 10
15.4892534388
 20
13.739833742
 30
0.0
 10
15.4634627619
 20
13.701731688
 30
0.0
 10
15.4385267891
 20
13.6600723914
 30
0.0
 10
15.4145176734
 20
13.6149784446
 30
0.0
 10
15.3915056706
 20
13.5665830091
 30
0.0
 10
15.3695587087
 20
13.5150291968
 30
0.0
 10
15.3487421315
 20
13.4604707306
 30
0.0
 10
15.3358960857
 20
13.4228955815
 30
0.0
 10
15.3296592405
 20
13.4036510369
 30
0.0
  0
SPLINE
  5
34C
100
AcDbEntity
  8
02___PRT_ALL_AXES
100
AcDbSpline
 62
7
  6
CONTINUOUS
 70
0
 71
3
 72
40
 73
36
 74
0
 42
0.0000001
 43
0.0000001
 44
0.0000000001
 40
0.0
 40
0.0
 40
0.0
 40
0.0
 40
0.0316445262
 40
0.0618855436
 40
0.090784545
 40
0.1184220102
 40
0.14489932
 40
0.1703403352
 40
0.1948922603
 40
0.218725282
 40
0.2420305519
 40
0.2650161695
 40
0.2879012098
 40
0.3109083212
 40
0.3342558227
 40
0.3581504059
 40
0.3827813334
 40
0.4083166268
 40
0.4214723269
 40
0.4349064703
 40
0.4626619981
 40
0.4916877411
 40
0.5220622507
 40
0.5538452906
 40
0.5870798536
 40
0.6217940541
 40
0.6580028837
 40
0.6957097557
 40
0.7349078338
 40
0.7755812113
 40
0.8177058983
 40
0.8612506778
 40
0.9061778653
 40
0.9524438389
 40
1.0
 40
1.0
 40
1.0
 40
1.0
 10
15.5536661338
 20
11.4443394873
 30
0.0
 10
15.5593192537
 20
11.4375667701
 30
0.0
 10
15.5707243429
 20
11.4246074705
 30
0.0
 10
15.588539583
 20
11.4066089103
 30
0.0
 10
15.606639508
 20
11.3905297375
 30
0.0
 10
15.624994187
 20
11.3763995963
 30
0.0
 10
15.6435740838
 20
11.3642446945
 30
0.0
 10
15.6623488402
 20
11.3540890955
 30
0.0
 10
15.6812870145
 20
11.3459544104
 30
0.0
 10
15.7003554757
 20
11.3398596361
 30
0.0
 10
15.7195189143
 20
11.335820439
 30
0.0
 10
15.7387397407
 20
11.3338481044
 30
0.0
 10
15.7579786159
 20
11.3339484947
 30
0.0
 10
15.7771955914
 20
11.3361213065
 30
0.0
 10
15.7963514162
 20
11.3403600905
 30
0.0
 10
15.8154088731
 20
11.3466531898
 30
0.0
 10
15.8343322317
 20
11.3549841793
 30
0.0
 10
15.8498089033
 20
11.3635242007
 30
0.0
 10
15.8620792369
 20
11.3713151452
 30
0.0
 10
15.8745397445
 20
11.379939872
 30
0.0
 10
15.8899809153
 20
11.3920021355
 30
0.0
 10
15.9080539912
 20
11.4082680286
 30
0.0
 10
15.9258406916
 20
11.4264514167
 30
0.0
 10
15.9433110856
 20
11.4465197339
 30
0.0
 10
15.9604365282
 20
11.4684383211
 30
0.0
 10
15.9771883508
 20
11.4921692711
 30
0.0
 10
15.9935383279
 20
11.517671699
 30
0.0
 10
16.0094586611
 20
11.5449016518
 30
0.0
 10
16.0249221354
 20
11.5738121545
 30
0.0
 10
16.0399021656
 20
11.6043532752
 30
0.0
 10
16.054372904
 20
11.6364721999
 30
0.0
 10
16.0683093093
 20
11.670113292
 30
0.0
 10
16.081687209
 20
11.7052182882
 30
0.0
 10
16.0944832979
 20
11.7417260248
 30
0.0
 10
16.1025042759
 20
11.7666252405
 30
0.0
 10
16.1064186351
 20
11.7792921114
 30
0.0
  0
SPLINE
  5
34D
100
AcDbEntity
  8
0
100
AcDbSpline
 62
7
  6
CONTINUOUS
 70
0
 71
3
 72
11
 73
7
 74
0
 42
0.0000001
 43
0.0000001
 44
0.0000000001
 40
0.0
 40
0.0
 40
0.0
 40
0.0
 40
0.265493368
 40
0.5253548118
 40
0.7723713844
 40
1.0
 40
1.0
 40
1.0
 40
1.0
 10
15.2840713686
 20
13.1745094156
 30
0.0
 10
15.2840998038
 20
13.1761164137
 30
0.0
 10
15.284043531
 20
13.1792994445
 30
0.0
 10
15.2836267689
 20
13.1839608098
 30
0.0
 10
15.2828922057
 20
13.1883507675
 30
0.0
 10
15.2821721432
 20
13.1911380922
 30
0.0
 10
15.2817535632
 20
13.1924510045
 30
0.0
  0
SPLINE
  5
34E
100
AcDbEntity
  8
02___PRT_ALL_AXES
100
AcDbSpline
 62
7
  6
CONTINUOUS
 70
0
 71
3
 72
26
 73
22
 74
0
 42
0.0000001
 43
0.0000001
 44
0.0000000001
 40
0.0
 40
0.0
 40
0.0
 40
0.0
 40
0.0212794957
 40
0.0426527839
 40
0.0642121395
 40
0.0860468997
 40
0.1082422253
 40
0.1308780988
 40
0.1777406405
 40
0.2271730199
 40
0.279584553
 40
0.3352845323
 40
0.3944928262
 40
0.457351996
 40
0.5239388787
 40
0.594274749
 40
0.6683338477
 40
0.7460503976
 40
0.8273243305
 40
0.9120259667
 40
1.0
 40
1.0
 40
1.0
 40
1.0
 10
15.7391383865
 20
11.3429811011
 30
0.0
 10
15.7434042128
 20
11.3429810985
 30
0.0
 10
15.7519578626
 20
11.3432906471
 30
0.0
 10
15.7647653472
 20
11.3446820779
 30
0.0
 10
15.7775516115
 20
11.3469995347
 30
0.0
 10
15.7903049155
 20
11.3502405824
 30
0.0
 10
15.8030153373
 20
11.3544022716
 30
0.0
 10
15.8200853392
 20
11.361250596
 30
0.0
 10
15.8413291081
 20
11.3722105409
 30
0.0
 10
15.8661553136
 20
11.3888112453
 30
0.0
 10
15.8905466795
 20
11.4089489555
 30
0.0
 10
15.914432625
 20
11.4325530464
 30
0.0
 10
15.9377475236
 20
11.4595475104
 30
0.0
 10
15.9604242312
 20
11.4898476176
 30
0.0
 10
15.9823961195
 20
11.523359459
 30
0.0
 10
16.0035971243
 20
11.5599793194
 30
0.0
 10
16.0239625059
 20
11.599593659
 30
0.0
 10
16.0434293237
 20
11.6420792081
 30
0.0
 10
16.0619369791
 20
11.6873035561
 30
0.0
 10
16.0794272946
 20
11.7351245399
 30
0.0
 10
16.0901767717
 20
11.7680369447
 30
0.0
 10
16.0953837093
 20
11.7848866011
 30
0.0
  0
SPLINE
  5
34F
100
AcDbEntity
  8
0
100
AcDbSpline
 62
7
  6
CONTINUOUS
 70
0
 71
3
 72
11
 73
7
 74
0
 42
0.0000001
 43
0.0000001
 44
0.0000000001
 40
0.0
 40
0.0
 40
0.0
 40
0.0
 40
0.2491386722
 40
0.5116728492
 40
0.7681704889
 40
1.0
 40
1.0
 40
1.0
 40
1.0
 10
15.2773237119
 20
13.2113355251
 30
0.0
 10
15.2772250472
 20
13.2108744848
 30
0.0
 10
15.2770922129
 20
13.2099121309
 30
0.0
 10
15.2770610977
 20
13.2084558284
 30
0.0
 10
15.277191401
 20
13.2070379752
 30
0.0
 10
15.2773919274
 20
13.2061316531
 30
0.0
 10
15.2775251913
 20
13.2057136596
 30
0.0
  0
SPLINE
  5
350
100
AcDbEntity
  8
0
100
AcDbSpline
 62
7
  6
CONTINUOUS
 70
0
 71
3
 72
13
 73
9
 74
0
 42
0.0000001
 43
0.0000001
 44
0.0000000001
 40
0.0
 40
0.0
 40
0.0
 40
0.0
 40
0.0993123575
 40
0.2017762856
 40
0.3102010546
 40
0.4268391499
 40
0.6903783685
 40
1.0
 40
1.0
 40
1.0
 40
1.0
 10
15.2749502053
 20
13.1547009243
 30
0.0
 10
15.2752133072
 20
13.1547009238
 30
0.0
 10
15.2757492531
 20
13.1547543443
 30
0.0
 10
15.2765405379
 20
13.1549920165
 30
0.0
 10
15.2773191325
 20
13.1553838716
 30
0.0
 10
15.2783768195
 20
13.1561372915
 30
0.0
 10
15.2796361566
 20
13.1574846548
 30
0.0
 10
15.2804577754
 20
13.1587687286
 30
0.0
 10
15.2808562298
 20
13.1594857099
 30
0.0
  0
SPLINE
  5
351
100
AcDbEntity
  8
LAYER_CUT_FEAT
100
AcDbSpline
 62
7
  6
CONTINUOUS
 70
0
 71
3
 72
10
 73
6
 74
0
 42
0.0000001
 43
0.0000001
 44
0.0000000001
 40
0.0
 40
0.0
 40
0.0
 40
0.0
 40
0.2375381267
 40
0.4804168298
 40
1.0
 40
1.0
 40
1.0
 40
1.0
 10
15.4476431748
 20
13.2801841671
 30
0.0
 10
15.448090013
 20
13.2801841727
 30
0.0
 10
15.4489955841
 20
13.2802596382
 30
0.0
 10
15.4508265187
 20
13.2807176135
 30
0.0
 10
15.4521215834
 20
13.2813888537
 30
0.0
 10
15.4529324272
 20
13.2819346027
 30
0.0
  0
SPLINE
  5
352
100
AcDbEntity
  8
0
100
AcDbSpline
 62
7
  6
CONTINUOUS
 70
0
 71
3
 72
14
 73
10
 74
0
 42
0.0000001
 43
0.0000001
 44
0.0000000001
 40
0.0
 40
0.0
 40
0.0
 40
0.0
 40
0.0798618752
 40
0.1670373113
 40
0.2668341577
 40
0.3821051763
 40
0.5138220106
 40
0.661652387
 40
1.0
 40
1.0
 40
1.0
 40
1.0
 10
15.2668535741
 20
13.1569841251
 30
0.0
 10
15.2667651603
 20
13.1569841382
 30
0.0
 10
15.2665790588
 20
13.1569505744
 30
0.0
 10
15.2663163696
 20
13.1568074836
 30
0.0
 10
15.266068161
 20
13.156579416
 30
0.0
 10
15.2658361406
 20
13.156271617
 30
0.0
 10
15.2656225743
 20
13.155889023
 30
0.0
 10
15.2653546817
 20
13.1552586144
 30
0.0
 10
15.2652113641
 20
13.1547369263
 30
0.0
 10
15.2651329774
 20
13.1543706408
 30
0.0
  0
SPLINE
  5
353
100
AcDbEntity
  8
0
100
AcDbSpline
 62
7
  6
CONTINUOUS
 70
0
 71
3
 72
11
 73
7
 74
0
 42
0.0000001
 43
0.0000001
 44
0.0000000001
 40
0.0
 40
0.0
 40
0.0
 40
0.0
 40
0.2620506212
 40
0.5208027721
 40
0.7690189814
 40
1.0
 40
1.0
 40
1.0
 40
1.0
 10
15.2992914818
 20
13.2401817896
 30
0.0
 10
15.2993552379
 20
13.2417891511
 30
0.0
 10
15.29936763
 20
13.2449892734
 30
0.0
 10
15.2990517888
 20
13.2497034301
 30
0.0
 10
15.2984125532
 20
13.2541923553
 30
0.0
 10
15.2977563086
 20
13.2570648831
 30
0.0
 10
15.2973690748
 20
13.2584288825
 30
0.0
  0
SPLINE
  5
354
100
AcDbEntity
  8
0
100
AcDbSpline
 62
7
  6
CONTINUOUS
 70
0
 71
3
 72
11
 73
7
 74
0
 42
0.0000001
 43
0.0000001
 44
0.0000000001
 40
0.0
 40
0.0
 40
0.0
 40
0.0
 40
0.2438196096
 40
0.5045327422
 40
0.7629021501
 40
1.0
 40
1.0
 40
1.0
 40
1.0
 10
15.2933585333
 20
13.277921527
 30
0.0
 10
15.2932490988
 20
13.2774718914
 30
0.0
 10
15.2930953046
 20
13.2765232933
 30
0.0
 10
15.2930335842
 20
13.2750737576
 30
0.0
 10
15.2931339092
 20
13.2736391881
 30
0.0
 10
15.2933140455
 20
13.2727123922
 30
0.0
 10
15.2934369431
 20
13.2722794956
 30
0.0
  0
ENDSEC
  0
SECTION
  2
OBJECTS
  0
DICTIONARY
  5
C
100
AcDbDictionary
280
0
281
1
  3
ACAD_GROUP
350
D
  3
ACAD_MLINESTYLE
350
17
  3
ACAD_LAYOUT
350
1A
  3
ACAD_PLOTSETTINGS
350
19
  3
ACAD_PLOTSTYLENAME
350
E
  0
DICTIONARY
  5
D
102
{ACAD_REACTORS
330
C
102
}
100
AcDbDictionary
280
0
281
1
  0
ACDBDICTIONARYWDFLT
  5
E
102
{ACAD_REACTORS
330
C
102
}
100
AcDbDictionary
281
1
  3
Normal
350
F
100
AcDbDictionaryWithDefault
340
F
  0
DICTIONARY
  5
17
102
{ACAD_REACTORS
330
C
102
}
100
AcDbDictionary
280
0
281
1
  3
Standard
350
18
  0
DICTIONARY
  5
19
102
{ACAD_REACTORS
330
C
102
}
100
AcDbDictionary
281
1
  0
DICTIONARY
  5
1A
102
{ACAD_REACTORS
330
C
102
}
100
AcDbDictionary
281
1
  3
Model
350
355
  3
Layout1
350
356
  0
ACDBPLACEHOLDER
  5
F
102
{ACAD_REACTORS
330
E
102
}
  0
MLINESTYLE
  5
18
102
{ACAD_REACTORS
330
17
102
}
100
AcDbMlineStyle
  2
STANDARD
 70
0
  3

 62
256
 51
90.0
 52
90.0
 71
2
 49
0.5
 62
256
  6
BYLAYER
 49
-0.5
 62
256
  6
BYLAYER
  0
LAYOUT
  5
355
102
{ACAD_REACTORS
330
1A
102
}
100
AcDbPlotSettings
  1

  2
none_device
  4
ANSI_C_(22.00_x_17.00_Inches)
  6

 40
0.0
 41
0.0
 42
0.0
 43
0.0
 44
558.8
 45
431.8
 46
0.0
 47
0.0
 48
0.0
 49
0.0
140
0.0
141
0.0
142
1.0
143
1.0
 70
1024
 72
0
 73
0
 74
0
  7

 75
0
147
1.0
148
0.0
149
0.0
100
AcDbLayout
  1
Model
 70
0
 71
0
 10
0.0
 20
0.0
 11
22.0
 21
17.0
 12
0.0
 22
0.0
 32
0.0
 14
0.0
 24
0.0
 34
0.0
 15
0.0
 25
0.0
 35
0.0
146
0.0
 13
0.0
 23
0.0
 33
0.0
 16
1.0
 26
0.0
 36
0.0
 17
0.0
 27
1.0
 37
0.0
 76
0
330
222
345
0
346
0
  0
LAYOUT
  5
356
102
{ACAD_REACTORS
330
1A
102
}
100
AcDbPlotSettings
  1

  2
none_device
  4
ANSI_C_(22.00_x_17.00_Inches)
  6

 40
0.0
 41
0.0
 42
0.0
 43
0.0
 44
558.8
 45
431.8
 46
0.0
 47
0.0
 48
0.0
 49
0.0
140
0.0
141
0.0
142
1.0
143
1.0
 70
0
 72
0
 73
0
 74
0
  7

 75
0
147
1.0
148
0.0
149
0.0
100
AcDbLayout
  1
Layout1
 70
0
 71
1
 10
0.0
 20
0.0
 11
22.0
 21
17.0
 12
0.0
 22
0.0
 32
0.0
 14
0.0
 24
0.0
 34
0.0
 15
0.0
 25
0.0
 35
0.0
146
0.0
 13
0.0
 23
0.0
 33
0.0
 16
1.0
 26
0.0
 36
0.0
 17
0.0
 27
1.0
 37
0.0
 76
0
330
223
345
0
346
0
  0
ENDSEC
  0
EOF