999
DXF file: _cgs_temp_output.dxf
999
Pro/ENGINEER 2015110 by Parametric Technology Corporation
  0
SECTION
  2
HEADER
  9
$ACADVER
  1
AC1021
  9
$DWGCODEPAGE
  3
ANSI_1252
  9
$EXTMAX
 10
22.0
 20
17.0
 30
0.0
  9
$EXTMIN
 10
0.0
 20
0.0
 30
0.0
  9
$LIMMIN
 10
0.0
 20
0.0
  9
$LIMMAX
 10
22.0
 20
17.0
  9
$VIEWCTR
 10
11.0
 20
8.5
  9
$VIEWSIZE
 40
17.0
  9
$CLAYER
  8
0
  9
$LTSCALE
 40
1.21
  9
$CELTYPE
  6
BYLAYER
  9
$DIMSCALE
 40
1.0
  9
$DIMASZ
 40
0.1875
  9
$DIMEXO
 40
0.0625
  9
$DIMDLI
 40
0.836
  9
$DIMEXE
 40
0.125
  9
$DIMCEN
 40
0.198
  9
$DIMLFAC
 40
1.0
  9
$DIMBLK
  1
_CLOSED
  9
$DIMALT
 70
0
  9
$DIMALTF
 40
25.4
  9
$DIMTXT
 40
0.15625
  9
$DIMTOL
 70
0
  9
$DIMLIM
 70
0
  9
$DIMTFAC
 40
1.0
  9
$DIMGAP
 40
0.09
  9
$DIMDSEP
 70
46
  9
$AUNITS
 70
0
  9
$PDMODE
 70
3
  9
$PDSIZE
 40
0.3125
  9
$HANDSEED
  5
2AE
  9
$TILEMODE
 70
1
  9
$MEASUREMENT
 70
0
  9
$INSUNITS
 70
1
  0
ENDSEC
  0
SECTION
  2
CLASSES
  0
CLASS
  1
ACDBDICTIONARYWDFLT
  2
AcDbDictionaryWithDefault
  3
AutoCAD 2000
 90
0
 91
1
280
0
281
0
  0
CLASS
  1
ACDBPLACEHOLDER
  2
AcDbPlaceHolder
  3
AutoCAD 2000
 90
0
 91
1
280
0
281
0
  0
CLASS
  1
LAYOUT
  2
AcDbLayout
  3
AutoCAD 2000
 90
0
 91
0
280
0
281
0
  0
ENDSEC
  0
SECTION
  2
TABLES
  0
TABLE
  2
VPORT
  5
8
100
AcDbSymbolTable
 70
2
  0
VPORT
  5
1F4
100
AcDbSymbolTableRecord
100
AcDbViewportTableRecord
  2
*ACTIVE
 70
0
 10
0.0
 20
0.0
 11
1.0
 21
1.0
 12
11.0
 22
8.5
 13
0.0
 23
0.0
 14
1.0
 24
1.0
 15
0.0
 25
0.0
 16
0.0
 26
0.0
 36
1.0
 17
0.0
 27
0.0
 37
0.0
 40
17.0
 41
1.2941176471
 42
50.0
 43
0.0
 44
0.0
 50
0.0
 51
0.0
 71
0
 72
100
 73
1
 74
1
 75
0
 76
0
 77
0
 78
0
  0
ENDTAB
  0
TABLE
  2
LTYPE
  5
5
100
AcDbSymbolTable
 70
6
  0
LTYPE
  5
14
100
AcDbSymbolTableRecord
100
AcDbLinetypeTableRecord
  2
BYBLOCK
 70
0
  3

 72
65
 73
0
 40
0.0
  0
LTYPE
  5
15
100
AcDbSymbolTableRecord
100
AcDbLinetypeTableRecord
  2
BYLAYER
 70
0
  3

 72
65
 73
0
 40
0.0
  0
LTYPE
  5
16
100
AcDbSymbolTableRecord
100
AcDbLinetypeTableRecord
  2
CONTINUOUS
 70
64
  3
Solid line
 72
65
 73
0
 40
0.0
  0
LTYPE
  5
1F5
100
AcDbSymbolTableRecord
100
AcDbLinetypeTableRecord
  2
CENTER
 70
64
  3
____ _ ____ _ ____ _ ____ _ ____ _ ____ _ ____
 72
65
 73
4
 40
0.6
 49
0.375
 74
0
 49
-0.075
 74
0
 49
0.075
 74
0
 49
-0.075
 74
0
  0
LTYPE
  5
1F6
100
AcDbSymbolTableRecord
100
AcDbLinetypeTableRecord
  2
HIDDEN
 70
64
  3
- - - - - - - - - - - - - - - - - - - -
 72
65
 73
2
 40
0.2
 49
0.1
 74
0
 49
-0.1
 74
0
  0
LTYPE
  5
1F7
100
AcDbSymbolTableRecord
100
AcDbLinetypeTableRecord
  2
PHANTOM
 70
64
  3
_____ _ _ _____ _ _ _____ _ _ _____
 72
65
 73
6
 40
0.8
 49
0.45
 74
0
 49
-0.05
 74
0
 49
0.1
 74
0
 49
-0.05
 74
0
 49
0.1
 74
0
 49
-0.05
 74
0
  0
LTYPE
  5
1F8
100
AcDbSymbolTableRecord
100
AcDbLinetypeTableRecord
  2
DOT
 70
64
  3
. . . . . . . . . . . . . . . . . . . .
 72
65
 73
2
 40
0.2
 49
0.1
 74
0
 49
-0.1
 74
0
  0
LTYPE
  5
1F9
100
AcDbSymbolTableRecord
100
AcDbLinetypeTableRecord
  2
DASHED
 70
64
  3
- - - - - - - - - - - - - - - - - - - -
 72
65
 73
2
 40
0.2
 49
0.1
 74
0
 49
-0.1
 74
0
  0
ENDTAB
  0
TABLE
  2
LAYER
  5
2
100
AcDbSymbolTable
 70
36
  0
LAYER
  5
10
100
AcDbSymbolTableRecord
100
AcDbLayerTableRecord
  2
0
 70
0
 62
7
  6
CONTINUOUS
370
-3
390
F
  0
LAYER
  5
1FA
100
AcDbSymbolTableRecord
100
AcDbLayerTableRecord
  2
DEFAULT_1
 70
0
 62
7
  6
CENTER
370
-3
390
F
  0
LAYER
  5
1FB
100
AcDbSymbolTableRecord
100
AcDbLayerTableRecord
  2
DEFAULT_2
 70
0
 62
8
  6
HIDDEN
370
-3
390
F
  0
LAYER
  5
1FC
100
AcDbSymbolTableRecord
100
AcDbLayerTableRecord
  2
DEFAULT_3
 70
0
 62
7
  6
PHANTOM
370
-3
390
F
  0
LAYER
  5
1FD
100
AcDbSymbolTableRecord
100
AcDbLayerTableRecord
  2
01_ALL_DTM_PLN
 70
0
 62
7
  6
CONTINUOUS
370
-3
390
F
  0
LAYER
  5
1FE
100
AcDbSymbolTableRecord
100
AcDbLayerTableRecord
  2
01__ASM_ALL_DTM_PLN
 70
0
 62
7
  6
CONTINUOUS
370
-3
390
F
  0
LAYER
  5
1FF
100
AcDbSymbolTableRecord
100
AcDbLayerTableRecord
  2
01__ASM_DEF_DTM_PLN
 70
0
 62
7
  6
CONTINUOUS
370
-3
390
F
  0
LAYER
  5
200
100
AcDbSymbolTableRecord
100
AcDbLayerTableRecord
  2
01___PRT_ALL_DTM_PLN
 70
0
 62
7
  6
CONTINUOUS
370
-3
390
F
  0
LAYER
  5
201
100
AcDbSymbolTableRecord
100
AcDbLayerTableRecord
  2
01___PRT_DEF_DTM_PLN
 70
0
 62
7
  6
CONTINUOUS
370
-3
390
F
  0
LAYER
  5
202
100
AcDbSymbolTableRecord
100
AcDbLayerTableRecord
  2
02_ALL_AXES
 70
0
 62
7
  6
CONTINUOUS
370
-3
390
F
  0
LAYER
  5
203
100
AcDbSymbolTableRecord
100
AcDbLayerTableRecord
  2
02__ASM_ALL_AXES
 70
0
 62
7
  6
CONTINUOUS
370
-3
390
F
  0
LAYER
  5
204
100
AcDbSymbolTableRecord
100
AcDbLayerTableRecord
  2
02___PRT_ALL_AXES
 70
0
 62
7
  6
CONTINUOUS
370
-3
390
F
  0
LAYER
  5
205
100
AcDbSymbolTableRecord
100
AcDbLayerTableRecord
  2
03_ALL_CURVES
 70
0
 62
7
  6
CONTINUOUS
370
-3
390
F
  0
LAYER
  5
206
100
AcDbSymbolTableRecord
100
AcDbLayerTableRecord
  2
03__ASM_ALL_CURVES
 70
0
 62
7
  6
CONTINUOUS
370
-3
390
F
  0
LAYER
  5
207
100
AcDbSymbolTableRecord
100
AcDbLayerTableRecord
  2
03___PRT_ALL_CURVES
 70
0
 62
7
  6
CONTINUOUS
370
-3
390
F
  0
LAYER
  5
208
100
AcDbSymbolTableRecord
100
AcDbLayerTableRecord
  2
04_ALL_DTM_PNT
 70
0
 62
7
  6
CONTINUOUS
370
-3
390
F
  0
LAYER
  5
209
100
AcDbSymbolTableRecord
100
AcDbLayerTableRecord
  2
04__ASM_ALL_DTM_PNT
 70
0
 62
7
  6
CONTINUOUS
370
-3
390
F
  0
LAYER
  5
20A
100
AcDbSymbolTableRecord
100
AcDbLayerTableRecord
  2
04___PRT_ALL_DTM_PNT
 70
0
 62
7
  6
CONTINUOUS
370
-3
390
F
  0
LAYER
  5
20B
100
AcDbSymbolTableRecord
100
AcDbLayerTableRecord
  2
05_ALL_DTM_CSYS
 70
0
 62
7
  6
CONTINUOUS
370
-3
390
F
  0
LAYER
  5
20C
100
AcDbSymbolTableRecord
100
AcDbLayerTableRecord
  2
05__ASM_ALL_DTM_CSYS
 70
0
 62
7
  6
CONTINUOUS
370
-3
390
F
  0
LAYER
  5
20D
100
AcDbSymbolTableRecord
100
AcDbLayerTableRecord
  2
05__ASM_DEF_DTM_CSYS
 70
0
 62
7
  6
CONTINUOUS
370
-3
390
F
  0
LAYER
  5
20E
100
AcDbSymbolTableRecord
100
AcDbLayerTableRecord
  2
05___PRT_ALL_DTM_CSYS
 70
0
 62
7
  6
CONTINUOUS
370
-3
390
F
  0
LAYER
  5
20F
100
AcDbSymbolTableRecord
100
AcDbLayerTableRecord
  2
05___PRT_DEF_DTM_CSYS
 70
0
 62
7
  6
CONTINUOUS
370
-3
390
F
  0
LAYER
  5
210
100
AcDbSymbolTableRecord
100
AcDbLayerTableRecord
  2
06_ALL_SURFS
 70
0
 62
7
  6
CONTINUOUS
370
-3
390
F
  0
LAYER
  5
211
100
AcDbSymbolTableRecord
100
AcDbLayerTableRecord
  2
06__ASM_ALL_SURFS
 70
0
 62
7
  6
CONTINUOUS
370
-3
390
F
  0
LAYER
  5
212
100
AcDbSymbolTableRecord
100
AcDbLayerTableRecord
  2
06___PRT_ALL_SURFS
 70
0
 62
7
  6
CONTINUOUS
370
-3
390
F
  0
LAYER
  5
213
100
AcDbSymbolTableRecord
100
AcDbLayerTableRecord
  2
07__ASM_ALL_SKELETONS
 70
0
 62
7
  6
CONTINUOUS
370
-3
390
F
  0
ENDTAB
  0
TABLE
  2
STYLE
  5
3
100
AcDbSymbolTable
 70
1
  0
STYLE
  5
11
100
AcDbSymbolTableRecord
100
AcDbTextStyleTableRecord
  2
STANDARD
 70
0
 40
0.0
 41
0.8
 50
0.0
 71
0
 42
0.2
  3
txt
  4

  0
STYLE
  5
214
100
AcDbSymbolTableRecord
100
AcDbTextStyleTableRecord
  2
TEXTSTYLE_1
 70
0
 40
0.0
 41
0.8
 50
0.0
 71
0
 42
0.2
  3
gdt
  4

  0
ENDTAB
  0
TABLE
  2
VIEW
  5
6
100
AcDbSymbolTable
 70
0
  0
ENDTAB
  0
TABLE
  2
UCS
  5
7
100
AcDbSymbolTable
 70
0
  0
ENDTAB
  0
TABLE
  2
APPID
  5
9
100
AcDbSymbolTable
 70
1
  0
APPID
  5
215
100
AcDbSymbolTableRecord
100
AcDbRegAppTableRecord
  2
ACAD
 70
0
  0
ENDTAB
  0
TABLE
  2
BLOCK_RECORD
  5
1
100
AcDbSymbolTable
 70
0
  0
BLOCK_RECORD
  5
216
100
AcDbSymbolTableRecord
100
AcDbBlockTableRecord
  2
*Model_Space
  0
BLOCK_RECORD
  5
217
100
AcDbSymbolTableRecord
100
AcDbBlockTableRecord
  2
*Paper_Space
  0
ENDTAB
  0
TABLE
  2
DIMSTYLE
  5
A
100
AcDbSymbolTable
 70
1
100
AcDbDimStyleTable
 71
0
  0
DIMSTYLE
105
218
100
AcDbSymbolTableRecord
100
AcDbDimStyleTableRecord
  2
STANDARD
 70
0
  3

  4

 40
1.0
 41
0.1875
 42
0.0625
 43
0.38
 44
0.125
 45
0.0
 46
0.0
 47
0.0001
 48
0.0001
140
0.15625
141
0.09
142
0.0
143
25.4
144
1.0
145
0.0
146
1.0
147
0.09
 71
0.0
 72
0.0
 73
1
 74
1
 75
0
 76
0
 77
0
 78
4
170
0
171
2
172
0
173
0
174
0
175
0
176
0
177
0
178
0
270
2
271
4
272
4
273
2
274
2
275
0
280
0
281
0
282
0
283
1
284
4
285
0
286
0
287
3
288
0
340
11
278
46
  0
ENDTAB
  0
ENDSEC
  0
SECTION
  2
BLOCKS
  0
BLOCK
  5
20
100
AcDbEntity
  8
0
100
AcDbBlockBegin
  2
*Model_Space
 70
0
 10
0.0
 20
0.0
 30
0.0
  3
*Model_Space
  1

  0
ENDBLK
  5
21
100
AcDbEntity
  8
0
100
AcDbBlockEnd
  0
BLOCK
  5
1C
100
AcDbEntity
  8
0
100
AcDbBlockBegin
  2
*Paper_Space
 70
0
 10
0.0
 20
0.0
 30
0.0
  3
*Paper_Space
  1

  0
ENDBLK
  5
1D
100
AcDbEntity
  8
0
100
AcDbBlockEnd
  0
ENDSEC
  0
SECTION
  2
ENTITIES
  0
MTEXT
  5
219
100
AcDbEntity
  8
0
100
AcDbMText
 62
7
  6
CONTINUOUS
  7
STANDARD
 71
1
 72
1
 10
15.9560215477
 20
0.9479130325
 30
0.0
 11
1.0
 21
0.0
 31
0.0
 44
0.9
  1
SCALE: 1:1.000
 40
0.3
 41
3.36
  0
LINE
  5
21A
100
AcDbEntity
  8
0
100
AcDbLine
 62
7
  6
CONTINUOUS
 10
0.0
 20
0.0
 11
0.0
 21
17.0
  0
LINE
  5
21B
100
AcDbEntity
  8
0
100
AcDbLine
 62
7
  6
CONTINUOUS
 10
0.0
 20
0.0
 11
22.0
 21
0.0
  0
LINE
  5
21C
100
AcDbEntity
  8
0
100
AcDbLine
 62
7
  6
CONTINUOUS
 10
0.0
 20
17.0
 11
22.0
 21
17.0
  0
LINE
  5
21D
100
AcDbEntity
  8
0
100
AcDbLine
 62
7
  6
CONTINUOUS
 10
22.0
 20
0.0
 11
22.0
 21
17.0
  0
LINE
  5
21E
100
AcDbEntity
  8
0
100
AcDbLine
 62
7
  6
CONTINUOUS
 10
2.3803672762
 20
5.8301198968
 11
2.3803672762
 21
5.5851198968
  0
LINE
  5
21F
100
AcDbEntity
  8
0
100
AcDbLine
 62
7
  6
CONTINUOUS
 10
2.6324992827
 20
5.5422506907
 11
2.7434368522
 21
5.2744237059
  0
LINE
  5
220
100
AcDbEntity
  8
0
100
AcDbLine
 62
7
  6
CONTINUOUS
 10
3.2672977001
 20
5.2744237059
 11
3.3782352696
 21
5.5422506907
  0
LINE
  5
221
100
AcDbEntity
  8
0
100
AcDbLine
 62
7
  6
CONTINUOUS
 10
3.8824992827
 20
5.5422506907
 11
3.9934368522
 21
5.2744237059
  0
LINE
  5
222
100
AcDbEntity
  8
0
100
AcDbLine
 62
7
  6
CONTINUOUS
 10
4.5172977001
 20
5.2744237059
 11
4.6282352696
 21
5.5422506907
  0
LINE
  5
223
100
AcDbEntity
  8
0
100
AcDbLine
 62
7
  6
CONTINUOUS
 10
5.1324992827
 20
5.5422506907
 11
5.2434368522
 21
5.2744237059
  0
LINE
  5
224
100
AcDbEntity
  8
0
100
AcDbLine
 62
7
  6
CONTINUOUS
 10
5.7672977001
 20
5.2744237059
 11
5.8782352696
 21
5.5422506907
  0
LINE
  5
225
100
AcDbEntity
  8
0
100
AcDbLine
 62
7
  6
CONTINUOUS
 10
2.8396743035
 20
5.2101198968
 11
3.1710602488
 21
5.2101198968
  0
LINE
  5
226
100
AcDbEntity
  8
0
100
AcDbLine
 62
7
  6
CONTINUOUS
 10
4.0896743035
 20
5.2101198968
 11
4.4210602488
 21
5.2101198968
  0
LINE
  5
227
100
AcDbEntity
  8
0
100
AcDbLine
 62
7
  6
CONTINUOUS
 10
5.3396743035
 20
5.2101198968
 11
5.6710602488
 21
5.2101198968
  0
LINE
  5
228
100
AcDbEntity
  8
0
100
AcDbLine
 62
7
  6
CONTINUOUS
 10
6.5896743035
 20
5.2101198968
 11
6.9210602488
 21
5.2101198968
  0
LINE
  5
229
100
AcDbEntity
  8
0
100
AcDbLine
 62
7
  6
CONTINUOUS
 10
7.8396743035
 20
5.2101198968
 11
8.1710602488
 21
5.2101198968
  0
LINE
  5
22A
100
AcDbEntity
  8
0
100
AcDbLine
 62
7
  6
CONTINUOUS
 10
9.0896743035
 20
5.2101198968
 11
9.4210602488
 21
5.2101198968
  0
LINE
  5
22B
100
AcDbEntity
  8
0
100
AcDbLine
 62
7
  6
CONTINUOUS
 10
2.3803672762
 20
5.5851198968
 11
2.5683409819
 21
5.5851198968
  0
LINE
  5
22C
100
AcDbEntity
  8
0
100
AcDbLine
 62
7
  6
CONTINUOUS
 10
3.4423935705
 20
5.5851198968
 11
3.8183409819
 21
5.5851198968
  0
LINE
  5
22D
100
AcDbEntity
  8
0
100
AcDbLine
 62
7
  6
CONTINUOUS
 10
4.6923935705
 20
5.5851198968
 11
5.0683409819
 21
5.5851198968
  0
LINE
  5
22E
100
AcDbEntity
  8
0
100
AcDbLine
 62
7
  6
CONTINUOUS
 10
5.9423935705
 20
5.5851198968
 11
6.3183409819
 21
5.5851198968
  0
LINE
  5
22F
100
AcDbEntity
  8
0
100
AcDbLine
 62
7
  6
CONTINUOUS
 10
7.1923935705
 20
5.5851198968
 11
7.5683409819
 21
5.5851198968
  0
LINE
  5
230
100
AcDbEntity
  8
0
100
AcDbLine
 62
7
  6
CONTINUOUS
 10
8.4423935705
 20
5.5851198968
 11
8.8183409819
 21
5.5851198968
  0
LINE
  5
231
100
AcDbEntity
  8
0
100
AcDbLine
 62
7
  6
CONTINUOUS
 10
9.6923935705
 20
5.5851198968
 11
9.8803672762
 21
5.5851198968
  0
LINE
  5
232
100
AcDbEntity
  8
0
100
AcDbLine
 62
7
  6
CONTINUOUS
 10
6.3824992827
 20
5.5422506907
 11
6.4934368522
 21
5.2744237059
  0
LINE
  5
233
100
AcDbEntity
  8
0
100
AcDbLine
 62
7
  6
CONTINUOUS
 10
9.8803672762
 20
5.8301198968
 11
2.3803672762
 21
5.8301198968
  0
LINE
  5
234
100
AcDbEntity
  8
0
100
AcDbLine
 62
7
  6
CONTINUOUS
 10
7.0172977001
 20
5.2744237059
 11
7.1282352696
 21
5.5422506907
  0
LINE
  5
235
100
AcDbEntity
  8
0
100
AcDbLine
 62
7
  6
CONTINUOUS
 10
7.6324992827
 20
5.5422506907
 11
7.7434368522
 21
5.2744237059
  0
LINE
  5
236
100
AcDbEntity
  8
0
100
AcDbLine
 62
7
  6
CONTINUOUS
 10
8.2672977001
 20
5.2744237059
 11
8.3782352696
 21
5.5422506907
  0
LINE
  5
237
100
AcDbEntity
  8
0
100
AcDbLine
 62
7
  6
CONTINUOUS
 10
8.8824992827
 20
5.5422506907
 11
8.9934368522
 21
5.2744237059
  0
LINE
  5
238
100
AcDbEntity
  8
0
100
AcDbLine
 62
7
  6
CONTINUOUS
 10
9.5172977001
 20
5.2744237059
 11
9.6282352696
 21
5.5422506907
  0
LINE
  5
239
100
AcDbEntity
  8
0
100
AcDbLine
 62
7
  6
CONTINUOUS
 10
9.8803672762
 20
5.5851198968
 11
9.8803672762
 21
5.8301198968
  0
LINE
  5
23A
100
AcDbEntity
  8
0
100
AcDbLine
 62
7
  6
CONTINUOUS
 10
2.3208720839
 20
13.6000477814
 11
2.3208720839
 21
11.6000477814
  0
LINE
  5
23B
100
AcDbEntity
  8
0
100
AcDbLine
 62
7
  6
CONTINUOUS
 10
9.8208720839
 20
11.6000477814
 11
2.3208720839
 21
11.6000477814
  0
LINE
  5
23C
100
AcDbEntity
  8
0
100
AcDbLine
 62
7
  6
CONTINUOUS
 10
2.3208720839
 20
13.6000477814
 11
9.8208720839
 21
13.6000477814
  0
LINE
  5
23D
100
AcDbEntity
  8
0
100
AcDbLine
 62
7
  6
CONTINUOUS
 10
9.8208720839
 20
13.6000477814
 11
9.8208720839
 21
11.6000477814
  0
LINE
  5
23E
100
AcDbEntity
  8
0
100
AcDbLine
 62
7
  6
CONTINUOUS
 10
14.5603552569
 20
5.1506247044
 11
14.5603552569
 21
5.7706247044
  0
LINE
  5
23F
100
AcDbEntity
  8
0
100
AcDbLine
 62
7
  6
CONTINUOUS
 10
14.5603552569
 20
5.1506247044
 11
16.5603552569
 21
5.1506247044
  0
LINE
  5
240
100
AcDbEntity
  8
0
100
AcDbLine
 62
7
  6
CONTINUOUS
 10
16.5603552569
 20
5.5256247044
 11
14.5603552569
 21
5.5256247044
  0
LINE
  5
241
100
AcDbEntity
  8
0
100
AcDbLine
 62
7
  6
CONTINUOUS
 10
16.5603552569
 20
5.7706247044
 11
14.5603552569
 21
5.7706247044
  0
LINE
  5
242
100
AcDbEntity
  8
0
100
AcDbLine
 62
7
  6
CONTINUOUS
 10
16.5603552569
 20
5.1506247044
 11
16.5603552569
 21
5.7706247044
  0
LINE
  5
243
100
AcDbEntity
  8
0
100
AcDbLine
 62
7
  6
CONTINUOUS
 10
11.7376997889
 20
11.9201771734
 11
11.8124350462
 21
11.7678827312
  0
LINE
  5
244
100
AcDbEntity
  8
0
100
AcDbLine
 62
7
  6
CONTINUOUS
 10
12.2218324357
 20
13.4868309927
 11
11.7376997889
 21
11.9201771734
  0
LINE
  5
245
100
AcDbEntity
  8
0
100
AcDbLine
 62
7
  6
CONTINUOUS
 10
12.0577409055
 20
11.7412348054
 11
12.2416196168
 21
11.5747508819
  0
LINE
  5
246
100
AcDbEntity
  8
0
100
AcDbLine
 62
7
  6
CONTINUOUS
 10
12.7241274101
 20
11.5747508819
 11
12.7446092348
 21
11.7412348054
  0
LINE
  5
247
100
AcDbEntity
  8
0
100
AcDbLine
 62
7
  6
CONTINUOUS
 10
12.7228589815
 20
11.5687723284
 11
12.7241274101
 21
11.5747508819
  0
LINE
  5
248
100
AcDbEntity
  8
0
100
AcDbLine
 62
7
  6
CONTINUOUS
 10
12.7446092348
 20
11.7412348054
 11
12.7454695623
 21
11.7452159692
  0
LINE
  5
249
100
AcDbEntity
  8
0
100
AcDbLine
 62
7
  6
CONTINUOUS
 10
12.7246470461
 20
11.5745903022
 11
12.7841693386
 21
11.7672045115
  0
LINE
  5
24A
100
AcDbEntity
  8
0
100
AcDbLine
 62
7
  6
CONTINUOUS
 10
13.209067148
 20
11.7412348054
 11
13.3929458593
 21
11.5747508819
  0
LINE
  5
24B
100
AcDbEntity
  8
0
100
AcDbLine
 62
7
  6
CONTINUOUS
 10
13.8754536526
 20
11.5747508819
 11
13.8959354773
 21
11.7412348054
  0
LINE
  5
24C
100
AcDbEntity
  8
0
100
AcDbLine
 62
7
  6
CONTINUOUS
 10
13.874185224
 20
11.5687723284
 11
13.8754536526
 21
11.5747508819
  0
LINE
  5
24D
100
AcDbEntity
  8
0
100
AcDbLine
 62
7
  6
CONTINUOUS
 10
13.8959354773
 20
11.7412348054
 11
13.8967958048
 21
11.7452159692
  0
LINE
  5
24E
100
AcDbEntity
  8
0
100
AcDbLine
 62
7
  6
CONTINUOUS
 10
14.3603933905
 20
11.7412348054
 11
14.5442721018
 21
11.5747508819
  0
LINE
  5
24F
100
AcDbEntity
  8
0
100
AcDbLine
 62
7
  6
CONTINUOUS
 10
13.8759732886
 20
11.5745903022
 11
13.9354955811
 21
11.7672045115
  0
LINE
  5
250
100
AcDbEntity
  8
0
100
AcDbLine
 62
7
  6
CONTINUOUS
 10
12.3498755334
 20
11.5347789931
 11
12.6551022016
 21
11.5347789931
  0
LINE
  5
251
100
AcDbEntity
  8
0
100
AcDbLine
 62
7
  6
CONTINUOUS
 10
13.5012017759
 20
11.5347789931
 11
13.8064284441
 21
11.5347789931
  0
LINE
  5
252
100
AcDbEntity
  8
0
100
AcDbLine
 62
7
  6
CONTINUOUS
 10
14.6525280184
 20
11.5347789931
 11
14.9577546866
 21
11.5347789931
  0
LINE
  5
253
100
AcDbEntity
  8
0
100
AcDbLine
 62
7
  6
CONTINUOUS
 10
15.8038542609
 20
11.5347789931
 11
16.1090809291
 21
11.5347789931
  0
LINE
  5
254
100
AcDbEntity
  8
0
100
AcDbLine
 62
7
  6
CONTINUOUS
 10
16.9551805034
 20
11.5347789931
 11
17.2604071716
 21
11.5347789931
  0
LINE
  5
255
100
AcDbEntity
  8
0
100
AcDbLine
 62
7
  6
CONTINUOUS
 10
18.1065067459
 20
11.5347789931
 11
18.4117334141
 21
11.5347789931
  0
LINE
  5
256
100
AcDbEntity
  8
0
100
AcDbLine
 62
7
  6
CONTINUOUS
 10
11.8124350462
 20
11.7678827312
 11
11.9855702944
 21
11.7678827312
  0
LINE
  5
257
100
AcDbEntity
  8
0
100
AcDbLine
 62
7
  6
CONTINUOUS
 10
12.7906260405
 20
11.7678827312
 11
13.1368965369
 21
11.7678827312
  0
LINE
  5
258
100
AcDbEntity
  8
0
100
AcDbLine
 62
7
  6
CONTINUOUS
 10
13.941952283
 20
11.7678827312
 11
14.2882227794
 21
11.7678827312
  0
LINE
  5
259
100
AcDbEntity
  8
0
100
AcDbLine
 62
7
  6
CONTINUOUS
 10
15.0932785255
 20
11.7678827312
 11
15.4395490219
 21
11.7678827312
  0
LINE
  5
25A
100
AcDbEntity
  8
0
100
AcDbLine
 62
7
  6
CONTINUOUS
 10
16.244604768
 20
11.7678827312
 11
16.5908752645
 21
11.7678827312
  0
LINE
  5
25B
100
AcDbEntity
  8
0
100
AcDbLine
 62
7
  6
CONTINUOUS
 10
17.3959310105
 20
11.7678827312
 11
17.742201507
 21
11.7678827312
  0
LINE
  5
25C
100
AcDbEntity
  8
0
100
AcDbLine
 62
7
  6
CONTINUOUS
 10
18.547257253
 20
11.7678827312
 11
18.7203925012
 21
11.7678827312
  0
LINE
  5
25D
100
AcDbEntity
  8
0
100
AcDbLine
 62
7
  6
CONTINUOUS
 10
18.6456572439
 20
11.9201771734
 11
11.7376997889
 21
11.9201771734
  0
LINE
  5
25E
100
AcDbEntity
  8
0
100
AcDbLine
 62
7
  6
CONTINUOUS
 10
15.511719633
 20
11.7412348054
 11
15.6955983443
 21
11.5747508819
  0
LINE
  5
25F
100
AcDbEntity
  8
0
100
AcDbLine
 62
7
  6
CONTINUOUS
 10
15.0267798952
 20
11.5747508819
 11
15.0472617198
 21
11.7412348054
  0
LINE
  5
260
100
AcDbEntity
  8
0
100
AcDbLine
 62
7
  6
CONTINUOUS
 10
15.0255114665
 20
11.5687723284
 11
15.0267798952
 21
11.5747508819
  0
LINE
  5
261
100
AcDbEntity
  8
0
100
AcDbLine
 62
7
  6
CONTINUOUS
 10
15.0472617198
 20
11.7412348054
 11
15.0481220473
 21
11.7452159692
  0
LINE
  5
262
100
AcDbEntity
  8
0
100
AcDbLine
 62
7
  6
CONTINUOUS
 10
15.0272995311
 20
11.5745903022
 11
15.0868218236
 21
11.7672045115
  0
LINE
  5
263
100
AcDbEntity
  8
0
100
AcDbLine
 62
7
  6
CONTINUOUS
 10
16.6630458755
 20
11.7412348054
 11
16.8469245868
 21
11.5747508819
  0
LINE
  5
264
100
AcDbEntity
  8
0
100
AcDbLine
 62
7
  6
CONTINUOUS
 10
16.1781061377
 20
11.5747508819
 11
16.1985879623
 21
11.7412348054
  0
LINE
  5
265
100
AcDbEntity
  8
0
100
AcDbLine
 62
7
  6
CONTINUOUS
 10
16.1768377091
 20
11.5687723284
 11
16.1781061377
 21
11.5747508819
  0
LINE
  5
266
100
AcDbEntity
  8
0
100
AcDbLine
 62
7
  6
CONTINUOUS
 10
16.1985879623
 20
11.7412348054
 11
16.1994482898
 21
11.7452159692
  0
LINE
  5
267
100
AcDbEntity
  8
0
100
AcDbLine
 62
7
  6
CONTINUOUS
 10
16.1786257736
 20
11.5745903022
 11
16.2381480661
 21
11.7672045115
  0
LINE
  5
268
100
AcDbEntity
  8
0
100
AcDbLine
 62
7
  6
CONTINUOUS
 10
12.2218324357
 20
13.4868309927
 11
19.1297898907
 21
13.4868309927
  0
LINE
  5
269
100
AcDbEntity
  8
0
100
AcDbLine
 62
7
  6
CONTINUOUS
 10
17.814372118
 20
11.7412348054
 11
17.9982508294
 21
11.5747508819
  0
LINE
  5
26A
100
AcDbEntity
  8
0
100
AcDbLine
 62
7
  6
CONTINUOUS
 10
17.3294323802
 20
11.5747508819
 11
17.3499142048
 21
11.7412348054
  0
LINE
  5
26B
100
AcDbEntity
  8
0
100
AcDbLine
 62
7
  6
CONTINUOUS
 10
17.3281639516
 20
11.5687723284
 11
17.3294323802
 21
11.5747508819
  0
LINE
  5
26C
100
AcDbEntity
  8
0
100
AcDbLine
 62
7
  6
CONTINUOUS
 10
17.3499142048
 20
11.7412348054
 11
17.3507745323
 21
11.7452159692
  0
LINE
  5
26D
100
AcDbEntity
  8
0
100
AcDbLine
 62
7
  6
CONTINUOUS
 10
17.3299520161
 20
11.5745903022
 11
17.3894743086
 21
11.7672045115
  0
LINE
  5
26E
100
AcDbEntity
  8
0
100
AcDbLine
 62
7
  6
CONTINUOUS
 10
18.7203925012
 20
11.7678827312
 11
18.6456572439
 21
11.9201771734
  0
LINE
  5
26F
100
AcDbEntity
  8
0
100
AcDbLine
 62
7
  6
CONTINUOUS
 10
18.4807586227
 20
11.5747508819
 11
18.5012404473
 21
11.7412348054
  0
LINE
  5
270
100
AcDbEntity
  8
0
100
AcDbLine
 62
7
  6
CONTINUOUS
 10
18.4794901941
 20
11.5687723284
 11
18.4807586227
 21
11.5747508819
  0
LINE
  5
271
100
AcDbEntity
  8
0
100
AcDbLine
 62
7
  6
CONTINUOUS
 10
18.5012404473
 20
11.7412348054
 11
18.5021007748
 21
11.7452159692
  0
LINE
  5
272
100
AcDbEntity
  8
0
100
AcDbLine
 62
7
  6
CONTINUOUS
 10
18.4812782586
 20
11.5745903022
 11
18.5408005511
 21
11.7672045115
  0
LINE
  5
273
100
AcDbEntity
  8
0
100
AcDbLine
 62
7
  6
CONTINUOUS
 10
19.1297898907
 20
13.4868309927
 11
18.6456572439
 21
11.9201771734
  0
LINE
  5
274
100
AcDbEntity
  8
0
100
AcDbLine
 62
7
  6
CONTINUOUS
 10
19.2045251481
 20
13.3345365505
 11
18.7203925012
 21
11.7678827312
  0
LINE
  5
275
100
AcDbEntity
  8
0
100
AcDbLine
 62
7
  6
CONTINUOUS
 10
19.2045251481
 20
13.3345365505
 11
19.1297898907
 21
13.4868309927
  0
ARC
  5
276
100
AcDbEntity
  8
0
100
AcDbCircle
 62
7
  6
CONTINUOUS
 10
4.0896743035
 20
5.3142865634
 40
0.1041666667
100
AcDbArc
 50
202.5
 51
270.0
  0
ARC
  5
277
100
AcDbEntity
  8
0
100
AcDbCircle
 62
7
  6
CONTINUOUS
 10
4.4210602488
 20
5.3142865634
 40
0.1041666667
100
AcDbArc
 50
270.0
 51
337.5
  0
ARC
  5
278
100
AcDbEntity
  8
0
100
AcDbCircle
 62
7
  6
CONTINUOUS
 10
5.3396743035
 20
5.3142865634
 40
0.1041666667
100
AcDbArc
 50
202.5
 51
270.0
  0
ARC
  5
279
100
AcDbEntity
  8
0
100
AcDbCircle
 62
7
  6
CONTINUOUS
 10
5.6710602488
 20
5.3142865634
 40
0.1041666667
100
AcDbArc
 50
270.0
 51
337.5
  0
ARC
  5
27A
100
AcDbEntity
  8
0
100
AcDbCircle
 62
7
  6
CONTINUOUS
 10
6.5896743035
 20
5.3142865634
 40
0.1041666667
100
AcDbArc
 50
202.5
 51
270.0
  0
ARC
  5
27B
100
AcDbEntity
  8
0
100
AcDbCircle
 62
7
  6
CONTINUOUS
 10
6.9210602488
 20
5.3142865634
 40
0.1041666667
100
AcDbArc
 50
270.0
 51
337.5
  0
ARC
  5
27C
100
AcDbEntity
  8
0
100
AcDbCircle
 62
7
  6
CONTINUOUS
 10
3.1710602488
 20
5.3142865634
 40
0.1041666667
100
AcDbArc
 50
270.0
 51
337.5
  0
ARC
  5
27D
100
AcDbEntity
  8
0
100
AcDbCircle
 62
7
  6
CONTINUOUS
 10
2.8396743035
 20
5.3142865634
 40
0.1041666667
100
AcDbArc
 50
202.5
 51
270.0
  0
ARC
  5
27E
100
AcDbEntity
  8
0
100
AcDbCircle
 62
7
  6
CONTINUOUS
 10
9.4210602488
 20
5.3142865634
 40
0.1041666667
100
AcDbArc
 50
270.0
 51
337.5
  0
ARC
  5
27F
100
AcDbEntity
  8
0
100
AcDbCircle
 62
7
  6
CONTINUOUS
 10
9.0896743035
 20
5.3142865634
 40
0.1041666667
100
AcDbArc
 50
202.5
 51
270.0
  0
ARC
  5
280
100
AcDbEntity
  8
0
100
AcDbCircle
 62
7
  6
CONTINUOUS
 10
8.1710602488
 20
5.3142865634
 40
0.1041666667
100
AcDbArc
 50
270.0
 51
337.5
  0
ARC
  5
281
100
AcDbEntity
  8
0
100
AcDbCircle
 62
7
  6
CONTINUOUS
 10
7.8396743035
 20
5.3142865634
 40
0.1041666667
100
AcDbArc
 50
202.5
 51
270.0
  0
ARC
  5
282
100
AcDbEntity
  8
0
100
AcDbCircle
 62
7
  6
CONTINUOUS
 10
3.4423935705
 20
5.5156754523
 40
0.0694444444
100
AcDbArc
 50
90.0
 51
157.5
  0
ARC
  5
283
100
AcDbEntity
  8
0
100
AcDbCircle
 62
7
  6
CONTINUOUS
 10
2.5683409819
 20
5.5156754523
 40
0.0694444444
100
AcDbArc
 50
22.5
 51
90.0
  0
ARC
  5
284
100
AcDbEntity
  8
0
100
AcDbCircle
 62
7
  6
CONTINUOUS
 10
4.6923935705
 20
5.5156754523
 40
0.0694444444
100
AcDbArc
 50
90.0
 51
157.5
  0
ARC
  5
285
100
AcDbEntity
  8
0
100
AcDbCircle
 62
7
  6
CONTINUOUS
 10
3.8183409819
 20
5.5156754523
 40
0.0694444444
100
AcDbArc
 50
22.5
 51
90.0
  0
ARC
  5
286
100
AcDbEntity
  8
0
100
AcDbCircle
 62
7
  6
CONTINUOUS
 10
5.9423935705
 20
5.5156754523
 40
0.0694444444
100
AcDbArc
 50
90.0
 51
157.5
  0
ARC
  5
287
100
AcDbEntity
  8
0
100
AcDbCircle
 62
7
  6
CONTINUOUS
 10
5.0683409819
 20
5.5156754523
 40
0.0694444444
100
AcDbArc
 50
22.5
 51
90.0
  0
ARC
  5
288
100
AcDbEntity
  8
0
100
AcDbCircle
 62
7
  6
CONTINUOUS
 10
7.1923935705
 20
5.5156754523
 40
0.0694444444
100
AcDbArc
 50
90.0
 51
157.5
  0
ARC
  5
289
100
AcDbEntity
  8
0
100
AcDbCircle
 62
7
  6
CONTINUOUS
 10
6.3183409819
 20
5.5156754523
 40
0.0694444444
100
AcDbArc
 50
22.5
 51
90.0
  0
ARC
  5
28A
100
AcDbEntity
  8
0
100
AcDbCircle
 62
7
  6
CONTINUOUS
 10
8.4423935705
 20
5.5156754523
 40
0.0694444444
100
AcDbArc
 50
90.0
 51
157.5
  0
ARC
  5
28B
100
AcDbEntity
  8
0
100
AcDbCircle
 62
7
  6
CONTINUOUS
 10
7.5683409819
 20
5.5156754523
 40
0.0694444444
100
AcDbArc
 50
22.5
 51
90.0
  0
ARC
  5
28C
100
AcDbEntity
  8
0
100
AcDbCircle
 62
7
  6
CONTINUOUS
 10
9.6923935705
 20
5.5156754523
 40
0.0694444444
100
AcDbArc
 50
90.0
 51
157.5
  0
ARC
  5
28D
100
AcDbEntity
  8
0
100
AcDbCircle
 62
7
  6
CONTINUOUS
 10
8.8183409819
 20
5.5156754523
 40
0.0694444444
100
AcDbArc
 50
22.5
 51
90.0
  0
SPLINE
  5
28E
100
AcDbEntity
  8
0
100
AcDbSpline
 62
7
  6
CONTINUOUS
 70
0
 71
3
 72
9
 73
5
 74
0
 42
0.0000001
 43
0.0000001
 44
0.0000000001
 40
0.0
 40
0.0
 40
0.0
 40
0.0
 40
0.4953327217
 40
1.0
 40
1.0
 40
1.0
 40
1.0
 10
12.7454630111
 20
11.745217995
 30
0.0
 10
12.7458389285
 20
11.7464320227
 30
0.0
 10
12.7468048723
 20
11.7488233744
 30
0.0
 10
12.7481487663
 20
11.7510235273
 30
0.0
 10
12.7489072272
 20
11.7520729861
 30
0.0
  0
SPLINE
  5
28F
100
AcDbEntity
  8
0
100
AcDbSpline
 62
7
  6
CONTINUOUS
 70
0
 71
3
 72
14
 73
10
 74
0
 42
0.0000001
 43
0.0000001
 44
0.0000000001
 40
0.0
 40
0.0
 40
0.0
 40
0.0
 40
0.1008721498
 40
0.2072982226
 40
0.3205379268
 40
0.4413692962
 40
0.7063106394
 40
0.8500855082
 40
1.0
 40
1.0
 40
1.0
 40
1.0
 10
12.7489072272
 20
11.7520729861
 30
0.0
 10
12.7498163959
 20
11.7533309744
 30
0.0
 10
12.751929024
 20
11.7557460844
 30
0.0
 10
12.755751425
 20
11.7588915676
 30
0.0
 10
12.7602494289
 20
11.761610804
 30
0.0
 10
12.7672874496
 20
11.7647212266
 30
0.0
 10
12.7752560696
 20
11.7667138741
 30
0.0
 10
12.7837970034
 20
11.7677158057
 30
0.0
 10
12.788319284
 20
11.7678827312
 30
0.0
 10
12.7906260405
 20
11.7678827312
 30
0.0
  0
SPLINE
  5
290
100
AcDbEntity
  8
0
100
AcDbSpline
 62
7
  6
CONTINUOUS
 70
0
 71
3
 72
9
 73
5
 74
0
 42
0.0000001
 43
0.0000001
 44
0.0000000001
 40
0.0
 40
0.0
 40
0.0
 40
0.0
 40
0.4953327217
 40
1.0
 40
1.0
 40
1.0
 40
1.0
 10
13.8967892536
 20
11.745217995
 30
0.0
 10
13.897165171
 20
11.7464320227
 30
0.0
 10
13.8981311148
 20
11.7488233744
 30
0.0
 10
13.8994750088
 20
11.7510235273
 30
0.0
 10
13.9002334698
 20
11.7520729861
 30
0.0
  0
SPLINE
  5
291
100
AcDbEntity
  8
0
100
AcDbSpline
 62
7
  6
CONTINUOUS
 70
0
 71
3
 72
14
 73
10
 74
0
 42
0.0000001
 43
0.0000001
 44
0.0000000001
 40
0.0
 40
0.0
 40
0.0
 40
0.0
 40
0.1008721498
 40
0.2072982226
 40
0.3205379268
 40
0.4413692962
 40
0.7063106394
 40
0.8500855082
 40
1.0
 40
1.0
 40
1.0
 40
1.0
 10
13.9002334698
 20
11.7520729861
 30
0.0
 10
13.9011426384
 20
11.7533309744
 30
0.0
 10
13.9032552665
 20
11.7557460844
 30
0.0
 10
13.9070776675
 20
11.7588915676
 30
0.0
 10
13.9115756714
 20
11.761610804
 30
0.0
 10
13.9186136921
 20
11.7647212266
 30
0.0
 10
13.9265823121
 20
11.7667138741
 30
0.0
 10
13.9351232459
 20
11.7677158057
 30
0.0
 10
13.9396455265
 20
11.7678827312
 30
0.0
 10
13.941952283
 20
11.7678827312
 30
0.0
  0
SPLINE
  5
292
100
AcDbEntity
  8
0
100
AcDbSpline
 62
7
  6
CONTINUOUS
 70
0
 71
3
 72
9
 73
5
 74
0
 42
0.0000001
 43
0.0000001
 44
0.0000000001
 40
0.0
 40
0.0
 40
0.0
 40
0.0
 40
0.4953327217
 40
1.0
 40
1.0
 40
1.0
 40
1.0
 10
15.0481154961
 20
11.745217995
 30
0.0
 10
15.0484914135
 20
11.7464320227
 30
0.0
 10
15.0494573573
 20
11.7488233744
 30
0.0
 10
15.0508012513
 20
11.7510235273
 30
0.0
 10
15.0515597123
 20
11.7520729861
 30
0.0
  0
SPLINE
  5
293
100
AcDbEntity
  8
0
100
AcDbSpline
 62
7
  6
CONTINUOUS
 70
0
 71
3
 72
14
 73
10
 74
0
 42
0.0000001
 43
0.0000001
 44
0.0000000001
 40
0.0
 40
0.0
 40
0.0
 40
0.0
 40
0.1008721498
 40
0.2072982226
 40
0.3205379268
 40
0.4413692962
 40
0.7063106394
 40
0.8500855082
 40
1.0
 40
1.0
 40
1.0
 40
1.0
 10
15.0515597123
 20
11.7520729861
 30
0.0
 10
15.0524688809
 20
11.7533309744
 30
0.0
 10
15.054581509
 20
11.7557460844
 30
0.0
 10
15.05840391
 20
11.7588915676
 30
0.0
 10
15.0629019139
 20
11.761610804
 30
0.0
 10
15.0699399346
 20
11.7647212266
 30
0.0
 10
15.0779085546
 20
11.7667138741
 30
0.0
 10
15.0864494884
 20
11.7677158057
 30
0.0
 10
15.090971769
 20
11.7678827312
 30
0.0
 10
15.0932785255
 20
11.7678827312
 30
0.0
  0
SPLINE
  5
294
100
AcDbEntity
  8
0
100
AcDbSpline
 62
7
  6
CONTINUOUS
 70
0
 71
3
 72
9
 73
5
 74
0
 42
0.0000001
 43
0.0000001
 44
0.0000000001
 40
0.0
 40
0.0
 40
0.0
 40
0.0
 40
0.4953327217
 40
1.0
 40
1.0
 40
1.0
 40
1.0
 10
16.1994417386
 20
11.745217995
 30
0.0
 10
16.199817656
 20
11.7464320227
 30
0.0
 10
16.2007835998
 20
11.7488233744
 30
0.0
 10
16.2021274938
 20
11.7510235273
 30
0.0
 10
16.2028859548
 20
11.7520729861
 30
0.0
  0
SPLINE
  5
295
100
AcDbEntity
  8
0
100
AcDbSpline
 62
7
  6
CONTINUOUS
 70
0
 71
3
 72
14
 73
10
 74
0
 42
0.0000001
 43
0.0000001
 44
0.0000000001
 40
0.0
 40
0.0
 40
0.0
 40
0.0
 40
0.1008721498
 40
0.2072982226
 40
0.3205379268
 40
0.4413692962
 40
0.7063106394
 40
0.8500855082
 40
1.0
 40
1.0
 40
1.0
 40
1.0
 10
16.2028859548
 20
11.7520729861
 30
0.0
 10
16.2037951234
 20
11.7533309744
 30
0.0
 10
16.2059077515
 20
11.7557460844
 30
0.0
 10
16.2097301525
 20
11.7588915676
 30
0.0
 10
16.2142281564
 20
11.761610804
 30
0.0
 10
16.2212661771
 20
11.7647212266
 30
0.0
 10
16.2292347971
 20
11.7667138741
 30
0.0
 10
16.2377757309
 20
11.7677158057
 30
0.0
 10
16.2422980116
 20
11.7678827312
 30
0.0
 10
16.244604768
 20
11.7678827312
 30
0.0
  0
SPLINE
  5
296
100
AcDbEntity
  8
0
100
AcDbSpline
 62
7
  6
CONTINUOUS
 70
0
 71
3
 72
9
 73
5
 74
0
 42
0.0000001
 43
0.0000001
 44
0.0000000001
 40
0.0
 40
0.0
 40
0.0
 40
0.0
 40
0.4953327217
 40
1.0
 40
1.0
 40
1.0
 40
1.0
 10
17.3507679811
 20
11.745217995
 30
0.0
 10
17.3511438985
 20
11.7464320227
 30
0.0
 10
17.3521098423
 20
11.7488233744
 30
0.0
 10
17.3534537363
 20
11.7510235273
 30
0.0
 10
17.3542121973
 20
11.7520729861
 30
0.0
  0
SPLINE
  5
297
100
AcDbEntity
  8
0
100
AcDbSpline
 62
7
  6
CONTINUOUS
 70
0
 71
3
 72
14
 73
10
 74
0
 42
0.0000001
 43
0.0000001
 44
0.0000000001
 40
0.0
 40
0.0
 40
0.0
 40
0.0
 40
0.1008721498
 40
0.2072982226
 40
0.3205379268
 40
0.4413692962
 40
0.7063106394
 40
0.8500855082
 40
1.0
 40
1.0
 40
1.0
 40
1.0
 10
17.3542121973
 20
11.7520729861
 30
0.0
 10
17.3551213659
 20
11.7533309744
 30
0.0
 10
17.357233994
 20
11.7557460844
 30
0.0
 10
17.3610563951
 20
11.7588915676
 30
0.0
 10
17.3655543989
 20
11.761610804
 30
0.0
 10
17.3725924196
 20
11.7647212266
 30
0.0
 10
17.3805610396
 20
11.7667138741
 30
0.0
 10
17.3891019734
 20
11.7677158057
 30
0.0
 10
17.3936242541
 20
11.7678827312
 30
0.0
 10
17.3959310105
 20
11.7678827312
 30
0.0
  0
SPLINE
  5
298
100
AcDbEntity
  8
0
100
AcDbSpline
 62
7
  6
CONTINUOUS
 70
0
 71
3
 72
9
 73
5
 74
0
 42
0.0000001
 43
0.0000001
 44
0.0000000001
 40
0.0
 40
0.0
 40
0.0
 40
0.0
 40
0.4953327217
 40
1.0
 40
1.0
 40
1.0
 40
1.0
 10
18.5020942236
 20
11.745217995
 30
0.0
 10
18.502470141
 20
11.7464320227
 30
0.0
 10
18.5034360848
 20
11.7488233744
 30
0.0
 10
18.5047799788
 20
11.7510235273
 30
0.0
 10
18.5055384398
 20
11.7520729861
 30
0.0
  0
SPLINE
  5
299
100
AcDbEntity
  8
0
100
AcDbSpline
 62
7
  6
CONTINUOUS
 70
0
 71
3
 72
14
 73
10
 74
0
 42
0.0000001
 43
0.0000001
 44
0.0000000001
 40
0.0
 40
0.0
 40
0.0
 40
0.0
 40
0.1008721498
 40
0.2072982226
 40
0.3205379268
 40
0.4413692962
 40
0.7063106394
 40
0.8500855082
 40
1.0
 40
1.0
 40
1.0
 40
1.0
 10
18.5055384398
 20
11.7520729861
 30
0.0
 10
18.5064476084
 20
11.7533309744
 30
0.0
 10
18.5085602365
 20
11.7557460844
 30
0.0
 10
18.5123826376
 20
11.7588915676
 30
0.0
 10
18.5168806414
 20
11.761610804
 30
0.0
 10
18.5239186621
 20
11.7647212266
 30
0.0
 10
18.5318872821
 20
11.7667138741
 30
0.0
 10
18.5404282159
 20
11.7677158057
 30
0.0
 10
18.5449504966
 20
11.7678827312
 30
0.0
 10
18.547257253
 20
11.7678827312
 30
0.0
  0
SPLINE
  5
29A
100
AcDbEntity
  8
0
100
AcDbSpline
 62
7
  6
CONTINUOUS
 70
0
 71
3
 72
15
 73
11
 74
0
 42
0.0000001
 43
0.0000001
 44
0.0000000001
 40
0.0
 40
0.0
 40
0.0
 40
0.0
 40
0.1557507138
 40
0.3032142394
 40
0.4410980145
 40
0.5690411977
 40
0.6873378912
 40
0.7970482293
 40
0.9002754429
 40
1.0
 40
1.0
 40
1.0
 40
1.0
 10
12.6551022016
 20
11.5347789931
 30
0.0
 10
12.6592960566
 20
11.5347789931
 30
0.0
 10
12.6674667902
 20
11.5351411129
 30
0.0
 10
12.6792431223
 20
11.5368419489
 30
0.0
 10
12.6900343283
 20
11.5396706864
 30
0.0
 10
12.699646554
 20
11.5435801053
 30
0.0
 10
12.7079149241
 20
11.548511748
 30
0.0
 10
12.7146849741
 20
11.554403197
 30
0.0
 10
12.7198110898
 20
11.5611624847
 30
0.0
 10
12.7220551328
 20
11.5662101906
 30
0.0
 10
12.7228483808
 20
11.5687756049
 30
0.0
  0
SPLINE
  5
29B
100
AcDbEntity
  8
0
100
AcDbSpline
 62
7
  6
CONTINUOUS
 70
0
 71
3
 72
15
 73
11
 74
0
 42
0.0000001
 43
0.0000001
 44
0.0000000001
 40
0.0
 40
0.0
 40
0.0
 40
0.0
 40
0.1148729662
 40
0.2360780507
 40
0.3619573874
 40
0.4908828265
 40
0.6210130428
 40
0.7504589557
 40
0.877437806
 40
1.0
 40
1.0
 40
1.0
 40
1.0
 10
12.2416196168
 20
11.5747508819
 30
0.0
 10
12.2449620253
 20
11.5717246628
 30
0.0
 10
12.2522035223
 20
11.5659088561
 30
0.0
 10
12.2641385144
 20
11.5581643628
 30
0.0
 10
12.277228589
 20
11.5513037749
 30
0.0
 10
12.2911877741
 20
11.5454751143
 30
0.0
 10
12.3057199383
 20
11.5407964789
 30
0.0
 10
12.320519984
 20
11.5373714699
 30
0.0
 10
12.3352653109
 20
11.5352760672
 30
0.0
 10
12.3450648792
 20
11.5347789931
 30
0.0
 10
12.3498755334
 20
11.5347789931
 30
0.0
  0
SPLINE
  5
29C
100
AcDbEntity
  8
0
100
AcDbSpline
 62
7
  6
CONTINUOUS
 70
0
 71
3
 72
15
 73
11
 74
0
 42
0.0000001
 43
0.0000001
 44
0.0000000001
 40
0.0
 40
0.0
 40
0.0
 40
0.0
 40
0.1557507138
 40
0.3032142394
 40
0.4410980145
 40
0.5690411977
 40
0.6873378912
 40
0.7970482293
 40
0.9002754429
 40
1.0
 40
1.0
 40
1.0
 40
1.0
 10
18.4117334141
 20
11.5347789931
 30
0.0
 10
18.4159272691
 20
11.5347789931
 30
0.0
 10
18.4240980027
 20
11.5351411129
 30
0.0
 10
18.4358743348
 20
11.5368419489
 30
0.0
 10
18.4466655408
 20
11.5396706864
 30
0.0
 10
18.4562777665
 20
11.5435801053
 30
0.0
 10
18.4645461366
 20
11.548511748
 30
0.0
 10
18.4713161866
 20
11.554403197
 30
0.0
 10
18.4764423023
 20
11.5611624847
 30
0.0
 10
18.4786863453
 20
11.5662101906
 30
0.0
 10
18.4794795934
 20
11.5687756049
 30
0.0
  0
SPLINE
  5
29D
100
AcDbEntity
  8
0
100
AcDbSpline
 62
7
  6
CONTINUOUS
 70
0
 71
3
 72
15
 73
11
 74
0
 42
0.0000001
 43
0.0000001
 44
0.0000000001
 40
0.0
 40
0.0
 40
0.0
 40
0.0
 40
0.1148729662
 40
0.2360780507
 40
0.3619573874
 40
0.4908828265
 40
0.6210130428
 40
0.7504589557
 40
0.877437806
 40
1.0
 40
1.0
 40
1.0
 40
1.0
 10
17.9982508294
 20
11.5747508819
 30
0.0
 10
18.0015932378
 20
11.5717246628
 30
0.0
 10
18.0088347349
 20
11.5659088561
 30
0.0
 10
18.0207697269
 20
11.5581643628
 30
0.0
 10
18.0338598015
 20
11.5513037749
 30
0.0
 10
18.0478189866
 20
11.5454751143
 30
0.0
 10
18.0623511508
 20
11.5407964789
 30
0.0
 10
18.0771511965
 20
11.5373714699
 30
0.0
 10
18.0918965234
 20
11.5352760672
 30
0.0
 10
18.1016960917
 20
11.5347789931
 30
0.0
 10
18.1065067459
 20
11.5347789931
 30
0.0
  0
SPLINE
  5
29E
100
AcDbEntity
  8
0
100
AcDbSpline
 62
7
  6
CONTINUOUS
 70
0
 71
3
 72
15
 73
11
 74
0
 42
0.0000001
 43
0.0000001
 44
0.0000000001
 40
0.0
 40
0.0
 40
0.0
 40
0.0
 40
0.1557507138
 40
0.3032142394
 40
0.4410980145
 40
0.5690411977
 40
0.6873378912
 40
0.7970482293
 40
0.9002754429
 40
1.0
 40
1.0
 40
1.0
 40
1.0
 10
17.2604071716
 20
11.5347789931
 30
0.0
 10
17.2646010266
 20
11.5347789931
 30
0.0
 10
17.2727717602
 20
11.5351411129
 30
0.0
 10
17.2845480923
 20
11.5368419489
 30
0.0
 10
17.2953392983
 20
11.5396706864
 30
0.0
 10
17.304951524
 20
11.5435801053
 30
0.0
 10
17.3132198941
 20
11.548511748
 30
0.0
 10
17.3199899441
 20
11.554403197
 30
0.0
 10
17.3251160598
 20
11.5611624847
 30
0.0
 10
17.3273601028
 20
11.5662101906
 30
0.0
 10
17.3281533509
 20
11.5687756049
 30
0.0
  0
SPLINE
  5
29F
100
AcDbEntity
  8
0
100
AcDbSpline
 62
7
  6
CONTINUOUS
 70
0
 71
3
 72
15
 73
11
 74
0
 42
0.0000001
 43
0.0000001
 44
0.0000000001
 40
0.0
 40
0.0
 40
0.0
 40
0.0
 40
0.1148729662
 40
0.2360780507
 40
0.3619573874
 40
0.4908828265
 40
0.6210130428
 40
0.7504589557
 40
0.877437806
 40
1.0
 40
1.0
 40
1.0
 40
1.0
 10
16.8469245868
 20
11.5747508819
 30
0.0
 10
16.8502669953
 20
11.5717246628
 30
0.0
 10
16.8575084924
 20
11.5659088561
 30
0.0
 10
16.8694434844
 20
11.5581643628
 30
0.0
 10
16.882533559
 20
11.5513037749
 30
0.0
 10
16.8964927441
 20
11.5454751143
 30
0.0
 10
16.9110249083
 20
11.5407964789
 30
0.0
 10
16.925824954
 20
11.5373714699
 30
0.0
 10
16.9405702809
 20
11.5352760672
 30
0.0
 10
16.9503698492
 20
11.5347789931
 30
0.0
 10
16.9551805034
 20
11.5347789931
 30
0.0
  0
SPLINE
  5
2A0
100
AcDbEntity
  8
0
100
AcDbSpline
 62
7
  6
CONTINUOUS
 70
0
 71
3
 72
15
 73
11
 74
0
 42
0.0000001
 43
0.0000001
 44
0.0000000001
 40
0.0
 40
0.0
 40
0.0
 40
0.0
 40
0.1557507138
 40
0.3032142394
 40
0.4410980145
 40
0.5690411977
 40
0.6873378912
 40
0.7970482293
 40
0.9002754429
 40
1.0
 40
1.0
 40
1.0
 40
1.0
 10
16.1090809291
 20
11.5347789931
 30
0.0
 10
16.1132747841
 20
11.5347789931
 30
0.0
 10
16.1214455177
 20
11.5351411129
 30
0.0
 10
16.1332218498
 20
11.5368419489
 30
0.0
 10
16.1440130558
 20
11.5396706864
 30
0.0
 10
16.1536252815
 20
11.5435801053
 30
0.0
 10
16.1618936516
 20
11.548511748
 30
0.0
 10
16.1686637016
 20
11.554403197
 30
0.0
 10
16.1737898173
 20
11.5611624847
 30
0.0
 10
16.1760338603
 20
11.5662101906
 30
0.0
 10
16.1768271084
 20
11.5687756049
 30
0.0
  0
SPLINE
  5
2A1
100
AcDbEntity
  8
0
100
AcDbSpline
 62
7
  6
CONTINUOUS
 70
0
 71
3
 72
15
 73
11
 74
0
 42
0.0000001
 43
0.0000001
 44
0.0000000001
 40
0.0
 40
0.0
 40
0.0
 40
0.0
 40
0.1148729662
 40
0.2360780507
 40
0.3619573874
 40
0.4908828265
 40
0.6210130428
 40
0.7504589557
 40
0.877437806
 40
1.0
 40
1.0
 40
1.0
 40
1.0
 10
15.6955983443
 20
11.5747508819
 30
0.0
 10
15.6989407528
 20
11.5717246628
 30
0.0
 10
15.7061822498
 20
11.5659088561
 30
0.0
 10
15.7181172419
 20
11.5581643628
 30
0.0
 10
15.7312073165
 20
11.5513037749
 30
0.0
 10
15.7451665016
 20
11.5454751143
 30
0.0
 10
15.7596986658
 20
11.5407964789
 30
0.0
 10
15.7744987115
 20
11.5373714699
 30
0.0
 10
15.7892440384
 20
11.5352760672
 30
0.0
 10
15.7990436067
 20
11.5347789931
 30
0.0
 10
15.8038542609
 20
11.5347789931
 30
0.0
  0
SPLINE
  5
2A2
100
AcDbEntity
  8
0
100
AcDbSpline
 62
7
  6
CONTINUOUS
 70
0
 71
3
 72
15
 73
11
 74
0
 42
0.0000001
 43
0.0000001
 44
0.0000000001
 40
0.0
 40
0.0
 40
0.0
 40
0.0
 40
0.1557507138
 40
0.3032142394
 40
0.4410980145
 40
0.5690411977
 40
0.6873378912
 40
0.7970482293
 40
0.9002754429
 40
1.0
 40
1.0
 40
1.0
 40
1.0
 10
14.9577546866
 20
11.5347789931
 30
0.0
 10
14.9619485416
 20
11.5347789931
 30
0.0
 10
14.9701192752
 20
11.5351411129
 30
0.0
 10
14.9818956073
 20
11.5368419489
 30
0.0
 10
14.9926868133
 20
11.5396706864
 30
0.0
 10
15.002299039
 20
11.5435801053
 30
0.0
 10
15.0105674091
 20
11.548511748
 30
0.0
 10
15.0173374591
 20
11.554403197
 30
0.0
 10
15.0224635748
 20
11.5611624847
 30
0.0
 10
15.0247076178
 20
11.5662101906
 30
0.0
 10
15.0255008658
 20
11.5687756049
 30
0.0
  0
SPLINE
  5
2A3
100
AcDbEntity
  8
0
100
AcDbSpline
 62
7
  6
CONTINUOUS
 70
0
 71
3
 72
15
 73
11
 74
0
 42
0.0000001
 43
0.0000001
 44
0.0000000001
 40
0.0
 40
0.0
 40
0.0
 40
0.0
 40
0.1148729662
 40
0.2360780507
 40
0.3619573874
 40
0.4908828265
 40
0.6210130428
 40
0.7504589557
 40
0.877437806
 40
1.0
 40
1.0
 40
1.0
 40
1.0
 10
14.5442721018
 20
11.5747508819
 30
0.0
 10
14.5476145103
 20
11.5717246628
 30
0.0
 10
14.5548560073
 20
11.5659088561
 30
0.0
 10
14.5667909994
 20
11.5581643628
 30
0.0
 10
14.579881074
 20
11.5513037749
 30
0.0
 10
14.5938402591
 20
11.5454751143
 30
0.0
 10
14.6083724233
 20
11.5407964789
 30
0.0
 10
14.623172469
 20
11.5373714699
 30
0.0
 10
14.6379177959
 20
11.5352760672
 30
0.0
 10
14.6477173642
 20
11.5347789931
 30
0.0
 10
14.6525280184
 20
11.5347789931
 30
0.0
  0
SPLINE
  5
2A4
100
AcDbEntity
  8
0
100
AcDbSpline
 62
7
  6
CONTINUOUS
 70
0
 71
3
 72
15
 73
11
 74
0
 42
0.0000001
 43
0.0000001
 44
0.0000000001
 40
0.0
 40
0.0
 40
0.0
 40
0.0
 40
0.1557507138
 40
0.3032142394
 40
0.4410980145
 40
0.5690411977
 40
0.6873378912
 40
0.7970482293
 40
0.9002754429
 40
1.0
 40
1.0
 40
1.0
 40
1.0
 10
13.8064284441
 20
11.5347789931
 30
0.0
 10
13.8106222991
 20
11.5347789931
 30
0.0
 10
13.8187930327
 20
11.5351411129
 30
0.0
 10
13.8305693648
 20
11.5368419489
 30
0.0
 10
13.8413605708
 20
11.5396706864
 30
0.0
 10
13.8509727965
 20
11.5435801053
 30
0.0
 10
13.8592411666
 20
11.548511748
 30
0.0
 10
13.8660112166
 20
11.554403197
 30
0.0
 10
13.8711373323
 20
11.5611624847
 30
0.0
 10
13.8733813753
 20
11.5662101906
 30
0.0
 10
13.8741746233
 20
11.5687756049
 30
0.0
  0
SPLINE
  5
2A5
100
AcDbEntity
  8
0
100
AcDbSpline
 62
7
  6
CONTINUOUS
 70
0
 71
3
 72
15
 73
11
 74
0
 42
0.0000001
 43
0.0000001
 44
0.0000000001
 40
0.0
 40
0.0
 40
0.0
 40
0.0
 40
0.1148729662
 40
0.2360780507
 40
0.3619573874
 40
0.4908828265
 40
0.6210130428
 40
0.7504589557
 40
0.877437806
 40
1.0
 40
1.0
 40
1.0
 40
1.0
 10
13.3929458593
 20
11.5747508819
 30
0.0
 10
13.3962882678
 20
11.5717246628
 30
0.0
 10
13.4035297648
 20
11.5659088561
 30
0.0
 10
13.4154647569
 20
11.5581643628
 30
0.0
 10
13.4285548315
 20
11.5513037749
 30
0.0
 10
13.4425140166
 20
11.5454751143
 30
0.0
 10
13.4570461808
 20
11.5407964789
 30
0.0
 10
13.4718462265
 20
11.5373714699
 30
0.0
 10
13.4865915534
 20
11.5352760672
 30
0.0
 10
13.4963911217
 20
11.5347789931
 30
0.0
 10
13.5012017759
 20
11.5347789931
 30
0.0
  0
SPLINE
  5
2A6
100
AcDbEntity
  8
0
100
AcDbSpline
 62
7
  6
CONTINUOUS
 70
0
 71
3
 72
15
 73
11
 74
0
 42
0.0000001
 43
0.0000001
 44
0.0000000001
 40
0.0
 40
0.0
 40
0.0
 40
0.0
 40
0.1224854629
 40
0.2495248726
 40
0.3790232642
 40
0.5091197707
 40
0.6380078892
 40
0.7639369548
 40
0.8851964689
 40
1.0
 40
1.0
 40
1.0
 40
1.0
 10
11.9855702944
 20
11.7678827312
 30
0.0
 10
11.9887753794
 20
11.7678827312
 30
0.0
 10
11.9953078284
 20
11.7675495853
 30
0.0
 10
12.0051393837
 20
11.7661555152
 30
0.0
 10
12.0150076512
 20
11.7638698035
 30
0.0
 10
12.0246960171
 20
11.7607531818
 30
0.0
 10
12.0340006524
 20
11.7568653988
 30
0.0
 10
12.0427298445
 20
11.7522926105
 30
0.0
 10
12.050685498
 20
11.7471264707
 30
0.0
 10
12.055513987
 20
11.743251059
 30
0.0
 10
12.0577409055
 20
11.7412348054
 30
0.0
  0
SPLINE
  5
2A7
100
AcDbEntity
  8
0
100
AcDbSpline
 62
7
  6
CONTINUOUS
 70
0
 71
3
 72
15
 73
11
 74
0
 42
0.0000001
 43
0.0000001
 44
0.0000000001
 40
0.0
 40
0.0
 40
0.0
 40
0.0
 40
0.1224854629
 40
0.2495248726
 40
0.3790232642
 40
0.5091197707
 40
0.6380078892
 40
0.7639369548
 40
0.8851964689
 40
1.0
 40
1.0
 40
1.0
 40
1.0
 10
13.1368965369
 20
11.7678827312
 30
0.0
 10
13.1401016219
 20
11.7678827312
 30
0.0
 10
13.1466340709
 20
11.7675495853
 30
0.0
 10
13.1564656262
 20
11.7661555152
 30
0.0
 10
13.1663338937
 20
11.7638698035
 30
0.0
 10
13.1760222596
 20
11.7607531818
 30
0.0
 10
13.1853268949
 20
11.7568653988
 30
0.0
 10
13.194056087
 20
11.7522926105
 30
0.0
 10
13.2020117405
 20
11.7471264707
 30
0.0
 10
13.2068402295
 20
11.743251059
 30
0.0
 10
13.209067148
 20
11.7412348054
 30
0.0
  0
SPLINE
  5
2A8
100
AcDbEntity
  8
0
100
AcDbSpline
 62
7
  6
CONTINUOUS
 70
0
 71
3
 72
15
 73
11
 74
0
 42
0.0000001
 43
0.0000001
 44
0.0000000001
 40
0.0
 40
0.0
 40
0.0
 40
0.0
 40
0.1224854629
 40
0.2495248726
 40
0.3790232642
 40
0.5091197707
 40
0.6380078892
 40
0.7639369548
 40
0.8851964689
 40
1.0
 40
1.0
 40
1.0
 40
1.0
 10
14.2882227794
 20
11.7678827312
 30
0.0
 10
14.2914278644
 20
11.7678827312
 30
0.0
 10
14.2979603134
 20
11.7675495853
 30
0.0
 10
14.3077918687
 20
11.7661555152
 30
0.0
 10
14.3176601362
 20
11.7638698035
 30
0.0
 10
14.3273485021
 20
11.7607531818
 30
0.0
 10
14.3366531374
 20
11.7568653988
 30
0.0
 10
14.3453823295
 20
11.7522926105
 30
0.0
 10
14.353337983
 20
11.7471264707
 30
0.0
 10
14.358166472
 20
11.743251059
 30
0.0
 10
14.3603933905
 20
11.7412348054
 30
0.0
  0
SPLINE
  5
2A9
100
AcDbEntity
  8
0
100
AcDbSpline
 62
7
  6
CONTINUOUS
 70
0
 71
3
 72
15
 73
11
 74
0
 42
0.0000001
 43
0.0000001
 44
0.0000000001
 40
0.0
 40
0.0
 40
0.0
 40
0.0
 40
0.1224854629
 40
0.2495248726
 40
0.3790232642
 40
0.5091197707
 40
0.6380078892
 40
0.7639369548
 40
0.8851964689
 40
1.0
 40
1.0
 40
1.0
 40
1.0
 10
15.4395490219
 20
11.7678827312
 30
0.0
 10
15.4427541069
 20
11.7678827312
 30
0.0
 10
15.4492865559
 20
11.7675495853
 30
0.0
 10
15.4591181112
 20
11.7661555152
 30
0.0
 10
15.4689863787
 20
11.7638698035
 30
0.0
 10
15.4786747446
 20
11.7607531818
 30
0.0
 10
15.4879793799
 20
11.7568653988
 30
0.0
 10
15.496708572
 20
11.7522926105
 30
0.0
 10
15.5046642255
 20
11.7471264707
 30
0.0
 10
15.5094927145
 20
11.743251059
 30
0.0
 10
15.511719633
 20
11.7412348054
 30
0.0
  0
SPLINE
  5
2AA
100
AcDbEntity
  8
0
100
AcDbSpline
 62
7
  6
CONTINUOUS
 70
0
 71
3
 72
15
 73
11
 74
0
 42
0.0000001
 43
0.0000001
 44
0.0000000001
 40
0.0
 40
0.0
 40
0.0
 40
0.0
 40
0.1224854629
 40
0.2495248726
 40
0.3790232642
 40
0.5091197707
 40
0.6380078892
 40
0.7639369548
 40
0.8851964689
 40
1.0
 40
1.0
 40
1.0
 40
1.0
 10
16.5908752645
 20
11.7678827312
 30
0.0
 10
16.5940803494
 20
11.7678827312
 30
0.0
 10
16.6006127984
 20
11.7675495853
 30
0.0
 10
16.6104443537
 20
11.7661555152
 30
0.0
 10
16.6203126212
 20
11.7638698035
 30
0.0
 10
16.6300009871
 20
11.7607531818
 30
0.0
 10
16.6393056224
 20
11.7568653988
 30
0.0
 10
16.6480348145
 20
11.7522926105
 30
0.0
 10
16.655990468
 20
11.7471264707
 30
0.0
 10
16.660818957
 20
11.743251059
 30
0.0
 10
16.6630458755
 20
11.7412348054
 30
0.0
  0
SPLINE
  5
2AB
100
AcDbEntity
  8
0
100
AcDbSpline
 62
7
  6
CONTINUOUS
 70
0
 71
3
 72
15
 73
11
 74
0
 42
0.0000001
 43
0.0000001
 44
0.0000000001
 40
0.0
 40
0.0
 40
0.0
 40
0.0
 40
0.1224854629
 40
0.2495248726
 40
0.3790232642
 40
0.5091197707
 40
0.6380078892
 40
0.7639369548
 40
0.8851964689
 40
1.0
 40
1.0
 40
1.0
 40
1.0
 10
17.742201507
 20
11.7678827312
 30
0.0
 10
17.7454065919
 20
11.7678827312
 30
0.0
 10
17.7519390409
 20
11.7675495853
 30
0.0
 10
17.7617705962
 20
11.7661555152
 30
0.0
 10
17.7716388637
 20
11.7638698035
 30
0.0
 10
17.7813272296
 20
11.7607531818
 30
0.0
 10
17.7906318649
 20
11.7568653988
 30
0.0
 10
17.799361057
 20
11.7522926105
 30
0.0
 10
17.8073167105
 20
11.7471264707
 30
0.0
 10
17.8121451995
 20
11.743251059
 30
0.0
 10
17.814372118
 20
11.7412348054
 30
0.0
  0
ENDSEC
  0
SECTION
  2
OBJECTS
  0
DICTIONARY
  5
C
100
AcDbDictionary
280
0
281
1
  3
ACAD_GROUP
350
D
  3
ACAD_MLINESTYLE
350
17
  3
ACAD_LAYOUT
350
1A
  3
ACAD_PLOTSETTINGS
350
19
  3
ACAD_PLOTSTYLENAME
350
E
  0
DICTIONARY
  5
D
102
{ACAD_REACTORS
330
C
102
}
100
AcDbDictionary
280
0
281
1
  0
ACDBDICTIONARYWDFLT
  5
E
102
{ACAD_REACTORS
330
C
102
}
100
AcDbDictionary
281
1
  3
Normal
350
F
100
AcDbDictionaryWithDefault
340
F
  0
DICTIONARY
  5
17
102
{ACAD_REACTORS
330
C
102
}
100
AcDbDictionary
280
0
281
1
  3
Standard
350
18
  0
DICTIONARY
  5
19
102
{ACAD_REACTORS
330
C
102
}
100
AcDbDictionary
281
1
  0
DICTIONARY
  5
1A
102
{ACAD_REACTORS
330
C
102
}
100
AcDbDictionary
281
1
  3
Model
350
2AC
  3
Layout1
350
2AD
  0
ACDBPLACEHOLDER
  5
F
102
{ACAD_REACTORS
330
E
102
}
  0
MLINESTYLE
  5
18
102
{ACAD_REACTORS
330
17
102
}
100
AcDbMlineStyle
  2
STANDARD
 70
0
  3

 62
256
 51
90.0
 52
90.0
 71
2
 49
0.5
 62
256
  6
BYLAYER
 49
-0.5
 62
256
  6
BYLAYER
  0
LAYOUT
  5
2AC
102
{ACAD_REACTORS
330
1A
102
}
100
AcDbPlotSettings
  1

  2
none_device
  4
ANSI_C_(22.00_x_17.00_Inches)
  6

 40
0.0
 41
0.0
 42
0.0
 43
0.0
 44
558.8
 45
431.8
 46
0.0
 47
0.0
 48
0.0
 49
0.0
140
0.0
141
0.0
142
1.0
143
1.0
 70
1024
 72
0
 73
0
 74
0
  7

 75
0
147
1.0
148
0.0
149
0.0
100
AcDbLayout
  1
Model
 70
0
 71
0
 10
0.0
 20
0.0
 11
22.0
 21
17.0
 12
0.0
 22
0.0
 32
0.0
 14
0.0
 24
0.0
 34
0.0
 15
0.0
 25
0.0
 35
0.0
146
0.0
 13
0.0
 23
0.0
 33
0.0
 16
1.0
 26
0.0
 36
0.0
 17
0.0
 27
1.0
 37
0.0
 76
0
330
216
345
0
346
0
  0
LAYOUT
  5
2AD
102
{ACAD_REACTORS
330
1A
102
}
100
AcDbPlotSettings
  1

  2
none_device
  4
ANSI_C_(22.00_x_17.00_Inches)
  6

 40
0.0
 41
0.0
 42
0.0
 43
0.0
 44
558.8
 45
431.8
 46
0.0
 47
0.0
 48
0.0
 49
0.0
140
0.0
141
0.0
142
1.0
143
1.0
 70
0
 72
0
 73
0
 74
0
  7

 75
0
147
1.0
148
0.0
149
0.0
100
AcDbLayout
  1
Layout1
 70
0
 71
1
 10
0.0
 20
0.0
 11
22.0
 21
17.0
 12
0.0
 22
0.0
 32
0.0
 14
0.0
 24
0.0
 34
0.0
 15
0.0
 25
0.0
 35
0.0
146
0.0
 13
0.0
 23
0.0
 33
0.0
 16
1.0
 26
0.0
 36
0.0
 17
0.0
 27
1.0
 37
0.0
 76
0
330
217
345
0
346
0
  0
ENDSEC
  0
EOF