999
DXF file: _cgs_temp_output.dxf
999
Pro/ENGINEER 2015110 by Parametric Technology Corporation
  0
SECTION
  2
HEADER
  9
$ACADVER
  1
AC1021
  9
$DWGCODEPAGE
  3
ANSI_1252
  9
$EXTMAX
 10
22.0
 20
17.0
 30
0.0
  9
$EXTMIN
 10
0.0
 20
0.0
 30
0.0
  9
$LIMMIN
 10
0.0
 20
0.0
  9
$LIMMAX
 10
22.0
 20
17.0
  9
$VIEWCTR
 10
11.0
 20
8.5
  9
$VIEWSIZE
 40
17.0
  9
$CLAYER
  8
0
  9
$LTSCALE
 40
1.21
  9
$CELTYPE
  6
BYLAYER
  9
$DIMSCALE
 40
1.0
  9
$DIMASZ
 40
0.1875
  9
$DIMEXO
 40
0.0625
  9
$DIMDLI
 40
0.836
  9
$DIMEXE
 40
0.125
  9
$DIMCEN
 40
0.198
  9
$DIMLFAC
 40
1.0
  9
$DIMBLK
  1
_CLOSED
  9
$DIMALT
 70
0
  9
$DIMALTF
 40
25.4
  9
$DIMTXT
 40
0.15625
  9
$DIMTOL
 70
0
  9
$DIMLIM
 70
0
  9
$DIMTFAC
 40
1.0
  9
$DIMGAP
 40
0.09
  9
$DIMDSEP
 70
46
  9
$AUNITS
 70
0
  9
$PDMODE
 70
3
  9
$PDSIZE
 40
0.3125
  9
$HANDSEED
  5
394
  9
$TILEMODE
 70
1
  9
$MEASUREMENT
 70
0
  9
$INSUNITS
 70
1
  0
ENDSEC
  0
SECTION
  2
CLASSES
  0
CLASS
  1
ACDBDICTIONARYWDFLT
  2
AcDbDictionaryWithDefault
  3
AutoCAD 2000
 90
0
 91
1
280
0
281
0
  0
CLASS
  1
ACDBPLACEHOLDER
  2
AcDbPlaceHolder
  3
AutoCAD 2000
 90
0
 91
1
280
0
281
0
  0
CLASS
  1
LAYOUT
  2
AcDbLayout
  3
AutoCAD 2000
 90
0
 91
0
280
0
281
0
  0
ENDSEC
  0
SECTION
  2
TABLES
  0
TABLE
  2
VPORT
  5
8
100
AcDbSymbolTable
 70
2
  0
VPORT
  5
1F4
100
AcDbSymbolTableRecord
100
AcDbViewportTableRecord
  2
*ACTIVE
 70
0
 10
0.0
 20
0.0
 11
1.0
 21
1.0
 12
11.0
 22
8.5
 13
0.0
 23
0.0
 14
1.0
 24
1.0
 15
0.0
 25
0.0
 16
0.0
 26
0.0
 36
1.0
 17
0.0
 27
0.0
 37
0.0
 40
17.0
 41
1.2941176471
 42
50.0
 43
0.0
 44
0.0
 50
0.0
 51
0.0
 71
0
 72
100
 73
1
 74
1
 75
0
 76
0
 77
0
 78
0
  0
ENDTAB
  0
TABLE
  2
LTYPE
  5
5
100
AcDbSymbolTable
 70
6
  0
LTYPE
  5
14
100
AcDbSymbolTableRecord
100
AcDbLinetypeTableRecord
  2
BYBLOCK
 70
0
  3

 72
65
 73
0
 40
0.0
  0
LTYPE
  5
15
100
AcDbSymbolTableRecord
100
AcDbLinetypeTableRecord
  2
BYLAYER
 70
0
  3

 72
65
 73
0
 40
0.0
  0
LTYPE
  5
16
100
AcDbSymbolTableRecord
100
AcDbLinetypeTableRecord
  2
CONTINUOUS
 70
64
  3
Solid line
 72
65
 73
0
 40
0.0
  0
LTYPE
  5
1F5
100
AcDbSymbolTableRecord
100
AcDbLinetypeTableRecord
  2
CENTER
 70
64
  3
____ _ ____ _ ____ _ ____ _ ____ _ ____ _ ____
 72
65
 73
4
 40
0.6
 49
0.375
 74
0
 49
-0.075
 74
0
 49
0.075
 74
0
 49
-0.075
 74
0
  0
LTYPE
  5
1F6
100
AcDbSymbolTableRecord
100
AcDbLinetypeTableRecord
  2
HIDDEN
 70
64
  3
- - - - - - - - - - - - - - - - - - - -
 72
65
 73
2
 40
0.2
 49
0.1
 74
0
 49
-0.1
 74
0
  0
LTYPE
  5
1F7
100
AcDbSymbolTableRecord
100
AcDbLinetypeTableRecord
  2
PHANTOM
 70
64
  3
_____ _ _ _____ _ _ _____ _ _ _____
 72
65
 73
6
 40
0.8
 49
0.45
 74
0
 49
-0.05
 74
0
 49
0.1
 74
0
 49
-0.05
 74
0
 49
0.1
 74
0
 49
-0.05
 74
0
  0
LTYPE
  5
1F8
100
AcDbSymbolTableRecord
100
AcDbLinetypeTableRecord
  2
DOT
 70
64
  3
. . . . . . . . . . . . . . . . . . . .
 72
65
 73
2
 40
0.2
 49
0.1
 74
0
 49
-0.1
 74
0
  0
LTYPE
  5
1F9
100
AcDbSymbolTableRecord
100
AcDbLinetypeTableRecord
  2
DASHED
 70
64
  3
- - - - - - - - - - - - - - - - - - - -
 72
65
 73
2
 40
0.2
 49
0.1
 74
0
 49
-0.1
 74
0
  0
ENDTAB
  0
TABLE
  2
LAYER
  5
2
100
AcDbSymbolTable
 70
36
  0
LAYER
  5
10
100
AcDbSymbolTableRecord
100
AcDbLayerTableRecord
  2
0
 70
0
 62
7
  6
CONTINUOUS
370
-3
390
F
  0
LAYER
  5
1FA
100
AcDbSymbolTableRecord
100
AcDbLayerTableRecord
  2
DEFAULT_1
 70
0
 62
7
  6
CENTER
370
-3
390
F
  0
LAYER
  5
1FB
100
AcDbSymbolTableRecord
100
AcDbLayerTableRecord
  2
DEFAULT_2
 70
0
 62
8
  6
HIDDEN
370
-3
390
F
  0
LAYER
  5
1FC
100
AcDbSymbolTableRecord
100
AcDbLayerTableRecord
  2
DEFAULT_3
 70
0
 62
7
  6
PHANTOM
370
-3
390
F
  0
LAYER
  5
1FD
100
AcDbSymbolTableRecord
100
AcDbLayerTableRecord
  2
01_ALL_DTM_PLN
 70
0
 62
7
  6
CONTINUOUS
370
-3
390
F
  0
LAYER
  5
1FE
100
AcDbSymbolTableRecord
100
AcDbLayerTableRecord
  2
01__ASM_ALL_DTM_PLN
 70
0
 62
7
  6
CONTINUOUS
370
-3
390
F
  0
LAYER
  5
1FF
100
AcDbSymbolTableRecord
100
AcDbLayerTableRecord
  2
01__ASM_DEF_DTM_PLN
 70
0
 62
7
  6
CONTINUOUS
370
-3
390
F
  0
LAYER
  5
200
100
AcDbSymbolTableRecord
100
AcDbLayerTableRecord
  2
01___PRT_ALL_DTM_PLN
 70
0
 62
7
  6
CONTINUOUS
370
-3
390
F
  0
LAYER
  5
201
100
AcDbSymbolTableRecord
100
AcDbLayerTableRecord
  2
01___PRT_DEF_DTM_PLN
 70
0
 62
7
  6
CONTINUOUS
370
-3
390
F
  0
LAYER
  5
202
100
AcDbSymbolTableRecord
100
AcDbLayerTableRecord
  2
02_ALL_AXES
 70
0
 62
7
  6
CONTINUOUS
370
-3
390
F
  0
LAYER
  5
203
100
AcDbSymbolTableRecord
100
AcDbLayerTableRecord
  2
02__ASM_ALL_AXES
 70
0
 62
7
  6
CONTINUOUS
370
-3
390
F
  0
LAYER
  5
204
100
AcDbSymbolTableRecord
100
AcDbLayerTableRecord
  2
02___PRT_ALL_AXES
 70
0
 62
7
  6
CONTINUOUS
370
-3
390
F
  0
LAYER
  5
205
100
AcDbSymbolTableRecord
100
AcDbLayerTableRecord
  2
03_ALL_CURVES
 70
0
 62
7
  6
CONTINUOUS
370
-3
390
F
  0
LAYER
  5
206
100
AcDbSymbolTableRecord
100
AcDbLayerTableRecord
  2
03__ASM_ALL_CURVES
 70
0
 62
7
  6
CONTINUOUS
370
-3
390
F
  0
LAYER
  5
207
100
AcDbSymbolTableRecord
100
AcDbLayerTableRecord
  2
03___PRT_ALL_CURVES
 70
0
 62
7
  6
CONTINUOUS
370
-3
390
F
  0
LAYER
  5
208
100
AcDbSymbolTableRecord
100
AcDbLayerTableRecord
  2
04_ALL_DTM_PNT
 70
0
 62
7
  6
CONTINUOUS
370
-3
390
F
  0
LAYER
  5
209
100
AcDbSymbolTableRecord
100
AcDbLayerTableRecord
  2
04__ASM_ALL_DTM_PNT
 70
0
 62
7
  6
CONTINUOUS
370
-3
390
F
  0
LAYER
  5
20A
100
AcDbSymbolTableRecord
100
AcDbLayerTableRecord
  2
04___PRT_ALL_DTM_PNT
 70
0
 62
7
  6
CONTINUOUS
370
-3
390
F
  0
LAYER
  5
20B
100
AcDbSymbolTableRecord
100
AcDbLayerTableRecord
  2
05_ALL_DTM_CSYS
 70
0
 62
7
  6
CONTINUOUS
370
-3
390
F
  0
LAYER
  5
20C
100
AcDbSymbolTableRecord
100
AcDbLayerTableRecord
  2
05__ASM_ALL_DTM_CSYS
 70
0
 62
7
  6
CONTINUOUS
370
-3
390
F
  0
LAYER
  5
20D
100
AcDbSymbolTableRecord
100
AcDbLayerTableRecord
  2
05__ASM_DEF_DTM_CSYS
 70
0
 62
7
  6
CONTINUOUS
370
-3
390
F
  0
LAYER
  5
20E
100
AcDbSymbolTableRecord
100
AcDbLayerTableRecord
  2
05___PRT_ALL_DTM_CSYS
 70
0
 62
7
  6
CONTINUOUS
370
-3
390
F
  0
LAYER
  5
20F
100
AcDbSymbolTableRecord
100
AcDbLayerTableRecord
  2
05___PRT_DEF_DTM_CSYS
 70
0
 62
7
  6
CONTINUOUS
370
-3
390
F
  0
LAYER
  5
210
100
AcDbSymbolTableRecord
100
AcDbLayerTableRecord
  2
06_ALL_SURFS
 70
0
 62
7
  6
CONTINUOUS
370
-3
390
F
  0
LAYER
  5
211
100
AcDbSymbolTableRecord
100
AcDbLayerTableRecord
  2
06__ASM_ALL_SURFS
 70
0
 62
7
  6
CONTINUOUS
370
-3
390
F
  0
LAYER
  5
212
100
AcDbSymbolTableRecord
100
AcDbLayerTableRecord
  2
06___PRT_ALL_SURFS
 70
0
 62
7
  6
CONTINUOUS
370
-3
390
F
  0
LAYER
  5
213
100
AcDbSymbolTableRecord
100
AcDbLayerTableRecord
  2
07__ASM_ALL_SKELETONS
 70
0
 62
7
  6
CONTINUOUS
370
-3
390
F
  0
ENDTAB
  0
TABLE
  2
STYLE
  5
3
100
AcDbSymbolTable
 70
1
  0
STYLE
  5
11
100
AcDbSymbolTableRecord
100
AcDbTextStyleTableRecord
  2
STANDARD
 70
0
 40
0.0
 41
0.8
 50
0.0
 71
0
 42
0.2
  3
txt
  4

  0
STYLE
  5
214
100
AcDbSymbolTableRecord
100
AcDbTextStyleTableRecord
  2
TEXTSTYLE_1
 70
0
 40
0.0
 41
0.8
 50
0.0
 71
0
 42
0.2
  3
gdt
  4

  0
ENDTAB
  0
TABLE
  2
VIEW
  5
6
100
AcDbSymbolTable
 70
0
  0
ENDTAB
  0
TABLE
  2
UCS
  5
7
100
AcDbSymbolTable
 70
0
  0
ENDTAB
  0
TABLE
  2
APPID
  5
9
100
AcDbSymbolTable
 70
1
  0
APPID
  5
215
100
AcDbSymbolTableRecord
100
AcDbRegAppTableRecord
  2
ACAD
 70
0
  0
ENDTAB
  0
TABLE
  2
BLOCK_RECORD
  5
1
100
AcDbSymbolTable
 70
0
  0
BLOCK_RECORD
  5
216
100
AcDbSymbolTableRecord
100
AcDbBlockTableRecord
  2
*Model_Space
  0
BLOCK_RECORD
  5
217
100
AcDbSymbolTableRecord
100
AcDbBlockTableRecord
  2
*Paper_Space
  0
ENDTAB
  0
TABLE
  2
DIMSTYLE
  5
A
100
AcDbSymbolTable
 70
1
100
AcDbDimStyleTable
 71
0
  0
DIMSTYLE
105
218
100
AcDbSymbolTableRecord
100
AcDbDimStyleTableRecord
  2
STANDARD
 70
0
  3

  4

 40
1.0
 41
0.1875
 42
0.0625
 43
0.38
 44
0.125
 45
0.0
 46
0.0
 47
0.0001
 48
0.0001
140
0.15625
141
0.09
142
0.0
143
25.4
144
1.0
145
0.0
146
1.0
147
0.09
 71
0.0
 72
0.0
 73
1
 74
1
 75
0
 76
0
 77
0
 78
4
170
0
171
2
172
0
173
0
174
0
175
0
176
0
177
0
178
0
270
2
271
4
272
4
273
2
274
2
275
0
280
0
281
0
282
0
283
1
284
4
285
0
286
0
287
3
288
0
340
11
278
46
  0
ENDTAB
  0
ENDSEC
  0
SECTION
  2
BLOCKS
  0
BLOCK
  5
20
100
AcDbEntity
  8
0
100
AcDbBlockBegin
  2
*Model_Space
 70
0
 10
0.0
 20
0.0
 30
0.0
  3
*Model_Space
  1

  0
ENDBLK
  5
21
100
AcDbEntity
  8
0
100
AcDbBlockEnd
  0
BLOCK
  5
1C
100
AcDbEntity
  8
0
100
AcDbBlockBegin
  2
*Paper_Space
 70
0
 10
0.0
 20
0.0
 30
0.0
  3
*Paper_Space
  1

  0
ENDBLK
  5
1D
100
AcDbEntity
  8
0
100
AcDbBlockEnd
  0
ENDSEC
  0
SECTION
  2
ENTITIES
  0
MTEXT
  5
219
100
AcDbEntity
  8
0
100
AcDbMText
 62
7
  6
CONTINUOUS
  7
STANDARD
 71
1
 72
1
 10
15.9560215477
 20
0.9479130325
 30
0.0
 11
1.0
 21
0.0
 31
0.0
 44
0.9
  1
SCALE: 1:1.000
 40
0.3
 41
3.36
  0
LINE
  5
21A
100
AcDbEntity
  8
0
100
AcDbLine
 62
7
  6
CONTINUOUS
 10
0.0
 20
0.0
 11
0.0
 21
17.0
  0
LINE
  5
21B
100
AcDbEntity
  8
0
100
AcDbLine
 62
7
  6
CONTINUOUS
 10
0.0
 20
0.0
 11
22.0
 21
0.0
  0
LINE
  5
21C
100
AcDbEntity
  8
0
100
AcDbLine
 62
7
  6
CONTINUOUS
 10
0.0
 20
17.0
 11
22.0
 21
17.0
  0
LINE
  5
21D
100
AcDbEntity
  8
0
100
AcDbLine
 62
7
  6
CONTINUOUS
 10
22.0
 20
0.0
 11
22.0
 21
17.0
  0
LINE
  5
21E
100
AcDbEntity
  8
0
100
AcDbLine
 62
7
  6
CONTINUOUS
 10
5.8744617644
 20
5.6648578676
 11
5.8744617644
 21
5.6540015446
  0
LINE
  5
21F
100
AcDbEntity
  8
0
100
AcDbLine
 62
7
  6
CONTINUOUS
 10
5.9714221661
 20
5.3629002872
 11
6.2893123863
 21
5.3629002872
  0
LINE
  5
220
100
AcDbEntity
  8
0
100
AcDbLine
 62
7
  6
CONTINUOUS
 10
5.9395230439
 20
5.4678871638
 11
6.3212115084
 21
5.4678871638
  0
LINE
  5
221
100
AcDbEntity
  8
0
100
AcDbLine
 62
7
  6
CONTINUOUS
 10
6.386272788
 20
5.6540015446
 11
6.386272788
 21
5.6648578676
  0
LINE
  5
222
100
AcDbEntity
  8
0
100
AcDbLine
 62
7
  6
CONTINUOUS
 10
6.3267775957
 20
10.6315438444
 11
5.814966572
 21
10.6315438444
  0
LINE
  5
223
100
AcDbEntity
  8
0
100
AcDbLine
 62
7
  6
CONTINUOUS
 10
5.814966572
 20
10.6315438444
 11
5.814966572
 21
14.5685517184
  0
LINE
  5
224
100
AcDbEntity
  8
0
100
AcDbLine
 62
7
  6
CONTINUOUS
 10
6.3267775957
 20
10.6315438444
 11
6.3267775957
 21
14.5685517184
  0
LINE
  5
225
100
AcDbEntity
  8
0
100
AcDbLine
 62
7
  6
CONTINUOUS
 10
5.814966572
 20
14.5685517184
 11
6.3267775957
 21
14.5685517184
  0
LINE
  5
226
100
AcDbEntity
  8
0
100
AcDbLine
 62
7
  6
CONTINUOUS
 10
13.5918513199
 20
5.4083919715
 11
13.5918513199
 21
5.6183656505
  0
LINE
  5
227
100
AcDbEntity
  8
0
100
AcDbLine
 62
7
  6
CONTINUOUS
 10
13.6655103996
 20
5.3921179779
 11
13.682234235
 21
5.3196790885
  0
LINE
  5
228
100
AcDbEntity
  8
0
100
AcDbLine
 62
7
  6
CONTINUOUS
 10
13.8295523944
 20
5.3196790885
 11
13.8462762297
 21
5.3921179779
  0
LINE
  5
229
100
AcDbEntity
  8
0
100
AcDbLine
 62
7
  6
CONTINUOUS
 10
13.9935943891
 20
5.3921179779
 11
14.0103182245
 21
5.3196790885
  0
LINE
  5
22A
100
AcDbEntity
  8
0
100
AcDbLine
 62
7
  6
CONTINUOUS
 10
14.1576363839
 20
5.3196790885
 11
14.1743602192
 21
5.3921179779
  0
LINE
  5
22B
100
AcDbEntity
  8
0
100
AcDbLine
 62
7
  6
CONTINUOUS
 10
14.3216783786
 20
5.3921179779
 11
14.338402214
 21
5.3196790885
  0
LINE
  5
22C
100
AcDbEntity
  8
0
100
AcDbLine
 62
7
  6
CONTINUOUS
 10
14.4857203734
 20
5.3196790885
 11
14.5024442087
 21
5.3921179779
  0
LINE
  5
22D
100
AcDbEntity
  8
0
100
AcDbLine
 62
7
  6
CONTINUOUS
 10
14.6497623681
 20
5.3921179779
 11
14.6664862035
 21
5.3196790885
  0
LINE
  5
22E
100
AcDbEntity
  8
0
100
AcDbLine
 62
7
  6
CONTINUOUS
 10
14.8138043629
 20
5.3196790885
 11
14.8305281982
 21
5.3921179779
  0
LINE
  5
22F
100
AcDbEntity
  8
0
100
AcDbLine
 62
7
  6
CONTINUOUS
 10
14.9778463576
 20
5.3921179779
 11
14.994570193
 21
5.3196790885
  0
LINE
  5
230
100
AcDbEntity
  8
0
100
AcDbLine
 62
7
  6
CONTINUOUS
 10
15.1418883524
 20
5.3196790885
 11
15.1586121877
 21
5.3921179779
  0
LINE
  5
231
100
AcDbEntity
  8
0
100
AcDbLine
 62
7
  6
CONTINUOUS
 10
15.3059303471
 20
5.3921179779
 11
15.3226541825
 21
5.3196790885
  0
LINE
  5
232
100
AcDbEntity
  8
0
100
AcDbLine
 62
7
  6
CONTINUOUS
 10
13.7026934489
 20
5.3034050949
 11
13.8090931804
 21
5.3034050949
  0
LINE
  5
233
100
AcDbEntity
  8
0
100
AcDbLine
 62
7
  6
CONTINUOUS
 10
14.0307774384
 20
5.3034050949
 11
14.1371771699
 21
5.3034050949
  0
LINE
  5
234
100
AcDbEntity
  8
0
100
AcDbLine
 62
7
  6
CONTINUOUS
 10
14.3588614279
 20
5.3034050949
 11
14.4652611594
 21
5.3034050949
  0
LINE
  5
235
100
AcDbEntity
  8
0
100
AcDbLine
 62
7
  6
CONTINUOUS
 10
14.6869454174
 20
5.3034050949
 11
14.7933451489
 21
5.3034050949
  0
LINE
  5
236
100
AcDbEntity
  8
0
100
AcDbLine
 62
7
  6
CONTINUOUS
 10
15.015029407
 20
5.3034050949
 11
15.1214291384
 21
5.3034050949
  0
LINE
  5
237
100
AcDbEntity
  8
0
100
AcDbLine
 62
7
  6
CONTINUOUS
 10
15.3431133965
 20
5.3034050949
 11
15.4495131279
 21
5.3034050949
  0
LINE
  5
238
100
AcDbEntity
  8
0
100
AcDbLine
 62
7
  6
CONTINUOUS
 10
15.671197386
 20
5.3034050949
 11
15.7775971174
 21
5.3034050949
  0
LINE
  5
239
100
AcDbEntity
  8
0
100
AcDbLine
 62
7
  6
CONTINUOUS
 10
15.9992813755
 20
5.3034050949
 11
16.1056811069
 21
5.3034050949
  0
LINE
  5
23A
100
AcDbEntity
  8
0
100
AcDbLine
 62
7
  6
CONTINUOUS
 10
16.327365365
 20
5.3034050949
 11
16.4337650964
 21
5.3034050949
  0
LINE
  5
23B
100
AcDbEntity
  8
0
100
AcDbLine
 62
7
  6
CONTINUOUS
 10
16.6554493545
 20
5.3034050949
 11
16.7618490859
 21
5.3034050949
  0
LINE
  5
23C
100
AcDbEntity
  8
0
100
AcDbLine
 62
7
  6
CONTINUOUS
 10
16.983533344
 20
5.3034050949
 11
17.0899330754
 21
5.3034050949
  0
LINE
  5
23D
100
AcDbEntity
  8
0
100
AcDbLine
 62
7
  6
CONTINUOUS
 10
17.3116173335
 20
5.3034050949
 11
17.4180170649
 21
5.3034050949
  0
LINE
  5
23E
100
AcDbEntity
  8
0
100
AcDbLine
 62
7
  6
CONTINUOUS
 10
15.4699723419
 20
5.3196790885
 11
15.4866961772
 21
5.3921179779
  0
LINE
  5
23F
100
AcDbEntity
  8
0
100
AcDbLine
 62
7
  6
CONTINUOUS
 10
13.5918513199
 20
5.4083919715
 11
13.6450511857
 21
5.4083919715
  0
LINE
  5
240
100
AcDbEntity
  8
0
100
AcDbLine
 62
7
  6
CONTINUOUS
 10
13.8667354437
 20
5.4083919715
 11
13.9731351752
 21
5.4083919715
  0
LINE
  5
241
100
AcDbEntity
  8
0
100
AcDbLine
 62
7
  6
CONTINUOUS
 10
14.1948194332
 20
5.4083919715
 11
14.3012191647
 21
5.4083919715
  0
LINE
  5
242
100
AcDbEntity
  8
0
100
AcDbLine
 62
7
  6
CONTINUOUS
 10
14.5229034227
 20
5.4083919715
 11
14.6293031542
 21
5.4083919715
  0
LINE
  5
243
100
AcDbEntity
  8
0
100
AcDbLine
 62
7
  6
CONTINUOUS
 10
14.8509874122
 20
5.4083919715
 11
14.9573871437
 21
5.4083919715
  0
LINE
  5
244
100
AcDbEntity
  8
0
100
AcDbLine
 62
7
  6
CONTINUOUS
 10
15.1790714017
 20
5.4083919715
 11
15.2854711332
 21
5.4083919715
  0
LINE
  5
245
100
AcDbEntity
  8
0
100
AcDbLine
 62
7
  6
CONTINUOUS
 10
15.5071553912
 20
5.4083919715
 11
15.6135551227
 21
5.4083919715
  0
LINE
  5
246
100
AcDbEntity
  8
0
100
AcDbLine
 62
7
  6
CONTINUOUS
 10
15.8352393807
 20
5.4083919715
 11
15.9416391122
 21
5.4083919715
  0
LINE
  5
247
100
AcDbEntity
  8
0
100
AcDbLine
 62
7
  6
CONTINUOUS
 10
16.1633233702
 20
5.4083919715
 11
16.2697231017
 21
5.4083919715
  0
LINE
  5
248
100
AcDbEntity
  8
0
100
AcDbLine
 62
7
  6
CONTINUOUS
 10
16.4914073597
 20
5.4083919715
 11
16.5978070912
 21
5.4083919715
  0
LINE
  5
249
100
AcDbEntity
  8
0
100
AcDbLine
 62
7
  6
CONTINUOUS
 10
16.8194913492
 20
5.4083919715
 11
16.9258910807
 21
5.4083919715
  0
LINE
  5
24A
100
AcDbEntity
  8
0
100
AcDbLine
 62
7
  6
CONTINUOUS
 10
17.1475753387
 20
5.4083919715
 11
17.2539750702
 21
5.4083919715
  0
LINE
  5
24B
100
AcDbEntity
  8
0
100
AcDbLine
 62
7
  6
CONTINUOUS
 10
17.4756593282
 20
5.4083919715
 11
17.5288591939
 21
5.4083919715
  0
LINE
  5
24C
100
AcDbEntity
  8
0
100
AcDbLine
 62
7
  6
CONTINUOUS
 10
15.6340143366
 20
5.3921179779
 11
15.650738172
 21
5.3196790885
  0
LINE
  5
24D
100
AcDbEntity
  8
0
100
AcDbLine
 62
7
  6
CONTINUOUS
 10
15.7980563314
 20
5.3196790885
 11
15.8147801667
 21
5.3921179779
  0
LINE
  5
24E
100
AcDbEntity
  8
0
100
AcDbLine
 62
7
  6
CONTINUOUS
 10
17.5288591939
 20
5.6183657248
 11
13.5918513199
 21
5.6183657248
  0
LINE
  5
24F
100
AcDbEntity
  8
0
100
AcDbLine
 62
7
  6
CONTINUOUS
 10
15.9620983261
 20
5.3921179779
 11
15.9788221615
 21
5.3196790885
  0
LINE
  5
250
100
AcDbEntity
  8
0
100
AcDbLine
 62
7
  6
CONTINUOUS
 10
16.1261403209
 20
5.3196790885
 11
16.1428641562
 21
5.3921179779
  0
LINE
  5
251
100
AcDbEntity
  8
0
100
AcDbLine
 62
7
  6
CONTINUOUS
 10
16.2901823156
 20
5.3921179779
 11
16.306906151
 21
5.3196790885
  0
LINE
  5
252
100
AcDbEntity
  8
0
100
AcDbLine
 62
7
  6
CONTINUOUS
 10
16.4542243104
 20
5.3196790885
 11
16.4709481457
 21
5.3921179779
  0
LINE
  5
253
100
AcDbEntity
  8
0
100
AcDbLine
 62
7
  6
CONTINUOUS
 10
16.6182663051
 20
5.3921179779
 11
16.6349901405
 21
5.3196790885
  0
LINE
  5
254
100
AcDbEntity
  8
0
100
AcDbLine
 62
7
  6
CONTINUOUS
 10
16.7823082999
 20
5.3196790885
 11
16.7990321352
 21
5.3921179779
  0
LINE
  5
255
100
AcDbEntity
  8
0
100
AcDbLine
 62
7
  6
CONTINUOUS
 10
16.9463502946
 20
5.3921179779
 11
16.96307413
 21
5.3196790885
  0
LINE
  5
256
100
AcDbEntity
  8
0
100
AcDbLine
 62
7
  6
CONTINUOUS
 10
17.1103922894
 20
5.3196790885
 11
17.1271161248
 21
5.3921179779
  0
LINE
  5
257
100
AcDbEntity
  8
0
100
AcDbLine
 62
7
  6
CONTINUOUS
 10
17.2744342841
 20
5.3921179779
 11
17.2911581195
 21
5.3196790885
  0
LINE
  5
258
100
AcDbEntity
  8
0
100
AcDbLine
 62
7
  6
CONTINUOUS
 10
17.5288591939
 20
5.4083919715
 11
17.5288591939
 21
5.6183656505
  0
LINE
  5
259
100
AcDbEntity
  8
0
100
AcDbLine
 62
7
  6
CONTINUOUS
 10
17.4384762789
 20
5.3196790885
 11
17.4552001143
 21
5.3921179779
  0
LWPOLYLINE
  5
25A
100
AcDbEntity
  8
0
100
AcDbPolyline
 62
7
  6
CONTINUOUS
 90
3
 70
0
 10
15.2511717586
 20
10.9173436566
 10
15.2528478639
 20
10.9174814889
 10
15.2569183744
 20
10.9190963364
  0
LINE
  5
25B
100
AcDbEntity
  8
0
100
AcDbLine
 62
7
  6
CONTINUOUS
 10
14.8754141737
 20
10.9037240545
 11
15.2269725302
 21
10.9037240545
  0
LINE
  5
25C
100
AcDbEntity
  8
0
100
AcDbLine
 62
7
  6
CONTINUOUS
 10
15.2365899988
 20
10.9173435903
 11
15.2511760668
 21
10.9173435903
  0
LWPOLYLINE
  5
25D
100
AcDbEntity
  8
0
100
AcDbPolyline
 62
7
  6
CONTINUOUS
 90
3
 70
0
 10
15.3305898437
 20
11.1743406742
 10
15.332265949
 20
11.1744785065
 10
15.3363364595
 20
11.176093354
  0
LINE
  5
25E
100
AcDbEntity
  8
0
100
AcDbLine
 62
7
  6
CONTINUOUS
 10
15.3160080839
 20
11.1743406079
 11
15.3305941519
 21
11.1743406079
  0
LINE
  5
25F
100
AcDbEntity
  8
0
100
AcDbLine
 62
7
  6
CONTINUOUS
 10
14.7554044557
 20
11.0261630074
 11
14.7587160888
 21
11.0194146088
  0
LWPOLYLINE
  5
260
100
AcDbEntity
  8
0
100
AcDbPolyline
 62
7
  6
CONTINUOUS
 90
3
 70
0
 10
15.4100079288
 20
11.4313376918
 10
15.4116840341
 20
11.431475524
 10
15.4157545446
 20
11.4330903716
  0
LINE
  5
261
100
AcDbEntity
  8
0
100
AcDbLine
 62
7
  6
CONTINUOUS
 10
15.395426169
 20
11.4313376255
 11
15.410012237
 21
11.4313376255
  0
LWPOLYLINE
  5
262
100
AcDbEntity
  8
0
100
AcDbPolyline
 62
7
  6
CONTINUOUS
 90
3
 70
0
 10
15.4894260139
 20
11.6883347094
 10
15.4911021192
 20
11.6884725416
 10
15.4951726297
 20
11.6900873892
  0
LINE
  5
263
100
AcDbEntity
  8
0
100
AcDbLine
 62
7
  6
CONTINUOUS
 10
15.4748442541
 20
11.6883346431
 11
15.4894303221
 21
11.6883346431
  0
LINE
  5
264
100
AcDbEntity
  8
0
100
AcDbLine
 62
7
  6
CONTINUOUS
 10
15.2301252589
 20
11.0194146088
 11
15.2268136259
 21
11.0261630074
  0
LWPOLYLINE
  5
265
100
AcDbEntity
  8
0
100
AcDbPolyline
 62
7
  6
CONTINUOUS
 90
3
 70
0
 10
15.568844099
 20
11.945331727
 10
15.5705202043
 20
11.9454695592
 10
15.5745907148
 20
11.9470844068
  0
LINE
  5
266
100
AcDbEntity
  8
0
100
AcDbLine
 62
7
  6
CONTINUOUS
 10
15.5542623392
 20
11.9453316607
 11
15.5688484073
 21
11.9453316607
  0
LINE
  5
267
100
AcDbEntity
  8
0
100
AcDbLine
 62
7
  6
CONTINUOUS
 10
16.1305173105
 20
13.74606353
 11
16.1334381244
 21
13.7489034285
  0
LINE
  5
268
100
AcDbEntity
  8
0
100
AcDbLine
 62
7
  6
CONTINUOUS
 10
14.7551186873
 20
11.0286185589
 11
15.7081357086
 21
14.11258277
  0
LINE
  5
269
100
AcDbEntity
  8
0
100
AcDbLine
 62
7
  6
CONTINUOUS
 10
16.0510992254
 20
13.4890665124
 11
16.0540200393
 21
13.4919064109
  0
LWPOLYLINE
  5
26A
100
AcDbEntity
  8
0
100
AcDbPolyline
 62
7
  6
CONTINUOUS
 90
3
 70
0
 10
15.6482621841
 20
12.2023287446
 10
15.6499382894
 20
12.2024665768
 10
15.6540087999
 20
12.2040814244
  0
LINE
  5
26B
100
AcDbEntity
  8
0
100
AcDbLine
 62
7
  6
CONTINUOUS
 10
15.6336804243
 20
12.2023286782
 11
15.6482664924
 21
12.2023286782
  0
LWPOLYLINE
  5
26C
100
AcDbEntity
  8
0
100
AcDbPolyline
 62
7
  6
CONTINUOUS
 90
3
 70
0
 10
15.2913593428
 20
11.0283866663
 10
15.2918688573
 20
11.0459933642
 10
15.2926747119
 20
11.0683738059
  0
LINE
  5
26D
100
AcDbEntity
  8
0
100
AcDbLine
 62
7
  6
CONTINUOUS
 10
15.2926747119
 20
11.0683738059
 11
15.2934491868
 21
11.0863139599
  0
LINE
  5
26E
100
AcDbEntity
  8
0
100
AcDbLine
 62
7
  6
CONTINUOUS
 10
15.2912721185
 20
11.0265318912
 11
15.2913600999
 21
11.0284217175
  0
LINE
  5
26F
100
AcDbEntity
  8
0
100
AcDbLine
 62
7
  6
CONTINUOUS
 10
15.9716811403
 20
13.2320694948
 11
15.9746019542
 21
13.2349093933
  0
LWPOLYLINE
  5
270
100
AcDbEntity
  8
0
100
AcDbPolyline
 62
7
  6
CONTINUOUS
 90
3
 70
0
 10
15.3707774279
 20
11.2853836839
 10
15.3712869424
 20
11.3029903818
 10
15.372092797
 20
11.3253708235
  0
LWPOLYLINE
  5
271
100
AcDbEntity
  8
0
100
AcDbPolyline
 62
7
  6
CONTINUOUS
 90
3
 70
0
 10
15.450195513
 20
11.5423807015
 10
15.4507050275
 20
11.5599873994
 10
15.4515108821
 20
11.5823678411
  0
LINE
  5
272
100
AcDbEntity
  8
0
100
AcDbLine
 62
7
  6
CONTINUOUS
 10
15.372092797
 20
11.3253708235
 11
15.3728672719
 21
11.3433109775
  0
LINE
  5
273
100
AcDbEntity
  8
0
100
AcDbLine
 62
7
  6
CONTINUOUS
 10
15.3706902036
 20
11.2835289088
 11
15.370778185
 21
11.2854187351
  0
LINE
  5
274
100
AcDbEntity
  8
0
100
AcDbLine
 62
7
  6
CONTINUOUS
 10
15.2934497041
 20
11.0863211529
 11
15.2935139762
 21
11.0875123905
  0
LINE
  5
275
100
AcDbEntity
  8
0
100
AcDbLine
 62
7
  6
CONTINUOUS
 10
15.3728677892
 20
11.3433181705
 11
15.3729320613
 21
11.3445094081
  0
LWPOLYLINE
  5
276
100
AcDbEntity
  8
0
100
AcDbPolyline
 62
7
  6
CONTINUOUS
 90
5
 70
0
 10
15.2935139762
 20
11.0875123905
 10
15.294258315
 20
11.0952329696
 10
15.2956358126
 20
11.1041754187
 10
15.2974881309
 20
11.1131741353
 10
15.2995327666
 20
11.1209969309
  0
LWPOLYLINE
  5
277
100
AcDbEntity
  8
0
100
AcDbPolyline
 62
7
  6
CONTINUOUS
 90
5
 70
0
 10
15.3729320613
 20
11.3445094081
 10
15.3736764001
 20
11.3522299872
 10
15.3750538977
 20
11.3611724363
 10
15.376906216
 20
11.3701711529
 10
15.3789508517
 20
11.3779939485
  0
LINE
  5
278
100
AcDbEntity
  8
0
100
AcDbLine
 62
7
  6
CONTINUOUS
 10
15.2904906315
 20
11.0200155785
 11
15.2912721185
 21
11.0265318912
  0
LINE
  5
279
100
AcDbEntity
  8
0
100
AcDbLine
 62
7
  6
CONTINUOUS
 10
15.2333737529
 20
10.9069363295
 11
15.2335191484
 21
10.9079941521
  0
LINE
  5
27A
100
AcDbEntity
  8
0
100
AcDbLine
 62
7
  6
CONTINUOUS
 10
16.1334381244
 20
13.7489034285
 11
16.1351737337
 21
13.7519920715
  0
LINE
  5
27B
100
AcDbEntity
  8
0
100
AcDbLine
 62
7
  6
CONTINUOUS
 10
16.122628728
 20
13.7828440068
 11
16.1227795177
 21
13.7831002191
  0
LINE
  5
27C
100
AcDbEntity
  8
0
100
AcDbLine
 62
7
  6
CONTINUOUS
 10
16.0432106428
 20
13.5258469892
 11
16.0433614326
 21
13.5261032015
  0
LINE
  5
27D
100
AcDbEntity
  8
0
100
AcDbLine
 62
7
  6
CONTINUOUS
 10
15.8922630552
 20
12.9750724772
 11
15.8951838691
 21
12.9779123757
  0
LWPOLYLINE
  5
27E
100
AcDbEntity
  8
0
100
AcDbPolyline
 62
7
  6
CONTINUOUS
 90
3
 70
0
 10
15.7276802692
 20
12.4593257622
 10
15.7293563745
 20
12.4594635944
 10
15.733426885
 20
12.461078442
  0
LINE
  5
27F
100
AcDbEntity
  8
0
100
AcDbLine
 62
7
  6
CONTINUOUS
 10
15.7130985094
 20
12.4593256958
 11
15.7276845775
 21
12.4593256958
  0
LWPOLYLINE
  5
280
100
AcDbEntity
  8
0
100
AcDbPolyline
 62
7
  6
CONTINUOUS
 90
3
 70
0
 10
15.5296135981
 20
11.7993777191
 10
15.5301231126
 20
11.816984417
 10
15.5309289672
 20
11.8393648586
  0
LINE
  5
281
100
AcDbEntity
  8
0
100
AcDbLine
 62
7
  6
CONTINUOUS
 10
15.4515108821
 20
11.5823678411
 11
15.452285357
 21
11.6003079951
  0
LINE
  5
282
100
AcDbEntity
  8
0
100
AcDbLine
 62
7
  6
CONTINUOUS
 10
15.5309289672
 20
11.8393648586
 11
15.5317034421
 21
11.8573050127
  0
LINE
  5
283
100
AcDbEntity
  8
0
100
AcDbLine
 62
7
  6
CONTINUOUS
 10
15.4501082887
 20
11.5405259264
 11
15.4501962702
 21
11.5424157527
  0
LINE
  5
284
100
AcDbEntity
  8
0
100
AcDbLine
 62
7
  6
CONTINUOUS
 10
15.5295263738
 20
11.797522944
 11
15.5296143553
 21
11.7994127703
  0
LINE
  5
285
100
AcDbEntity
  8
0
100
AcDbLine
 62
7
  6
CONTINUOUS
 10
15.4522858743
 20
11.6003151881
 11
15.4523501464
 21
11.6015064257
  0
LINE
  5
286
100
AcDbEntity
  8
0
100
AcDbLine
 62
7
  6
CONTINUOUS
 10
15.5317039595
 20
11.8573122057
 11
15.5317682315
 21
11.8585034433
  0
LWPOLYLINE
  5
287
100
AcDbEntity
  8
0
100
AcDbPolyline
 62
7
  6
CONTINUOUS
 90
5
 70
0
 10
15.4523501464
 20
11.6015064257
 10
15.4530944852
 20
11.6092270048
 10
15.4544719828
 20
11.6181694539
 10
15.4563243011
 20
11.6271681705
 10
15.4583689368
 20
11.6349909661
  0
LWPOLYLINE
  5
288
100
AcDbEntity
  8
0
100
AcDbPolyline
 62
7
  6
CONTINUOUS
 90
5
 70
0
 10
15.5317682315
 20
11.8585034433
 10
15.5325125703
 20
11.8662240224
 10
15.5338900679
 20
11.8751664714
 10
15.5357423862
 20
11.8841651881
 10
15.537787022
 20
11.8919879837
  0
LINE
  5
289
100
AcDbEntity
  8
0
100
AcDbLine
 62
7
  6
CONTINUOUS
 10
15.3699087167
 20
11.2770125961
 11
15.3706902036
 21
11.2835289088
  0
LINE
  5
28A
100
AcDbEntity
  8
0
100
AcDbLine
 62
7
  6
CONTINUOUS
 10
15.4493268018
 20
11.5340096137
 11
15.4501082887
 21
11.5405259264
  0
LINE
  5
28B
100
AcDbEntity
  8
0
100
AcDbLine
 62
7
  6
CONTINUOUS
 10
16.0540200393
 20
13.4919064109
 11
16.0557556486
 21
13.4949950539
  0
LINE
  5
28C
100
AcDbEntity
  8
0
100
AcDbLine
 62
7
  6
CONTINUOUS
 10
15.9746019542
 20
13.2349093933
 11
15.9763375635
 21
13.2379980363
  0
LINE
  5
28D
100
AcDbEntity
  8
0
100
AcDbLine
 62
7
  6
CONTINUOUS
 10
15.9637925577
 20
13.2688499716
 11
15.9639433475
 21
13.2691061839
  0
LINE
  5
28E
100
AcDbEntity
  8
0
100
AcDbLine
 62
7
  6
CONTINUOUS
 10
15.8843744726
 20
13.011852954
 11
15.8845252624
 21
13.0121091663
  0
LINE
  5
28F
100
AcDbEntity
  8
0
100
AcDbLine
 62
7
  6
CONTINUOUS
 10
15.8128449701
 20
12.7180754596
 11
15.815765784
 21
12.7209153581
  0
LWPOLYLINE
  5
290
100
AcDbEntity
  8
0
100
AcDbPolyline
 62
7
  6
CONTINUOUS
 90
3
 70
0
 10
15.6090316832
 20
12.0563747367
 10
15.6095411977
 20
12.0739814346
 10
15.6103470523
 20
12.0963618762
  0
LWPOLYLINE
  5
291
100
AcDbEntity
  8
0
100
AcDbPolyline
 62
7
  6
CONTINUOUS
 90
3
 70
0
 10
15.6884497683
 20
12.3133717543
 10
15.6889592828
 20
12.3309784522
 10
15.6897651374
 20
12.3533588938
  0
LINE
  5
292
100
AcDbEntity
  8
0
100
AcDbLine
 62
7
  6
CONTINUOUS
 10
15.6103470523
 20
12.0963618762
 11
15.6111215272
 21
12.1143020303
  0
LINE
  5
293
100
AcDbEntity
  8
0
100
AcDbLine
 62
7
  6
CONTINUOUS
 10
15.6897651374
 20
12.3533588938
 11
15.6905396123
 21
12.3712990479
  0
LINE
  5
294
100
AcDbEntity
  8
0
100
AcDbLine
 62
7
  6
CONTINUOUS
 10
15.6089444589
 20
12.0545199616
 11
15.6090324404
 21
12.0564097879
  0
LINE
  5
295
100
AcDbEntity
  8
0
100
AcDbLine
 62
7
  6
CONTINUOUS
 10
15.688362544
 20
12.3115169792
 11
15.6884505255
 21
12.3134068055
  0
LINE
  5
296
100
AcDbEntity
  8
0
100
AcDbLine
 62
7
  6
CONTINUOUS
 10
15.6111220446
 20
12.1143092233
 11
15.6111863166
 21
12.1155004609
  0
LINE
  5
297
100
AcDbEntity
  8
0
100
AcDbLine
 62
7
  6
CONTINUOUS
 10
15.6905401297
 20
12.3713062409
 11
15.6906044017
 21
12.3724974784
  0
LWPOLYLINE
  5
298
100
AcDbEntity
  8
0
100
AcDbPolyline
 62
7
  6
CONTINUOUS
 90
5
 70
0
 10
15.6111863166
 20
12.1155004609
 10
15.6119306554
 20
12.12322104
 10
15.613308153
 20
12.132163489
 10
15.6151604713
 20
12.1411622057
 10
15.6172051071
 20
12.1489850013
  0
LWPOLYLINE
  5
299
100
AcDbEntity
  8
0
100
AcDbPolyline
 62
7
  6
CONTINUOUS
 90
5
 70
0
 10
15.6906044017
 20
12.3724974784
 10
15.6913487406
 20
12.3802180576
 10
15.6927262381
 20
12.3891605066
 10
15.6945785564
 20
12.3981592233
 10
15.6966231922
 20
12.4059820189
  0
LINE
  5
29A
100
AcDbEntity
  8
0
100
AcDbLine
 62
7
  6
CONTINUOUS
 10
15.5287448869
 20
11.7910066312
 11
15.5295263738
 21
11.797522944
  0
LINE
  5
29B
100
AcDbEntity
  8
0
100
AcDbLine
 62
7
  6
CONTINUOUS
 10
15.608162972
 20
12.0480036488
 11
15.6089444589
 21
12.0545199616
  0
LINE
  5
29C
100
AcDbEntity
  8
0
100
AcDbLine
 62
7
  6
CONTINUOUS
 10
15.6875810571
 20
12.3050006664
 11
15.688362544
 21
12.3115169792
  0
LINE
  5
29D
100
AcDbEntity
  8
0
100
AcDbLine
 62
7
  6
CONTINUOUS
 10
15.2890678527
 20
11.0134427096
 11
15.2904906315
 21
11.0200155785
  0
LINE
  5
29E
100
AcDbEntity
  8
0
100
AcDbLine
 62
7
  6
CONTINUOUS
 10
15.3684859379
 20
11.2704397272
 11
15.3699087167
 21
11.2770125961
  0
LINE
  5
29F
100
AcDbEntity
  8
0
100
AcDbLine
 62
7
  6
CONTINUOUS
 10
15.447904023
 20
11.5274367448
 11
15.4493268018
 21
11.5340096137
  0
LINE
  5
2A0
100
AcDbEntity
  8
0
100
AcDbLine
 62
7
  6
CONTINUOUS
 10
15.5273221081
 20
11.7844337624
 11
15.5287448869
 21
11.7910066312
  0
LINE
  5
2A1
100
AcDbEntity
  8
0
100
AcDbLine
 62
7
  6
CONTINUOUS
 10
15.6067401932
 20
12.04143078
 11
15.608162972
 21
12.0480036488
  0
LINE
  5
2A2
100
AcDbEntity
  8
0
100
AcDbLine
 62
7
  6
CONTINUOUS
 10
15.2885975585
 20
11.0118224289
 11
15.2890678527
 21
11.0134427096
  0
LINE
  5
2A3
100
AcDbEntity
  8
0
100
AcDbLine
 62
7
  6
CONTINUOUS
 10
15.3680156436
 20
11.2688194465
 11
15.3684859379
 21
11.2704397272
  0
LINE
  5
2A4
100
AcDbEntity
  8
0
100
AcDbLine
 62
7
  6
CONTINUOUS
 10
15.2995327666
 20
11.1209969309
 11
15.2999123485
 21
11.1222557558
  0
LINE
  5
2A5
100
AcDbEntity
  8
0
100
AcDbLine
 62
7
  6
CONTINUOUS
 10
15.3789508517
 20
11.3779939485
 11
15.3793304336
 21
11.3792527734
  0
LINE
  5
2A6
100
AcDbEntity
  8
0
100
AcDbLine
 62
7
  6
CONTINUOUS
 10
15.4583689368
 20
11.6349909661
 11
15.4587485187
 21
11.636249791
  0
LINE
  5
2A7
100
AcDbEntity
  8
0
100
AcDbLine
 62
7
  6
CONTINUOUS
 10
15.537787022
 20
11.8919879837
 11
15.5381666038
 21
11.8932468086
  0
LINE
  5
2A8
100
AcDbEntity
  8
0
100
AcDbLine
 62
7
  6
CONTINUOUS
 10
15.6172051071
 20
12.1489850013
 11
15.6175846889
 21
12.1502438262
  0
LINE
  5
2A9
100
AcDbEntity
  8
0
100
AcDbLine
 62
7
  6
CONTINUOUS
 10
15.6966231922
 20
12.4059820189
 11
15.697002774
 21
12.4072408438
  0
LINE
  5
2AA
100
AcDbEntity
  8
0
100
AcDbLine
 62
7
  6
CONTINUOUS
 10
15.7760412773
 20
12.6629790365
 11
15.7764208591
 21
12.6642378613
  0
LINE
  5
2AB
100
AcDbEntity
  8
0
100
AcDbLine
 62
7
  6
CONTINUOUS
 10
15.8554593624
 20
12.9199760541
 11
15.8558389442
 21
12.9212348789
  0
LINE
  5
2AC
100
AcDbEntity
  8
0
100
AcDbLine
 62
7
  6
CONTINUOUS
 10
15.2333738981
 20
10.9069362848
 11
15.2462517926
 21
10.9486091665
  0
LINE
  5
2AD
100
AcDbEntity
  8
0
100
AcDbLine
 62
7
  6
CONTINUOUS
 10
15.2999140873
 20
11.1222604159
 11
15.3256698777
 21
11.2056061841
  0
LINE
  5
2AE
100
AcDbEntity
  8
0
100
AcDbLine
 62
7
  6
CONTINUOUS
 10
15.3793321724
 20
11.3792574335
 11
15.4050879628
 21
11.4626032017
  0
LINE
  5
2AF
100
AcDbEntity
  8
0
100
AcDbLine
 62
7
  6
CONTINUOUS
 10
15.4587502575
 20
11.6362544511
 11
15.4845060479
 21
11.7196002193
  0
LINE
  5
2B0
100
AcDbEntity
  8
0
100
AcDbLine
 62
7
  6
CONTINUOUS
 10
15.5381683426
 20
11.8932514687
 11
15.563924133
 21
11.9765972369
  0
LINE
  5
2B1
100
AcDbEntity
  8
0
100
AcDbLine
 62
7
  6
CONTINUOUS
 10
15.6175864277
 20
12.1502484863
 11
15.6433422181
 21
12.2335942545
  0
LINE
  5
2B2
100
AcDbEntity
  8
0
100
AcDbLine
 62
7
  6
CONTINUOUS
 10
15.6970045128
 20
12.4072455039
 11
15.7227603032
 21
12.4905912721
  0
LINE
  5
2B3
100
AcDbEntity
  8
0
100
AcDbLine
 62
7
  6
CONTINUOUS
 10
15.776422598
 20
12.6642425215
 11
15.8021783883
 21
12.7475882897
  0
LINE
  5
2B4
100
AcDbEntity
  8
0
100
AcDbLine
 62
7
  6
CONTINUOUS
 10
15.8558406831
 20
12.9212395391
 11
15.8815964734
 21
13.0045853073
  0
LINE
  5
2B5
100
AcDbEntity
  8
0
100
AcDbLine
 62
7
  6
CONTINUOUS
 10
15.9352587682
 20
13.1782365567
 11
15.9610145585
 21
13.2615823249
  0
LINE
  5
2B6
100
AcDbEntity
  8
0
100
AcDbLine
 62
7
  6
CONTINUOUS
 10
16.0146768533
 20
13.4352335743
 11
16.0404326436
 21
13.5185793425
  0
LINE
  5
2B7
100
AcDbEntity
  8
0
100
AcDbLine
 62
7
  6
CONTINUOUS
 10
16.0940949384
 20
13.6922305919
 11
16.1198507288
 21
13.7755763601
  0
LINE
  5
2B8
100
AcDbEntity
  8
0
100
AcDbLine
 62
7
  6
CONTINUOUS
 10
16.1735130235
 20
13.9492276095
 11
16.1863909194
 21
13.9909004959
  0
LINE
  5
2B9
100
AcDbEntity
  8
0
100
AcDbLine
 62
7
  6
CONTINUOUS
 10
16.1198502344
 20
13.7755761231
 11
16.1208105938
 21
13.7784958736
  0
LINE
  5
2BA
100
AcDbEntity
  8
0
100
AcDbLine
 62
7
  6
CONTINUOUS
 10
16.0404321493
 20
13.5185791055
 11
16.0413925087
 21
13.521498856
  0
LINE
  5
2BB
100
AcDbEntity
  8
0
100
AcDbLine
 62
7
  6
CONTINUOUS
 10
15.9610140642
 20
13.2615820879
 11
15.9619744236
 21
13.2645018384
  0
LINE
  5
2BC
100
AcDbEntity
  8
0
100
AcDbLine
 62
7
  6
CONTINUOUS
 10
15.8815959791
 20
13.0045850703
 11
15.8825563385
 21
13.0075048208
  0
LINE
  5
2BD
100
AcDbEntity
  8
0
100
AcDbLine
 62
7
  6
CONTINUOUS
 10
15.802177894
 20
12.7475880528
 11
15.8031382534
 21
12.7505078032
  0
LINE
  5
2BE
100
AcDbEntity
  8
0
100
AcDbLine
 62
7
  6
CONTINUOUS
 10
15.7227598089
 20
12.4905910352
 11
15.7237201683
 21
12.4935107856
  0
LINE
  5
2BF
100
AcDbEntity
  8
0
100
AcDbLine
 62
7
  6
CONTINUOUS
 10
15.6433417238
 20
12.2335940176
 11
15.6443020832
 21
12.236513768
  0
LINE
  5
2C0
100
AcDbEntity
  8
0
100
AcDbLine
 62
7
  6
CONTINUOUS
 10
16.1351737337
 20
13.7519920715
 11
16.136439189
 21
13.7554386941
  0
LINE
  5
2C1
100
AcDbEntity
  8
0
100
AcDbLine
 62
7
  6
CONTINUOUS
 10
16.0557556486
 20
13.4949950539
 11
16.0570211039
 21
13.4984416765
  0
LINE
  5
2C2
100
AcDbEntity
  8
0
100
AcDbLine
 62
7
  6
CONTINUOUS
 10
15.9763375635
 20
13.2379980363
 11
15.9776030188
 21
13.2414446589
  0
LINE
  5
2C3
100
AcDbEntity
  8
0
100
AcDbLine
 62
7
  6
CONTINUOUS
 10
15.8969194784
 20
12.9810010188
 11
15.8981849337
 21
12.9844476413
  0
LWPOLYLINE
  5
2C4
100
AcDbEntity
  8
0
100
AcDbPolyline
 62
7
  6
CONTINUOUS
 90
3
 70
0
 10
16.1208105938
 20
13.7784958736
 10
16.121893936
 20
13.7813041105
 10
16.122628728
 20
13.7828440068
  0
LWPOLYLINE
  5
2C5
100
AcDbEntity
  8
0
100
AcDbPolyline
 62
7
  6
CONTINUOUS
 90
3
 70
0
 10
16.0413925087
 20
13.521498856
 10
16.0424758509
 20
13.5243070929
 10
16.0432106428
 20
13.5258469892
  0
LWPOLYLINE
  5
2C6
100
AcDbEntity
  8
0
100
AcDbPolyline
 62
7
  6
CONTINUOUS
 90
3
 70
0
 10
15.9619744236
 20
13.2645018384
 10
15.9630577658
 20
13.2673100753
 10
15.9637925577
 20
13.2688499716
  0
LWPOLYLINE
  5
2C7
100
AcDbEntity
  8
0
100
AcDbPolyline
 62
7
  6
CONTINUOUS
 90
3
 70
0
 10
15.8825563385
 20
13.0075048208
 10
15.8836396807
 20
13.0103130577
 10
15.8843744726
 20
13.011852954
  0
LWPOLYLINE
  5
2C8
100
AcDbEntity
  8
0
100
AcDbPolyline
 62
7
  6
CONTINUOUS
 90
3
 70
0
 10
15.8031382534
 20
12.7505078032
 10
15.8042215956
 20
12.7533160401
 10
15.8049563875
 20
12.7548559364
  0
LWPOLYLINE
  5
2C9
100
AcDbEntity
  8
0
100
AcDbPolyline
 62
7
  6
CONTINUOUS
 90
3
 70
0
 10
15.7237201683
 20
12.4935107856
 10
15.7248035105
 20
12.4963190225
 10
15.7255383024
 20
12.4978589188
  0
LINE
  5
2CA
100
AcDbEntity
  8
0
100
AcDbLine
 62
7
  6
CONTINUOUS
 10
15.8951838691
 20
12.9779123757
 11
15.8969194784
 21
12.9810010188
  0
LINE
  5
2CB
100
AcDbEntity
  8
0
100
AcDbLine
 62
7
  6
CONTINUOUS
 10
15.815765784
 20
12.7209153581
 11
15.8175013933
 21
12.7240040012
  0
LINE
  5
2CC
100
AcDbEntity
  8
0
100
AcDbLine
 62
7
  6
CONTINUOUS
 10
15.8049563875
 20
12.7548559364
 11
15.8051071773
 21
12.7551121488
  0
LINE
  5
2CD
100
AcDbEntity
  8
0
100
AcDbLine
 62
7
  6
CONTINUOUS
 10
15.7255383024
 20
12.4978589188
 11
15.7256890922
 21
12.4981151312
  0
LINE
  5
2CE
100
AcDbEntity
  8
0
100
AcDbLine
 62
7
  6
CONTINUOUS
 10
15.733426885
 20
12.461078442
 11
15.7363476989
 21
12.4639183405
  0
LWPOLYLINE
  5
2CF
100
AcDbEntity
  8
0
100
AcDbPolyline
 62
7
  6
CONTINUOUS
 90
3
 70
0
 10
15.8070983543
 20
12.7163227798
 10
15.8087744597
 20
12.716460612
 10
15.8128449701
 20
12.7180754596
  0
LINE
  5
2D0
100
AcDbEntity
  8
0
100
AcDbLine
 62
7
  6
CONTINUOUS
 10
15.7925165945
 20
12.7163227134
 11
15.8071026626
 21
12.7163227134
  0
LWPOLYLINE
  5
2D1
100
AcDbEntity
  8
0
100
AcDbPolyline
 62
7
  6
CONTINUOUS
 90
3
 70
0
 10
15.7678678534
 20
12.5703687719
 10
15.7683773679
 20
12.5879754698
 10
15.7691832225
 20
12.6103559114
  0
LWPOLYLINE
  5
2D2
100
AcDbEntity
  8
0
100
AcDbPolyline
 62
7
  6
CONTINUOUS
 90
3
 70
0
 10
15.8472859385
 20
12.8273657894
 10
15.847795453
 20
12.8449724874
 10
15.8486013076
 20
12.867352929
  0
LINE
  5
2D3
100
AcDbEntity
  8
0
100
AcDbLine
 62
7
  6
CONTINUOUS
 10
15.7691832225
 20
12.6103559114
 11
15.7699576974
 21
12.6282960655
  0
LINE
  5
2D4
100
AcDbEntity
  8
0
100
AcDbLine
 62
7
  6
CONTINUOUS
 10
15.8486013076
 20
12.867352929
 11
15.8493757825
 21
12.8852930831
  0
LINE
  5
2D5
100
AcDbEntity
  8
0
100
AcDbLine
 62
7
  6
CONTINUOUS
 10
15.7677806291
 20
12.5685139968
 11
15.7678686106
 21
12.5704038231
  0
LINE
  5
2D6
100
AcDbEntity
  8
0
100
AcDbLine
 62
7
  6
CONTINUOUS
 10
15.8471987143
 20
12.8255110144
 11
15.8472866957
 21
12.8274008407
  0
LINE
  5
2D7
100
AcDbEntity
  8
0
100
AcDbLine
 62
7
  6
CONTINUOUS
 10
15.7699582148
 20
12.6283032585
 11
15.7700224868
 21
12.629494496
  0
LINE
  5
2D8
100
AcDbEntity
  8
0
100
AcDbLine
 62
7
  6
CONTINUOUS
 10
15.8493762999
 20
12.8853002761
 11
15.8494405719
 21
12.8864915136
  0
LWPOLYLINE
  5
2D9
100
AcDbEntity
  8
0
100
AcDbPolyline
 62
7
  6
CONTINUOUS
 90
5
 70
0
 10
15.7700224868
 20
12.629494496
 10
15.7707668257
 20
12.6372150752
 10
15.7721443232
 20
12.6461575242
 10
15.7739966415
 20
12.6551562409
 10
15.7760412773
 20
12.6629790365
  0
LWPOLYLINE
  5
2DA
100
AcDbEntity
  8
0
100
AcDbPolyline
 62
7
  6
CONTINUOUS
 90
5
 70
0
 10
15.8494405719
 20
12.8864915136
 10
15.8501849108
 20
12.8942120928
 10
15.8515624083
 20
12.9031545418
 10
15.8534147266
 20
12.9121532585
 10
15.8554593624
 20
12.9199760541
  0
LINE
  5
2DB
100
AcDbEntity
  8
0
100
AcDbLine
 62
7
  6
CONTINUOUS
 10
15.7669991422
 20
12.561997684
 11
15.7677806291
 21
12.5685139968
  0
LINE
  5
2DC
100
AcDbEntity
  8
0
100
AcDbLine
 62
7
  6
CONTINUOUS
 10
15.8464172273
 20
12.8189947016
 11
15.8471987143
 21
12.8255110144
  0
LINE
  5
2DD
100
AcDbEntity
  8
0
100
AcDbLine
 62
7
  6
CONTINUOUS
 10
15.6861582783
 20
12.2984277976
 11
15.6875810571
 21
12.3050006664
  0
LINE
  5
2DE
100
AcDbEntity
  8
0
100
AcDbLine
 62
7
  6
CONTINUOUS
 10
15.7655763634
 20
12.5554248152
 11
15.7669991422
 21
12.561997684
  0
LINE
  5
2DF
100
AcDbEntity
  8
0
100
AcDbLine
 62
7
  6
CONTINUOUS
 10
15.8449944485
 20
12.8124218328
 11
15.8464172273
 21
12.8189947016
  0
LINE
  5
2E0
100
AcDbEntity
  8
0
100
AcDbLine
 62
7
  6
CONTINUOUS
 10
15.9244125336
 20
13.0694188504
 11
15.9258353124
 21
13.0759917192
  0
LINE
  5
2E1
100
AcDbEntity
  8
0
100
AcDbLine
 62
7
  6
CONTINUOUS
 10
16.0038306187
 20
13.326415868
 11
16.0052533975
 21
13.3329887368
  0
LINE
  5
2E2
100
AcDbEntity
  8
0
100
AcDbLine
 62
7
  6
CONTINUOUS
 10
15.4474337287
 20
11.5258164641
 11
15.447904023
 21
11.5274367448
  0
LINE
  5
2E3
100
AcDbEntity
  8
0
100
AcDbLine
 62
7
  6
CONTINUOUS
 10
15.5268518139
 20
11.7828134817
 11
15.5273221081
 21
11.7844337624
  0
LINE
  5
2E4
100
AcDbEntity
  8
0
100
AcDbLine
 62
7
  6
CONTINUOUS
 10
15.606269899
 20
12.0398104993
 11
15.6067401932
 21
12.04143078
  0
LINE
  5
2E5
100
AcDbEntity
  8
0
100
AcDbLine
 62
7
  6
CONTINUOUS
 10
15.6856879841
 20
12.2968075169
 11
15.6861582783
 21
12.2984277976
  0
LINE
  5
2E6
100
AcDbEntity
  8
0
100
AcDbLine
 62
7
  6
CONTINUOUS
 10
15.7651060692
 20
12.5538045345
 11
15.7655763634
 21
12.5554248152
  0
LINE
  5
2E7
100
AcDbEntity
  8
0
100
AcDbLine
 62
7
  6
CONTINUOUS
 10
15.8445241543
 20
12.8108015521
 11
15.8449944485
 21
12.8124218328
  0
LINE
  5
2E8
100
AcDbEntity
  8
0
100
AcDbLine
 62
7
  6
CONTINUOUS
 10
15.9239422394
 20
13.0677985697
 11
15.9244125336
 21
13.0694188504
  0
LINE
  5
2E9
100
AcDbEntity
  8
0
100
AcDbLine
 62
7
  6
CONTINUOUS
 10
16.0033603245
 20
13.3247955873
 11
16.0038306187
 21
13.326415868
  0
LINE
  5
2EA
100
AcDbEntity
  8
0
100
AcDbLine
 62
7
  6
CONTINUOUS
 10
16.0827784096
 20
13.5817926049
 11
16.0832487038
 21
13.5834128856
  0
LINE
  5
2EB
100
AcDbEntity
  8
0
100
AcDbLine
 62
7
  6
CONTINUOUS
 10
16.1621964947
 20
13.8387896225
 11
16.1626667889
 21
13.8404099032
  0
LINE
  5
2EC
100
AcDbEntity
  8
0
100
AcDbLine
 62
7
  6
CONTINUOUS
 10
15.9348774475
 20
13.1769730717
 11
15.9352570293
 21
13.1782318965
  0
LINE
  5
2ED
100
AcDbEntity
  8
0
100
AcDbLine
 62
7
  6
CONTINUOUS
 10
16.0142955326
 20
13.4339700893
 11
16.0146751144
 21
13.4352289141
  0
LINE
  5
2EE
100
AcDbEntity
  8
0
100
AcDbLine
 62
7
  6
CONTINUOUS
 10
16.0937136177
 20
13.6909671069
 11
16.0940931995
 21
13.6922259317
  0
LINE
  5
2EF
100
AcDbEntity
  8
0
100
AcDbLine
 62
7
  6
CONTINUOUS
 10
16.1731317028
 20
13.9479641245
 11
16.1735112846
 21
13.9492229493
  0
LINE
  5
2F0
100
AcDbEntity
  8
0
100
AcDbLine
 62
7
  6
CONTINUOUS
 10
15.2628494004
 20
10.9285010181
 11
15.2886051923
 21
11.0118467911
  0
LINE
  5
2F1
100
AcDbEntity
  8
0
100
AcDbLine
 62
7
  6
CONTINUOUS
 10
15.3422674855
 20
11.1854980357
 11
15.3680232774
 21
11.2688438087
  0
LINE
  5
2F2
100
AcDbEntity
  8
0
100
AcDbLine
 62
7
  6
CONTINUOUS
 10
15.4216855706
 20
11.4424950533
 11
15.4474413625
 21
11.5258408263
  0
LINE
  5
2F3
100
AcDbEntity
  8
0
100
AcDbLine
 62
7
  6
CONTINUOUS
 10
15.5011036558
 20
11.6994920709
 11
15.5268594476
 21
11.7828378439
  0
LINE
  5
2F4
100
AcDbEntity
  8
0
100
AcDbLine
 62
7
  6
CONTINUOUS
 10
15.5805217409
 20
11.9564890885
 11
15.6062775327
 21
12.0398348615
  0
LINE
  5
2F5
100
AcDbEntity
  8
0
100
AcDbLine
 62
7
  6
CONTINUOUS
 10
15.659939826
 20
12.213486106
 11
15.6856956178
 21
12.2968318791
  0
LINE
  5
2F6
100
AcDbEntity
  8
0
100
AcDbLine
 62
7
  6
CONTINUOUS
 10
15.7393579111
 20
12.4704831236
 11
15.7651137029
 21
12.5538288967
  0
LINE
  5
2F7
100
AcDbEntity
  8
0
100
AcDbLine
 62
7
  6
CONTINUOUS
 10
15.8187759962
 20
12.7274801412
 11
15.844531788
 21
12.8108259143
  0
LINE
  5
2F8
100
AcDbEntity
  8
0
100
AcDbLine
 62
7
  6
CONTINUOUS
 10
15.8981940813
 20
12.9844771588
 11
15.9239498732
 21
13.0678229319
  0
LINE
  5
2F9
100
AcDbEntity
  8
0
100
AcDbLine
 62
7
  6
CONTINUOUS
 10
15.9776121664
 20
13.2414741764
 11
16.0033679583
 21
13.3248199494
  0
LINE
  5
2FA
100
AcDbEntity
  8
0
100
AcDbLine
 62
7
  6
CONTINUOUS
 10
16.0570302515
 20
13.498471194
 11
16.0827860434
 21
13.581816967
  0
LINE
  5
2FB
100
AcDbEntity
  8
0
100
AcDbLine
 62
7
  6
CONTINUOUS
 10
16.1364483366
 20
13.7554682116
 11
16.1622041285
 21
13.8388139846
  0
LINE
  5
2FC
100
AcDbEntity
  8
0
100
AcDbLine
 62
7
  6
CONTINUOUS
 10
15.5639236387
 20
11.976597
 11
15.5648839981
 21
11.9795167504
  0
LINE
  5
2FD
100
AcDbEntity
  8
0
100
AcDbLine
 62
7
  6
CONTINUOUS
 10
15.4845055536
 20
11.7195999824
 11
15.485465913
 21
11.7225197328
  0
LINE
  5
2FE
100
AcDbEntity
  8
0
100
AcDbLine
 62
7
  6
CONTINUOUS
 10
15.4050874685
 20
11.4626029648
 11
15.4060478279
 21
11.4655227152
  0
LINE
  5
2FF
100
AcDbEntity
  8
0
100
AcDbLine
 62
7
  6
CONTINUOUS
 10
15.3256693834
 20
11.2056059472
 11
15.3266297428
 21
11.2085256976
  0
LINE
  5
300
100
AcDbEntity
  8
0
100
AcDbLine
 62
7
  6
CONTINUOUS
 10
15.2462512983
 20
10.9486089296
 11
15.2472116577
 21
10.95152868
  0
LINE
  5
301
100
AcDbEntity
  8
0
100
AcDbLine
 62
7
  6
CONTINUOUS
 10
15.8175013933
 20
12.7240040012
 11
15.8187668486
 21
12.7274506237
  0
LINE
  5
302
100
AcDbEntity
  8
0
100
AcDbLine
 62
7
  6
CONTINUOUS
 10
15.7380833082
 20
12.4670069836
 11
15.7393487635
 21
12.4704536061
  0
LINE
  5
303
100
AcDbEntity
  8
0
100
AcDbLine
 62
7
  6
CONTINUOUS
 10
15.6586652231
 20
12.210009966
 11
15.6599306784
 21
12.2134565885
  0
LINE
  5
304
100
AcDbEntity
  8
0
100
AcDbLine
 62
7
  6
CONTINUOUS
 10
15.579247138
 20
11.9530129484
 11
15.5805125933
 21
11.9564595709
  0
LINE
  5
305
100
AcDbEntity
  8
0
100
AcDbLine
 62
7
  6
CONTINUOUS
 10
15.4998290529
 20
11.6960159308
 11
15.5010945082
 21
11.6994625534
  0
LINE
  5
306
100
AcDbEntity
  8
0
100
AcDbLine
 62
7
  6
CONTINUOUS
 10
15.4204109678
 20
11.4390189132
 11
15.4216764231
 21
11.4424655358
  0
LINE
  5
307
100
AcDbEntity
  8
0
100
AcDbLine
 62
7
  6
CONTINUOUS
 10
15.3409928827
 20
11.1820218956
 11
15.342258338
 21
11.1854685182
  0
LINE
  5
308
100
AcDbEntity
  8
0
100
AcDbLine
 62
7
  6
CONTINUOUS
 10
15.2615747975
 20
10.925024878
 11
15.2628402529
 21
10.9284715006
  0
LWPOLYLINE
  5
309
100
AcDbEntity
  8
0
100
AcDbPolyline
 62
7
  6
CONTINUOUS
 90
3
 70
0
 10
15.6443020832
 20
12.236513768
 10
15.6453854254
 20
12.239322005
 10
15.6461202173
 20
12.2408619013
  0
LWPOLYLINE
  5
30A
100
AcDbEntity
  8
0
100
AcDbPolyline
 62
7
  6
CONTINUOUS
 90
3
 70
0
 10
15.5648839981
 20
11.9795167504
 10
15.5659673403
 20
11.9823249874
 10
15.5667021322
 20
11.9838648837
  0
LWPOLYLINE
  5
30B
100
AcDbEntity
  8
0
100
AcDbPolyline
 62
7
  6
CONTINUOUS
 90
3
 70
0
 10
15.485465913
 20
11.7225197328
 10
15.4865492552
 20
11.7253279698
 10
15.4872840471
 20
11.7268678661
  0
LWPOLYLINE
  5
30C
100
AcDbEntity
  8
0
100
AcDbPolyline
 62
7
  6
CONTINUOUS
 90
3
 70
0
 10
15.4060478279
 20
11.4655227152
 10
15.4071311701
 20
11.4683309522
 10
15.407865962
 20
11.4698708485
  0
LWPOLYLINE
  5
30D
100
AcDbEntity
  8
0
100
AcDbPolyline
 62
7
  6
CONTINUOUS
 90
3
 70
0
 10
15.3266297428
 20
11.2085256976
 10
15.3277130849
 20
11.2113339346
 10
15.3284478769
 20
11.2128738309
  0
LWPOLYLINE
  5
30E
100
AcDbEntity
  8
0
100
AcDbPolyline
 62
7
  6
CONTINUOUS
 90
3
 70
0
 10
15.2472116577
 20
10.95152868
 10
15.2482949998
 20
10.954336917
 10
15.2490297918
 20
10.9558768133
  0
LINE
  5
30F
100
AcDbEntity
  8
0
100
AcDbLine
 62
7
  6
CONTINUOUS
 10
15.7363476989
 20
12.4639183405
 11
15.7380833082
 21
12.4670069836
  0
LINE
  5
310
100
AcDbEntity
  8
0
100
AcDbLine
 62
7
  6
CONTINUOUS
 10
15.6569296138
 20
12.2069213229
 11
15.6586652231
 21
12.210009966
  0
LINE
  5
311
100
AcDbEntity
  8
0
100
AcDbLine
 62
7
  6
CONTINUOUS
 10
15.5775115287
 20
11.9499243053
 11
15.579247138
 21
11.9530129484
  0
LINE
  5
312
100
AcDbEntity
  8
0
100
AcDbLine
 62
7
  6
CONTINUOUS
 10
15.6461202173
 20
12.2408619013
 11
15.6462710071
 21
12.2411181136
  0
LINE
  5
313
100
AcDbEntity
  8
0
100
AcDbLine
 62
7
  6
CONTINUOUS
 10
15.5667021322
 20
11.9838648837
 11
15.5668529219
 21
11.984121096
  0
LINE
  5
314
100
AcDbEntity
  8
0
100
AcDbLine
 62
7
  6
CONTINUOUS
 10
15.6540087999
 20
12.2040814244
 11
15.6569296138
 21
12.2069213229
  0
LWPOLYLINE
  5
315
100
AcDbEntity
  8
0
100
AcDbPolyline
 62
7
  6
CONTINUOUS
 90
3
 70
0
 10
15.9267040236
 20
13.084362807
 10
15.9272135381
 20
13.101969505
 10
15.9280193927
 20
13.1243499466
  0
LINE
  5
316
100
AcDbEntity
  8
0
100
AcDbLine
 62
7
  6
CONTINUOUS
 10
15.9280193927
 20
13.1243499466
 11
15.9287938676
 21
13.1422901007
  0
LINE
  5
317
100
AcDbEntity
  8
0
100
AcDbLine
 62
7
  6
CONTINUOUS
 10
15.9266167994
 20
13.082508032
 11
15.9267047808
 21
13.0843978583
  0
LINE
  5
318
100
AcDbEntity
  8
0
100
AcDbLine
 62
7
  6
CONTINUOUS
 10
15.928794385
 20
13.1422972937
 11
15.928858657
 21
13.1434885312
  0
LWPOLYLINE
  5
319
100
AcDbEntity
  8
0
100
AcDbPolyline
 62
7
  6
CONTINUOUS
 90
5
 70
0
 10
15.928858657
 20
13.1434885312
 10
15.9296029959
 20
13.1512091104
 10
15.9309804934
 20
13.1601515594
 10
15.9328328117
 20
13.1691502761
 10
15.9348774475
 20
13.1769730717
  0
LWPOLYLINE
  5
31A
100
AcDbEntity
  8
0
100
AcDbPolyline
 62
7
  6
CONTINUOUS
 90
5
 70
0
 10
16.0082767421
 20
13.4004855488
 10
16.009021081
 20
13.408206128
 10
16.0103985785
 20
13.417148577
 10
16.0122508969
 20
13.4261472937
 10
16.0142955326
 20
13.4339700893
  0
LINE
  5
31B
100
AcDbEntity
  8
0
100
AcDbLine
 62
7
  6
CONTINUOUS
 10
15.9258353124
 20
13.0759917192
 11
15.9266167994
 21
13.082508032
  0
LINE
  5
31C
100
AcDbEntity
  8
0
100
AcDbLine
 62
7
  6
CONTINUOUS
 10
16.0052533975
 20
13.3329887368
 11
16.0060348845
 21
13.3395050496
  0
LINE
  5
31D
100
AcDbEntity
  8
0
100
AcDbLine
 62
7
  6
CONTINUOUS
 10
16.0846714826
 20
13.5899857544
 11
16.0854529696
 21
13.5965020672
  0
LINE
  5
31E
100
AcDbEntity
  8
0
100
AcDbLine
 62
7
  6
CONTINUOUS
 10
16.0832487038
 20
13.5834128856
 11
16.0846714826
 21
13.5899857544
  0
LINE
  5
31F
100
AcDbEntity
  8
0
100
AcDbLine
 62
7
  6
CONTINUOUS
 10
16.1626667889
 20
13.8404099032
 11
16.1640895677
 21
13.846982772
  0
LINE
  5
320
100
AcDbEntity
  8
0
100
AcDbLine
 62
7
  6
CONTINUOUS
 10
15.4980934436
 20
11.6929272877
 11
15.4998290529
 21
11.6960159308
  0
LINE
  5
321
100
AcDbEntity
  8
0
100
AcDbLine
 62
7
  6
CONTINUOUS
 10
15.4186753585
 20
11.4359302701
 11
15.4204109678
 21
11.4390189132
  0
LINE
  5
322
100
AcDbEntity
  8
0
100
AcDbLine
 62
7
  6
CONTINUOUS
 10
15.4872840471
 20
11.7268678661
 11
15.4874348368
 21
11.7271240784
  0
LINE
  5
323
100
AcDbEntity
  8
0
100
AcDbLine
 62
7
  6
CONTINUOUS
 10
15.407865962
 20
11.4698708485
 11
15.4080167517
 21
11.4701270608
  0
LINE
  5
324
100
AcDbEntity
  8
0
100
AcDbLine
 62
7
  6
CONTINUOUS
 10
15.5745907148
 20
11.9470844068
 11
15.5775115287
 21
11.9499243053
  0
LWPOLYLINE
  5
325
100
AcDbEntity
  8
0
100
AcDbPolyline
 62
7
  6
CONTINUOUS
 90
3
 70
0
 10
15.8865164394
 20
12.9733197974
 10
15.8881925448
 20
12.9734576296
 10
15.8922630552
 20
12.9750724772
  0
LINE
  5
326
100
AcDbEntity
  8
0
100
AcDbLine
 62
7
  6
CONTINUOUS
 10
15.8719346796
 20
12.973319731
 11
15.8865207477
 21
12.973319731
  0
LWPOLYLINE
  5
327
100
AcDbEntity
  8
0
100
AcDbPolyline
 62
7
  6
CONTINUOUS
 90
3
 70
0
 10
16.0061221087
 20
13.3413598246
 10
16.0066316233
 20
13.3589665226
 10
16.0074374778
 20
13.3813469642
  0
LWPOLYLINE
  5
328
100
AcDbEntity
  8
0
100
AcDbPolyline
 62
7
  6
CONTINUOUS
 90
3
 70
0
 10
16.0855401938
 20
13.5983568422
 10
16.0860497084
 20
13.6159635402
 10
16.0868555629
 20
13.6383439818
  0
LINE
  5
329
100
AcDbEntity
  8
0
100
AcDbLine
 62
7
  6
CONTINUOUS
 10
16.0074374778
 20
13.3813469642
 11
16.0082119527
 21
13.3992871183
  0
LINE
  5
32A
100
AcDbEntity
  8
0
100
AcDbLine
 62
7
  6
CONTINUOUS
 10
16.0868555629
 20
13.6383439818
 11
16.0876300378
 21
13.6562841359
  0
LINE
  5
32B
100
AcDbEntity
  8
0
100
AcDbLine
 62
7
  6
CONTINUOUS
 10
16.0060348845
 20
13.3395050496
 11
16.0061228659
 21
13.3413948759
  0
LINE
  5
32C
100
AcDbEntity
  8
0
100
AcDbLine
 62
7
  6
CONTINUOUS
 10
16.0854529696
 20
13.5965020672
 11
16.085540951
 21
13.5983918935
  0
LINE
  5
32D
100
AcDbEntity
  8
0
100
AcDbLine
 62
7
  6
CONTINUOUS
 10
16.0082124701
 20
13.3992943112
 11
16.0082767421
 21
13.4004855488
  0
LINE
  5
32E
100
AcDbEntity
  8
0
100
AcDbLine
 62
7
  6
CONTINUOUS
 10
16.0876305552
 20
13.6562913288
 11
16.0876948272
 21
13.6574825664
  0
LWPOLYLINE
  5
32F
100
AcDbEntity
  8
0
100
AcDbPolyline
 62
7
  6
CONTINUOUS
 90
5
 70
0
 10
16.0876948272
 20
13.6574825664
 10
16.0884391661
 20
13.6652031456
 10
16.0898166636
 20
13.6741455946
 10
16.091668982
 20
13.6831443113
 10
16.0937136177
 20
13.6909671069
  0
LWPOLYLINE
  5
330
100
AcDbEntity
  8
0
100
AcDbPolyline
 62
7
  6
CONTINUOUS
 90
5
 70
0
 10
16.1671129123
 20
13.914479584
 10
16.1678572512
 20
13.9222001632
 10
16.1692347487
 20
13.9311426122
 10
16.1710870671
 20
13.9401413289
 10
16.1731317028
 20
13.9479641245
  0
LINE
  5
331
100
AcDbEntity
  8
0
100
AcDbLine
 62
7
  6
CONTINUOUS
 10
16.1640895677
 20
13.846982772
 11
16.1648710547
 21
13.8534990848
  0
LINE
  5
332
100
AcDbEntity
  8
0
100
AcDbLine
 62
7
  6
CONTINUOUS
 10
16.1865361697
 20
13.9919583632
 11
16.1863907742
 21
13.9909005406
  0
LINE
  5
333
100
AcDbEntity
  8
0
100
AcDbLine
 62
7
  6
CONTINUOUS
 10
15.3392572733
 20
11.1789332525
 11
15.3409928827
 21
11.1820218956
  0
LINE
  5
334
100
AcDbEntity
  8
0
100
AcDbLine
 62
7
  6
CONTINUOUS
 10
15.2598391882
 20
10.9219362349
 11
15.2615747975
 21
10.925024878
  0
LINE
  5
335
100
AcDbEntity
  8
0
100
AcDbLine
 62
7
  6
CONTINUOUS
 10
15.3284478769
 20
11.2128738309
 11
15.3285986666
 21
11.2131300432
  0
LINE
  5
336
100
AcDbEntity
  8
0
100
AcDbLine
 62
7
  6
CONTINUOUS
 10
15.2490297918
 20
10.9558768133
 11
15.2491805815
 21
10.9561330256
  0
LWPOLYLINE
  5
337
100
AcDbEntity
  8
0
100
AcDbPolyline
 62
7
  6
CONTINUOUS
 90
3
 70
0
 10
16.1649582789
 20
13.8553538598
 10
16.1654677935
 20
13.8729605578
 10
16.166273648
 20
13.8953409994
  0
LINE
  5
338
100
AcDbEntity
  8
0
100
AcDbLine
 62
7
  6
CONTINUOUS
 10
16.166273648
 20
13.8953409994
 11
16.1670481229
 21
13.9132811535
  0
LINE
  5
339
100
AcDbEntity
  8
0
100
AcDbLine
 62
7
  6
CONTINUOUS
 10
16.1648710547
 20
13.8534990848
 11
16.1649590361
 21
13.855388911
  0
LINE
  5
33A
100
AcDbEntity
  8
0
100
AcDbLine
 62
7
  6
CONTINUOUS
 10
16.1670486403
 20
13.9132883464
 11
16.1671129123
 21
13.914479584
  0
LINE
  5
33B
100
AcDbEntity
  8
0
100
AcDbLine
 62
7
  6
CONTINUOUS
 10
15.4951726297
 20
11.6900873892
 11
15.4980934436
 21
11.6929272877
  0
LWPOLYLINE
  5
33C
100
AcDbEntity
  8
0
100
AcDbPolyline
 62
7
  6
CONTINUOUS
 90
3
 70
0
 10
15.9659345245
 20
13.230316815
 10
15.9676106299
 20
13.2304546472
 10
15.9716811403
 20
13.2320694948
  0
LINE
  5
33D
100
AcDbEntity
  8
0
100
AcDbLine
 62
7
  6
CONTINUOUS
 10
15.4157545446
 20
11.4330903716
 11
15.4186753585
 21
11.4359302701
  0
LINE
  5
33E
100
AcDbEntity
  8
0
100
AcDbLine
 62
7
  6
CONTINUOUS
 10
15.9513527647
 20
13.2303167486
 11
15.9659388328
 21
13.2303167486
  0
LINE
  5
33F
100
AcDbEntity
  8
0
100
AcDbLine
 62
7
  6
CONTINUOUS
 10
15.3363364595
 20
11.176093354
 11
15.3392572733
 21
11.1789332525
  0
LWPOLYLINE
  5
340
100
AcDbEntity
  8
0
100
AcDbPolyline
 62
7
  6
CONTINUOUS
 90
3
 70
0
 10
16.0453526096
 20
13.4873138326
 10
16.047028715
 20
13.4874516648
 10
16.0510992254
 20
13.4890665124
  0
LINE
  5
341
100
AcDbEntity
  8
0
100
AcDbLine
 62
7
  6
CONTINUOUS
 10
15.2569183744
 20
10.9190963364
 11
15.2598391882
 21
10.9219362349
  0
LINE
  5
342
100
AcDbEntity
  8
0
100
AcDbLine
 62
7
  6
CONTINUOUS
 10
16.0307708498
 20
13.4873137662
 11
16.0453569179
 21
13.4873137662
  0
LWPOLYLINE
  5
343
100
AcDbEntity
  8
0
100
AcDbPolyline
 62
7
  6
CONTINUOUS
 90
3
 70
0
 10
16.1247706947
 20
13.7443108502
 10
16.1264468001
 20
13.7444486824
 10
16.1305173105
 20
13.74606353
  0
LINE
  5
344
100
AcDbEntity
  8
0
100
AcDbLine
 62
7
  6
CONTINUOUS
 10
16.1101889349
 20
13.7443107838
 11
16.124775003
 21
13.7443107838
  0
LINE
  5
345
100
AcDbEntity
  8
0
100
AcDbLine
 62
7
  6
CONTINUOUS
 10
16.1831422802
 20
14.1033788199
 11
16.1798306472
 21
14.1101272186
  0
ARC
  5
346
100
AcDbEntity
  8
0
100
AcDbCircle
 62
7
  6
CONTINUOUS
 10
1.539016988
 20
4.0833441758
 40
4.6062992126
100
AcDbArc
 50
17.5818128449
 51
19.5684587607
  0
ARC
  5
347
100
AcDbEntity
  8
0
100
AcDbCircle
 62
7
  6
CONTINUOUS
 10
1.539016988
 20
4.0833441758
 40
4.6062992126
100
AcDbArc
 50
16.2198560604
 51
17.5602693784
  0
ARC
  5
348
100
AcDbEntity
  8
0
100
AcDbCircle
 62
7
  6
CONTINUOUS
 10
5.9576310557
 20
5.6540015446
 40
0.0831692913
100
AcDbArc
 50
180.0
 51
199.5684587607
  0
ARC
  5
349
100
AcDbEntity
  8
0
100
AcDbCircle
 62
7
  6
CONTINUOUS
 10
5.9395230439
 20
5.4777296835
 40
0.0098425197
100
AcDbArc
 50
197.5818128449
 51
270.0
  0
ARC
  5
34A
100
AcDbEntity
  8
0
100
AcDbCircle
 62
7
  6
CONTINUOUS
 10
5.9714221532
 20
5.3727428521
 40
0.0098425197
100
AcDbArc
 50
196.2201298475
 51
270.0000749017
  0
ARC
  5
34B
100
AcDbEntity
  8
0
100
AcDbCircle
 62
7
  6
CONTINUOUS
 10
5.8827786935
 20
5.6648578676
 40
0.0083169291
100
AcDbArc
 50
92.1686206966
 51
180.0
  0
ARC
  5
34C
100
AcDbEntity
  8
0
100
AcDbCircle
 62
7
  6
CONTINUOUS
 10
6.1303672762
 20
-0.8734021804
 40
6.5512630975
100
AcDbArc
 50
87.8313793034
 51
92.1686206966
  0
ARC
  5
34D
100
AcDbEntity
  8
0
100
AcDbCircle
 62
7
  6
CONTINUOUS
 10
6.3031034966
 20
5.6540015446
 40
0.0831692913
100
AcDbArc
 50
340.4315412393
 51
360.0
  0
ARC
  5
34E
100
AcDbEntity
  8
0
100
AcDbCircle
 62
7
  6
CONTINUOUS
 10
6.3212115084
 20
5.4777296835
 40
0.0098425197
100
AcDbArc
 50
270.0
 51
342.4181871551
  0
ARC
  5
34F
100
AcDbEntity
  8
0
100
AcDbCircle
 62
7
  6
CONTINUOUS
 10
6.2893123858
 20
5.3727428053
 40
0.0098425197
100
AcDbArc
 50
270.000002601
 51
343.7801532596
  0
ARC
  5
350
100
AcDbEntity
  8
0
100
AcDbCircle
 62
7
  6
CONTINUOUS
 10
6.3779558588
 20
5.6648578676
 40
0.0083169291
100
AcDbArc
 50
0.0
 51
87.8313793034
  0
ARC
  5
351
100
AcDbEntity
  8
0
100
AcDbCircle
 62
7
  6
CONTINUOUS
 10
10.7217175644
 20
4.0833441758
 40
4.6062992126
100
AcDbArc
 50
160.4315412393
 51
162.4181871551
  0
ARC
  5
352
100
AcDbEntity
  8
0
100
AcDbCircle
 62
7
  6
CONTINUOUS
 10
10.7217175644
 20
4.0833441758
 40
4.6062992126
100
AcDbArc
 50
162.43971544
 51
163.7801439396
  0
ARC
  5
353
100
AcDbEntity
  8
0
100
AcDbCircle
 62
7
  6
CONTINUOUS
 10
13.7026934489
 20
5.3244024702
 40
0.0209973753
100
AcDbArc
 50
193.0
 51
270.0
  0
ARC
  5
354
100
AcDbEntity
  8
0
100
AcDbCircle
 62
7
  6
CONTINUOUS
 10
13.8090931804
 20
5.3244024702
 40
0.0209973753
100
AcDbArc
 50
270.0
 51
347.0
  0
ARC
  5
355
100
AcDbEntity
  8
0
100
AcDbCircle
 62
7
  6
CONTINUOUS
 10
14.0307774384
 20
5.3244024702
 40
0.0209973753
100
AcDbArc
 50
193.0
 51
270.0
  0
ARC
  5
356
100
AcDbEntity
  8
0
100
AcDbCircle
 62
7
  6
CONTINUOUS
 10
14.1371771699
 20
5.3244024702
 40
0.0209973753
100
AcDbArc
 50
270.0
 51
347.0
  0
ARC
  5
357
100
AcDbEntity
  8
0
100
AcDbCircle
 62
7
  6
CONTINUOUS
 10
14.3588614279
 20
5.3244024702
 40
0.0209973753
100
AcDbArc
 50
193.0
 51
270.0
  0
ARC
  5
358
100
AcDbEntity
  8
0
100
AcDbCircle
 62
7
  6
CONTINUOUS
 10
14.4652611594
 20
5.3244024702
 40
0.0209973753
100
AcDbArc
 50
270.0
 51
347.0
  0
ARC
  5
359
100
AcDbEntity
  8
0
100
AcDbCircle
 62
7
  6
CONTINUOUS
 10
14.6869454174
 20
5.3244024702
 40
0.0209973753
100
AcDbArc
 50
193.0
 51
270.0
  0
ARC
  5
35A
100
AcDbEntity
  8
0
100
AcDbCircle
 62
7
  6
CONTINUOUS
 10
14.7933451489
 20
5.3244024702
 40
0.0209973753
100
AcDbArc
 50
270.0
 51
347.0
  0
ARC
  5
35B
100
AcDbEntity
  8
0
100
AcDbCircle
 62
7
  6
CONTINUOUS
 10
15.015029407
 20
5.3244024702
 40
0.0209973753
100
AcDbArc
 50
193.0
 51
270.0
  0
ARC
  5
35C
100
AcDbEntity
  8
0
100
AcDbCircle
 62
7
  6
CONTINUOUS
 10
15.1214291384
 20
5.3244024702
 40
0.0209973753
100
AcDbArc
 50
270.0
 51
347.0
  0
ARC
  5
35D
100
AcDbEntity
  8
0
100
AcDbCircle
 62
7
  6
CONTINUOUS
 10
15.3431133965
 20
5.3244024702
 40
0.0209973753
100
AcDbArc
 50
193.0
 51
270.0
  0
ARC
  5
35E
100
AcDbEntity
  8
0
100
AcDbCircle
 62
7
  6
CONTINUOUS
 10
15.4495131279
 20
5.3244024702
 40
0.0209973753
100
AcDbArc
 50
270.0
 51
347.0
  0
ARC
  5
35F
100
AcDbEntity
  8
0
100
AcDbCircle
 62
7
  6
CONTINUOUS
 10
13.6450511857
 20
5.3873945962
 40
0.0209973753
100
AcDbArc
 50
13.0
 51
90.0
  0
ARC
  5
360
100
AcDbEntity
  8
0
100
AcDbCircle
 62
7
  6
CONTINUOUS
 10
13.9731351752
 20
5.3873945962
 40
0.0209973753
100
AcDbArc
 50
13.0
 51
90.0
  0
ARC
  5
361
100
AcDbEntity
  8
0
100
AcDbCircle
 62
7
  6
CONTINUOUS
 10
13.8667354437
 20
5.3873945962
 40
0.0209973753
100
AcDbArc
 50
90.0
 51
167.0
  0
ARC
  5
362
100
AcDbEntity
  8
0
100
AcDbCircle
 62
7
  6
CONTINUOUS
 10
14.3012191647
 20
5.3873945962
 40
0.0209973753
100
AcDbArc
 50
13.0
 51
90.0
  0
ARC
  5
363
100
AcDbEntity
  8
0
100
AcDbCircle
 62
7
  6
CONTINUOUS
 10
14.1948194332
 20
5.3873945962
 40
0.0209973753
100
AcDbArc
 50
90.0
 51
167.0
  0
ARC
  5
364
100
AcDbEntity
  8
0
100
AcDbCircle
 62
7
  6
CONTINUOUS
 10
14.6293031542
 20
5.3873945962
 40
0.0209973753
100
AcDbArc
 50
13.0
 51
90.0
  0
ARC
  5
365
100
AcDbEntity
  8
0
100
AcDbCircle
 62
7
  6
CONTINUOUS
 10
14.5229034227
 20
5.3873945962
 40
0.0209973753
100
AcDbArc
 50
90.0
 51
167.0
  0
ARC
  5
366
100
AcDbEntity
  8
0
100
AcDbCircle
 62
7
  6
CONTINUOUS
 10
14.9573871437
 20
5.3873945962
 40
0.0209973753
100
AcDbArc
 50
13.0
 51
90.0
  0
ARC
  5
367
100
AcDbEntity
  8
0
100
AcDbCircle
 62
7
  6
CONTINUOUS
 10
14.8509874122
 20
5.3873945962
 40
0.0209973753
100
AcDbArc
 50
90.0
 51
167.0
  0
ARC
  5
368
100
AcDbEntity
  8
0
100
AcDbCircle
 62
7
  6
CONTINUOUS
 10
15.2854711332
 20
5.3873945962
 40
0.0209973753
100
AcDbArc
 50
13.0
 51
90.0
  0
ARC
  5
369
100
AcDbEntity
  8
0
100
AcDbCircle
 62
7
  6
CONTINUOUS
 10
15.1790714017
 20
5.3873945962
 40
0.0209973753
100
AcDbArc
 50
90.0
 51
167.0
  0
ARC
  5
36A
100
AcDbEntity
  8
0
100
AcDbCircle
 62
7
  6
CONTINUOUS
 10
15.5071553912
 20
5.3873945962
 40
0.0209973753
100
AcDbArc
 50
90.0
 51
167.0
  0
ARC
  5
36B
100
AcDbEntity
  8
0
100
AcDbCircle
 62
7
  6
CONTINUOUS
 10
17.4180170649
 20
5.3244024702
 40
0.0209973753
100
AcDbArc
 50
270.0
 51
347.0
  0
ARC
  5
36C
100
AcDbEntity
  8
0
100
AcDbCircle
 62
7
  6
CONTINUOUS
 10
17.3116173335
 20
5.3244024702
 40
0.0209973753
100
AcDbArc
 50
193.0
 51
270.0
  0
ARC
  5
36D
100
AcDbEntity
  8
0
100
AcDbCircle
 62
7
  6
CONTINUOUS
 10
17.0899330754
 20
5.3244024702
 40
0.0209973753
100
AcDbArc
 50
270.0
 51
347.0
  0
ARC
  5
36E
100
AcDbEntity
  8
0
100
AcDbCircle
 62
7
  6
CONTINUOUS
 10
16.983533344
 20
5.3244024702
 40
0.0209973753
100
AcDbArc
 50
193.0
 51
270.0
  0
ARC
  5
36F
100
AcDbEntity
  8
0
100
AcDbCircle
 62
7
  6
CONTINUOUS
 10
16.7618490859
 20
5.3244024702
 40
0.0209973753
100
AcDbArc
 50
270.0
 51
347.0
  0
ARC
  5
370
100
AcDbEntity
  8
0
100
AcDbCircle
 62
7
  6
CONTINUOUS
 10
16.6554493545
 20
5.3244024702
 40
0.0209973753
100
AcDbArc
 50
193.0
 51
270.0
  0
ARC
  5
371
100
AcDbEntity
  8
0
100
AcDbCircle
 62
7
  6
CONTINUOUS
 10
16.4337650964
 20
5.3244024702
 40
0.0209973753
100
AcDbArc
 50
270.0
 51
347.0
  0
ARC
  5
372
100
AcDbEntity
  8
0
100
AcDbCircle
 62
7
  6
CONTINUOUS
 10
16.327365365
 20
5.3244024702
 40
0.0209973753
100
AcDbArc
 50
193.0
 51
270.0
  0
ARC
  5
373
100
AcDbEntity
  8
0
100
AcDbCircle
 62
7
  6
CONTINUOUS
 10
16.1056811069
 20
5.3244024702
 40
0.0209973753
100
AcDbArc
 50
270.0
 51
347.0
  0
ARC
  5
374
100
AcDbEntity
  8
0
100
AcDbCircle
 62
7
  6
CONTINUOUS
 10
15.9992813755
 20
5.3244024702
 40
0.0209973753
100
AcDbArc
 50
193.0
 51
270.0
  0
ARC
  5
375
100
AcDbEntity
  8
0
100
AcDbCircle
 62
7
  6
CONTINUOUS
 10
15.671197386
 20
5.3244024702
 40
0.0209973753
100
AcDbArc
 50
193.0
 51
270.0
  0
ARC
  5
376
100
AcDbEntity
  8
0
100
AcDbCircle
 62
7
  6
CONTINUOUS
 10
15.7775971174
 20
5.3244024702
 40
0.0209973753
100
AcDbArc
 50
270.0
 51
347.0
  0
ARC
  5
377
100
AcDbEntity
  8
0
100
AcDbCircle
 62
7
  6
CONTINUOUS
 10
17.4756593282
 20
5.3873945962
 40
0.0209973753
100
AcDbArc
 50
90.0
 51
167.0
  0
ARC
  5
378
100
AcDbEntity
  8
0
100
AcDbCircle
 62
7
  6
CONTINUOUS
 10
17.1475753387
 20
5.3873945962
 40
0.0209973753
100
AcDbArc
 50
90.0
 51
167.0
  0
ARC
  5
379
100
AcDbEntity
  8
0
100
AcDbCircle
 62
7
  6
CONTINUOUS
 10
17.2539750702
 20
5.3873945962
 40
0.0209973753
100
AcDbArc
 50
13.0
 51
90.0
  0
ARC
  5
37A
100
AcDbEntity
  8
0
100
AcDbCircle
 62
7
  6
CONTINUOUS
 10
16.8194913492
 20
5.3873945962
 40
0.0209973753
100
AcDbArc
 50
90.0
 51
167.0
  0
ARC
  5
37B
100
AcDbEntity
  8
0
100
AcDbCircle
 62
7
  6
CONTINUOUS
 10
16.9258910807
 20
5.3873945962
 40
0.0209973753
100
AcDbArc
 50
13.0
 51
90.0
  0
ARC
  5
37C
100
AcDbEntity
  8
0
100
AcDbCircle
 62
7
  6
CONTINUOUS
 10
16.4914073597
 20
5.3873945962
 40
0.0209973753
100
AcDbArc
 50
90.0
 51
167.0
  0
ARC
  5
37D
100
AcDbEntity
  8
0
100
AcDbCircle
 62
7
  6
CONTINUOUS
 10
16.5978070912
 20
5.3873945962
 40
0.0209973753
100
AcDbArc
 50
13.0
 51
90.0
  0
ARC
  5
37E
100
AcDbEntity
  8
0
100
AcDbCircle
 62
7
  6
CONTINUOUS
 10
16.1633233702
 20
5.3873945962
 40
0.0209973753
100
AcDbArc
 50
90.0
 51
167.0
  0
ARC
  5
37F
100
AcDbEntity
  8
0
100
AcDbCircle
 62
7
  6
CONTINUOUS
 10
16.2697231017
 20
5.3873945962
 40
0.0209973753
100
AcDbArc
 50
13.0
 51
90.0
  0
ARC
  5
380
100
AcDbEntity
  8
0
100
AcDbCircle
 62
7
  6
CONTINUOUS
 10
15.8352393807
 20
5.3873945962
 40
0.0209973753
100
AcDbArc
 50
90.0
 51
167.0
  0
ARC
  5
381
100
AcDbEntity
  8
0
100
AcDbCircle
 62
7
  6
CONTINUOUS
 10
15.9416391122
 20
5.3873945962
 40
0.0209973753
100
AcDbArc
 50
13.0
 51
90.0
  0
ARC
  5
382
100
AcDbEntity
  8
0
100
AcDbCircle
 62
7
  6
CONTINUOUS
 10
15.6135551227
 20
5.3873945962
 40
0.0209973753
100
AcDbArc
 50
13.0
 51
90.0
  0
ARC
  5
383
100
AcDbEntity
  8
0
100
AcDbCircle
 62
7
  6
CONTINUOUS
 10
15.9415908675
 20
5.1236301621
 40
8.9945619271
100
AcDbArc
 50
88.5453451092
 51
91.4546548908
  0
ARC
  5
384
100
AcDbEntity
  8
0
100
AcDbCircle
 62
7
  6
CONTINUOUS
 10
14.9885738463
 20
2.0396659509
 40
8.9945619271
100
AcDbArc
 50
88.5453451092
 51
91.4546548908
  0
ARC
  5
385
100
AcDbEntity
  8
0
100
AcDbCircle
 62
7
  6
CONTINUOUS
 10
11.5501752252
 20
7.7240849807
 40
4.5959979565
100
AcDbArc
 50
43.8487373835
 51
45.4985125858
  0
ARC
  5
386
100
AcDbEntity
  8
0
100
AcDbCircle
 62
7
  6
CONTINUOUS
 10
17.8370486334
 20
14.0271058883
 40
1.6508866531
100
AcDbArc
 50
177.9533895661
 51
181.2199244614
  0
ARC
  5
387
100
AcDbEntity
  8
0
100
AcDbCircle
 62
7
  6
CONTINUOUS
 10
16.8840316121
 20
10.9431416772
 40
1.6508866531
100
AcDbArc
 50
177.9533895661
 51
181.2199244614
  0
SPLINE
  5
388
100
AcDbEntity
  8
0
100
AcDbSpline
 62
7
  6
CONTINUOUS
 70
0
 71
3
 72
9
 73
5
 74
0
 42
0.0000001
 43
0.0000001
 44
0.0000000001
 40
0.0
 40
0.0
 40
0.0
 40
0.0
 40
0.2680599542
 40
1.0
 40
1.0
 40
1.0
 40
1.0
 10
16.1831422802
 20
14.1033788199
 30
0.0
 10
16.1838463316
 20
14.101944114
 30
0.0
 10
16.1862085444
 20
14.0964749906
 30
0.0
 10
16.1873719534
 20
14.0904240993
 30
0.0
 10
16.187215072
 20
14.0860631697
 30
0.0
  0
SPLINE
  5
389
100
AcDbEntity
  8
0
100
AcDbSpline
 62
7
  6
CONTINUOUS
 70
0
 71
3
 72
9
 73
5
 74
0
 42
0.0000001
 43
0.0000001
 44
0.0000000001
 40
0.0
 40
0.0
 40
0.0
 40
0.0
 40
0.5394836339
 40
1.0
 40
1.0
 40
1.0
 40
1.0
 10
16.1699249272
 20
14.1152934019
 30
0.0
 10
16.1719936714
 20
14.1152411873
 30
0.0
 10
16.1757784229
 20
14.1142324845
 30
0.0
 10
16.1790524316
 20
14.1117130551
 30
0.0
 10
16.1798306472
 20
14.1101272186
 30
0.0
  0
SPLINE
  5
38A
100
AcDbEntity
  8
0
100
AcDbSpline
 62
7
  6
CONTINUOUS
 70
0
 71
3
 72
9
 73
5
 74
0
 42
0.0000001
 43
0.0000001
 44
0.0000000001
 40
0.0
 40
0.0
 40
0.0
 40
0.0
 40
0.5734414988
 40
1.0
 40
1.0
 40
1.0
 40
1.0
 10
15.2269725302
 20
10.9037240545
 30
0.0
 10
15.2284085292
 20
10.9037240545
 30
0.0
 10
15.2309747772
 20
10.9040169618
 30
0.0
 10
15.2330583512
 20
10.9059157778
 30
0.0
 10
15.2333734034
 20
10.9069364375
 30
0.0
  0
SPLINE
  5
38B
100
AcDbEntity
  8
0
100
AcDbSpline
 62
7
  6
CONTINUOUS
 70
0
 71
3
 72
9
 73
5
 74
0
 42
0.0000001
 43
0.0000001
 44
0.0000000001
 40
0.0
 40
0.0
 40
0.0
 40
0.0
 40
0.4854533509
 40
1.0
 40
1.0
 40
1.0
 40
1.0
 10
14.8646766364
 20
10.9079941521
 30
0.0
 10
14.8659948423
 20
10.9066213713
 30
0.0
 10
14.8694770205
 20
10.9045539333
 30
0.0
 10
14.8733969081
 20
10.9037240545
 30
0.0
 10
14.8754141737
 20
10.9037240545
 30
0.0
  0
SPLINE
  5
38C
100
AcDbEntity
  8
0
100
AcDbSpline
 62
7
  6
CONTINUOUS
 70
0
 71
3
 72
9
 73
5
 74
0
 42
0.0000001
 43
0.0000001
 44
0.0000000001
 40
0.0
 40
0.0
 40
0.0
 40
0.0
 40
0.2326290435
 40
1.0
 40
1.0
 40
1.0
 40
1.0
 10
14.7587160888
 20
11.0194146088
 30
0.0
 10
14.759456204
 20
11.0179064126
 30
0.0
 10
14.7629771707
 20
11.0115897732
 30
0.0
 10
14.7676854978
 20
11.0059836153
 30
0.0
 10
14.7716378708
 20
11.0020989586
 30
0.0
  0
SPLINE
  5
38D
100
AcDbEntity
  8
0
100
AcDbSpline
 62
7
  6
CONTINUOUS
 70
0
 71
3
 72
9
 73
5
 74
0
 42
0.0000001
 43
0.0000001
 44
0.0000000001
 40
0.0
 40
0.0
 40
0.0
 40
0.0
 40
0.4288762812
 40
1.0
 40
1.0
 40
1.0
 40
1.0
 10
15.7081357756
 20
14.1125827419
 30
0.0
 10
15.7083924048
 20
14.1134115464
 30
0.0
 10
15.7100342494
 20
14.1149700088
 30
0.0
 10
15.7121017985
 20
14.1152635092
 30
0.0
 10
15.7132568079
 20
14.1152934019
 30
0.0
  0
SPLINE
  5
38E
100
AcDbEntity
  8
0
100
AcDbSpline
 62
7
  6
CONTINUOUS
 70
0
 71
3
 72
9
 73
5
 74
0
 42
0.0000001
 43
0.0000001
 44
0.0000000001
 40
0.0
 40
0.0
 40
0.0
 40
0.0
 40
0.2358333295
 40
1.0
 40
1.0
 40
1.0
 40
1.0
 10
14.7551187543
 20
11.0286185307
 30
0.0
 10
14.7550604323
 20
11.0284301754
 30
0.0
 10
14.7548995526
 20
11.0276030416
 30
0.0
 10
14.7551229874
 20
11.0267365797
 30
0.0
 10
14.7554044557
 20
11.0261630074
 30
0.0
  0
SPLINE
  5
38F
100
AcDbEntity
  8
0
100
AcDbSpline
 62
7
  6
CONTINUOUS
 70
0
 71
3
 72
9
 73
5
 74
0
 42
0.0000001
 43
0.0000001
 44
0.0000000001
 40
0.0
 40
0.0
 40
0.0
 40
0.0
 40
0.5711237188
 40
1.0
 40
1.0
 40
1.0
 40
1.0
 10
14.7602397866
 20
11.0313291908
 30
0.0
 10
14.7590847772
 20
11.0312992981
 30
0.0
 10
14.7570172281
 20
11.0310057976
 30
0.0
 10
14.7553753835
 20
11.0294473353
 30
0.0
 10
14.7551187543
 20
11.0286185307
 30
0.0
  0
SPLINE
  5
390
100
AcDbEntity
  8
0
100
AcDbSpline
 62
7
  6
CONTINUOUS
 70
0
 71
3
 72
9
 73
5
 74
0
 42
0.0000001
 43
0.0000001
 44
0.0000000001
 40
0.0
 40
0.0
 40
0.0
 40
0.0
 40
0.4605163661
 40
1.0
 40
1.0
 40
1.0
 40
1.0
 10
15.2268136259
 20
11.0261630074
 30
0.0
 10
15.2260354104
 20
11.0277488439
 30
0.0
 10
15.2227614017
 20
11.0302682733
 30
0.0
 10
15.2189766501
 20
11.0312769761
 30
0.0
 10
15.2169079059
 20
11.0313291908
 30
0.0
  0
SPLINE
  5
391
100
AcDbEntity
  8
0
100
AcDbSpline
 62
7
  6
CONTINUOUS
 70
0
 71
3
 72
9
 73
5
 74
0
 42
0.0000001
 43
0.0000001
 44
0.0000000001
 40
0.0
 40
0.0
 40
0.0
 40
0.0
 40
0.2358012134
 40
1.0
 40
1.0
 40
1.0
 40
1.0
 10
15.2341980507
 20
11.0020989586
 30
0.0
 10
15.2342486164
 20
11.003504564
 30
0.0
 10
15.2340337111
 20
11.0094822952
 30
0.0
 10
15.2321333925
 20
11.0153224629
 30
0.0
 10
15.2301252589
 20
11.0194146088
 30
0.0
  0
ENDSEC
  0
SECTION
  2
OBJECTS
  0
DICTIONARY
  5
C
100
AcDbDictionary
280
0
281
1
  3
ACAD_GROUP
350
D
  3
ACAD_MLINESTYLE
350
17
  3
ACAD_LAYOUT
350
1A
  3
ACAD_PLOTSETTINGS
350
19
  3
ACAD_PLOTSTYLENAME
350
E
  0
DICTIONARY
  5
D
102
{ACAD_REACTORS
330
C
102
}
100
AcDbDictionary
280
0
281
1
  0
ACDBDICTIONARYWDFLT
  5
E
102
{ACAD_REACTORS
330
C
102
}
100
AcDbDictionary
281
1
  3
Normal
350
F
100
AcDbDictionaryWithDefault
340
F
  0
DICTIONARY
  5
17
102
{ACAD_REACTORS
330
C
102
}
100
AcDbDictionary
280
0
281
1
  3
Standard
350
18
  0
DICTIONARY
  5
19
102
{ACAD_REACTORS
330
C
102
}
100
AcDbDictionary
281
1
  0
DICTIONARY
  5
1A
102
{ACAD_REACTORS
330
C
102
}
100
AcDbDictionary
281
1
  3
Model
350
392
  3
Layout1
350
393
  0
ACDBPLACEHOLDER
  5
F
102
{ACAD_REACTORS
330
E
102
}
  0
MLINESTYLE
  5
18
102
{ACAD_REACTORS
330
17
102
}
100
AcDbMlineStyle
  2
STANDARD
 70
0
  3

 62
256
 51
90.0
 52
90.0
 71
2
 49
0.5
 62
256
  6
BYLAYER
 49
-0.5
 62
256
  6
BYLAYER
  0
LAYOUT
  5
392
102
{ACAD_REACTORS
330
1A
102
}
100
AcDbPlotSettings
  1

  2
none_device
  4
ANSI_C_(22.00_x_17.00_Inches)
  6

 40
0.0
 41
0.0
 42
0.0
 43
0.0
 44
558.8
 45
431.8
 46
0.0
 47
0.0
 48
0.0
 49
0.0
140
0.0
141
0.0
142
1.0
143
1.0
 70
1024
 72
0
 73
0
 74
0
  7

 75
0
147
1.0
148
0.0
149
0.0
100
AcDbLayout
  1
Model
 70
0
 71
0
 10
0.0
 20
0.0
 11
22.0
 21
17.0
 12
0.0
 22
0.0
 32
0.0
 14
0.0
 24
0.0
 34
0.0
 15
0.0
 25
0.0
 35
0.0
146
0.0
 13
0.0
 23
0.0
 33
0.0
 16
1.0
 26
0.0
 36
0.0
 17
0.0
 27
1.0
 37
0.0
 76
0
330
216
345
0
346
0
  0
LAYOUT
  5
393
102
{ACAD_REACTORS
330
1A
102
}
100
AcDbPlotSettings
  1

  2
none_device
  4
ANSI_C_(22.00_x_17.00_Inches)
  6

 40
0.0
 41
0.0
 42
0.0
 43
0.0
 44
558.8
 45
431.8
 46
0.0
 47
0.0
 48
0.0
 49
0.0
140
0.0
141
0.0
142
1.0
143
1.0
 70
0
 72
0
 73
0
 74
0
  7

 75
0
147
1.0
148
0.0
149
0.0
100
AcDbLayout
  1
Layout1
 70
0
 71
1
 10
0.0
 20
0.0
 11
22.0
 21
17.0
 12
0.0
 22
0.0
 32
0.0
 14
0.0
 24
0.0
 34
0.0
 15
0.0
 25
0.0
 35
0.0
146
0.0
 13
0.0
 23
0.0
 33
0.0
 16
1.0
 26
0.0
 36
0.0
 17
0.0
 27
1.0
 37
0.0
 76
0
330
217
345
0
346
0
  0
ENDSEC
  0
EOF