0
SECTION
  2
HEADER
  9
$ACADVER
  1
AC1027
  9
$ACADMAINTVER
 70
     8
  9
$DWGCODEPAGE
  3
ANSI_1252
  9
$REQUIREDVERSIONS
160
                 0
  9
$COMMENTS
  1
File was created by Cadenas
  9
$CUSTOMPROPERTYTAG
  1
NN
  9
$CUSTOMPROPERTY
  1
Set Screw Wide Slot Take Up Inch Bore - Stainless Housing, Stainless Steel Insert
  9
$CUSTOMPROPERTYTAG
  1
NT
  9
$CUSTOMPROPERTY
  1
SC Take-Up Bearings -Wide Slot -(Normal Duty) -Polymer Housed -Corrosion Resistant Insert -E-Z KLEEN
  9
$CUSTOMPROPERTYTAG
  1
NB
  9
$CUSTOMPROPERTY
  1
136995
  9
$CUSTOMPROPERTYTAG
  1
NBSYN
  9
$CUSTOMPROPERTY
  1
$PN.
  9
$CUSTOMPROPERTYTAG
  1
LINA
  9
$CUSTOMPROPERTY
  1
136995
  9
$CUSTOMPROPERTYTAG
  1
SERIES
  9
$CUSTOMPROPERTY
  1
210
  9
$CUSTOMPROPERTYTAG
  1
SS
  9
$CUSTOMPROPERTY
  1
2
  9
$CUSTOMPROPERTYTAG
  1
PN
  9
$CUSTOMPROPERTY
  1
136995
  9
$CUSTOMPROPERTYTAG
  1
DESCRIPTION
  9
$CUSTOMPROPERTY
  1
WSTU-SCEZ-200-SHSS
  9
$CUSTOMPROPERTYTAG
  1
W
  9
$CUSTOMPROPERTY
  1
4.03
  9
$CUSTOMPROPERTYTAG
  1
A
  9
$CUSTOMPROPERTY
  1
1.94
  9
$CUSTOMPROPERTYTAG
  1
B
  9
$CUSTOMPROPERTY
  1
5.63
  9
$CUSTOMPROPERTYTAG
  1
C
  9
$CUSTOMPROPERTY
  1
0.688
  9
$CUSTOMPROPERTYTAG
  1
D
  9
$CUSTOMPROPERTY
  1
3.25
  9
$CUSTOMPROPERTYTAG
  1
E
  9
$CUSTOMPROPERTY
  1
3.50
  9
$CUSTOMPROPERTYTAG
  1
F
  9
$CUSTOMPROPERTY
  1
1
  9
$CUSTOMPROPERTYTAG
  1
G
  9
$CUSTOMPROPERTY
  1
0.63
  9
$CUSTOMPROPERTYTAG
  1
H
  9
$CUSTOMPROPERTY
  1
0.75
  9
$CUSTOMPROPERTYTAG
  1
J
  9
$CUSTOMPROPERTY
  1
2.75
  9
$CUSTOMPROPERTYTAG
  1
K
  9
$CUSTOMPROPERTY
  1
1.94
  9
$CUSTOMPROPERTYTAG
  1
L
  9
$CUSTOMPROPERTY
  1
2.43
  9
$CUSTOMPROPERTYTAG
  1
M
  9
$CUSTOMPROPERTY
  1
4.015 / 3.985
  9
$CUSTOMPROPERTYTAG
  1
N
  9
$CUSTOMPROPERTY
  1
4.50
  9
$CUSTOMPROPERTYTAG
  1
R
  9
$CUSTOMPROPERTY
  1
0.75
  9
$CUSTOMPROPERTYTAG
  1
S
  9
$CUSTOMPROPERTY
  1
1.19
  9
$CUSTOMPROPERTYTAG
  1
T
  9
$CUSTOMPROPERTY
  1
1.62
  9
$CUSTOMPROPERTYTAG
  1
COMPANY
  9
$CUSTOMPROPERTY
  1
baldor
  9
$INSBASE
 10
0.0
 20
0.0
 30
0.0
  9
$EXTMIN
 10
1.000000000000000E+20
 20
1.000000000000000E+20
 30
1.000000000000000E+20
  9
$EXTMAX
 10
-1.000000000000000E+20
 20
-1.000000000000000E+20
 30
-1.000000000000000E+20
  9
$LIMMIN
 10
0.0
 20
0.0
  9
$LIMMAX
 10
12.0
 20
9.0
  9
$ORTHOMODE
 70
     0
  9
$REGENMODE
 70
     1
  9
$FILLMODE
 70
     1
  9
$QTEXTMODE
 70
     0
  9
$MIRRTEXT
 70
     1
  9
$LTSCALE
 40
1.0
  9
$ATTMODE
 70
     1
  9
$TEXTSIZE
 40
0.2
  9
$TRACEWID
 40
0.05
  9
$TEXTSTYLE
  7
Standard
  9
$CLAYER
  8
0
  9
$CELTYPE
  6
ByLayer
  9
$CECOLOR
 62
   256
  9
$CELTSCALE
 40
1.0
  9
$DISPSILH
 70
     0
  9
$DIMSCALE
 40
1.0
  9
$DIMASZ
 40
0.18
  9
$DIMEXO
 40
0.0625
  9
$DIMDLI
 40
0.38
  9
$DIMRND
 40
0.0
  9
$DIMDLE
 40
0.0
  9
$DIMEXE
 40
0.18
  9
$DIMTP
 40
0.0
  9
$DIMTM
 40
0.0
  9
$DIMTXT
 40
0.18
  9
$DIMCEN
 40
0.09
  9
$DIMTSZ
 40
0.0
  9
$DIMTOL
 70
     0
  9
$DIMLIM
 70
     0
  9
$DIMTIH
 70
     1
  9
$DIMTOH
 70
     1
  9
$DIMSE1
 70
     0
  9
$DIMSE2
 70
     0
  9
$DIMTAD
 70
     0
  9
$DIMZIN
 70
     0
  9
$DIMBLK
  1

  9
$DIMASO
 70
     1
  9
$DIMSHO
 70
     1
  9
$DIMPOST
  1

  9
$DIMAPOST
  1

  9
$DIMALT
 70
     0
  9
$DIMALTD
 70
     2
  9
$DIMALTF
 40
25.4
  9
$DIMLFAC
 40
1.0
  9
$DIMTOFL
 70
     0
  9
$DIMTVP
 40
0.0
  9
$DIMTIX
 70
     0
  9
$DIMSOXD
 70
     0
  9
$DIMSAH
 70
     0
  9
$DIMBLK1
  1

  9
$DIMBLK2
  1

  9
$DIMSTYLE
  2
Standard
  9
$DIMCLRD
 70
     0
  9
$DIMCLRE
 70
     0
  9
$DIMCLRT
 70
     0
  9
$DIMTFAC
 40
1.0
  9
$DIMGAP
 40
0.09
  9
$DIMJUST
 70
     0
  9
$DIMSD1
 70
     0
  9
$DIMSD2
 70
     0
  9
$DIMTOLJ
 70
     1
  9
$DIMTZIN
 70
     0
  9
$DIMALTZ
 70
     0
  9
$DIMALTTZ
 70
     0
  9
$DIMUPT
 70
     0
  9
$DIMDEC
 70
     4
  9
$DIMTDEC
 70
     4
  9
$DIMALTU
 70
     2
  9
$DIMALTTD
 70
     2
  9
$DIMTXSTY
  7
Standard
  9
$DIMAUNIT
 70
     0
  9
$DIMADEC
 70
     0
  9
$DIMALTRND
 40
0.0
  9
$DIMAZIN
 70
     0
  9
$DIMDSEP
 70
    46
  9
$DIMATFIT
 70
     3
  9
$DIMFRAC
 70
     0
  9
$DIMLDRBLK
  1

  9
$DIMLUNIT
 70
     2
  9
$DIMLWD
 70
    -2
  9
$DIMLWE
 70
    -2
  9
$DIMTMOVE
 70
     0
  9
$DIMFXL
 40
1.0
  9
$DIMFXLON
 70
     0
  9
$DIMJOGANG
 40
0.7853981633974483
  9
$DIMTFILL
 70
     0
  9
$DIMTFILLCLR
 70
     0
  9
$DIMARCSYM
 70
     0
  9
$DIMLTYPE
  6

  9
$DIMLTEX1
  6

  9
$DIMLTEX2
  6

  9
$DIMTXTDIRECTION
 70
     0
  9
$LUNITS
 70
     2
  9
$LUPREC
 70
     4
  9
$SKETCHINC
 40
0.1
  9
$FILLETRAD
 40
0.5
  9
$AUNITS
 70
     0
  9
$AUPREC
 70
     0
  9
$MENU
  1
.
  9
$ELEVATION
 40
0.0
  9
$PELEVATION
 40
0.0
  9
$THICKNESS
 40
0.0
  9
$LIMCHECK
 70
     0
  9
$CHAMFERA
 40
0.0
  9
$CHAMFERB
 40
0.0
  9
$CHAMFERC
 40
0.0
  9
$CHAMFERD
 40
0.0
  9
$SKPOLY
 70
     0
  9
$TDCREATE
 40
2458168.892135081
  9
$TDUCREATE
 40
2458168.850468414
  9
$TDUPDATE
 40
2458168.892135081
  9
$TDUUPDATE
 40
2458168.850468414
  9
$TDINDWG
 40
0.0000000116
  9
$TDUSRTIMER
 40
0.0000000116
  9
$USRTIMER
 70
     1
  9
$ANGBASE
 50
0.0
  9
$ANGDIR
 70
     0
  9
$PDMODE
 70
     0
  9
$PDSIZE
 40
0.0
  9
$PLINEWID
 40
0.0
  9
$SPLFRAME
 70
     0
  9
$SPLINETYPE
 70
     6
  9
$SPLINESEGS
 70
     8
  9
$HANDSEED
  5
1B8
  9
$SURFTAB1
 70
     6
  9
$SURFTAB2
 70
     6
  9
$SURFTYPE
 70
     6
  9
$SURFU
 70
     6
  9
$SURFV
 70
     6
  9
$UCSBASE
  2

  9
$UCSNAME
  2

  9
$UCSORG
 10
0.0
 20
0.0
 30
0.0
  9
$UCSXDIR
 10
1.0
 20
0.0
 30
0.0
  9
$UCSYDIR
 10
0.0
 20
1.0
 30
0.0
  9
$UCSORTHOREF
  2

  9
$UCSORTHOVIEW
 70
     0
  9
$UCSORGTOP
 10
0.0
 20
0.0
 30
0.0
  9
$UCSORGBOTTOM
 10
0.0
 20
0.0
 30
0.0
  9
$UCSORGLEFT
 10
0.0
 20
0.0
 30
0.0
  9
$UCSORGRIGHT
 10
0.0
 20
0.0
 30
0.0
  9
$UCSORGFRONT
 10
0.0
 20
0.0
 30
0.0
  9
$UCSORGBACK
 10
0.0
 20
0.0
 30
0.0
  9
$PUCSBASE
  2

  9
$PUCSNAME
  2

  9
$PUCSORG
 10
0.0
 20
0.0
 30
0.0
  9
$PUCSXDIR
 10
1.0
 20
0.0
 30
0.0
  9
$PUCSYDIR
 10
0.0
 20
1.0
 30
0.0
  9
$PUCSORTHOREF
  2

  9
$PUCSORTHOVIEW
 70
     0
  9
$PUCSORGTOP
 10
0.0
 20
0.0
 30
0.0
  9
$PUCSORGBOTTOM
 10
0.0
 20
0.0
 30
0.0
  9
$PUCSORGLEFT
 10
0.0
 20
0.0
 30
0.0
  9
$PUCSORGRIGHT
 10
0.0
 20
0.0
 30
0.0
  9
$PUCSORGFRONT
 10
0.0
 20
0.0
 30
0.0
  9
$PUCSORGBACK
 10
0.0
 20
0.0
 30
0.0
  9
$USERI1
 70
     0
  9
$USERI2
 70
     0
  9
$USERI3
 70
     0
  9
$USERI4
 70
     0
  9
$USERI5
 70
     0
  9
$USERR1
 40
0.0
  9
$USERR2
 40
0.0
  9
$USERR3
 40
0.0
  9
$USERR4
 40
0.0
  9
$USERR5
 40
0.0
  9
$WORLDVIEW
 70
     1
  9
$SHADEDGE
 70
     3
  9
$SHADEDIF
 70
    70
  9
$TILEMODE
 70
     1
  9
$MAXACTVP
 70
    64
  9
$PINSBASE
 10
0.0
 20
0.0
 30
0.0
  9
$PLIMCHECK
 70
     0
  9
$PEXTMIN
 10
1.000000000000000E+20
 20
1.000000000000000E+20
 30
1.000000000000000E+20
  9
$PEXTMAX
 10
-1.000000000000000E+20
 20
-1.000000000000000E+20
 30
-1.000000000000000E+20
  9
$PLIMMIN
 10
0.0
 20
0.0
  9
$PLIMMAX
 10
12.0
 20
9.0
  9
$UNITMODE
 70
     0
  9
$VISRETAIN
 70
     1
  9
$PLINEGEN
 70
     0
  9
$PSLTSCALE
 70
     1
  9
$TREEDEPTH
 70
  3020
  9
$CMLSTYLE
  2
Standard
  9
$CMLJUST
 70
     0
  9
$CMLSCALE
 40
1.0
  9
$PROXYGRAPHICS
 70
     1
  9
$MEASUREMENT
 70
     0
  9
$CELWEIGHT
370
    -1
  9
$ENDCAPS
280
     0
  9
$JOINSTYLE
280
     0
  9
$LWDISPLAY
290
     0
  9
$INSUNITS
 70
     1
  9
$HYPERLINKBASE
  1

  9
$STYLESHEET
  1

  9
$XEDIT
290
     1
  9
$CEPSNTYPE
380
     0
  9
$PSTYLEMODE
290
     1
  9
$FINGERPRINTGUID
  2
{6640D737-5ED4-436E-AEF5-9967E361BE16}
  9
$VERSIONGUID
  2
{FAEB1C32-E019-11D5-929B-00C0DF256EC4}
  9
$EXTNAMES
290
     1
  9
$PSVPSCALE
 40
0.0
  9
$OLESTARTUP
290
     0
  9
$SORTENTS
280
   127
  9
$INDEXCTL
280
     0
  9
$HIDETEXT
280
     1
  9
$XCLIPFRAME
280
     2
  9
$HALOGAP
280
     0
  9
$OBSCOLOR
 70
   257
  9
$OBSLTYPE
280
     0
  9
$INTERSECTIONDISPLAY
280
     0
  9
$INTERSECTIONCOLOR
 70
   257
  9
$DIMASSOC
280
     2
  9
$PROJECTNAME
  1

  9
$CAMERADISPLAY
290
     0
  9
$LENSLENGTH
 40
50.0
  9
$CAMERAHEIGHT
 40
0.0
  9
$STEPSPERSEC
 40
2.0
  9
$STEPSIZE
 40
6.0
  9
$3DDWFPREC
 40
2.0
  9
$PSOLWIDTH
 40
0.25
  9
$PSOLHEIGHT
 40
4.0
  9
$LOFTANG1
 40
1.570796326794897
  9
$LOFTANG2
 40
1.570796326794897
  9
$LOFTMAG1
 40
0.0
  9
$LOFTMAG2
 40
0.0
  9
$LOFTPARAM
 70
     7
  9
$LOFTNORMALS
280
     1
  9
$LATITUDE
 40
37.795
  9
$LONGITUDE
 40
-122.394
  9
$NORTHDIRECTION
 40
0.0
  9
$TIMEZONE
 70
 -8000
  9
$LIGHTGLYPHDISPLAY
280
     1
  9
$TILEMODELIGHTSYNCH
280
     1
  9
$CMATERIAL
347
44
  9
$SOLIDHIST
280
     0
  9
$SHOWHIST
280
     1
  9
$DWFFRAME
280
     2
  9
$DGNFRAME
280
     2
  9
$REALWORLDSCALE
290
     1
  9
$INTERFERECOLOR
 62
   256
  9
$CSHADOW
280
     0
  9
$SHADOWPLANELOCATION
 40
0.0
  0
ENDSEC
  0
SECTION
  2
CLASSES
  0
CLASS
  1
ACDBDICTIONARYWDFLT
  2
AcDbDictionaryWithDefault
  3
ObjectDBX Classes
 90
        0
 91
        4
280
     0
281
     0
  0
CLASS
  1
VISUALSTYLE
  2
AcDbVisualStyle
  3
ObjectDBX Classes
 90
     4095
 91
        4
280
     0
281
     0
  0
CLASS
  1
MATERIAL
  2
AcDbMaterial
  3
ObjectDBX Classes
 90
     1153
 91
        4
280
     0
281
     0
  0
CLASS
  1
SCALE
  2
AcDbScale
  3
ObjectDBX Classes
 90
     1153
 91
        4
280
     0
281
     0
  0
CLASS
  1
TABLESTYLE
  2
AcDbTableStyle
  3
ObjectDBX Classes
 90
     4095
 91
        4
280
     0
281
     0
  0
CLASS
  1
MLEADERSTYLE
  2
AcDbMLeaderStyle
  3
ACDB_MLEADERSTYLE_CLASS
 90
     4095
 91
        4
280
     0
281
     0
  0
CLASS
  1
SUN
  2
AcDbSun
  3
SCENEOE
 90
     1153
 91
        4
280
     0
281
     0
  0
CLASS
  1
DICTIONARYVAR
  2
AcDbDictionaryVar
  3
ObjectDBX Classes
 90
        0
 91
        4
280
     0
281
     0
  0
CLASS
  1
CELLSTYLEMAP
  2
AcDbCellStyleMap
  3
ObjectDBX Classes
 90
     1152
 91
        4
280
     0
281
     0
  0
ENDSEC
  0
SECTION
  2
TABLES
  0
TABLE
  2
VPORT
  5
8
330
0
100
AcDbSymbolTable
 70
     1
  0
VPORT
  5
29
330
8
100
AcDbSymbolTableRecord
100
AcDbViewportTableRecord
  2
*Active
 70
     0
 10
0.0
 20
0.0
 11
1.0
 21
1.0
 12
0.0
 22
0.0
 13
0.0
 23
0.0
 14
0.5
 24
0.5
 15
0.5
 25
0.5
 16
0.0
 26
0.0
 36
1.0
 17
0.0
 27
0.0
 37
0.0
 40
4.59
 41
0.5817777777777775
 42
50.0
 43
0.0
 44
0.0
 50
0.0
 51
0.0
 71
     0
 72
   100
 73
     1
 74
     3
 75
     0
 76
     0
 77
     0
 78
     0
281
     0
 65
     1
110
0.0
120
0.0
130
0.0
111
1.0
121
0.0
131
0.0
112
0.0
122
1.0
132
0.0
 79
     0
146
0.0
348
2F
 60
     3
 61
     5
292
     1
282
     1
141
0.0
142
0.0
 63
   250
361
6D
  0
ENDTAB
  0
TABLE
  2
LTYPE
  5
5
330
0
100
AcDbSymbolTable
 70
     3
  0
LTYPE
  5
14
330
5
100
AcDbSymbolTableRecord
100
AcDbLinetypeTableRecord
  2
ByBlock
 70
     0
  3

 72
    65
 73
     0
 40
0.0
  0
LTYPE
  5
15
330
5
100
AcDbSymbolTableRecord
100
AcDbLinetypeTableRecord
  2
ByLayer
 70
     0
  3

 72
    65
 73
     0
 40
0.0
  0
LTYPE
  5
16
330
5
100
AcDbSymbolTableRecord
100
AcDbLinetypeTableRecord
  2
Continuous
 70
     0
  3
Solid line
 72
    65
 73
     0
 40
0.0
  0
LTYPE
  5
A0
330
5
100
AcDbSymbolTableRecord
100
AcDbLinetypeTableRecord
  2
Dashed
 70
     0
  3

 72
    65
 73
     2
 40
2.0
 49
1.0
 74
     0
 49
-1.0
 74
     0
  0
LTYPE
  5
139
330
5
100
AcDbSymbolTableRecord
100
AcDbLinetypeTableRecord
  2
Center
 70
     0
  3

 72
    65
 73
     4
 40
1.5
 49
0.45
 74
     0
 49
-0.5
 74
     0
 49
0.05
 74
     0
 49
-0.5
 74
     0
  0
ENDTAB
  0
TABLE
  2
LAYER
  5
2
330
0
100
AcDbSymbolTable
 70
     7
  0
LAYER
  5
10
330
2
100
AcDbSymbolTableRecord
100
AcDbLayerTableRecord
  2
0
 70
     0
 62
     7
  6
Continuous
370
    -3
390
F
347
46
348
0
  0
LAYER
  5
72
330
2
100
AcDbSymbolTableRecord
100
AcDbLayerTableRecord
  2
AM_6
 70
     0
 62
    -2
  6
Continuous
370
    35
390
F
347
46
348
0
  0
LAYER
  5
A1
330
2
100
AcDbSymbolTableRecord
100
AcDbLayerTableRecord
  2
AM_9
 70
     0
 62
     6
  6
Dashed
370
    25
390
F
347
46
348
0
  0
LAYER
  5
136
330
2
100
AcDbSymbolTableRecord
100
AcDbLayerTableRecord
  2
AM_5
 70
     0
 62
     3
  6
Continuous
370
    25
390
F
347
46
348
0
  0
LAYER
  5
13A
330
2
100
AcDbSymbolTableRecord
100
AcDbLayerTableRecord
  2
AM_7
 70
     0
 62
     7
  6
Center
370
    25
390
F
347
46
348
0
  0
LAYER
  5
13C
330
2
100
AcDbSymbolTableRecord
100
AcDbLayerTableRecord
  2
AM_4
 70
     0
 62
     7
  6
Continuous
370
    50
390
F
347
46
348
0
  0
LAYER
  5
1AA
330
2
100
AcDbSymbolTableRecord
100
AcDbLayerTableRecord
  2
ConnectionPoints
 70
     0
 62
     7
  6
Continuous
370
    50
390
F
347
46
348
0
  0
ENDTAB
  0
TABLE
  2
STYLE
  5
3
330
0
100
AcDbSymbolTable
 70
     1
  0
STYLE
  5
11
330
3
100
AcDbSymbolTableRecord
100
AcDbTextStyleTableRecord
  2
Standard
 70
     0
 40
0.0
 41
1.0
 50
0.0
 71
     0
 42
0.2
  3
txt
  4

  0
ENDTAB
  0
TABLE
  2
VIEW
  5
6
330
0
100
AcDbSymbolTable
 70
     0
  0
ENDTAB
  0
TABLE
  2
UCS
  5
7
330
0
100
AcDbSymbolTable
 70
     0
  0
ENDTAB
  0
TABLE
  2
APPID
  5
9
330
0
100
AcDbSymbolTable
 70
     1
  0
APPID
  5
12
330
9
100
AcDbSymbolTableRecord
100
AcDbRegAppTableRecord
  2
ACAD
 70
     0
  0
ENDTAB
  0
TABLE
  2
DIMSTYLE
  5
A
330
0
100
AcDbSymbolTable
 70
     1
100
AcDbDimStyleTable
  0
DIMSTYLE
105
27
330
A
100
AcDbSymbolTableRecord
100
AcDbDimStyleTableRecord
  2
Standard
 70
     0
178
     0
340
11
  0
ENDTAB
  0
TABLE
  2
BLOCK_RECORD
  5
1
330
0
100
AcDbSymbolTable
 70
     5
  0
BLOCK_RECORD
  5
1F
330
1
100
AcDbSymbolTableRecord
100
AcDbBlockTableRecord
  2
*Model_Space
340
22
 70
     0
280
     1
281
     0
  0
BLOCK_RECORD
  5
1B
330
1
100
AcDbSymbolTableRecord
100
AcDbBlockTableRecord
  2
*Paper_Space
340
1E
 70
     0
280
     1
281
     0
  0
BLOCK_RECORD
  5
23
330
1
100
AcDbSymbolTableRecord
100
AcDbBlockTableRecord
  2
*Paper_Space0
340
26
 70
     0
280
     1
281
     0
  0
BLOCK_RECORD
  5
6E
330
1
100
AcDbSymbolTableRecord
100
AcDbBlockTableRecord
  2
1_136995_2
340
0
102
{BLKREFS
331
6F
102
}
 70
     0
280
     1
281
     0
  0
BLOCK_RECORD
  5
8E
330
1
100
AcDbSymbolTableRecord
100
AcDbBlockTableRecord
  2
2_405020c_Inch_0_in_136995_2
340
0
102
{BLKREFS
331
8F
102
}
 70
     0
280
     1
281
     0
  0
BLOCK_RECORD
  5
EE
330
1
100
AcDbSymbolTableRecord
100
AcDbBlockTableRecord
  2
3_127808_0_in_136995_2
340
0
102
{BLKREFS
331
EF
102
}
 70
     0
280
     1
281
     0
  0
BLOCK_RECORD
  5
14C
330
1
100
AcDbSymbolTableRecord
100
AcDbBlockTableRecord
  2
4_136995H_0_in_136995_2
340
0
102
{BLKREFS
331
14D
102
}
 70
     0
280
     1
281
     0
  0
ENDTAB
  0
ENDSEC
  0
SECTION
  2
BLOCKS
  0
BLOCK
  5
20
330
1F
100
AcDbEntity
  8
0
100
AcDbBlockBegin
  2
*Model_Space
 70
     0
 10
0.0
 20
0.0
 30
0.0
  3
*Model_Space
  1

  0
ENDBLK
  5
21
330
1F
100
AcDbEntity
  8
0
100
AcDbBlockEnd
  0
BLOCK
  5
1C
330
1B
100
AcDbEntity
 67
     1
  8
0
100
AcDbBlockBegin
  2
*Paper_Space
 70
     0
 10
0.0
 20
0.0
 30
0.0
  3
*Paper_Space
  1

  0
ENDBLK
  5
1D
330
1B
100
AcDbEntity
 67
     1
  8
0
100
AcDbBlockEnd
  0
BLOCK
  5
24
330
23
100
AcDbEntity
  8
0
100
AcDbBlockBegin
  2
*Paper_Space0
 70
     0
 10
0.0
 20
0.0
 30
0.0
  3
*Paper_Space0
  1

  0
ENDBLK
  5
25
330
23
100
AcDbEntity
  8
0
100
AcDbBlockEnd
  0
BLOCK
  5
70
330
6E
100
AcDbEntity
  8
0
100
AcDbBlockBegin
  2
1_136995_2
 70
     2
 10
0.0
 20
0.0
 30
0.0
  3
1_136995_2
  1

  0
ATTDEF
  5
73
330
6E
100
AcDbEntity
  8
AM_6
100
AcDbText
 10
6.309
 20
2.25
 30
0.0
 40
0.5
  1
Set Screw Wide Slot Take Up Inch Bore - Stainless Housing, Stainless Steel Insert
100
AcDbAttributeDefinition
  3

  2
NN
 70
     8
280
     0
  0
ATTDEF
  5
74
330
6E
100
AcDbEntity
  8
AM_6
100
AcDbText
 10
6.309
 20
1.75
 30
0.0
 40
0.5
  1
SC Take-Up Bearings -Wide Slot -(Normal Duty) -Polymer Housed -Corrosion Resistant Insert -E-Z KLEEN
100
AcDbAttributeDefinition
  3

  2
NT
 70
     8
280
     0
  0
ATTDEF
  5
75
330
6E
100
AcDbEntity
  8
AM_6
100
AcDbText
 10
6.309
 20
1.25
 30
0.0
 40
0.5
  1
136995
100
AcDbAttributeDefinition
  3

  2
NB
 70
     8
280
     0
  0
ATTDEF
  5
76
330
6E
100
AcDbEntity
  8
AM_6
100
AcDbText
 10
6.309
 20
0.75
 30
0.0
 40
0.5
  1
$PN.
100
AcDbAttributeDefinition
  3

  2
NBSYN
 70
     8
280
     0
  0
ATTDEF
  5
77
330
6E
100
AcDbEntity
  8
AM_6
100
AcDbText
 10
6.309
 20
0.25
 30
0.0
 40
0.5
  1
136995
100
AcDbAttributeDefinition
  3

  2
LINA
 70
     8
280
     0
  0
ATTDEF
  5
78
330
6E
100
AcDbEntity
  8
AM_6
100
AcDbText
 10
6.309
 20
-0.25
 30
0.0
 40
0.5
  1
210
100
AcDbAttributeDefinition
  3

  2
SERIES
 70
     8
280
     0
  0
ATTDEF
  5
79
330
6E
100
AcDbEntity
  8
AM_6
100
AcDbText
 10
6.309
 20
-0.75
 30
0.0
 40
0.5
  1
2
100
AcDbAttributeDefinition
  3

  2
SS
 70
     8
280
     0
  0
ATTDEF
  5
7A
330
6E
100
AcDbEntity
  8
AM_6
100
AcDbText
 10
6.309
 20
-1.25
 30
0.0
 40
0.5
  1
136995
100
AcDbAttributeDefinition
  3

  2
PN
 70
     8
280
     0
  0
ATTDEF
  5
7B
330
6E
100
AcDbEntity
  8
AM_6
100
AcDbText
 10
6.309
 20
-1.75
 30
0.0
 40
0.5
  1
WSTU-SCEZ-200-SHSS
100
AcDbAttributeDefinition
  3

  2
DESCRIPTION
 70
     8
280
     0
  0
ATTDEF
  5
7C
330
6E
100
AcDbEntity
  8
AM_6
100
AcDbText
 10
6.309
 20
-2.25
 30
0.0
 40
0.5
  1
4.03
100
AcDbAttributeDefinition
  3

  2
W
 70
     8
280
     0
  0
ATTDEF
  5
7D
330
6E
100
AcDbEntity
  8
AM_6
100
AcDbText
 10
6.309
 20
-2.75
 30
0.0
 40
0.5
  1
1.94
100
AcDbAttributeDefinition
  3

  2
A
 70
     8
280
     0
  0
ATTDEF
  5
7E
330
6E
100
AcDbEntity
  8
AM_6
100
AcDbText
 10
6.309
 20
-3.25
 30
0.0
 40
0.5
  1
5.63
100
AcDbAttributeDefinition
  3

  2
B
 70
     8
280
     0
  0
ATTDEF
  5
7F
330
6E
100
AcDbEntity
  8
AM_6
100
AcDbText
 10
6.309
 20
-3.75
 30
0.0
 40
0.5
  1
0.688
100
AcDbAttributeDefinition
  3

  2
C
 70
     8
280
     0
  0
ATTDEF
  5
80
330
6E
100
AcDbEntity
  8
AM_6
100
AcDbText
 10
6.309
 20
-4.25
 30
0.0
 40
0.5
  1
3.25
100
AcDbAttributeDefinition
  3

  2
D
 70
     8
280
     0
  0
ATTDEF
  5
81
330
6E
100
AcDbEntity
  8
AM_6
100
AcDbText
 10
6.309
 20
-4.75
 30
0.0
 40
0.5
  1
3.50
100
AcDbAttributeDefinition
  3

  2
E
 70
     8
280
     0
  0
ATTDEF
  5
82
330
6E
100
AcDbEntity
  8
AM_6
100
AcDbText
 10
6.309
 20
-5.25
 30
0.0
 40
0.5
  1
1
100
AcDbAttributeDefinition
  3

  2
F
 70
     8
280
     0
  0
ATTDEF
  5
83
330
6E
100
AcDbEntity
  8
AM_6
100
AcDbText
 10
6.309
 20
-5.75
 30
0.0
 40
0.5
  1
0.63
100
AcDbAttributeDefinition
  3

  2
G
 70
     8
280
     0
  0
ATTDEF
  5
84
330
6E
100
AcDbEntity
  8
AM_6
100
AcDbText
 10
6.309
 20
-6.25
 30
0.0
 40
0.5
  1
0.75
100
AcDbAttributeDefinition
  3

  2
H
 70
     8
280
     0
  0
ATTDEF
  5
85
330
6E
100
AcDbEntity
  8
AM_6
100
AcDbText
 10
6.309
 20
-6.75
 30
0.0
 40
0.5
  1
2.75
100
AcDbAttributeDefinition
  3

  2
J
 70
     8
280
     0
  0
ATTDEF
  5
86
330
6E
100
AcDbEntity
  8
AM_6
100
AcDbText
 10
6.309
 20
-7.25
 30
0.0
 40
0.5
  1
1.94
100
AcDbAttributeDefinition
  3

  2
K
 70
     8
280
     0
  0
ATTDEF
  5
87
330
6E
100
AcDbEntity
  8
AM_6
100
AcDbText
 10
6.309
 20
-7.75
 30
0.0
 40
0.5
  1
2.43
100
AcDbAttributeDefinition
  3

  2
L
 70
     8
280
     0
  0
ATTDEF
  5
88
330
6E
100
AcDbEntity
  8
AM_6
100
AcDbText
 10
6.309
 20
-8.25
 30
0.0
 40
0.5
  1
4.015 / 3.985
100
AcDbAttributeDefinition
  3

  2
M
 70
     8
280
     0
  0
ATTDEF
  5
89
330
6E
100
AcDbEntity
  8
AM_6
100
AcDbText
 10
6.309
 20
-8.75
 30
0.0
 40
0.5
  1
4.50
100
AcDbAttributeDefinition
  3

  2
N
 70
     8
280
     0
  0
ATTDEF
  5
8A
330
6E
100
AcDbEntity
  8
AM_6
100
AcDbText
 10
6.309
 20
-9.25
 30
0.0
 40
0.5
  1
0.75
100
AcDbAttributeDefinition
  3

  2
R
 70
     8
280
     0
  0
ATTDEF
  5
8B
330
6E
100
AcDbEntity
  8
AM_6
100
AcDbText
 10
6.309
 20
-9.75
 30
0.0
 40
0.5
  1
1.19
100
AcDbAttributeDefinition
  3

  2
S
 70
     8
280
     0
  0
ATTDEF
  5
8C
330
6E
100
AcDbEntity
  8
AM_6
100
AcDbText
 10
6.309
 20
-10.25
 30
0.0
 40
0.5
  1
1.62
100
AcDbAttributeDefinition
  3

  2
T
 70
     8
280
     0
  0
ATTDEF
  5
8D
330
6E
100
AcDbEntity
  8
AM_6
100
AcDbText
 10
6.309
 20
-10.75
 30
0.0
 40
0.5
  1
baldor
100
AcDbAttributeDefinition
  3

  2
COMPANY
 70
     8
280
     0
  0
INSERT
  5
8F
330
6E
100
AcDbEntity
  8
0
100
AcDbBlockReference
  2
2_405020c_Inch_0_in_136995_2
 10
0.0
 20
0.0
 30
0.0
  0
INSERT
  5
EF
330
6E
100
AcDbEntity
  8
0
100
AcDbBlockReference
  2
3_127808_0_in_136995_2
 10
0.0
 20
0.0
 30
0.0
  0
INSERT
  5
14D
330
6E
100
AcDbEntity
  8
0
100
AcDbBlockReference
  2
4_136995H_0_in_136995_2
 10
0.0
 20
0.0
 30
0.0
  0
ENDBLK
  5
71
330
6E
100
AcDbEntity
  8
0
100
AcDbBlockEnd
  0
BLOCK
  5
90
330
8E
100
AcDbEntity
  8
0
100
AcDbBlockBegin
  2
2_405020c_Inch_0_in_136995_2
 70
     2
 10
0.0
 20
0.0
 30
0.0
  3
2_405020c_Inch_0_in_136995_2
  1

  0
ATTDEF
  5
92
330
8E
100
AcDbEntity
  8
AM_6
100
AcDbText
 10
5.162408630723042
 20
-0.8745405326459149
 30
0.0
 40
0.5
  1
405020C -Inch
100
AcDbAttributeDefinition
  3

  2
NN
 70
     8
280
     0
  0
ATTDEF
  5
93
330
8E
100
AcDbEntity
  8
AM_6
100
AcDbText
 10
5.162408630723042
 20
-1.374540532645915
 30
0.0
 40
0.5
  1
Grease fitting
100
AcDbAttributeDefinition
  3

  2
NT
 70
     8
280
     0
  0
ATTDEF
  5
94
330
8E
100
AcDbEntity
  8
AM_6
100
AcDbText
 10
5.162408630723042
 20
-1.874540532645915
 30
0.0
 40
0.5
  1
405020c-Inch
100
AcDbAttributeDefinition
  3

  2
NB
 70
     8
280
     0
  0
ATTDEF
  5
95
330
8E
100
AcDbEntity
  8
AM_6
100
AcDbText
 10
5.162408630723042
 20
-2.374540532645915
 30
0.0
 40
0.5
  1
$MN.-Inch
100
AcDbAttributeDefinition
  3

  2
NBSYN
 70
     8
280
     0
  0
ATTDEF
  5
96
330
8E
100
AcDbEntity
  8
AM_6
100
AcDbText
 10
5.162408630723042
 20
-2.874540532645915
 30
0.0
 40
0.5
  1
405020c
100
AcDbAttributeDefinition
  3

  2
LINA
 70
     8
280
     0
  0
ATTDEF
  5
97
330
8E
100
AcDbEntity
  8
AM_6
100
AcDbText
 10
5.162408630723042
 20
-3.374540532645915
 30
0.0
 40
0.5
  1
405020c
100
AcDbAttributeDefinition
  3

  2
MN
 70
     8
280
     0
  0
ATTDEF
  5
98
330
8E
100
AcDbEntity
  8
AM_6
100
AcDbText
 10
5.162408630723042
 20
-3.874540532645915
 30
0.0
 40
0.5
  1
0.230
100
AcDbAttributeDefinition
  3

  2
NDR
 70
     8
280
     0
  0
ATTDEF
  5
99
330
8E
100
AcDbEntity
  8
AM_6
100
AcDbText
 10
5.162408630723042
 20
-4.374540532645915
 30
0.0
 40
0.5
  1
0.210
100
AcDbAttributeDefinition
  3

  2
KDR
 70
     8
280
     0
  0
ATTDEF
  5
9A
330
8E
100
AcDbEntity
  8
AM_6
100
AcDbText
 10
5.162408630723042
 20
-4.874540532645915
 30
0.0
 40
0.5
  1
0.157
100
AcDbAttributeDefinition
  3

  2
BZE
 70
     8
280
     0
  0
ATTDEF
  5
9B
330
8E
100
AcDbEntity
  8
AM_6
100
AcDbText
 10
5.162408630723042
 20
-5.374540532645915
 30
0.0
 40
0.5
  1
9/32
100
AcDbAttributeDefinition
  3

  2
WAF
 70
     8
280
     0
  0
ATTDEF
  5
9C
330
8E
100
AcDbEntity
  8
AM_6
100
AcDbText
 10
5.162408630723042
 20
-5.874540532645915
 30
0.0
 40
0.5
  1
0.2813
100
AcDbAttributeDefinition
  3

  2
WAF1
 70
     8
280
     0
  0
ATTDEF
  5
9D
330
8E
100
AcDbEntity
  8
AM_6
100
AcDbText
 10
5.162408630723042
 20
-6.374540532645915
 30
0.0
 40
0.5
  1
0.545
100
AcDbAttributeDefinition
  3

  2
BL
 70
     8
280
     0
  0
ATTDEF
  5
9E
330
8E
100
AcDbEntity
  8
AM_6
100
AcDbText
 10
5.162408630723042
 20
-6.874540532645915
 30
0.0
 40
0.5
  1
0.200
100
AcDbAttributeDefinition
  3

  2
TL
 70
     8
280
     0
  0
ATTDEF
  5
9F
330
8E
100
AcDbEntity
  8
AM_6
100
AcDbText
 10
5.162408630723042
 20
-7.374540532645915
 30
0.0
 40
0.5
  1
baldor
100
AcDbAttributeDefinition
  3

  2
COMPANY
 70
     8
280
     0
  0
ELLIPSE
  5
A2
330
8E
100
AcDbEntity
  8
AM_9
100
AcDbEllipse
 10
-0.0000000000000001
 20
-1.2375
 30
0.0
 11
-0.08080642971672804
 21
9.895933550311655E-18
 31
0.0
210
0.0
220
0.0
230
1.0
 40
0.8660254037844377
 41
0.0
 42
6.283185307179586
  0
LINE
  5
A3
330
8E
100
AcDbEntity
  8
AM_9
100
AcDbLine
 10
0.0652860661119892
 20
-1.299798171096726
 30
0.0
 11
0.0672340878139807
 21
-1.298395679868741
 31
0.0
  0
LWPOLYLINE
  5
A4
330
8E
100
AcDbEntity
  8
AM_9
100
AcDbPolyline
 90
        4
 70
     0
 43
0.0
 10
0.0417505142461116
 20
-1.312298927206813
 10
0.0502326189294761
 20
-1.30862943851765
 10
0.0609016759399193
 20
-1.302717929894275
 10
0.0652860661119892
 20
-1.299798171096726
  0
LWPOLYLINE
  5
A5
330
8E
100
AcDbEntity
  8
AM_9
100
AcDbPolyline
 90
       11
 70
     0
 43
0.0
 10
-0.0642113013185933
 20
-1.30054340361541
 10
-0.0566972327419475
 20
-1.305236561531252
 10
-0.0458667921876646
 20
-1.3106224602439
 10
-0.034389918734729
 20
-1.314841260578958
 10
-0.022423900365369
 20
-1.317830652738518
 10
-0.0101332026071914
 20
-1.319545448670212
 10
0.00231329989834
 20
-1.31995780183857
 10
0.0147445747904402
 20
-1.319057066151575
 10
0.0269882944756759
 20
-1.316849841764769
 10
0.0388736295378
 20
-1.313360094414282
 10
0.0417505142461116
 20
-1.312298927206813
  0
ELLIPSE
  5
A6
330
8E
100
AcDbEntity
  8
AM_9
100
AcDbEllipse
 10
0.0000000000002585
 20
-1.229884139105944
 30
0.0
 11
0.1038190510526445
 21
1.547024414727755E-9
 31
0.0
210
0.0
220
0.0
230
1.0
 40
0.8660254037876568
 41
5.125848818599104
 42
5.457205981294766
  0
ELLIPSE
  5
A7
330
8E
100
AcDbEntity
  8
AM_9
100
AcDbEllipse
 10
0.0000000000000001
 20
-1.229884139106115
 30
0.0
 11
0.1038190510530402
 21
0.0
 31
0.0
210
0.0
220
0.0
230
1.0
 40
0.8660254037844337
 41
4.043595056852384
 42
5.125848832199957
  0
ELLIPSE
  5
A8
330
8E
100
AcDbEntity
  8
AM_9
100
AcDbEllipse
 10
0.000000000000001
 20
-1.229884139106117
 30
0.0
 11
0.1038190510530404
 21
0.0
 31
0.0
210
0.0
220
0.0
230
1.0
 40
0.866025403784432
 41
3.141592653589793
 42
4.04359505685237
  0
LINE
  5
A9
330
8E
100
AcDbEntity
  8
AM_9
100
AcDbLine
 10
0.0703724241776373
 20
-1.295986998028307
 30
0.0
 11
0.0894418265240918
 21
-1.280761180726838
 31
0.0
  0
LINE
  5
AA
330
8E
100
AcDbEntity
  8
AM_9
100
AcDbLine
 10
-0.0894418265240921
 20
-1.280761180726838
 30
0.0
 11
-0.0703724241776376
 21
-1.295986998028307
 31
0.0
  0
ELLIPSE
  5
AB
330
8E
100
AcDbEntity
  8
AM_9
100
AcDbEllipse
 10
-0.0000000000012024
 20
-1.196745879144256
 30
0.0
 11
0.1319517646659027
 21
0.0
 31
0.0
210
0.0
220
0.0
230
1.0
 40
0.8660254037841403
 41
3.967571964591958
 42
3.982369350617504
  0
ELLIPSE
  5
AC
330
8E
100
AcDbEntity
  8
AM_9
100
AcDbEllipse
 10
0.0
 20
-1.196745879143069
 30
0.0
 11
0.13195176466768
 21
0.0
 31
0.0
210
0.0
220
0.0
230
1.0
 40
0.8660254037844398
 41
5.575970029221982
 42
9.42477796076938
  0
ELLIPSE
  5
AD
330
8E
100
AcDbEntity
  8
AM_9
100
AcDbEllipse
 10
0.0000000000000378
 20
-1.196745879143092
 30
0.0
 11
0.1319517646676266
 21
0.0
 31
0.0
210
0.0
220
0.0
230
1.0
 40
0.8660254037844863
 41
5.444433653189042
 42
5.556519950269003
  0
ELLIPSE
  5
AE
330
8E
100
AcDbEntity
  8
AM_9
100
AcDbEllipse
 10
-0.0000000000000002
 20
-1.229884139106115
 30
0.0
 11
0.1038190510530389
 21
0.0
 31
0.0
210
0.0
220
0.0
230
1.0
 40
0.8660254037844398
 41
5.457205996177249
 42
9.42477796076938
  0
ELLIPSE
  5
AF
330
8E
100
AcDbEntity
  8
AM_9
100
AcDbEllipse
 10
0.0000000000000011
 20
-1.196745879143068
 30
0.0
 11
0.1319517646676813
 21
0.0
 31
0.0
210
0.0
220
0.0
230
1.0
 40
0.8660254037844398
 41
3.141592653589793
 42
3.967571964592127
  0
LWPOLYLINE
  5
B0
330
8E
100
AcDbEntity
  8
AM_9
100
AcDbPolyline
 90
       10
 70
     0
 43
0.0
 10
-0.1359265219950581
 20
-1.186977600930837
 10
-0.1355733187751812
 20
-1.195963001536885
 10
-0.1338503736776418
 20
-1.208691807049387
 10
-0.1307203890049653
 20
-1.221158899422582
 10
-0.1262225972671992
 20
-1.233241405762233
 10
-0.1204050434845352
 20
-1.244823881509698
 10
-0.1133248250522279
 20
-1.255795103090763
 10
-0.1050488160657382
 20
-1.266047608836023
 10
-0.0956547848915991
 20
-1.275477820159429
 10
-0.0879209332747974
 20
-1.281957486215522
  0
LWPOLYLINE
  5
B1
330
8E
100
AcDbEntity
  8
AM_9
100
AcDbPolyline
 90
       19
 70
     0
 43
0.0
 10
0.0881315292307837
 20
-1.281793963982974
 10
0.0958975616252195
 20
-1.275257446327763
 10
0.1054948456188028
 20
-1.265548059296911
 10
0.1139132032625605
 20
-1.25497480387508
 10
0.1210584278690444
 20
-1.243666593459815
 10
0.1268560499099027
 20
-1.231760916908261
 10
0.1312519065286166
 20
-1.219399962621803
 10
0.1342114262512379
 20
-1.206727059603823
 10
0.1357179793100912
 20
-1.193883824463106
 10
0.1357707491339356
 20
-1.181008181554993
 10
0.1343825533065807
 20
-1.16823324440439
 10
0.1315797013746139
 20
-1.155693118037364
 10
0.1273990527420838
 20
-1.143509778531002
 10
0.121886563157242
 20
-1.131799770258197
 10
0.1150971613168643
 20
-1.120675250559555
 10
0.1070953340267272
 20
-1.110244549924228
 10
0.0979561852601686
 20
-1.100612207553643
 10
0.0877665764543602
 20
-1.091878290137576
 10
0.0775736117472932
 20
-1.084732910934264
  0
LWPOLYLINE
  5
B2
330
8E
100
AcDbEntity
  8
AM_9
100
AcDbPolyline
 90
        9
 70
     0
 43
0.0
 10
-0.0950932608816487
 20
-1.097971910159722
 10
-0.1033435410229093
 20
-1.106045341469917
 10
-0.1120478598772237
 20
-1.116426954064417
 10
-0.1194994414880963
 20
-1.127574702220231
 10
-0.1256190793529671
 20
-1.139352761416344
 10
-0.1303478638670734
 20
-1.151619707274882
 10
-0.133646744569053
 20
-1.164232191899259
 10
-0.1354950601777397
 20
-1.177047985621674
 10
-0.1359265219950581
 20
-1.186977600930837
  0
LWPOLYLINE
  5
B3
330
8E
100
AcDbEntity
  8
AM_9
100
AcDbPolyline
 90
        4
 70
     0
 43
0.0
 10
-0.075991479608899
 20
-1.083744081650044
 10
-0.0825882875262303
 20
-1.088072965873595
 10
-0.093485092293118
 20
-1.096556216235245
 10
-0.0950932608816487
 20
-1.097971910159722
  0
ELLIPSE
  5
B4
330
8E
100
AcDbEntity
  8
AM_9
100
AcDbEllipse
 10
0.0
 20
-1.196745879143068
 30
0.0
 11
0.1319517646676802
 21
0.0
 31
0.0
210
0.0
220
0.0
230
1.0
 40
0.8660254037844405
 41
3.982369350617471
 42
5.444433653189085
  0
LWPOLYLINE
  5
B5
330
8E
100
AcDbEntity
  8
AM_9
100
AcDbPolyline
 90
        3
 70
     0
 43
0.0
 10
-0.1218064730422814
 20
-1.037430096812192
 10
-0.1015053942019012
 20
-1.006209040820387
 10
-0.081204315361521
 20
-0.9736117565257287
  0
LWPOLYLINE
  5
B6
330
8E
100
AcDbEntity
  8
AM_9
100
AcDbPolyline
 90
        4
 70
     0
 43
0.0
 10
-0.081204315361521
 20
-0.9736117565257287
 10
-0.0623017518439033
 20
-0.9747609610729259
 10
-0.0312428256208205
 20
-0.9760675644249154
 10
-0.0000000000000001
 20
-0.9765268602910518
  0
ELLIPSE
  5
B7
330
8E
100
AcDbEntity
  8
AM_9
100
AcDbEllipse
 10
0.0000000000000002
 20
-1.098333333333332
 30
0.0
 11
0.1406499999999994
 21
0.0
 31
0.0
210
0.0
220
0.0
230
1.0
 40
0.8660254037844375
 41
5.759586531581281
 42
7.853981633974483
  0
LWPOLYLINE
  5
B8
330
8E
100
AcDbEntity
  8
AM_9
100
AcDbPolyline
 90
        3
 70
     0
 43
0.0
 10
0.0812043153615207
 20
-0.9736117565257287
 10
0.1014141150849084
 20
-1.006065324598044
 10
0.1218064730422812
 20
-1.037430096812192
  0
LWPOLYLINE
  5
B9
330
8E
100
AcDbEntity
  8
AM_9
100
AcDbPolyline
 90
        3
 70
     0
 43
0.0
 10
-0.0000000000000001
 20
-0.9765268602910518
 10
0.0406021576807603
 20
-0.9757574225598172
 10
0.0812043153615207
 20
-0.9736117565257287
  0
LINE
  5
BA
330
8E
100
AcDbEntity
  8
AM_9
100
AcDbLine
 10
-0.081204315361521
 20
-0.9736117565257287
 30
0.0
 11
-0.081204315361521
 21
-0.9461086307230415
 31
0.0
  0
LINE
  5
BB
330
8E
100
AcDbEntity
  8
AM_9
100
AcDbLine
 10
0.0812043153615207
 20
-0.9736117565257287
 30
0.0
 11
0.0812043153615207
 21
-0.9461086307230415
 31
0.0
  0
LINE
  5
BC
330
8E
100
AcDbEntity
  8
AM_9
100
AcDbLine
 10
-0.0585918508151909
 20
-1.072731665606296
 30
0.0
 11
-0.0773850548368753
 21
-1.084613481889388
 31
0.0
  0
LINE
  5
BD
330
8E
100
AcDbEntity
  8
AM_9
100
AcDbLine
 10
0.077385054836875
 20
-1.084613481889388
 30
0.0
 11
0.0585918508151907
 21
-1.072731665606296
 31
0.0
  0
LWPOLYLINE
  5
BE
330
8E
100
AcDbEntity
  8
AM_9
100
AcDbPolyline
 90
        3
 70
     0
 43
0.0
 10
-0.081204315361521
 20
-0.9461086307230415
 10
-0.1014141150849087
 20
-0.9742844618208893
 10
-0.1218064730422814
 20
-1.004096763478859
  0
LWPOLYLINE
  5
BF
330
8E
100
AcDbEntity
  8
AM_9
100
AcDbPolyline
 90
        4
 70
     0
 43
0.0
 10
-0.0000000000000001
 20
-0.9431935269577184
 10
-0.0311508759219517
 20
-0.9436501552579013
 10
-0.0623017518439033
 20
-0.9449594261758445
 10
-0.081204315361521
 20
-0.9461086307230415
  0
LWPOLYLINE
  5
C0
330
8E
100
AcDbEntity
  8
AM_9
100
AcDbPolyline
 90
        3
 70
     0
 43
0.0
 10
0.1218064730422811
 20
-1.004096763478859
 10
0.1015053942019009
 20
-0.9744145829495233
 10
0.0812043153615207
 20
-0.9461086307230415
  0
LWPOLYLINE
  5
C1
330
8E
100
AcDbEntity
  8
AM_9
100
AcDbPolyline
 90
        3
 70
     0
 43
0.0
 10
0.0812043153615207
 20
-0.9461086307230415
 10
0.0407847159147454
 20
-0.9439697622358076
 10
-0.0000000000000001
 20
-0.9431935269577184
  0
ELLIPSE
  5
C2
330
8E
100
AcDbEntity
  8
AM_9
100
AcDbEllipse
 10
-0.0000000000000001
 20
-1.113993608043447
 30
0.0
 11
-0.1093294505797714
 21
1.338899617050557E-17
 31
0.0
210
0.0
220
0.0
230
1.0
 40
0.866025403784439
 41
0.0
 42
6.283185307179586
  0
ELLIPSE
  5
C3
330
8E
100
AcDbEntity
  8
AM_9
100
AcDbEllipse
 10
0.0000000000000001
 20
-1.142236734116628
 30
0.0
 11
0.09936940028726604
 21
0.0
 31
0.0
210
0.0
220
0.0
230
1.0
 40
0.8660254037844358
 41
5.965180379242625
 42
6.800993495472421
  0
ELLIPSE
  5
C4
330
8E
100
AcDbEntity
  8
AM_9
100
AcDbEllipse
 10
-0.0000000000000002
 20
-1.142236734116628
 30
0.0
 11
0.09936940028726633
 21
1.480719451416528E-9
 31
0.0
210
0.0
220
0.0
230
1.0
 40
0.8660254037844375
 41
3.484013087587812
 42
5.965180362456788
  0
ELLIPSE
  5
C5
330
8E
100
AcDbEntity
  8
AM_9
100
AcDbEllipse
 10
0.0000000000000016
 20
-1.142236734116629
 30
0.0
 11
0.09936940028726796
 21
0.0
 31
0.0
210
0.0
220
0.0
230
1.0
 40
0.8660254037844347
 41
3.141592653589793
 42
3.484013104309215
  0
LWPOLYLINE
  5
C6
330
8E
100
AcDbEntity
  8
AM_9
100
AcDbPolyline
 90
        9
 70
     0
 43
0.0
 10
-0.0946847896390989
 20
-1.131671277573111
 10
-0.0945772035760187
 20
-1.128123844199596
 10
-0.0932932378412503
 20
-1.118950967550955
 10
-0.0905675118520376
 20
-1.109931217885836
 10
-0.0864776864074093
 20
-1.10128212798431
 10
-0.0811303739258916
 20
-1.093145592867527
 10
-0.0746274121690171
 20
-1.0856158661646
 10
-0.067064414541118
 20
-1.078773379432755
 10
-0.0586042930551242
 20
-1.072739533427393
  0
LWPOLYLINE
  5
C7
330
8E
100
AcDbEntity
  8
AM_9
100
AcDbPolyline
 90
       35
 70
     0
 43
0.0
 10
0.0589750554645614
 20
-1.072975217676488
 10
0.0661742395308658
 20
-1.078067919864905
 10
0.0736238811029084
 20
-1.084608463658263
 10
0.0800343440506456
 20
-1.09173304264623
 10
0.0853480078755579
 20
-1.099349426495674
 10
0.0895199492849027
 20
-1.107383344907523
 10
0.0925057163348632
 20
-1.115782696371256
 10
0.0942457139678333
 20
-1.124510255224024
 10
0.0946557641184613
 20
-1.133514189136667
 10
0.093644768637896
 20
-1.142677125651634
 10
0.0911849724251619
 20
-1.151744525014931
 10
0.0873427353148794
 20
-1.160475930657914
 10
0.082222915190098
 20
-1.168716532689105
 10
0.0759290889617422
 20
-1.176366144172283
 10
0.0685573381796258
 20
-1.18334346375841
 10
0.0602056516793115
 20
-1.189567673584822
 10
0.0509827922958136
 20
-1.194956029835433
 10
0.0410127948632657
 20
-1.199428107298153
 10
0.0304358133352121
 20
-1.202911468098023
 10
0.0194065656367877
 20
-1.205346787577472
 10
0.0080913008476779
 20
-1.20669186522127
 10
-0.0033361140656797
 20
-1.206924431520857
 10
-0.0146986085473818
 20
-1.206043795399886
 10
-0.0258192502233327
 20
-1.204071686235825
 10
-0.0365279986740772
 20
-1.201051728124789
 10
-0.046665619607577
 20
-1.19704777171544
 10
-0.0560878051432838
 20
-1.192141186222566
 10
-0.0646690490790096
 20
-1.186426714707264
 10
-0.0723054167258284
 20
-1.180006769783236
 10
-0.0789154614602774
 20
-1.172984162477775
 10
-0.0844382536089137
 20
-1.16545361693436
 10
-0.088827264417665
 20
-1.157493283473517
 10
-0.092039104981311
 20
-1.149159346838834
 10
-0.0940181457405164
 20
-1.140490381280054
 10
-0.0946847896390989
 20
-1.131671277573111
  0
ELLIPSE
  5
C8
330
8E
100
AcDbEntity
  8
AM_9
100
AcDbEllipse
 10
-0.0000000000000001
 20
-1.142236734116629
 30
0.0
 11
0.09936940028726618
 21
0.0
 31
0.0
210
0.0
220
0.0
230
1.0
 40
0.866025403784439
 41
0.9353670841146755
 42
2.201518472885752
  0
ELLIPSE
  5
C9
330
8E
100
AcDbEntity
  8
AM_9
100
AcDbEllipse
 10
-0.0000000000000014
 20
-1.142236734116627
 30
0.0
 11
0.09936940028726506
 21
0.0
 31
0.0
210
0.0
220
0.0
230
1.0
 40
0.8660254037844355
 41
2.594210407183331
 42
3.141592653589793
  0
ELLIPSE
  5
CA
330
8E
100
AcDbEntity
  8
AM_9
100
AcDbEllipse
 10
-0.000000000000015
 20
-1.142236734116614
 30
0.0
 11
0.09936940028724513
 21
1.480719451416212E-9
 31
0.0
210
0.0
220
0.0
230
1.0
 40
0.8660254037844347
 41
2.201518458484941
 42
2.428334568080823
  0
LWPOLYLINE
  5
CB
330
8E
100
AcDbEntity
  8
AM_9
100
AcDbPolyline
 90
        3
 70
     0
 43
0.0
 10
-0.1624086307230418
 20
-1.09541822956801
 10
-0.1421988309996541
 20
-1.067242398470162
 10
-0.1218064730422814
 20
-1.037430096812192
  0
LWPOLYLINE
  5
CC
330
8E
100
AcDbEntity
  8
AM_9
100
AcDbPolyline
 90
        3
 70
     0
 43
0.0
 10
0.1218064730422812
 20
-1.037430096812192
 10
0.1421075518826614
 20
-1.067112277341528
 10
0.1624086307230416
 20
-1.09541822956801
  0
ELLIPSE
  5
CD
330
8E
100
AcDbEntity
  8
AM_9
100
AcDbEllipse
 10
-0.0000000000000003
 20
-1.098333333333333
 30
0.0
 11
0.1406499999999997
 21
0.0
 31
0.0
210
0.0
220
0.0
230
1.0
 40
0.8660254037844392
 41
1.570796326794897
 42
4.71238898038469
  0
ELLIPSE
  5
CE
330
8E
100
AcDbEntity
  8
AM_9
100
AcDbEllipse
 10
0.0
 20
-1.098333333333333
 30
0.0
 11
0.1406499999999998
 21
0.0
 31
0.0
210
0.0
220
0.0
230
1.0
 40
0.8660254037844394
 41
4.71238898038469
 42
5.759586531581288
  0
LWPOLYLINE
  5
CF
330
8E
100
AcDbEntity
  8
AM_9
100
AcDbPolyline
 90
        3
 70
     0
 43
0.0
 10
-0.1218064730422814
 20
-1.004096763478859
 10
-0.1421075518826616
 20
-1.035317819470664
 10
-0.1624086307230418
 20
-1.067915103765323
  0
LWPOLYLINE
  5
D0
330
8E
100
AcDbEntity
  8
AM_9
100
AcDbPolyline
 90
        3
 70
     0
 43
0.0
 10
0.1624086307230416
 20
-1.067915103765323
 10
0.1421988309996539
 20
-1.035461535693007
 10
0.1218064730422811
 20
-1.004096763478859
  0
LINE
  5
D1
330
8E
100
AcDbEntity
  8
AM_9
100
AcDbLine
 10
0.1624086307230416
 20
-1.09541822956801
 30
0.0
 11
0.1624086307230416
 21
-1.067915103765323
 31
0.0
  0
LWPOLYLINE
  5
D2
330
8E
100
AcDbEntity
  8
AM_9
100
AcDbPolyline
 90
        3
 70
     0
 43
0.0
 10
0.1218064730422812
 20
-1.12590323652114
 10
0.1421075518826614
 20
-1.096221055991805
 10
0.1624086307230416
 20
-1.067915103765323
  0
LWPOLYLINE
  5
D3
330
8E
100
AcDbEntity
  8
AM_9
100
AcDbPolyline
 90
        3
 70
     0
 43
0.0
 10
0.0812043153615207
 20
-1.189721576807604
 10
0.1014141150849084
 20
-1.157268008735289
 10
0.1218064730422812
 20
-1.12590323652114
  0
LWPOLYLINE
  5
D4
330
8E
100
AcDbEntity
  8
AM_9
100
AcDbPolyline
 90
        3
 70
     0
 43
0.0
 10
0.1218064730422812
 20
-1.159236569854474
 10
0.1015053942019009
 20
-1.188918750383809
 10
0.0812043153615207
 20
-1.217224702610291
  0
LWPOLYLINE
  5
D5
330
8E
100
AcDbEntity
  8
AM_9
100
AcDbPolyline
 90
        3
 70
     0
 43
0.0
 10
0.1624086307230416
 20
-1.09541822956801
 10
0.1421988309996539
 20
-1.127871797640325
 10
0.1218064730422812
 20
-1.159236569854474
  0
LINE
  5
D6
330
8E
100
AcDbEntity
  8
AM_9
100
AcDbLine
 10
0.0812043153615207
 20
-1.217224702610291
 30
0.0
 11
0.0812043153615207
 21
-1.189721576807604
 31
0.0
  0
LWPOLYLINE
  5
D7
330
8E
100
AcDbEntity
  8
AM_9
100
AcDbPolyline
 90
        3
 70
     0
 43
0.0
 10
-0.0000000000000001
 20
-1.186806473042281
 10
0.0406021576807603
 20
-1.187575910773516
 10
0.0812043153615207
 20
-1.189721576807604
  0
LWPOLYLINE
  5
D8
330
8E
100
AcDbEntity
  8
AM_9
100
AcDbPolyline
 90
        4
 70
     0
 43
0.0
 10
-0.081204315361521
 20
-1.189721576807604
 10
-0.0623017518439032
 20
-1.188572372260407
 10
-0.0312428256208205
 20
-1.187265768908417
 10
-0.0000000000000001
 20
-1.186806473042281
  0
LWPOLYLINE
  5
D9
330
8E
100
AcDbEntity
  8
AM_9
100
AcDbPolyline
 90
        4
 70
     0
 43
0.0
 10
-0.0000000000000001
 20
-1.220139806375614
 10
-0.0311508759219517
 20
-1.219683178075432
 10
-0.0623017518439032
 20
-1.218373907157488
 10
-0.081204315361521
 20
-1.217224702610291
  0
LWPOLYLINE
  5
DA
330
8E
100
AcDbEntity
  8
AM_9
100
AcDbPolyline
 90
        3
 70
     0
 43
0.0
 10
0.0812043153615207
 20
-1.217224702610291
 10
0.0407847159147454
 20
-1.219363571097525
 10
-0.0000000000000001
 20
-1.220139806375614
  0
ELLIPSE
  5
DB
330
8E
100
AcDbEntity
  8
AM_9
100
AcDbEllipse
 10
0.0000000000000001
 20
-1.064999999999999
 30
0.0
 11
0.1406500000000003
 21
0.0
 31
0.0
210
0.0
220
0.0
230
1.0
 40
0.8660254037844392
 41
3.665191429188095
 42
4.71238898038469
  0
ELLIPSE
  5
DC
330
8E
100
AcDbEntity
  8
AM_9
100
AcDbEllipse
 10
-0.0000000000000002
 20
-1.064999999999999
 30
0.0
 11
0.1406500000000002
 21
0.0
 31
0.0
210
0.0
220
0.0
230
1.0
 40
0.8660254037844398
 41
4.71238898038469
 42
5.759586531581285
  0
ELLIPSE
  5
DD
330
8E
100
AcDbEntity
  8
AM_9
100
AcDbEllipse
 10
-0.0000000000000011
 20
-1.065
 30
0.0
 11
0.1406500000000008
 21
0.0
 31
0.0
210
0.0
220
0.0
230
1.0
 40
0.8660254037844378
 41
5.759586531581292
 42
6.806784082777884
  0
ELLIPSE
  5
DE
330
8E
100
AcDbEntity
  8
AM_9
100
AcDbEllipse
 10
0.0000000000000009
 20
-1.065
 30
0.0
 11
0.1406500000000009
 21
0.0
 31
0.0
210
0.0
220
0.0
230
1.0
 40
0.8660254037844382
 41
0.5235987755983063
 42
3.665191429188085
  0
LINE
  5
DF
330
8E
100
AcDbEntity
  8
AM_9
100
AcDbLine
 10
-0.081204315361521
 20
-1.217224702610291
 30
0.0
 11
-0.081204315361521
 21
-1.189721576807604
 31
0.0
  0
LWPOLYLINE
  5
E0
330
8E
100
AcDbEntity
  8
AM_9
100
AcDbPolyline
 90
        3
 70
     0
 43
0.0
 10
-0.1218064730422814
 20
-1.12590323652114
 10
-0.1015053942019012
 20
-1.157124292512945
 10
-0.081204315361521
 20
-1.189721576807604
  0
LWPOLYLINE
  5
E1
330
8E
100
AcDbEntity
  8
AM_9
100
AcDbPolyline
 90
        3
 70
     0
 43
0.0
 10
-0.1624086307230418
 20
-1.067915103765323
 10
-0.1421988309996542
 20
-1.09609093486317
 10
-0.1218064730422814
 20
-1.12590323652114
  0
LINE
  5
E2
330
8E
100
AcDbEntity
  8
AM_9
100
AcDbLine
 10
-0.1624086307230418
 20
-1.09541822956801
 30
0.0
 11
-0.1624086307230418
 21
-1.067915103765323
 31
0.0
  0
LWPOLYLINE
  5
E3
330
8E
100
AcDbEntity
  8
AM_9
100
AcDbPolyline
 90
        3
 70
     0
 43
0.0
 10
-0.1218064730422814
 20
-1.159236569854474
 10
-0.1421075518826616
 20
-1.128015513862669
 10
-0.1624086307230418
 20
-1.09541822956801
  0
LWPOLYLINE
  5
E4
330
8E
100
AcDbEntity
  8
AM_9
100
AcDbPolyline
 90
        3
 70
     0
 43
0.0
 10
-0.081204315361521
 20
-1.217224702610291
 10
-0.1014141150849087
 20
-1.189048871512444
 10
-0.1218064730422814
 20
-1.159236569854474
  0
ELLIPSE
  5
E5
330
8E
100
AcDbEntity
  8
AM_9
100
AcDbEllipse
 10
-0.0000000000000001
 20
-1.065
 30
0.0
 11
0.1163438171532771
 21
0.0
 31
0.0
210
0.0
220
0.0
230
1.0
 40
0.8660254037844265
 41
3.141592653589793
 42
9.370622200208995
  0
LINE
  5
E6
330
8E
100
AcDbEntity
  8
AM_9
100
AcDbLine
 10
-0.1102543821984237
 20
-0.9649877976204059
 30
0.0
 11
-0.1161732495740079
 21
-1.059546111029012
 31
0.0
  0
LINE
  5
E7
330
8E
100
AcDbEntity
  8
AM_9
100
AcDbLine
 10
0.1161732495740077
 20
-1.059546111029012
 30
0.0
 11
0.1102543821984235
 21
-0.9649877976204059
 31
0.0
  0
ELLIPSE
  5
E8
330
8E
100
AcDbEntity
  8
AM_9
100
AcDbEllipse
 10
-0.0000000000000001
 20
-0.9701638184451653
 30
0.0
 11
0.1104162595939891
 21
0.0
 31
0.0
210
0.0
220
0.0
230
1.0
 40
0.8660254037844255
 41
3.141592653589793
 42
9.370622200208995
  0
ELLIPSE
  5
E9
330
8E
100
AcDbEntity
  8
AM_9
100
AcDbEllipse
 10
0.0000000000000143
 20
-0.9701638184451605
 30
0.0
 11
0.1104162595940035
 21
0.0
 31
0.0
210
0.0
220
0.0
230
1.0
 40
0.866025403784439
 41
3.087436893029467
 42
3.141592653589793
  0
ELLIPSE
  5
EA
330
8E
100
AcDbEntity
  8
AM_9
100
AcDbEllipse
 10
-0.0000000000000181
 20
-1.064999999999876
 30
0.0
 11
0.1163438171532591
 21
1.733657973308252E-9
 31
0.0
210
0.0
220
0.0
230
1.0
 40
0.8660254037843992
 41
3.087436875836846
 42
3.141592638688632
  0
ELLIPSE
  5
EB
330
8E
100
AcDbEntity
  8
AM_9
100
AcDbEllipse
 10
-0.0000000000000001
 20
-0.9649999999999996
 30
0.0
 11
0.1000886227036577
 21
0.0
 31
0.0
210
0.0
220
0.0
230
1.0
 40
0.8660254037844362
 41
3.199308597355417
 42
9.42477796076938
  0
ELLIPSE
  5
EC
330
8E
100
AcDbEntity
  8
AM_9
100
AcDbEllipse
 10
-0.000000000000007
 20
-0.9649999999996725
 30
0.0
 11
0.1000886227036508
 21
0.0
 31
0.0
210
0.0
220
0.0
230
1.0
 40
0.8660254037845301
 41
3.141592653589793
 42
3.199308597359184
  0
ELLIPSE
  5
ED
330
8E
100
AcDbEntity
  8
AM_9
100
AcDbEllipse
 10
0.0000000000030112
 20
-1.176412144389938
 30
0.0
 11
0.1312419113520303
 21
1.955656876445268E-9
 31
0.0
210
0.0
220
0.0
230
1.0
 40
0.8660254037783003
 41
0.0
 42
6.283185307179586
  0
ENDBLK
  5
91
330
8E
100
AcDbEntity
  8
0
100
AcDbBlockEnd
  0
BLOCK
  5
F0
330
EE
100
AcDbEntity
  8
0
100
AcDbBlockBegin
  2
3_127808_0_in_136995_2
 70
     2
 10
0.0
 20
0.0
 30
0.0
  3
3_127808_0_in_136995_2
  1

  0
ATTDEF
  5
F2
330
EE
100
AcDbEntity
  8
AM_6
100
AcDbText
 10
5.75
 20
1.770932289135589
 30
0.0
 40
0.5
  1
Set Screw Insert Inch Bore - Stainless Steel
100
AcDbAttributeDefinition
  3

  2
NN
 70
     8
280
     0
  0
ATTDEF
  5
F3
330
EE
100
AcDbEntity
  8
AM_6
100
AcDbText
 10
5.75
 20
1.270932289135589
 30
0.0
 40
0.5
  1
SC Medium Duty Bearing Inserts
100
AcDbAttributeDefinition
  3

  2
NT
 70
     8
280
     0
  0
ATTDEF
  5
F4
330
EE
100
AcDbEntity
  8
AM_6
100
AcDbText
 10
5.75
 20
0.7709322891355885
 30
0.0
 40
0.5
  1
127808
100
AcDbAttributeDefinition
  3

  2
NB
 70
     8
280
     0
  0
ATTDEF
  5
F5
330
EE
100
AcDbEntity
  8
AM_6
100
AcDbText
 10
5.75
 20
0.2709322891355885
 30
0.0
 40
0.5
  1
$PN.
100
AcDbAttributeDefinition
  3

  2
NBSYN
 70
     8
280
     0
  0
ATTDEF
  5
F6
330
EE
100
AcDbEntity
  8
AM_6
100
AcDbText
 10
5.75
 20
-0.2290677108644115
 30
0.0
 40
0.5
  1
127808
100
AcDbAttributeDefinition
  3

  2
LINA
 70
     8
280
     0
  0
ATTDEF
  5
F7
330
EE
100
AcDbEntity
  8
AM_6
100
AcDbText
 10
5.75
 20
-0.7290677108644115
 30
0.0
 40
0.5
  1
210
100
AcDbAttributeDefinition
  3

  2
SERIES
 70
     8
280
     0
  0
ATTDEF
  5
F8
330
EE
100
AcDbEntity
  8
AM_6
100
AcDbText
 10
5.75
 20
-1.229067710864411
 30
0.0
 40
0.5
  1
2
100
AcDbAttributeDefinition
  3

  2
SS
 70
     8
280
     0
  0
ATTDEF
  5
F9
330
EE
100
AcDbEntity
  8
AM_6
100
AcDbText
 10
5.75
 20
-1.729067710864411
 30
0.0
 40
0.5
  1
127808
100
AcDbAttributeDefinition
  3

  2
PN
 70
     8
280
     0
  0
ATTDEF
  5
FA
330
EE
100
AcDbEntity
  8
AM_6
100
AcDbText
 10
5.75
 20
-2.229067710864411
 30
0.0
 40
0.5
  1
INS-SC-200-SS
100
AcDbAttributeDefinition
  3

  2
DESCRIPTION
 70
     8
280
     0
  0
ATTDEF
  5
FB
330
EE
100
AcDbEntity
  8
AM_6
100
AcDbText
 10
5.75
 20
-2.729067710864411
 30
0.0
 40
0.5
  1
1.39
100
AcDbAttributeDefinition
  3

  2
WEIGHT
 70
     8
280
     0
  0
ATTDEF
  5
FC
330
EE
100
AcDbEntity
  8
AM_6
100
AcDbText
 10
5.75
 20
-3.229067710864411
 30
0.0
 40
0.5
  1
1.94
100
AcDbAttributeDefinition
  3

  2
A
 70
     8
280
     0
  0
ATTDEF
  5
FD
330
EE
100
AcDbEntity
  8
AM_6
100
AcDbText
 10
5.75
 20
-3.729067710864411
 30
0.0
 40
0.5
  1
0.87
100
AcDbAttributeDefinition
  3

  2
C
 70
     8
280
     0
  0
ATTDEF
  5
FE
330
EE
100
AcDbEntity
  8
AM_6
100
AcDbText
 10
5.75
 20
-4.229067710864411
 30
0.0
 40
0.5
  1
3.5433
100
AcDbAttributeDefinition
  3

  2
D
 70
     8
280
     0
  0
ATTDEF
  5
FF
330
EE
100
AcDbEntity
  8
AM_6
100
AcDbText
 10
5.75
 20
-4.729067710864411
 30
0.0
 40
0.5
  1
0.25
100
AcDbAttributeDefinition
  3

  2
J
 70
     8
280
     0
  0
ATTDEF
  5
100
330
EE
100
AcDbEntity
  8
AM_6
100
AcDbText
 10
5.75
 20
-5.229067710864411
 30
0.0
 40
0.5
  1
2.43
100
AcDbAttributeDefinition
  3

  2
L
 70
     8
280
     0
  0
ATTDEF
  5
101
330
EE
100
AcDbEntity
  8
AM_6
100
AcDbText
 10
5.75
 20
-5.729067710864411
 30
0.0
 40
0.5
  1
3/8 - 24
100
AcDbAttributeDefinition
  3

  2
N
 70
     8
280
     0
  0
ATTDEF
  5
102
330
EE
100
AcDbEntity
  8
AM_6
100
AcDbText
 10
5.75
 20
-6.229067710864411
 30
0.0
 40
0.5
  1
0.75
100
AcDbAttributeDefinition
  3

  2
W
 70
     8
280
     0
  0
ATTDEF
  5
103
330
EE
100
AcDbEntity
  8
AM_6
100
AcDbText
 10
5.75
 20
-6.729067710864411
 30
0.0
 40
0.5
  1
1.19
100
AcDbAttributeDefinition
  3

  2
Y
 70
     8
280
     0
  0
ATTDEF
  5
104
330
EE
100
AcDbEntity
  8
AM_6
100
AcDbText
 10
5.75
 20
-7.229067710864411
 30
0.0
 40
0.5
  1
baldor
100
AcDbAttributeDefinition
  3

  2
COMPANY
 70
     8
280
     0
  0
ELLIPSE
  5
105
330
EE
100
AcDbEntity
  8
AM_9
100
AcDbEllipse
 10
-0.8125000000000001
 20
0.5025544900194016
 30
0.0
 11
0.1536499999999999
 21
2.289563417434692E-9
 31
0.0
210
0.0
220
0.0
230
1.0
 40
0.9063077870366504
 41
0.0000017453292518
 42
3.431570593739236
  0
LINE
  5
106
330
EE
100
AcDbEntity
  8
AM_9
100
AcDbLine
 10
-0.65885
 20
0.4225873605175469
 30
0.0
 11
-0.65885
 21
0.5025544900194016
 31
0.0
  0
LINE
  5
107
330
EE
100
AcDbEntity
  8
AM_9
100
AcDbLine
 10
-0.9661500000000001
 20
0.5025544900194016
 30
0.0
 11
-0.9661500000000001
 21
0.4226182617406994
 31
0.0
  0
ELLIPSE
  5
108
330
EE
100
AcDbEntity
  8
AM_9
100
AcDbEllipse
 10
-0.8125000000000001
 20
0.5025544900194013
 30
0.0
 11
0.1536499999999999
 21
2.289563417434692E-9
 31
0.0
210
0.0
220
0.0
230
1.0
 40
0.9063077870366489
 41
3.431570593739234
 42
4.728660430076329
  0
ELLIPSE
  5
109
330
EE
100
AcDbEntity
  8
AM_9
100
AcDbEllipse
 10
-0.8124999999999999
 20
0.5025544900194014
 30
0.0
 11
0.1536499999999998
 21
0.0
 31
0.0
210
0.0
220
0.0
230
1.0
 40
0.9063077870366504
 41
4.728660443582143
 42
5.993749541061514
  0
ELLIPSE
  5
10A
330
EE
100
AcDbEntity
  8
AM_9
100
AcDbEllipse
 10
-0.812499999999996
 20
0.5025544900193973
 30
0.0
 11
0.153649999999996
 21
0.0
 31
0.0
210
0.0
220
0.0
230
1.0
 40
0.9063077870366455
 41
5.993749541061534
 42
6.283185307179586
  0
LWPOLYLINE
  5
10B
330
EE
100
AcDbEntity
  8
AM_9
100
AcDbPolyline
 90
       12
 70
     0
 43
0.0
 10
-0.809998222755621
 20
0.2783654187169254
 10
-0.811314956411497
 20
0.278350062050522
 10
-0.8368880543598721
 20
0.2802542539771312
 10
-0.8617731274398875
 20
0.2862190347902387
 10
-0.8852362818227383
 20
0.2960834132679429
 10
-0.9066788699551328
 20
0.3094638974973984
 10
-0.9256650760816868
 20
0.3261547351366446
 10
-0.941480187146153
 20
0.345464647806225
 10
-0.9536904024948473
 20
0.3669455762673804
 10
-0.9618979820766914
 20
0.3898125257722872
 10
-0.965079140094788
 20
0.4061662870303409
 10
-0.9661500000000001
 20
0.4226182617406994
  0
LWPOLYLINE
  5
10C
330
EE
100
AcDbEntity
  8
AM_9
100
AcDbPolyline
 90
       11
 70
     0
 43
0.0
 10
-0.658850000746663
 20
0.4226045333127276
 10
-0.6590647276621111
 20
0.4155195159148784
 10
-0.662504320136529
 20
0.3921937625594083
 10
-0.6701218945004593
 20
0.3695949039250443
 10
-0.6816454689414471
 20
0.3482587637197835
 10
-0.6969284877392385
 20
0.3287031814220351
 10
-0.7154253920111062
 20
0.3116687865364508
 10
-0.7368670098561918
 20
0.2976236900822642
 10
-0.760471911518117
 20
0.2871504952905526
 10
-0.7855047011762359
 20
0.280684353492168
 10
-0.809998222755621
 20
0.2783654187169254
  0
LINE
  5
10D
330
EE
100
AcDbEntity
  8
AM_9
100
AcDbLine
 10
-0.65885
 20
1.189145229904304
 30
0.0
 11
-0.6331352064342988
 21
1.214860023470005
 31
0.0
  0
LINE
  5
10E
330
EE
100
AcDbEntity
  8
AM_9
100
AcDbLine
 10
-0.9917250594289896
 20
1.214720289333294
 30
0.0
 11
-0.9661500000000001
 21
1.189145229904304
 31
0.0
  0
LINE
  5
10F
330
EE
100
AcDbEntity
  8
AM_9
100
AcDbLine
 10
-0.6588500000000002
 20
1.0
 30
0.0
 11
-0.6588500000000002
 21
1.189145229904304
 31
0.0
  0
LINE
  5
110
330
EE
100
AcDbEntity
  8
AM_9
100
AcDbLine
 10
-0.9661499999999998
 20
1.189145229904304
 30
0.0
 11
-0.9661499999999998
 21
1.0
 31
0.0
  0
LINE
  5
111
330
EE
100
AcDbEntity
  8
AM_9
100
AcDbLine
 10
-0.9661499999999998
 20
1.189145229904304
 30
0.0
 11
-0.6588500000000002
 21
1.189145229904304
 31
0.0
  0
LWPOLYLINE
  5
112
330
EE
100
AcDbEntity
  8
AM_9
100
AcDbPolyline
 90
       11
 70
     0
 43
0.0
 10
-0.8099908837145536
 20
0.5568367804245482
 10
-0.7955693537616662
 20
0.5560673194771187
 10
-0.770463572271101
 20
0.5519063446866977
 10
-0.7465344026428704
 20
0.5442968439894001
 10
-0.7243778598167586
 20
0.5333173828310833
 10
-0.7046709933785515
 20
0.5192822481668654
 10
-0.6878276370702545
 20
0.502279016591759
 10
-0.6744972652478332
 20
0.4828777180127721
 10
-0.665109493616105
 20
0.4615098282232797
 10
-0.6598963131826957
 20
0.4387741447253978
 10
-0.658850000746663
 20
0.4226045333127276
  0
LWPOLYLINE
  5
113
330
EE
100
AcDbEntity
  8
AM_9
100
AcDbPolyline
 90
       11
 70
     0
 43
0.0
 10
-0.9661500000000001
 20
0.4226182617406994
 10
-0.963982438796305
 20
0.4457009776925087
 10
-0.957606342978007
 20
0.467867031774495
 10
-0.9471581352346793
 20
0.4884953144755639
 10
-0.9329905786417976
 20
0.507103370187519
 10
-0.9153128979933083
 20
0.5233219706913704
 10
-0.8947471622984614
 20
0.5366676048708036
 10
-0.8716987035466336
 20
0.5468381898228856
 10
-0.8469463709409143
 20
0.5535631043562679
 10
-0.8213851205410644
 20
0.5566253770939921
 10
-0.8099908837145536
 20
0.5568367804245482
  0
LINE
  5
114
330
EE
100
AcDbEntity
  8
AM_9
100
AcDbLine
 10
-1.1414
 20
-1.0
 30
0.0
 11
0.7013999999999998
 21
-1.0
 31
0.0
  0
LINE
  5
115
330
EE
100
AcDbEntity
  8
AM_9
100
AcDbLine
 10
0.7013999999999998
 20
1.0
 30
0.0
 11
-0.65885
 21
1.0
 31
0.0
  0
LINE
  5
116
330
EE
100
AcDbEntity
  8
AM_9
100
AcDbLine
 10
-0.9661499999999998
 20
1.0
 30
0.0
 11
-1.1414
 21
1.0
 31
0.0
  0
LWPOLYLINE
  5
117
330
EE
100
AcDbEntity
  8
AM_9
100
AcDbPolyline
 90
       21
 70
     0
 43
0.0
 10
-0.9661499999997047
 20
0.9999999999999546
 10
-0.9652152156447769
 20
0.9998567970411716
 10
-0.9603861571200147
 20
0.999130618571829
 10
-0.9512667196287526
 20
0.997821567203538
 10
-0.9385638498000337
 20
0.9961344144875256
 10
-0.9219514297636827
 20
0.9941686441330335
 10
-0.9025838975385975
 20
0.992223153376167
 10
-0.8800504986430657
 20
0.9904315965107974
 10
-0.8562163179688822
 20
0.9890919036958884
 10
-0.8303924997538489
 20
0.9882873160409585
 10
-0.8050485198757719
 20
0.9881534304226454
 10
-0.7791836903619561
 20
0.9886868331215392
 10
-0.7551043097390537
 20
0.9897908580910062
 10
-0.7319751661130002
 20
0.9914009917145176
 10
-0.7115416991551449
 20
0.9932694780418253
 10
-0.6934045369502662
 20
0.9952765479096907
 10
-0.6789464755555888
 20
0.9971099344563386
 10
-0.6679279855010306
 20
0.9986454550421237
 10
-0.6613087956852721
 20
0.9996251586280419
 10
-0.6588546370260678
 20
0.9999992875314418
 10
-0.6588500000000874
 20
0.9999999999999865
  0
LINE
  5
118
330
EE
100
AcDbEntity
  8
AM_9
100
AcDbLine
 10
-0.8078387064533499
 20
0.9881363292367749
 30
0.0
 11
-0.8125
 21
0.9881253349145542
 31
0.0
  0
LINE
  5
119
330
EE
100
AcDbEntity
  8
AM_9
100
AcDbLine
 10
-0.6588500000000874
 20
0.9999999999999865
 30
0.0
 11
-0.6704615645547315
 21
0.9982818212527655
 31
0.0
  0
LINE
  5
11A
330
EE
100
AcDbEntity
  8
AM_9
100
AcDbLine
 10
-1.1414
 20
1.0
 30
0.0
 11
-1.19
 21
1.0486
 31
0.0
  0
LINE
  5
11B
330
EE
100
AcDbEntity
  8
AM_9
100
AcDbLine
 10
-1.19
 20
-1.0486
 30
0.0
 11
-1.1414
 21
-1.0
 31
0.0
  0
LINE
  5
11C
330
EE
100
AcDbEntity
  8
AM_9
100
AcDbLine
 10
0.7013999999999998
 20
-1.0
 30
0.0
 11
0.7499999999999999
 21
-1.0486
 31
0.0
  0
LINE
  5
11D
330
EE
100
AcDbEntity
  8
AM_9
100
AcDbLine
 10
0.7499999999999999
 20
1.0486
 30
0.0
 11
0.7013999999999998
 21
1.0
 31
0.0
  0
LINE
  5
11E
330
EE
100
AcDbEntity
  8
AM_9
100
AcDbLine
 10
0.7499999999999999
 20
1.140555414847062
 30
0.0
 11
0.7499999999999999
 21
-1.140555414847061
 31
0.0
  0
LWPOLYLINE
  5
11F
330
EE
100
AcDbEntity
  8
AM_9
100
AcDbPolyline
 90
       39
 70
     0
 43
0.0
 10
-0.6888821935281589
 20
0.4006920232151384
 10
-0.670998797655997
 20
0.4181414339086545
 10
-0.6560764325681085
 20
0.4377807257630892
 10
-0.6434493748646146
 20
0.4619094737199607
 10
-0.635614285426192
 20
0.4874926362241502
 10
-0.6330236330141713
 20
0.512048350802538
 10
-0.6350711707885633
 20
0.5363977603517637
 10
-0.6414539106138878
 20
0.5590600549381796
 10
-0.6518544319313063
 20
0.5802879059899602
 10
-0.6663317759649942
 20
0.6000111865534354
 10
-0.6841610025675339
 20
0.6173487162730322
 10
-0.7062146132170128
 20
0.6327960991753597
 10
-0.7308195980424498
 20
0.6449987818327008
 10
-0.7591069633845731
 20
0.654203416931356
 10
-0.7887772808412377
 20
0.6594326607534357
 10
-0.8202866798029687
 20
0.6605381133704523
 10
-0.851580715853904
 20
0.6572583995372117
 10
-0.882107166920427
 20
0.6494736954695515
 10
-0.9106178403495625
 20
0.6373587914248194
 10
-0.9357783080442927
 20
0.621349913446876
 10
-0.9572573504399049
 20
0.6016219096901688
 10
-0.973433928687697
 20
0.5797644554544588
 10
-0.9848804905527545
 20
0.5554638602131047
 10
-0.9907364954812476
 20
0.5312747211613635
 10
-0.9918033460946561
 20
0.5062783584476928
 10
-0.9882543191312467
 20
0.4824691602261455
 10
-0.9804703936052015
 20
0.4593048860301144
 10
-0.9686148987326433
 20
0.4373273954858999
 10
-0.9531829892084567
 20
0.4172090954072202
 10
-0.9335538546014213
 20
0.3985857078385961
 10
-0.9110786612037224
 20
0.3829859247965717
 10
-0.8846056194758433
 20
0.3700984247550334
 10
-0.8563121121766938
 20
0.3613422628202494
 10
-0.8254386043349266
 20
0.3568690365141358
 10
-0.7942140459855045
 20
0.3572756291460212
 10
-0.7628696974663586
 20
0.362777983023568
 10
-0.7329430400003311
 20
0.3732093138726887
 10
-0.7098554763284983
 20
0.3854588624179884
 10
-0.6888821934858502
 20
0.4006920230676953
  0
LWPOLYLINE
  5
120
330
EE
100
AcDbEntity
  8
AM_9
100
AcDbPolyline
 90
        7
 70
     0
 43
0.0
 10
-0.6331954979757434
 20
1.214974234807161
 10
-0.6367399812173435
 20
1.214522829287879
 10
-0.6448722314872549
 20
1.213520165143405
 10
-0.6566741047407821
 20
1.212147184384641
 10
-0.6724170625466561
 20
1.210467992806115
 10
-0.6919004690481664
 20
1.208632576898972
 10
-0.698837733334283
 20
1.20804426324414
  0
LINE
  5
121
330
EE
100
AcDbEntity
  8
AM_9
100
AcDbLine
 10
-0.6939019813497802
 20
-1.215
 30
0.0
 11
-0.435
 21
-1.215
 31
0.0
  0
LINE
  5
122
330
EE
100
AcDbEntity
  8
AM_9
100
AcDbLine
 10
-0.435
 20
1.215
 30
0.0
 11
-0.6332432793284443
 21
1.215
 31
0.0
  0
LINE
  5
123
330
EE
100
AcDbEntity
  8
AM_9
100
AcDbLine
 10
0.435
 20
-1.215000000000001
 30
0.0
 11
0.69390198134978
 21
-1.215000000000001
 31
0.0
  0
LINE
  5
124
330
EE
100
AcDbEntity
  8
AM_9
100
AcDbLine
 10
0.69390198134978
 20
1.215000000000001
 30
0.0
 11
0.435
 21
1.215000000000001
 31
0.0
  0
LINE
  5
125
330
EE
100
AcDbEntity
  8
AM_9
100
AcDbLine
 10
0.7014
 20
1.205049793177813
 30
0.0
 11
0.7014
 21
-1.205049793177813
 31
0.0
  0
LINE
  5
126
330
EE
100
AcDbEntity
  8
AM_9
100
AcDbLine
 10
-0.3000000000000001
 20
-1.688316666666667
 30
0.0
 11
-0.2
 21
-1.688316666666667
 31
0.0
  0
LINE
  5
127
330
EE
100
AcDbEntity
  8
AM_9
100
AcDbLine
 10
-0.2
 20
1.688316666666667
 30
0.0
 11
-0.3000000000000001
 21
1.688316666666667
 31
0.0
  0
LINE
  5
128
330
EE
100
AcDbEntity
  8
AM_9
100
AcDbLine
 10
0.435
 20
1.678050572092509
 30
0.0
 11
0.435
 21
-1.678050572092509
 31
0.0
  0
ARC
  5
129
330
EE
100
AcDbEntity
  8
AM_9
100
AcDbCircle
 10
0.3849999999999995
 20
-1.678050572092509
 30
0.0
 40
0.0500000000000006
100
AcDbArc
 50
282.9219004522827
 51
0.0
  0
ARC
  5
12A
330
EE
100
AcDbEntity
  8
AM_9
100
AcDbCircle
 10
0.3849999999999995
 20
1.678050572092509
 30
0.0
 40
0.0500000000000005
100
AcDbArc
 50
0.0
 51
77.0780995477173
  0
LINE
  5
12B
330
EE
100
AcDbEntity
  8
AM_9
100
AcDbLine
 10
-0.435
 20
1.678050572092514
 30
0.0
 11
-0.435
 21
-1.678050572092514
 31
0.0
  0
ARC
  5
12C
330
EE
100
AcDbEntity
  8
AM_9
100
AcDbCircle
 10
-0.3849999999999992
 20
-1.678050572092514
 30
0.0
 40
0.0500000000000008
100
AcDbArc
 50
180.0
 51
257.0781236960815
  0
ARC
  5
12D
330
EE
100
AcDbEntity
  8
AM_9
100
AcDbCircle
 10
-0.3849999999999991
 20
1.678050572092514
 30
0.0
 40
0.0500000000000009
100
AcDbArc
 50
102.9218763039185
 51
180.0
  0
ARC
  5
12E
330
EE
100
AcDbEntity
  8
AM_9
100
AcDbCircle
 10
-0.0000000000085354
 20
0.0000000000425351
 30
0.0
 40
1.77164999995665
100
AcDbArc
 50
99.7490796090485
 51
102.9218997707987
  0
ARC
  5
12F
330
EE
100
AcDbEntity
  8
AM_9
100
AcDbCircle
 10
-0.0000000000212114
 20
-0.0000000001058336
 30
0.0
 40
1.771649999892144
100
AcDbArc
 50
257.0781002291433
 51
260.250920391009
  0
LINE
  5
130
330
EE
100
AcDbEntity
  8
AM_9
100
AcDbLine
 10
-0.3961811138371493
 20
1.72678436625388
 30
0.0
 11
-0.3961811138371493
 21
-1.726784366253905
 31
0.0
  0
LINE
  5
131
330
EE
100
AcDbEntity
  8
AM_9
100
AcDbLine
 10
-0.2999999999999999
 20
1.746065211411091
 30
0.0
 11
-0.2999999999999999
 21
-1.746065211411116
 31
0.0
  0
ARC
  5
132
330
EE
100
AcDbEntity
  8
AM_9
100
AcDbCircle
 10
-0.0000000000000009
 20
-0.000000000000038
 30
0.0
 40
1.771650000000041
100
AcDbArc
 50
77.07809954771814
 51
96.48188734017833
  0
ARC
  5
133
330
EE
100
AcDbEntity
  8
AM_9
100
AcDbCircle
 10
0.0000000000000439
 20
-0.0000000000007656
 30
0.0
 40
1.771649999999255
100
AcDbArc
 50
263.5181126598172
 51
282.9219004522863
  0
LINE
  5
134
330
EE
100
AcDbEntity
  8
AM_9
100
AcDbLine
 10
-0.1999999999999999
 20
1.760324891177766
 30
0.0
 11
-0.1999999999999999
 21
-1.760324891177773
 31
0.0
  0
LINE
  5
135
330
EE
100
AcDbEntity
  8
AM_9
100
AcDbLine
 10
0.3961811343769061
 20
1.726784361541372
 30
0.0
 11
0.3961811343769061
 21
-1.726784361541378
 31
0.0
  0
LINE
  5
137
330
EE
100
AcDbEntity
  8
AM_5
100
AcDbLine
 10
-1.0
 20
1.0
 30
0.0
 11
-1.0
 21
1.215
 31
0.0
  0
LINE
  5
138
330
EE
100
AcDbEntity
  8
AM_5
100
AcDbLine
 10
-0.6249999999999999
 20
1.0
 30
0.0
 11
-0.625
 21
1.215
 31
0.0
  0
LINE
  5
13B
330
EE
100
AcDbEntity
  8
AM_7
100
AcDbLine
 10
-0.8125
 20
0.8811658056039682
 30
0.0
 11
-0.8125
 21
1.314509329343982
 31
0.0
  0
LINE
  5
13D
330
EE
100
AcDbEntity
  8
AM_4
100
AcDbLine
 10
-1.19
 20
-1.1664
 30
0.0
 11
-1.1414
 21
-1.215
 31
0.0
  0
LINE
  5
13E
330
EE
100
AcDbEntity
  8
AM_4
100
AcDbLine
 10
-1.1414
 20
1.215
 30
0.0
 11
-1.19
 21
1.1664
 31
0.0
  0
LINE
  5
13F
330
EE
100
AcDbEntity
  8
AM_4
100
AcDbLine
 10
-1.19
 20
1.1664
 30
0.0
 11
-1.19
 21
-1.1664
 31
0.0
  0
LINE
  5
140
330
EE
100
AcDbEntity
  8
AM_4
100
AcDbLine
 10
0.7499999999999999
 20
1.1664
 30
0.0
 11
0.7014
 21
1.215
 31
0.0
  0
LINE
  5
141
330
EE
100
AcDbEntity
  8
AM_4
100
AcDbLine
 10
0.7014
 20
-1.215
 30
0.0
 11
0.7499999999999999
 21
-1.1664
 31
0.0
  0
LINE
  5
142
330
EE
100
AcDbEntity
  8
AM_4
100
AcDbLine
 10
0.7499999999999999
 20
-1.140555414847061
 30
0.0
 11
0.7499999999999999
 21
-1.1664
 31
0.0
  0
LINE
  5
143
330
EE
100
AcDbEntity
  8
AM_4
100
AcDbLine
 10
0.7499999999999999
 20
1.1664
 30
0.0
 11
0.7499999999999999
 21
1.140555414847062
 31
0.0
  0
LWPOLYLINE
  5
144
330
EE
100
AcDbEntity
  8
AM_4
100
AcDbPolyline
 90
       15
 70
     0
 43
0.0
 10
-0.698837733334283
 20
1.20804426324414
 10
-0.7147638998619943
 20
1.206823866064067
 10
-0.7409751225348631
 20
1.205212385874677
 10
-0.7697115203900915
 20
1.204016756182487
 10
-0.8001984631805633
 20
1.203404651024428
 10
-0.831869189310161
 20
1.203486260471438
 10
-0.8627395919425812
 20
1.204269220956389
 10
-0.8930482309452622
 20
1.205711215708445
 10
-0.9199503405415452
 20
1.207546640069327
 10
-0.9444389023377264
 20
1.209668018023488
 10
-0.9634462930104346
 20
1.21160804681014
 10
-0.9784843020504522
 20
1.213323133120342
 10
-0.9874611377679897
 20
1.214422293030732
 10
-0.991744679808811
 20
1.214966543862749
 10
-0.9920047700955664
 20
1.214999999999983
  0
LINE
  5
145
330
EE
100
AcDbEntity
  8
AM_4
100
AcDbLine
 10
-1.1414
 20
-1.215
 30
0.0
 11
-0.6939019813497802
 21
-1.215
 31
0.0
  0
LINE
  5
146
330
EE
100
AcDbEntity
  8
AM_4
100
AcDbLine
 10
-0.9915089156894209
 20
1.215
 30
0.0
 11
-1.1414
 21
1.215
 31
0.0
  0
LINE
  5
147
330
EE
100
AcDbEntity
  8
AM_4
100
AcDbLine
 10
-1.1414
 20
1.215
 30
0.0
 11
-1.1414
 21
-1.215
 31
0.0
  0
LINE
  5
148
330
EE
100
AcDbEntity
  8
AM_4
100
AcDbLine
 10
0.69390198134978
 20
-1.215000000000001
 30
0.0
 11
0.7014
 21
-1.215000000000001
 31
0.0
  0
LINE
  5
149
330
EE
100
AcDbEntity
  8
AM_4
100
AcDbLine
 10
0.7014
 20
1.215000000000001
 30
0.0
 11
0.69390198134978
 21
1.215000000000001
 31
0.0
  0
LINE
  5
14A
330
EE
100
AcDbEntity
  8
AM_4
100
AcDbLine
 10
0.7014
 20
-1.205049793177813
 30
0.0
 11
0.7014
 21
-1.215000000000001
 31
0.0
  0
LINE
  5
14B
330
EE
100
AcDbEntity
  8
AM_4
100
AcDbLine
 10
0.7014
 20
1.215000000000001
 30
0.0
 11
0.7014
 21
1.205049793177813
 31
0.0
  0
ENDBLK
  5
F1
330
EE
100
AcDbEntity
  8
0
100
AcDbBlockEnd
  0
BLOCK
  5
14E
330
14C
100
AcDbEntity
  8
0
100
AcDbBlockBegin
  2
4_136995H_0_in_136995_2
 70
     2
 10
0.0
 20
0.0
 30
0.0
  3
4_136995H_0_in_136995_2
  1

  0
ATTDEF
  5
150
330
14C
100
AcDbEntity
  8
AM_6
100
AcDbText
 10
6.309
 20
2.25
 30
0.0
 40
0.5
  1
WSTU-SCEZ-SHSS - Inch - housing
100
AcDbAttributeDefinition
  3

  2
NN
 70
     8
280
     0
  0
ATTDEF
  5
151
330
14C
100
AcDbEntity
  8
AM_6
100
AcDbText
 10
6.309
 20
1.75
 30
0.0
 40
0.5
  1
SC Take-Up Bearings -Wide Slot -(Normal Duty) -Polymer Housed -Corrosion Resistant Insert -E-Z KLEEN
100
AcDbAttributeDefinition
  3

  2
NT
 70
     8
280
     0
  0
ATTDEF
  5
152
330
14C
100
AcDbEntity
  8
AM_6
100
AcDbText
 10
6.309
 20
1.25
 30
0.0
 40
0.5
  1
136995H
100
AcDbAttributeDefinition
  3

  2
NB
 70
     8
280
     0
  0
ATTDEF
  5
153
330
14C
100
AcDbEntity
  8
AM_6
100
AcDbText
 10
6.309
 20
0.75
 30
0.0
 40
0.5
  1
$PN.H
100
AcDbAttributeDefinition
  3

  2
NBSYN
 70
     8
280
     0
  0
ATTDEF
  5
154
330
14C
100
AcDbEntity
  8
AM_6
100
AcDbText
 10
6.309
 20
0.25
 30
0.0
 40
0.5
  1
136995
100
AcDbAttributeDefinition
  3

  2
LINA
 70
     8
280
     0
  0
ATTDEF
  5
155
330
14C
100
AcDbEntity
  8
AM_6
100
AcDbText
 10
6.309
 20
-0.25
 30
0.0
 40
0.5
  1
210
100
AcDbAttributeDefinition
  3

  2
SERIES
 70
     8
280
     0
  0
ATTDEF
  5
156
330
14C
100
AcDbEntity
  8
AM_6
100
AcDbText
 10
6.309
 20
-0.75
 30
0.0
 40
0.5
  1
2
100
AcDbAttributeDefinition
  3

  2
SS
 70
     8
280
     0
  0
ATTDEF
  5
157
330
14C
100
AcDbEntity
  8
AM_6
100
AcDbText
 10
6.309
 20
-1.25
 30
0.0
 40
0.5
  1
136995
100
AcDbAttributeDefinition
  3

  2
PN
 70
     8
280
     0
  0
ATTDEF
  5
158
330
14C
100
AcDbEntity
  8
AM_6
100
AcDbText
 10
6.309
 20
-1.75
 30
0.0
 40
0.5
  1
WSTU-SCEZ-200-SHSS
100
AcDbAttributeDefinition
  3

  2
DESCRIPTION
 70
     8
280
     0
  0
ATTDEF
  5
159
330
14C
100
AcDbEntity
  8
AM_6
100
AcDbText
 10
6.309
 20
-2.25
 30
0.0
 40
0.5
  1
4.03
100
AcDbAttributeDefinition
  3

  2
W
 70
     8
280
     0
  0
ATTDEF
  5
15A
330
14C
100
AcDbEntity
  8
AM_6
100
AcDbText
 10
6.309
 20
-2.75
 30
0.0
 40
0.5
  1
1.94
100
AcDbAttributeDefinition
  3

  2
A
 70
     8
280
     0
  0
ATTDEF
  5
15B
330
14C
100
AcDbEntity
  8
AM_6
100
AcDbText
 10
6.309
 20
-3.25
 30
0.0
 40
0.5
  1
5.63
100
AcDbAttributeDefinition
  3

  2
B
 70
     8
280
     0
  0
ATTDEF
  5
15C
330
14C
100
AcDbEntity
  8
AM_6
100
AcDbText
 10
6.309
 20
-3.75
 30
0.0
 40
0.5
  1
0.688
100
AcDbAttributeDefinition
  3

  2
C
 70
     8
280
     0
  0
ATTDEF
  5
15D
330
14C
100
AcDbEntity
  8
AM_6
100
AcDbText
 10
6.309
 20
-4.25
 30
0.0
 40
0.5
  1
0.688
100
AcDbAttributeDefinition
  3

  2
C1
 70
     8
280
     0
  0
ATTDEF
  5
15E
330
14C
100
AcDbEntity
  8
AM_6
100
AcDbText
 10
6.309
 20
-4.75
 30
0.0
 40
0.5
  1
3.25
100
AcDbAttributeDefinition
  3

  2
D
 70
     8
280
     0
  0
ATTDEF
  5
15F
330
14C
100
AcDbEntity
  8
AM_6
100
AcDbText
 10
6.309
 20
-5.25
 30
0.0
 40
0.5
  1
3.50
100
AcDbAttributeDefinition
  3

  2
E
 70
     8
280
     0
  0
ATTDEF
  5
160
330
14C
100
AcDbEntity
  8
AM_6
100
AcDbText
 10
6.309
 20
-5.75
 30
0.0
 40
0.5
  1
1
100
AcDbAttributeDefinition
  3

  2
F
 70
     8
280
     0
  0
ATTDEF
  5
161
330
14C
100
AcDbEntity
  8
AM_6
100
AcDbText
 10
6.309
 20
-6.25
 30
0.0
 40
0.5
  1
0.63
100
AcDbAttributeDefinition
  3

  2
G
 70
     8
280
     0
  0
ATTDEF
  5
162
330
14C
100
AcDbEntity
  8
AM_6
100
AcDbText
 10
6.309
 20
-6.75
 30
0.0
 40
0.5
  1
0.75
100
AcDbAttributeDefinition
  3

  2
H
 70
     8
280
     0
  0
ATTDEF
  5
163
330
14C
100
AcDbEntity
  8
AM_6
100
AcDbText
 10
6.309
 20
-7.25
 30
0.0
 40
0.5
  1
2.75
100
AcDbAttributeDefinition
  3

  2
J
 70
     8
280
     0
  0
ATTDEF
  5
164
330
14C
100
AcDbEntity
  8
AM_6
100
AcDbText
 10
6.309
 20
-7.75
 30
0.0
 40
0.5
  1
1.94
100
AcDbAttributeDefinition
  3

  2
K
 70
     8
280
     0
  0
ATTDEF
  5
165
330
14C
100
AcDbEntity
  8
AM_6
100
AcDbText
 10
6.309
 20
-8.25
 30
0.0
 40
0.5
  1
2.43
100
AcDbAttributeDefinition
  3

  2
L
 70
     8
280
     0
  0
ATTDEF
  5
166
330
14C
100
AcDbEntity
  8
AM_6
100
AcDbText
 10
6.309
 20
-8.75
 30
0.0
 40
0.5
  1
4.015 / 3.985
100
AcDbAttributeDefinition
  3

  2
M
 70
     8
280
     0
  0
ATTDEF
  5
167
330
14C
100
AcDbEntity
  8
AM_6
100
AcDbText
 10
6.309
 20
-9.25
 30
0.0
 40
0.5
  1
4.015
100
AcDbAttributeDefinition
  3

  2
M1
 70
     8
280
     0
  0
ATTDEF
  5
168
330
14C
100
AcDbEntity
  8
AM_6
100
AcDbText
 10
6.309
 20
-9.75
 30
0.0
 40
0.5
  1
4.50
100
AcDbAttributeDefinition
  3

  2
N
 70
     8
280
     0
  0
ATTDEF
  5
169
330
14C
100
AcDbEntity
  8
AM_6
100
AcDbText
 10
6.309
 20
-10.25
 30
0.0
 40
0.5
  1
0.75
100
AcDbAttributeDefinition
  3

  2
R
 70
     8
280
     0
  0
ATTDEF
  5
16A
330
14C
100
AcDbEntity
  8
AM_6
100
AcDbText
 10
6.309
 20
-10.75
 30
0.0
 40
0.5
  1
1.19
100
AcDbAttributeDefinition
  3

  2
S
 70
     8
280
     0
  0
ATTDEF
  5
16B
330
14C
100
AcDbEntity
  8
AM_6
100
AcDbText
 10
6.309
 20
-11.25
 30
0.0
 40
0.5
  1
1.62
100
AcDbAttributeDefinition
  3

  2
T
 70
     8
280
     0
  0
ATTDEF
  5
16C
330
14C
100
AcDbEntity
  8
AM_6
100
AcDbText
 10
6.309
 20
-11.75
 30
0.0
 40
0.5
  1
4450
100
AcDbAttributeDefinition
  3

  2
CAPS
 70
     8
280
     0
  0
ATTDEF
  5
16D
330
14C
100
AcDbEntity
  8
AM_6
100
AcDbText
 10
6.309
 20
-12.25
 30
0.0
 40
0.5
  1
7891
100
AcDbAttributeDefinition
  3

  2
CAPD
 70
     8
280
     0
  0
ATTDEF
  5
16E
330
14C
100
AcDbEntity
  8
AM_6
100
AcDbText
 10
6.309
 20
-12.75
 30
0.0
 40
0.5
  1
baldor
100
AcDbAttributeDefinition
  3

  2
COMPANY
 70
     8
280
     0
  0
LINE
  5
16F
330
14C
100
AcDbEntity
  8
AM_9
100
AcDbLine
 10
-0.5733333333333336
 20
-1.359748167472477
 30
0.0
 11
0.5733333333333329
 21
-1.359748167472477
 31
0.0
  0
LINE
  5
170
330
14C
100
AcDbEntity
  8
AM_9
100
AcDbLine
 10
-0.5733333333333334
 20
1.359748167472476
 30
0.0
 11
0.5733333333333333
 21
1.359748167472476
 31
0.0
  0
LINE
  5
171
330
14C
100
AcDbEntity
  8
AM_9
100
AcDbLine
 10
-0.5733333333333334
 20
1.399966071017437
 30
0.0
 11
0.5733333333333334
 21
1.399966071017437
 31
0.0
  0
LINE
  5
172
330
14C
100
AcDbEntity
  8
AM_9
100
AcDbLine
 10
-0.5733333333333335
 20
-1.399966071017437
 30
0.0
 11
0.573333333333333
 21
-1.399966071017437
 31
0.0
  0
LINE
  5
173
330
14C
100
AcDbEntity
  8
AM_9
100
AcDbLine
 10
-0.2064
 20
-1.748893729777644
 30
0.0
 11
0.5733333333333333
 21
-1.748893729777644
 31
0.0
  0
LINE
  5
174
330
14C
100
AcDbEntity
  8
AM_9
100
AcDbLine
 10
-0.2064
 20
-1.87165
 30
0.0
 11
0.6477452380952383
 21
-1.87165
 31
0.0
  0
LINE
  5
175
330
14C
100
AcDbEntity
  8
AM_9
100
AcDbLine
 10
-0.2064
 20
-1.87165
 30
0.0
 11
-0.2064
 21
-1.641432081462878
 31
0.0
  0
LINE
  5
176
330
14C
100
AcDbEntity
  8
AM_9
100
AcDbLine
 10
-0.2064
 20
1.748893729777643
 30
0.0
 11
0.5733333333333333
 21
1.748893729777643
 31
0.0
  0
LINE
  5
177
330
14C
100
AcDbEntity
  8
AM_9
100
AcDbLine
 10
-0.2064
 20
1.641432081462878
 30
0.0
 11
-0.2064
 21
1.87165
 31
0.0
  0
LINE
  5
178
330
14C
100
AcDbEntity
  8
AM_9
100
AcDbLine
 10
0.6477452380952382
 20
1.87165
 30
0.0
 11
-0.2064
 21
1.87165
 31
0.0
  0
LINE
  5
179
330
14C
100
AcDbEntity
  8
AM_9
100
AcDbLine
 10
-0.2064
 20
1.641432081462878
 30
0.0
 11
0.5733333333333333
 21
1.641432081462878
 31
0.0
  0
LINE
  5
17A
330
14C
100
AcDbEntity
  8
AM_9
100
AcDbLine
 10
0.5733333333333333
 20
-1.641432081462878
 30
0.0
 11
-0.2064
 21
-1.641432081462878
 31
0.0
  0
LINE
  5
17B
330
14C
100
AcDbEntity
  8
AM_9
100
AcDbLine
 10
-0.5733333333333331
 20
-1.77165
 30
0.0
 11
-0.2064
 21
-1.77165
 31
0.0
  0
LINE
  5
17C
330
14C
100
AcDbEntity
  8
AM_9
100
AcDbLine
 10
-0.2064
 20
1.77165
 30
0.0
 11
-0.5733333333333331
 21
1.77165
 31
0.0
  0
LINE
  5
17D
330
14C
100
AcDbEntity
  8
AM_9
100
AcDbLine
 10
-0.5733333333333331
 20
0.9699999999999999
 30
0.0
 11
0.5733333333333334
 21
0.9699999999999998
 31
0.0
  0
LINE
  5
17E
330
14C
100
AcDbEntity
  8
AM_9
100
AcDbLine
 10
-0.5733333333333329
 20
1.375
 30
0.0
 11
-0.573333333333333
 21
-1.375
 31
0.0
  0
LINE
  5
17F
330
14C
100
AcDbEntity
  8
AM_9
100
AcDbLine
 10
-0.5733333333333333
 20
-0.9699999999999998
 30
0.0
 11
0.5733333333333333
 21
-0.9699999999999999
 31
0.0
  0
LINE
  5
180
330
14C
100
AcDbEntity
  8
AM_9
100
AcDbLine
 10
0.5733333333333334
 20
-1.375
 30
0.0
 11
0.5733333333333335
 21
1.375
 31
0.0
  0
LINE
  5
181
330
14C
100
AcDbEntity
  8
AM_7
100
AcDbLine
 10
0.0000000000000002
 20
-0.525
 30
0.0
 11
0.0000000000000002
 21
0.525
 31
0.0
  0
LINE
  5
182
330
14C
100
AcDbEntity
  8
AM_7
100
AcDbLine
 10
-1.309
 20
0.0
 30
0.0
 11
1.309
 21
0.0
 31
0.0
  0
LINE
  5
183
330
14C
100
AcDbEntity
  8
AM_4
100
AcDbLine
 10
0.6880000000000001
 20
1.911904761904762
 30
0.0
 11
0.6880000000000001
 21
2.25
 31
0.0
  0
LINE
  5
184
330
14C
100
AcDbEntity
  8
AM_4
100
AcDbLine
 10
0.344
 20
2.25
 30
0.0
 11
0.344
 21
2.007499999999999
 31
0.0
  0
LINE
  5
185
330
14C
100
AcDbEntity
  8
AM_4
100
AcDbLine
 10
0.344
 20
2.25
 30
0.0
 11
0.6880000000000001
 21
2.25
 31
0.0
  0
LINE
  5
186
330
14C
100
AcDbEntity
  8
AM_4
100
AcDbLine
 10
-0.6880000000000001
 20
-1.911904761904762
 30
0.0
 11
-0.6880000000000001
 21
-2.25
 31
0.0
  0
LINE
  5
187
330
14C
100
AcDbEntity
  8
AM_4
100
AcDbLine
 10
-0.6880000000000001
 20
-2.25
 30
0.0
 11
-0.3440000000000003
 21
-2.25
 31
0.0
  0
LINE
  5
188
330
14C
100
AcDbEntity
  8
AM_4
100
AcDbLine
 10
-0.3440000000000003
 20
-2.25
 30
0.0
 11
-0.3440000000000001
 21
-2.007499999999999
 31
0.0
  0
LINE
  5
189
330
14C
100
AcDbEntity
  8
AM_4
100
AcDbLine
 10
-0.6879999999999997
 20
2.25
 30
0.0
 11
-0.3439999999999999
 21
2.25
 31
0.0
  0
LINE
  5
18A
330
14C
100
AcDbEntity
  8
AM_4
100
AcDbLine
 10
-0.6879999999999997
 20
2.25
 30
0.0
 11
-0.6879999999999997
 21
1.911904761904762
 31
0.0
  0
LINE
  5
18B
330
14C
100
AcDbEntity
  8
AM_4
100
AcDbLine
 10
-0.3439999999999999
 20
2.007499999999999
 30
0.0
 11
-0.3439999999999999
 21
2.25
 31
0.0
  0
LINE
  5
18C
330
14C
100
AcDbEntity
  8
AM_4
100
AcDbLine
 10
0.5733333333333335
 20
1.797238095238095
 30
0.0
 11
0.6880000000000001
 21
1.911904761904762
 31
0.0
  0
LINE
  5
18D
330
14C
100
AcDbEntity
  8
AM_4
100
AcDbLine
 10
-0.6879999999999997
 20
1.911904761904762
 30
0.0
 11
-0.5733333333333331
 21
1.797238095238095
 31
0.0
  0
LINE
  5
18E
330
14C
100
AcDbEntity
  8
AM_4
100
AcDbLine
 10
0.344
 20
2.187
 30
0.0
 11
0.6880000000000001
 21
2.187
 31
0.0
  0
LINE
  5
18F
330
14C
100
AcDbEntity
  8
AM_4
100
AcDbLine
 10
0.344
 20
2.007499999999999
 30
0.0
 11
-0.3439999999999999
 21
2.007499999999999
 31
0.0
  0
LINE
  5
190
330
14C
100
AcDbEntity
  8
AM_4
100
AcDbLine
 10
-0.6879999999999997
 20
2.187
 30
0.0
 11
-0.3439999999999999
 21
2.187
 31
0.0
  0
LINE
  5
191
330
14C
100
AcDbEntity
  8
AM_4
100
AcDbLine
 10
0.6879999999999998
 20
-2.25
 30
0.0
 11
0.6879999999999998
 21
-1.911904761904762
 31
0.0
  0
LINE
  5
192
330
14C
100
AcDbEntity
  8
AM_4
100
AcDbLine
 10
0.3439999999999998
 20
-2.25
 30
0.0
 11
0.6879999999999998
 21
-2.25
 31
0.0
  0
LINE
  5
193
330
14C
100
AcDbEntity
  8
AM_4
100
AcDbLine
 10
0.3439999999999998
 20
-2.007499999999999
 30
0.0
 11
0.3439999999999998
 21
-2.25
 31
0.0
  0
LINE
  5
194
330
14C
100
AcDbEntity
  8
AM_4
100
AcDbLine
 10
-0.5733333333333334
 20
-1.797238095238095
 30
0.0
 11
-0.6880000000000001
 21
-1.911904761904762
 31
0.0
  0
LINE
  5
195
330
14C
100
AcDbEntity
  8
AM_4
100
AcDbLine
 10
0.6879999999999998
 20
-1.911904761904762
 30
0.0
 11
0.573333333333333
 21
-1.797238095238095
 31
0.0
  0
LINE
  5
196
330
14C
100
AcDbEntity
  8
AM_4
100
AcDbLine
 10
-0.6880000000000001
 20
-2.186999999999999
 30
0.0
 11
-0.3440000000000002
 21
-2.186999999999999
 31
0.0
  0
LINE
  5
197
330
14C
100
AcDbEntity
  8
AM_4
100
AcDbLine
 10
-0.3440000000000001
 20
-2.007499999999999
 30
0.0
 11
0.3439999999999998
 21
-2.007499999999999
 31
0.0
  0
LINE
  5
198
330
14C
100
AcDbEntity
  8
AM_4
100
AcDbLine
 10
0.3439999999999998
 20
-2.186999999999999
 30
0.0
 11
0.6879999999999997
 21
-2.186999999999999
 31
0.0
  0
LINE
  5
199
330
14C
100
AcDbEntity
  8
AM_4
100
AcDbLine
 10
0.5733333333333336
 20
1.375
 30
0.0
 11
0.5733333333333335
 21
1.797238095238095
 31
0.0
  0
LINE
  5
19A
330
14C
100
AcDbEntity
  8
AM_4
100
AcDbLine
 10
-0.5733333333333331
 20
1.797238095238095
 30
0.0
 11
-0.5733333333333331
 21
1.375
 31
0.0
  0
LINE
  5
19B
330
14C
100
AcDbEntity
  8
AM_4
100
AcDbLine
 10
-0.6510952380952382
 20
1.875
 30
0.0
 11
0.6510952380952385
 21
1.875
 31
0.0
  0
LINE
  5
19C
330
14C
100
AcDbEntity
  8
AM_4
100
AcDbLine
 10
0.573333333333333
 20
-1.797238095238095
 30
0.0
 11
0.5733333333333334
 21
-1.375
 31
0.0
  0
LINE
  5
19D
330
14C
100
AcDbEntity
  8
AM_4
100
AcDbLine
 10
-0.5733333333333334
 20
-1.375
 30
0.0
 11
-0.5733333333333334
 21
-1.797238095238095
 31
0.0
  0
LINE
  5
19E
330
14C
100
AcDbEntity
  8
AM_4
100
AcDbLine
 10
-0.6510952380952383
 20
-1.875
 30
0.0
 11
0.6510952380952383
 21
-1.875
 31
0.0
  0
LINE
  5
19F
330
14C
100
AcDbEntity
  8
AM_4
100
AcDbLine
 10
0.8100000000000004
 20
-1.060932725549836
 30
0.0
 11
0.5733333333333334
 21
-1.375
 31
0.0
  0
LINE
  5
1A0
330
14C
100
AcDbEntity
  8
AM_4
100
AcDbLine
 10
-0.573333333333333
 20
-1.375
 30
0.0
 11
-0.8099999999999998
 21
-1.060932725549836
 31
0.0
  0
LINE
  5
1A1
330
14C
100
AcDbEntity
  8
AM_4
100
AcDbLine
 10
-0.573333333333333
 20
-1.375
 30
0.0
 11
0.5733333333333334
 21
-1.375
 31
0.0
  0
LINE
  5
1A2
330
14C
100
AcDbEntity
  8
AM_4
100
AcDbLine
 10
0.8100000000000004
 20
-1.060932725549836
 30
0.0
 11
0.8100000000000004
 21
1.060932725549836
 31
0.0
  0
LINE
  5
1A3
330
14C
100
AcDbEntity
  8
AM_4
100
AcDbLine
 10
-0.8099999999999998
 20
-1.060932725549836
 30
0.0
 11
-0.8099999999999998
 21
1.060932725549836
 31
0.0
  0
LINE
  5
1A4
330
14C
100
AcDbEntity
  8
AM_4
100
AcDbLine
 10
0.8100000000000004
 20
1.060932725549836
 30
0.0
 11
0.5733333333333335
 21
1.375
 31
0.0
  0
CIRCLE
  5
1A5
330
14C
100
AcDbEntity
  8
AM_4
100
AcDbCircle
 10
0.0000000000000002
 20
0.0
 30
0.0
 40
0.5
  0
LINE
  5
1A6
330
14C
100
AcDbEntity
  8
AM_4
100
AcDbLine
 10
-0.5733333333333329
 20
1.375
 30
0.0
 11
-0.8099999999999998
 21
1.060932725549836
 31
0.0
  0
LINE
  5
1A7
330
14C
100
AcDbEntity
  8
AM_4
100
AcDbLine
 10
-0.6208072384898091
 20
-1.312
 30
0.0
 11
0.6208072384898099
 21
-1.312
 31
0.0
  0
LINE
  5
1A8
330
14C
100
AcDbEntity
  8
AM_4
100
AcDbLine
 10
-0.6208072384898089
 20
1.312
 30
0.0
 11
0.6208072384898095
 21
1.312
 31
0.0
  0
LINE
  5
1A9
330
14C
100
AcDbEntity
  8
AM_4
100
AcDbLine
 10
-0.5733333333333329
 20
1.375
 30
0.0
 11
0.5733333333333334
 21
1.375
 31
0.0
  0
ENDBLK
  5
14F
330
14C
100
AcDbEntity
  8
0
100
AcDbBlockEnd
  0
ENDSEC
  0
SECTION
  2
ENTITIES
  0
INSERT
  5
6F
330
1F
100
AcDbEntity
  8
0
100
AcDbBlockReference
  2
1_136995_2
 10
0.0
 20
0.0
 30
0.0
  0
POINT
  5
1AB
330
1F
100
AcDbEntity
  8
ConnectionPoints
100
AcDbPoint
 10
0.75
 20
0.0
 30
0.0
  0
POINT
  5
1AC
330
1F
100
AcDbEntity
  8
ConnectionPoints
100
AcDbPoint
 10
-1.19
 20
0.0
 30
0.0000000000000001
  0
POINT
  5
1AD
330
1F
100
AcDbEntity
  8
ConnectionPoints
100
AcDbPoint
 10
-0.0000000000000001
 20
-1.065
 30
-1.844634110060854
  0
POINT
  5
1AE
330
1F
100
AcDbEntity
  8
ConnectionPoints
100
AcDbPoint
 10
-1.19
 20
0.0
 30
0.0000000000000001
  0
ENDSEC
  0
SECTION
  2
OBJECTS
  0
DICTIONARY
  5
C
330
0
100
AcDbDictionary
281
     1
  3
ACAD_DETAILVIEWSTYLE
350
1B6
  3
ACAD_GROUP
350
D
  3
ACAD_LAYOUT
350
1A
  3
ACAD_MATERIAL
350
43
  3
ACAD_MLEADERSTYLE
350
6B
  3
ACAD_MLINESTYLE
350
17
  3
ACAD_PLOTSETTINGS
350
19
  3
ACAD_PLOTSTYLENAME
350
E
  3
ACAD_SCALELIST
350
47
  3
ACAD_SECTIONVIEWSTYLE
350
1B7
  3
ACAD_TABLESTYLE
350
69
  3
ACAD_VISUALSTYLE
350
2A
  3
ACDB_RECOMPOSE_DATA
350
1B3
  3
AcDbVariableDictionary
350
1AF
  0
SUN
  5
6D
330
29
100
AcDbSun
 90
        1
290
     0
 63
     7
421
 16777215
 40
1.0
291
     1
 91
  2455826
 92
 54000000
292
     0
 70
     2
 71
   256
280
     1
  0
DICTIONARY
  5
1B6
102
{ACAD_REACTORS
330
C
102
}
330
C
100
AcDbDictionary
281
     1
  0
DICTIONARY
  5
D
102
{ACAD_REACTORS
330
C
102
}
330
C
100
AcDbDictionary
281
     1
  0
DICTIONARY
  5
1A
102
{ACAD_REACTORS
330
C
102
}
330
C
100
AcDbDictionary
281
     1
  3
Layout1
350
1E
  3
Layout2
350
26
  3
Model
350
22
  0
DICTIONARY
  5
43
102
{ACAD_REACTORS
330
C
102
}
330
C
100
AcDbDictionary
281
     1
  3
ByBlock
350
45
  3
ByLayer
350
44
  3
Global
350
46
  0
DICTIONARY
  5
6B
102
{ACAD_REACTORS
330
C
102
}
330
C
100
AcDbDictionary
281
     1
  3
Standard
350
6C
  0
DICTIONARY
  5
17
102
{ACAD_REACTORS
330
C
102
}
330
C
100
AcDbDictionary
281
     1
  3
Standard
350
18
  0
DICTIONARY
  5
19
102
{ACAD_REACTORS
330
C
102
}
330
C
100
AcDbDictionary
281
     1
  0
ACDBDICTIONARYWDFLT
  5
E
102
{ACAD_REACTORS
330
C
102
}
330
C
100
AcDbDictionary
281
     1
  3
Normal
350
F
100
AcDbDictionaryWithDefault
340
F
  0
DICTIONARY
  5
47
102
{ACAD_REACTORS
330
C
102
}
330
C
100
AcDbDictionary
281
     1
  3
A0
350
48
  3
A1
350
49
  3
A2
350
4A
  3
A3
350
4B
  3
A4
350
4C
  3
A5
350
4D
  3
A6
350
4E
  3
A7
350
4F
  3
A8
350
50
  3
A9
350
51
  3
B0
350
52
  3
B1
350
53
  3
B2
350
54
  3
B3
350
55
  3
B4
350
56
  3
B5
350
57
  3
B6
350
58
  3
B7
350
59
  3
B8
350
5A
  3
B9
350
5B
  3
C0
350
5C
  3
C1
350
5D
  3
C2
350
5E
  3
C3
350
5F
  3
C4
350
60
  3
C5
350
61
  3
C6
350
62
  3
C7
350
63
  3
C8
350
64
  3
C9
350
65
  3
D0
350
66
  3
D1
350
67
  3
D2
350
68
  0
DICTIONARY
  5
1B7
102
{ACAD_REACTORS
330
C
102
}
330
C
100
AcDbDictionary
281
     1
  0
DICTIONARY
  5
69
102
{ACAD_REACTORS
330
C
102
}
330
C
100
AcDbDictionary
281
     1
  3
Standard
350
6A
  0
DICTIONARY
  5
2A
102
{ACAD_REACTORS
330
C
102
}
330
C
100
AcDbDictionary
281
     1
  3
2dWireframe
350
2F
  3
Basic
350
32
  3
Brighten
350
36
  3
ColorChange
350
3A
  3
Conceptual
350
34
  3
Dim
350
35
  3
EdgeColorOff
350
3D
  3
Facepattern
350
39
  3
Flat
350
2B
  3
FlatWithEdges
350
2C
  3
Gouraud
350
2D
  3
GouraudWithEdges
350
2E
  3
Hidden
350
31
  3
JitterOff
350
3B
  3
Linepattern
350
38
  3
OverhangOff
350
3C
  3
Realistic
350
33
  3
Shaded
350
42
  3
Shaded with edges
350
41
  3
Shades of Gray
350
3E
  3
Sketchy
350
3F
  3
Thicken
350
37
  3
Wireframe
350
30
  3
X-Ray
350
40
  0
XRECORD
  5
1B3
102
{ACAD_REACTORS
330
C
102
}
330
C
100
AcDbXrecord
280
     1
 90
        1
330
6A
  0
DICTIONARY
  5
1AF
102
{ACAD_REACTORS
330
C
102
}
330
C
100
AcDbDictionary
281
     1
  3
CANNOSCALE
350
1B0
  3
CMLEADERSTYLE
350
1B5
  3
CTABLESTYLE
350
1B4
  0
LAYOUT
  5
1E
102
{ACAD_REACTORS
330
1A
102
}
330
1A
100
AcDbPlotSettings
  1

  2
none_device
  4

  6

 40
0.0
 41
0.0
 42
0.0
 43
0.0
 44
0.0
 45
0.0
 46
0.0
 47
0.0
 48
0.0
 49
0.0
140
0.0
141
0.0
142
1.0
143
1.0
 70
   688
 72
     0
 73
     0
 74
     5
  7

 75
    16
 76
     0
 77
     2
 78
   300
147
1.0
148
0.0
149
0.0
100
AcDbLayout
  1
Layout1
 70
     1
 71
     1
 10
0.0
 20
0.0
 11
12.0
 21
9.0
 12
0.0
 22
0.0
 32
0.0
 14
1.000000000000000E+20
 24
1.000000000000000E+20
 34
1.000000000000000E+20
 15
-1.000000000000000E+20
 25
-1.000000000000000E+20
 35
-1.000000000000000E+20
146
0.0
 13
0.0
 23
0.0
 33
0.0
 16
1.0
 26
0.0
 36
0.0
 17
0.0
 27
1.0
 37
0.0
 76
     0
330
1B
  0
LAYOUT
  5
26
102
{ACAD_REACTORS
330
1A
102
}
330
1A
100
AcDbPlotSettings
  1

  2
none_device
  4

  6

 40
0.0
 41
0.0
 42
0.0
 43
0.0
 44
0.0
 45
0.0
 46
0.0
 47
0.0
 48
0.0
 49
0.0
140
0.0
141
0.0
142
1.0
143
1.0
 70
   688
 72
     0
 73
     0
 74
     5
  7

 75
    16
 76
     0
 77
     2
 78
   300
147
1.0
148
0.0
149
0.0
100
AcDbLayout
  1
Layout2
 70
     1
 71
     2
 10
0.0
 20
0.0
 11
0.0
 21
0.0
 12
0.0
 22
0.0
 32
0.0
 14
0.0
 24
0.0
 34
0.0
 15
0.0
 25
0.0
 35
0.0
146
0.0
 13
0.0
 23
0.0
 33
0.0
 16
1.0
 26
0.0
 36
0.0
 17
0.0
 27
1.0
 37
0.0
 76
     0
330
23
  0
LAYOUT
  5
22
102
{ACAD_REACTORS
330
1A
102
}
330
1A
100
AcDbPlotSettings
  1

  2
none_device
  4
Letter_(8.50_x_11.00_Inches)
  6

 40
6.35
 41
6.35
 42
6.35000508
 43
6.35000508
 44
215.9
 45
279.4
 46
0.0
 47
0.0
 48
0.0
 49
0.0
140
0.0
141
0.0
142
1.0
143
1.0
 70
  1712
 72
     0
 73
     0
 74
     0
  7

 75
     0
 76
     0
 77
     2
 78
   300
147
1.0
148
0.0
149
0.0
100
AcDbLayout
  1
Model
 70
     1
 71
     0
 10
0.0
 20
0.0
 11
12.0
 21
9.0
 12
0.0
 22
0.0
 32
0.0
 14
1.000000000000000E+20
 24
1.000000000000000E+20
 34
1.000000000000000E+20
 15
-1.000000000000000E+20
 25
-1.000000000000000E+20
 35
-1.000000000000000E+20
146
0.0
 13
0.0
 23
0.0
 33
0.0
 16
1.0
 26
0.0
 36
0.0
 17
0.0
 27
1.0
 37
0.0
 76
     0
330
1F
331
29
  0
MATERIAL
  5
45
102
{ACAD_REACTORS
330
43
102
}
330
43
100
AcDbMaterial
  1
ByBlock
 72
     1
 94
      127
  0
MATERIAL
  5
44
102
{ACAD_REACTORS
330
43
102
}
330
43
100
AcDbMaterial
  1
ByLayer
 72
     1
 94
      127
  0
MATERIAL
  5
46
102
{ACAD_REACTORS
330
43
102
}
330
43
100
AcDbMaterial
  1
Global
 72
     1
 94
      127
  0
MLEADERSTYLE
  5
6C
102
{ACAD_REACTORS
330
6B
102
}
330
6B
100
AcDbMLeaderStyle
179
     2
170
     2
171
     1
172
     0
 90
        2
 40
0.0
 41
0.0
173
     1
 91
-1056964608
340
14
 92
       -2
290
     1
 42
0.09
291
     1
 43
0.36
  3
Standard
341
0
 44
0.18
300

342
11
174
     1
178
     6
175
     1
176
     0
 93
-1056964608
 45
0.18
292
     0
297
     0
 46
0.18
343
0
 94
-1056964608
 47
1.0
 49
1.0
140
1.0
293
     1
141
0.0
294
     1
177
     0
142
1.0
295
     0
296
     0
143
0.125
271
     0
272
     9
273
     9
298
     0
  0
MLINESTYLE
  5
18
102
{ACAD_REACTORS
330
17
102
}
330
17
100
AcDbMlineStyle
  2
Standard
 70
     0
  3

 62
   256
 51
90.0
 52
90.0
 71
     2
 49
0.5
 62
   256
  6
BYLAYER
 49
-0.5
 62
   256
  6
BYLAYER
  0
ACDBPLACEHOLDER
  5
F
102
{ACAD_REACTORS
330
E
102
}
330
E
  0
SCALE
  5
48
102
{ACAD_REACTORS
330
47
102
}
330
47
100
AcDbScale
 70
     0
300
1:1
140
1.0
141
1.0
290
     1
  0
SCALE
  5
49
102
{ACAD_REACTORS
330
47
102
}
330
47
100
AcDbScale
 70
     0
300
1:2
140
1.0
141
2.0
290
     0
  0
SCALE
  5
4A
102
{ACAD_REACTORS
330
47
102
}
330
47
100
AcDbScale
 70
     0
300
1:4
140
1.0
141
4.0
290
     0
  0
SCALE
  5
4B
102
{ACAD_REACTORS
330
47
102
}
330
47
100
AcDbScale
 70
     0
300
1:5
140
1.0
141
5.0
290
     0
  0
SCALE
  5
4C
102
{ACAD_REACTORS
330
47
102
}
330
47
100
AcDbScale
 70
     0
300
1:8
140
1.0
141
8.0
290
     0
  0
SCALE
  5
4D
102
{ACAD_REACTORS
330
47
102
}
330
47
100
AcDbScale
 70
     0
300
1:10
140
1.0
141
10.0
290
     0
  0
SCALE
  5
4E
102
{ACAD_REACTORS
330
47
102
}
330
47
100
AcDbScale
 70
     0
300
1:16
140
1.0
141
16.0
290
     0
  0
SCALE
  5
4F
102
{ACAD_REACTORS
330
47
102
}
330
47
100
AcDbScale
 70
     0
300
1:20
140
1.0
141
20.0
290
     0
  0
SCALE
  5
50
102
{ACAD_REACTORS
330
47
102
}
330
47
100
AcDbScale
 70
     0
300
1:30
140
1.0
141
30.0
290
     0
  0
SCALE
  5
51
102
{ACAD_REACTORS
330
47
102
}
330
47
100
AcDbScale
 70
     0
300
1:40
140
1.0
141
40.0
290
     0
  0
SCALE
  5
52
102
{ACAD_REACTORS
330
47
102
}
330
47
100
AcDbScale
 70
     0
300
1:50
140
1.0
141
50.0
290
     0
  0
SCALE
  5
53
102
{ACAD_REACTORS
330
47
102
}
330
47
100
AcDbScale
 70
     0
300
1:100
140
1.0
141
100.0
290
     0
  0
SCALE
  5
54
102
{ACAD_REACTORS
330
47
102
}
330
47
100
AcDbScale
 70
     0
300
2:1
140
2.0
141
1.0
290
     0
  0
SCALE
  5
55
102
{ACAD_REACTORS
330
47
102
}
330
47
100
AcDbScale
 70
     0
300
4:1
140
4.0
141
1.0
290
     0
  0
SCALE
  5
56
102
{ACAD_REACTORS
330
47
102
}
330
47
100
AcDbScale
 70
     0
300
8:1
140
8.0
141
1.0
290
     0
  0
SCALE
  5
57
102
{ACAD_REACTORS
330
47
102
}
330
47
100
AcDbScale
 70
     0
300
10:1
140
10.0
141
1.0
290
     0
  0
SCALE
  5
58
102
{ACAD_REACTORS
330
47
102
}
330
47
100
AcDbScale
 70
     0
300
100:1
140
100.0
141
1.0
290
     0
  0
SCALE
  5
59
102
{ACAD_REACTORS
330
47
102
}
330
47
100
AcDbScale
 70
     0
300
1/128" = 1'-0"
140
0.0078125
141
12.0
290
     0
  0
SCALE
  5
5A
102
{ACAD_REACTORS
330
47
102
}
330
47
100
AcDbScale
 70
     0
300
1/64" = 1'-0"
140
0.015625
141
12.0
290
     0
  0
SCALE
  5
5B
102
{ACAD_REACTORS
330
47
102
}
330
47
100
AcDbScale
 70
     0
300
1/32" = 1'-0"
140
0.03125
141
12.0
290
     0
  0
SCALE
  5
5C
102
{ACAD_REACTORS
330
47
102
}
330
47
100
AcDbScale
 70
     0
300
1/16" = 1'-0"
140
0.0625
141
12.0
290
     0
  0
SCALE
  5
5D
102
{ACAD_REACTORS
330
47
102
}
330
47
100
AcDbScale
 70
     0
300
3/32" = 1'-0"
140
0.09375
141
12.0
290
     0
  0
SCALE
  5
5E
102
{ACAD_REACTORS
330
47
102
}
330
47
100
AcDbScale
 70
     0
300
1/8" = 1'-0"
140
0.125
141
12.0
290
     0
  0
SCALE
  5
5F
102
{ACAD_REACTORS
330
47
102
}
330
47
100
AcDbScale
 70
     0
300
3/16" = 1'-0"
140
0.1875
141
12.0
290
     0
  0
SCALE
  5
60
102
{ACAD_REACTORS
330
47
102
}
330
47
100
AcDbScale
 70
     0
300
1/4" = 1'-0"
140
0.25
141
12.0
290
     0
  0
SCALE
  5
61
102
{ACAD_REACTORS
330
47
102
}
330
47
100
AcDbScale
 70
     0
300
3/8" = 1'-0"
140
0.375
141
12.0
290
     0
  0
SCALE
  5
62
102
{ACAD_REACTORS
330
47
102
}
330
47
100
AcDbScale
 70
     0
300
1/2" = 1'-0"
140
0.5
141
12.0
290
     0
  0
SCALE
  5
63
102
{ACAD_REACTORS
330
47
102
}
330
47
100
AcDbScale
 70
     0
300
3/4" = 1'-0"
140
0.75
141
12.0
290
     0
  0
SCALE
  5
64
102
{ACAD_REACTORS
330
47
102
}
330
47
100
AcDbScale
 70
     0
300
1" = 1'-0"
140
1.0
141
12.0
290
     0
  0
SCALE
  5
65
102
{ACAD_REACTORS
330
47
102
}
330
47
100
AcDbScale
 70
     0
300
1-1/2" = 1'-0"
140
1.5
141
12.0
290
     0
  0
SCALE
  5
66
102
{ACAD_REACTORS
330
47
102
}
330
47
100
AcDbScale
 70
     0
300
3" = 1'-0"
140
3.0
141
12.0
290
     0
  0
SCALE
  5
67
102
{ACAD_REACTORS
330
47
102
}
330
47
100
AcDbScale
 70
     0
300
6" = 1'-0"
140
6.0
141
12.0
290
     0
  0
SCALE
  5
68
102
{ACAD_REACTORS
330
47
102
}
330
47
100
AcDbScale
 70
     0
300
1'-0" = 1'-0"
140
12.0
141
12.0
290
     0
  0
TABLESTYLE
  5
6A
102
{ACAD_REACTORS
330
69
102
}
102
{ACAD_XDICTIONARY
360
1B1
102
}
330
69
100
AcDbTableStyle
  3
Standard
 70
     0
 71
     0
 40
0.06
 41
0.06
280
     0
281
     0
  7
Standard
140
0.18
170
     2
 62
     0
 63
   257
283
     0
 90
        4
 91
        0
  1

274
    -2
284
     1
 64
     0
275
    -2
285
     1
 65
     0
276
    -2
286
     1
 66
     0
277
    -2
287
     1
 67
     0
278
    -2
288
     1
 68
     0
279
    -2
289
     1
 69
     0
  7
Standard
140
0.25
170
     5
 62
     0
 63
   257
283
     0
 90
        4
 91
        0
  1

274
    -2
284
     1
 64
     0
275
    -2
285
     1
 65
     0
276
    -2
286
     1
 66
     0
277
    -2
287
     1
 67
     0
278
    -2
288
     1
 68
     0
279
    -2
289
     1
 69
     0
  7
Standard
140
0.18
170
     5
 62
     0
 63
   257
283
     0
 90
        4
 91
        0
  1

274
    -2
284
     1
 64
     0
275
    -2
285
     1
 65
     0
276
    -2
286
     1
 66
     0
277
    -2
287
     1
 67
     0
278
    -2
288
     1
 68
     0
279
    -2
289
     1
 69
     0
  0
VISUALSTYLE
  5
2F
102
{ACAD_REACTORS
330
2A
102
}
330
2A
100
AcDbVisualStyle
  2
2dWireframe
 70
     4
177
     3
291
     0
 70
    58
 90
        0
176
     1
 90
        2
176
     1
 90
        0
176
     1
 90
        0
176
     1
 40
0.6
176
     1
 40
30.0
176
     1
 62
     7
420
 16777215
176
     1
 90
        1
176
     1
 90
        4
176
     1
 62
     7
176
     1
 62
   257
176
     1
 90
        1
176
     1
 90
        1
176
     1
 40
1.0
176
     1
 90
        0
176
     1
 62
   257
176
     1
 40
1.0
176
     1
 90
        1
176
     1
 90
        6
176
     1
 90
        2
176
     1
 62
     7
176
     1
 90
        5
176
     1
 90
        0
176
     1
 90
        0
176
     1
290
     0
176
     1
 90
        1
176
     1
 40
0.0
176
     1
 90
        0
176
     1
290
     1
176
     1
290
     1
176
     1
290
     0
176
     1
290
     0
176
     1
290
     0
176
     1
290
     0
176
     1
290
     0
176
     1
290
     0
176
     1
290
     0
176
     1
 90
       50
176
     1
 40
0.0
176
     1
 40
1.0
176
     1
 90
        0
176
     1
 62
    18
420
        0
176
     1
 90
       50
176
     1
 90
        3
176
     1
 62
     5
420
      255
176
     1
290
     0
176
     1
 90
       50
176
     1
 90
       50
176
     1
 90
       50
176
     1
290
     0
176
     1
 90
       50
176
     1
 62
   256
176
     0
 40
1.0
176
     0
 90
        2
176
     1
  1
strokes_ogs.tif
176
     1
290
     0
176
     1
 40
1.0
176
     1
 40
1.0
176
     1
  0
VISUALSTYLE
  5
32
102
{ACAD_REACTORS
330
2A
102
}
330
2A
100
AcDbVisualStyle
  2
Basic
 70
     7
177
     3
291
     1
 70
    58
 90
        1
176
     1
 90
        0
176
     1
 90
        1
176
     1
 90
        0
176
     1
 40
0.6
176
     1
 40
30.0
176
     1
 62
     7
420
 16777215
176
     1
 90
        0
176
     1
 90
        4
176
     1
 62
     7
176
     1
 62
   257
176
     1
 90
        1
176
     1
 90
        1
176
     1
 40
1.0
176
     1
 90
        8
176
     1
 62
     7
176
     1
 40
1.0
176
     1
 90
        1
176
     1
 90
        6
176
     1
 90
        2
176
     1
 62
     7
176
     1
 90
        5
176
     1
 90
        0
176
     1
 90
        0
176
     1
290
     0
176
     1
 90
        1
176
     1
 40
0.0
176
     1
 90
        0
176
     1
290
     0
176
     1
290
     1
176
     1
290
     1
176
     1
290
     0
176
     1
290
     0
176
     1
290
     0
176
     1
290
     0
176
     1
290
     0
176
     1
290
     0
176
     1
 90
       50
176
     1
 40
0.0
176
     1
 40
1.0
176
     1
 90
        0
176
     1
 62
    18
420
        0
176
     1
 90
       50
176
     1
 90
        3
176
     1
 62
     5
420
      255
176
     1
290
     0
176
     1
 90
       50
176
     1
 90
       50
176
     1
 90
       50
176
     1
290
     0
176
     1
 90
       50
176
     1
 62
   256
176
     0
 40
1.0
176
     0
 90
        2
176
     1
  1
strokes_ogs.tif
176
     1
290
     0
176
     1
 40
1.0
176
     1
 40
1.0
176
     1
  0
VISUALSTYLE
  5
36
102
{ACAD_REACTORS
330
2A
102
}
330
2A
100
AcDbVisualStyle
  2
Brighten
 70
    12
177
     3
291
     1
 70
    58
 90
        2
176
     1
 90
        2
176
     1
 90
        0
176
     1
 90
        0
176
     1
 40
0.6
176
     1
 40
30.0
176
     1
 62
     7
420
 16777215
176
     1
 90
        1
176
     1
 90
        4
176
     1
 62
     7
176
     1
 62
   257
176
     1
 90
        1
176
     1
 90
        1
176
     1
 40
1.0
176
     1
 90
        8
176
     1
 62
     7
176
     1
 40
1.0
176
     1
 90
        1
176
     1
 90
        6
176
     1
 90
        2
176
     1
 62
     7
176
     1
 90
        5
176
     1
 90
        0
176
     1
 90
        0
176
     1
290
     0
176
     1
 90
        1
176
     1
 40
50.0
176
     1
 90
        0
176
     1
290
     0
176
     1
290
     1
176
     1
290
     1
176
     1
290
     0
176
     1
290
     0
176
     1
290
     0
176
     1
290
     0
176
     1
290
     0
176
     1
290
     0
176
     1
 90
       50
176
     1
 40
0.0
176
     1
 40
1.0
176
     1
 90
        0
176
     1
 62
    18
420
        0
176
     1
 90
       50
176
     1
 90
        3
176
     1
 62
     5
420
      255
176
     1
290
     0
176
     1
 90
       50
176
     1
 90
       50
176
     1
 90
       50
176
     1
290
     0
176
     1
 90
       50
176
     1
 62
   256
176
     0
 40
1.0
176
     0
 90
        2
176
     1
  1
strokes_ogs.tif
176
     1
290
     0
176
     1
 40
1.0
176
     1
 40
1.0
176
     1
  0
VISUALSTYLE
  5
3A
102
{ACAD_REACTORS
330
2A
102
}
330
2A
100
AcDbVisualStyle
  2
ColorChange
 70
    16
177
     3
291
     1
 70
    58
 90
        2
176
     1
 90
        2
176
     1
 90
        3
176
     1
 90
        0
176
     1
 40
0.6
176
     1
 40
30.0
176
     1
 62
     8
420
  8421504
176
     1
 90
        1
176
     1
 90
        4
176
     1
 62
     7
176
     1
 62
   257
176
     1
 90
        1
176
     1
 90
        1
176
     1
 40
1.0
176
     1
 90
        8
176
     1
 62
     8
420
  8421504
176
     1
 40
1.0
176
     1
 90
        1
176
     1
 90
        6
176
     1
 90
        2
176
     1
 62
     7
176
     1
 90
        5
176
     1
 90
        0
176
     1
 90
        0
176
     1
290
     0
176
     1
 90
        1
176
     1
 40
0.0
176
     1
 90
        0
176
     1
290
     0
176
     1
290
     1
176
     1
290
     1
176
     1
290
     0
176
     1
290
     0
176
     1
290
     0
176
     1
290
     0
176
     1
290
     0
176
     1
290
     0
176
     1
 90
       50
176
     1
 40
0.0
176
     1
 40
1.0
176
     1
 90
        0
176
     1
 62
    18
420
        0
176
     1
 90
       50
176
     1
 90
        3
176
     1
 62
     5
420
      255
176
     1
290
     0
176
     1
 90
       50
176
     1
 90
       50
176
     1
 90
       50
176
     1
290
     0
176
     1
 90
       50
176
     1
 62
   256
176
     0
 40
1.0
176
     0
 90
        2
176
     1
  1
strokes_ogs.tif
176
     1
290
     0
176
     1
 40
1.0
176
     1
 40
1.0
176
     1
  0
VISUALSTYLE
  5
34
102
{ACAD_REACTORS
330
2A
102
}
330
2A
100
AcDbVisualStyle
  2
Conceptual
 70
     9
177
     3
291
     0
 70
    58
 90
        3
176
     1
 90
        2
176
     1
 90
        0
176
     1
 90
        0
176
     1
 40
0.6
176
     1
 40
30.0
176
     1
 62
     7
420
 16777215
176
     1
 90
        2
176
     1
 90
        2
176
     1
 62
     7
176
     1
 62
   257
176
     1
 90
        1
176
     1
 90
        1
176
     1
 40
179.0
176
     1
 90
        8
176
     1
 62
     7
176
     1
 40
1.0
176
     1
 90
        1
176
     1
 90
        6
176
     1
 90
        2
176
     1
 62
     7
176
     1
 90
        3
176
     1
 90
        0
176
     1
 90
        0
176
     1
290
     0
176
     1
 90
        1
176
     1
 40
0.0
176
     1
 90
        0
176
     1
290
     0
176
     1
290
     1
176
     1
290
     1
176
     1
290
     0
176
     1
290
     0
176
     1
290
     0
176
     1
290
     0
176
     1
290
     0
176
     1
290
     0
176
     1
 90
       50
176
     1
 40
0.0
176
     1
 40
1.0
176
     1
 90
        0
176
     1
 62
    18
420
        0
176
     1
 90
       50
176
     1
 90
        3
176
     1
 62
     5
420
      255
176
     1
290
     0
176
     1
 90
       50
176
     1
 90
       50
176
     1
 90
       50
176
     1
290
     0
176
     1
 90
       50
176
     1
 62
   256
176
     0
 40
1.0
176
     0
 90
        2
176
     1
  1
strokes_ogs.tif
176
     1
290
     0
176
     1
 40
1.0
176
     1
 40
1.0
176
     1
  0
VISUALSTYLE
  5
35
102
{ACAD_REACTORS
330
2A
102
}
330
2A
100
AcDbVisualStyle
  2
Dim
 70
    11
177
     3
291
     1
 70
    58
 90
        2
176
     1
 90
        2
176
     1
 90
        0
176
     1
 90
        0
176
     1
 40
0.6
176
     1
 40
30.0
176
     1
 62
     7
420
 16777215
176
     1
 90
        1
176
     1
 90
        4
176
     1
 62
     7
176
     1
 62
   257
176
     1
 90
        1
176
     1
 90
        1
176
     1
 40
1.0
176
     1
 90
        8
176
     1
 62
     7
176
     1
 40
1.0
176
     1
 90
        1
176
     1
 90
        6
176
     1
 90
        2
176
     1
 62
     7
176
     1
 90
        5
176
     1
 90
        0
176
     1
 90
        0
176
     1
290
     0
176
     1
 90
        1
176
     1
 40
-50.0
176
     1
 90
        0
176
     1
290
     0
176
     1
290
     1
176
     1
290
     1
176
     1
290
     0
176
     1
290
     0
176
     1
290
     0
176
     1
290
     0
176
     1
290
     0
176
     1
290
     0
176
     1
 90
       50
176
     1
 40
0.0
176
     1
 40
1.0
176
     1
 90
        0
176
     1
 62
    18
420
        0
176
     1
 90
       50
176
     1
 90
        3
176
     1
 62
     5
420
      255
176
     1
290
     0
176
     1
 90
       50
176
     1
 90
       50
176
     1
 90
       50
176
     1
290
     0
176
     1
 90
       50
176
     1
 62
   256
176
     0
 40
1.0
176
     0
 90
        2
176
     1
  1
strokes_ogs.tif
176
     1
290
     0
176
     1
 40
1.0
176
     1
 40
1.0
176
     1
  0
VISUALSTYLE
  5
3D
102
{ACAD_REACTORS
330
2A
102
}
330
2A
100
AcDbVisualStyle
  2
EdgeColorOff
 70
    22
177
     3
291
     1
 70
    58
 90
        2
176
     0
 90
        2
176
     0
 90
        0
176
     0
 90
        0
176
     0
 40
0.6
176
     0
 40
30.0
176
     0
 62
     7
420
 16777215
176
     0
 90
        1
176
     0
 90
        4
176
     0
 62
     7
176
     0
 62
   257
176
     0
 90
        1
176
     0
 90
        1
176
     0
 40
1.0
176
     0
 90
        8
176
     2
 62
     7
176
     0
 40
1.0
176
     0
 90
        1
176
     0
 90
        6
176
     0
 90
        2
176
     0
 62
     7
176
     0
 90
        5
176
     0
 90
        0
176
     0
 90
        0
176
     0
290
     0
176
     0
 90
        1
176
     0
 40
0.0
176
     0
 90
        0
176
     0
290
     0
176
     0
290
     1
176
     0
290
     1
176
     0
290
     0
176
     0
290
     0
176
     0
290
     0
176
     0
290
     0
176
     0
290
     0
176
     0
290
     0
176
     0
 90
       50
176
     0
 40
0.0
176
     0
 40
1.0
176
     0
 90
        0
176
     0
 62
    18
420
        0
176
     0
 90
       50
176
     0
 90
        3
176
     0
 62
     5
420
      255
176
     0
290
     0
176
     0
 90
       50
176
     0
 90
       50
176
     0
 90
       50
176
     0
290
     0
176
     0
 90
       50
176
     0
 62
   256
176
     0
 40
1.0
176
     0
 90
        2
176
     0
  1
strokes_ogs.tif
176
     0
290
     0
176
     0
 40
1.0
176
     0
 40
1.0
176
     0
  0
VISUALSTYLE
  5
39
102
{ACAD_REACTORS
330
2A
102
}
330
2A
100
AcDbVisualStyle
  2
Facepattern
 70
    15
177
     3
291
     1
 70
    58
 90
        2
176
     1
 90
        2
176
     1
 90
        0
176
     1
 90
        0
176
     1
 40
0.6
176
     1
 40
30.0
176
     1
 62
     7
420
 16777215
176
     1
 90
        1
176
     1
 90
        4
176
     1
 62
     7
176
     1
 62
   257
176
     1
 90
        1
176
     1
 90
        1
176
     1
 40
1.0
176
     1
 90
        8
176
     1
 62
     7
176
     1
 40
1.0
176
     1
 90
        1
176
     1
 90
        6
176
     1
 90
        2
176
     1
 62
     7
176
     1
 90
        5
176
     1
 90
        0
176
     1
 90
        0
176
     1
290
     0
176
     1
 90
        1
176
     1
 40
0.0
176
     1
 90
        0
176
     1
290
     0
176
     1
290
     1
176
     1
290
     1
176
     1
290
     0
176
     1
290
     0
176
     1
290
     0
176
     1
290
     0
176
     1
290
     0
176
     1
290
     0
176
     1
 90
       50
176
     1
 40
0.0
176
     1
 40
1.0
176
     1
 90
        0
176
     1
 62
    18
420
        0
176
     1
 90
       50
176
     1
 90
        3
176
     1
 62
     5
420
      255
176
     1
290
     0
176
     1
 90
       50
176
     1
 90
       50
176
     1
 90
       50
176
     1
290
     0
176
     1
 90
       50
176
     1
 62
   256
176
     0
 40
1.0
176
     0
 90
        2
176
     1
  1
strokes_ogs.tif
176
     1
290
     0
176
     1
 40
1.0
176
     1
 40
1.0
176
     1
  0
VISUALSTYLE
  5
2B
102
{ACAD_REACTORS
330
2A
102
}
330
2A
100
AcDbVisualStyle
  2
Flat
 70
     0
177
     3
291
     1
 70
    58
 90
        2
176
     1
 90
        1
176
     1
 90
        1
176
     1
 90
        2
176
     1
 40
0.6
176
     1
 40
30.0
176
     1
 62
     7
420
 16777215
176
     1
 90
        0
176
     1
 90
        0
176
     1
 62
     7
176
     1
 62
   257
176
     1
 90
        1
176
     1
 90
        1
176
     1
 40
1.0
176
     1
 90
        8
176
     1
 62
     7
176
     1
 40
1.0
176
     1
 90
        1
176
     1
 90
        6
176
     1
 90
        2
176
     1
 62
     7
176
     1
 90
        5
176
     1
 90
        0
176
     1
 90
        0
176
     1
290
     0
176
     1
 90
       13
176
     1
 40
0.0
176
     1
 90
        0
176
     1
290
     0
176
     1
290
     1
176
     1
290
     1
176
     1
290
     0
176
     1
290
     0
176
     1
290
     0
176
     1
290
     0
176
     1
290
     0
176
     1
290
     0
176
     1
 90
       50
176
     1
 40
0.0
176
     1
 40
1.0
176
     1
 90
        0
176
     1
 62
    18
420
        0
176
     1
 90
       50
176
     1
 90
        3
176
     1
 62
     5
420
      255
176
     1
290
     0
176
     1
 90
       50
176
     1
 90
       50
176
     1
 90
       50
176
     1
290
     0
176
     1
 90
       50
176
     1
 62
   256
176
     0
 40
1.0
176
     0
 90
        2
176
     1
  1
strokes_ogs.tif
176
     1
290
     0
176
     1
 40
1.0
176
     1
 40
1.0
176
     1
  0
VISUALSTYLE
  5
2C
102
{ACAD_REACTORS
330
2A
102
}
330
2A
100
AcDbVisualStyle
  2
FlatWithEdges
 70
     1
177
     3
291
     1
 70
    58
 90
        2
176
     1
 90
        1
176
     1
 90
        1
176
     1
 90
        2
176
     1
 40
0.6
176
     1
 40
30.0
176
     1
 62
     7
420
 16777215
176
     1
 90
        1
176
     1
 90
        0
176
     1
 62
     7
176
     1
 62
   257
176
     1
 90
        1
176
     1
 90
        1
176
     1
 40
1.0
176
     1
 90
        0
176
     1
 62
   257
176
     1
 40
1.0
176
     1
 90
        1
176
     1
 90
        6
176
     1
 90
        2
176
     1
 62
     7
176
     1
 90
        5
176
     1
 90
        0
176
     1
 90
        0
176
     1
290
     0
176
     1
 90
       13
176
     1
 40
0.0
176
     1
 90
        0
176
     1
290
     0
176
     1
290
     1
176
     1
290
     1
176
     1
290
     0
176
     1
290
     0
176
     1
290
     0
176
     1
290
     0
176
     1
290
     0
176
     1
290
     0
176
     1
 90
       50
176
     1
 40
0.0
176
     1
 40
1.0
176
     1
 90
        0
176
     1
 62
    18
420
        0
176
     1
 90
       50
176
     1
 90
        3
176
     1
 62
     5
420
      255
176
     1
290
     0
176
     1
 90
       50
176
     1
 90
       50
176
     1
 90
       50
176
     1
290
     0
176
     1
 90
       50
176
     1
 62
   256
176
     0
 40
1.0
176
     0
 90
        2
176
     1
  1
strokes_ogs.tif
176
     1
290
     0
176
     1
 40
1.0
176
     1
 40
1.0
176
     1
  0
VISUALSTYLE
  5
2D
102
{ACAD_REACTORS
330
2A
102
}
330
2A
100
AcDbVisualStyle
  2
Gouraud
 70
     2
177
     3
291
     1
 70
    58
 90
        2
176
     1
 90
        2
176
     1
 90
        1
176
     1
 90
        2
176
     1
 40
0.6
176
     1
 40
30.0
176
     1
 62
     7
420
 16777215
176
     1
 90
        0
176
     1
 90
        0
176
     1
 62
     7
176
     1
 62
   257
176
     1
 90
        1
176
     1
 90
        1
176
     1
 40
1.0
176
     1
 90
        0
176
     1
 62
     7
176
     1
 40
1.0
176
     1
 90
        1
176
     1
 90
        6
176
     1
 90
        2
176
     1
 62
     7
176
     1
 90
        5
176
     1
 90
        0
176
     1
 90
        0
176
     1
290
     0
176
     1
 90
       13
176
     1
 40
0.0
176
     1
 90
        0
176
     1
290
     0
176
     1
290
     1
176
     1
290
     1
176
     1
290
     0
176
     1
290
     0
176
     1
290
     0
176
     1
290
     0
176
     1
290
     0
176
     1
290
     0
176
     1
 90
       50
176
     1
 40
0.0
176
     1
 40
1.0
176
     1
 90
        0
176
     1
 62
    18
420
        0
176
     1
 90
       50
176
     1
 90
        3
176
     1
 62
     5
420
      255
176
     1
290
     0
176
     1
 90
       50
176
     1
 90
       50
176
     1
 90
       50
176
     1
290
     0
176
     1
 90
       50
176
     1
 62
   256
176
     0
 40
1.0
176
     0
 90
        2
176
     1
  1
strokes_ogs.tif
176
     1
290
     0
176
     1
 40
1.0
176
     1
 40
1.0
176
     1
  0
VISUALSTYLE
  5
2E
102
{ACAD_REACTORS
330
2A
102
}
330
2A
100
AcDbVisualStyle
  2
GouraudWithEdges
 70
     3
177
     3
291
     1
 70
    58
 90
        2
176
     1
 90
        2
176
     1
 90
        1
176
     1
 90
        2
176
     1
 40
0.6
176
     1
 40
30.0
176
     1
 62
     7
420
 16777215
176
     1
 90
        1
176
     1
 90
        0
176
     1
 62
     7
176
     1
 62
   257
176
     1
 90
        1
176
     1
 90
        1
176
     1
 40
1.0
176
     1
 90
        0
176
     1
 62
   257
176
     1
 40
1.0
176
     1
 90
        1
176
     1
 90
        6
176
     1
 90
        2
176
     1
 62
     7
176
     1
 90
        5
176
     1
 90
        0
176
     1
 90
        0
176
     1
290
     0
176
     1
 90
       13
176
     1
 40
0.0
176
     1
 90
        0
176
     1
290
     0
176
     1
290
     1
176
     1
290
     1
176
     1
290
     0
176
     1
290
     0
176
     1
290
     0
176
     1
290
     0
176
     1
290
     0
176
     1
290
     0
176
     1
 90
       50
176
     1
 40
0.0
176
     1
 40
1.0
176
     1
 90
        0
176
     1
 62
    18
420
        0
176
     1
 90
       50
176
     1
 90
        3
176
     1
 62
     5
420
      255
176
     1
290
     0
176
     1
 90
       50
176
     1
 90
       50
176
     1
 90
       50
176
     1
290
     0
176
     1
 90
       50
176
     1
 62
   256
176
     0
 40
1.0
176
     0
 90
        2
176
     1
  1
strokes_ogs.tif
176
     1
290
     0
176
     1
 40
1.0
176
     1
 40
1.0
176
     1
  0
VISUALSTYLE
  5
31
102
{ACAD_REACTORS
330
2A
102
}
330
2A
100
AcDbVisualStyle
  2
Hidden
 70
     6
177
     3
291
     0
 70
    58
 90
        1
176
     1
 90
        2
176
     1
 90
        2
176
     1
 90
        0
176
     1
 40
0.6
176
     1
 40
30.0
176
     1
 62
     7
420
 16777215
176
     1
 90
        2
176
     1
 90
        2
176
     1
 62
     7
176
     1
 62
   257
176
     1
 90
        2
176
     1
 90
        1
176
     1
 40
40.0
176
     1
 90
        0
176
     1
 62
   257
176
     1
 40
1.0
176
     1
 90
        1
176
     1
 90
        6
176
     1
 90
        2
176
     1
 62
     7
176
     1
 90
        3
176
     1
 90
        0
176
     1
 90
        0
176
     1
290
     0
176
     1
 90
        1
176
     1
 40
0.0
176
     1
 90
        0
176
     1
290
     0
176
     1
290
     1
176
     1
290
     1
176
     1
290
     0
176
     1
290
     0
176
     1
290
     0
176
     1
290
     0
176
     1
290
     0
176
     1
290
     0
176
     1
 90
       50
176
     1
 40
0.0
176
     1
 40
1.0
176
     1
 90
        0
176
     1
 62
    18
420
        0
176
     1
 90
       50
176
     1
 90
        3
176
     1
 62
     5
420
      255
176
     1
290
     0
176
     1
 90
       50
176
     1
 90
       50
176
     1
 90
       50
176
     1
290
     0
176
     1
 90
       50
176
     1
 62
   256
176
     0
 40
1.0
176
     0
 90
        2
176
     1
  1
strokes_ogs.tif
176
     1
290
     0
176
     1
 40
1.0
176
     1
 40
1.0
176
     1
  0
VISUALSTYLE
  5
3B
102
{ACAD_REACTORS
330
2A
102
}
330
2A
100
AcDbVisualStyle
  2
JitterOff
 70
    20
177
     3
291
     1
 70
    58
 90
        2
176
     0
 90
        2
176
     0
 90
        0
176
     0
 90
        0
176
     0
 40
0.6
176
     0
 40
30.0
176
     0
 62
     7
420
 16777215
176
     0
 90
        1
176
     0
 90
        4
176
     0
 62
     7
176
     0
 62
   257
176
     0
 90
        1
176
     0
 90
        1
176
     0
 40
1.0
176
     0
 90
       10
176
     2
 62
     7
176
     0
 40
1.0
176
     0
 90
        1
176
     0
 90
        6
176
     0
 90
        2
176
     0
 62
     7
176
     0
 90
        5
176
     0
 90
        0
176
     0
 90
        0
176
     0
290
     0
176
     0
 90
        1
176
     0
 40
0.0
176
     0
 90
        0
176
     0
290
     0
176
     0
290
     1
176
     0
290
     1
176
     0
290
     0
176
     0
290
     0
176
     0
290
     0
176
     0
290
     0
176
     0
290
     0
176
     0
290
     0
176
     0
 90
       50
176
     0
 40
0.0
176
     0
 40
1.0
176
     0
 90
        0
176
     0
 62
    18
420
        0
176
     0
 90
       50
176
     0
 90
        3
176
     0
 62
     5
420
      255
176
     0
290
     0
176
     0
 90
       50
176
     0
 90
       50
176
     0
 90
       50
176
     0
290
     0
176
     0
 90
       50
176
     0
 62
   256
176
     0
 40
1.0
176
     0
 90
        2
176
     0
  1
strokes_ogs.tif
176
     0
290
     0
176
     0
 40
1.0
176
     0
 40
1.0
176
     0
  0
VISUALSTYLE
  5
38
102
{ACAD_REACTORS
330
2A
102
}
330
2A
100
AcDbVisualStyle
  2
Linepattern
 70
    14
177
     3
291
     1
 70
    58
 90
        2
176
     1
 90
        2
176
     1
 90
        0
176
     1
 90
        0
176
     1
 40
0.6
176
     1
 40
30.0
176
     1
 62
     7
420
 16777215
176
     1
 90
        1
176
     1
 90
        4
176
     1
 62
     7
176
     1
 62
   257
176
     1
 90
        7
176
     1
 90
        7
176
     1
 40
1.0
176
     1
 90
        8
176
     1
 62
     7
176
     1
 40
1.0
176
     1
 90
        1
176
     1
 90
        6
176
     1
 90
        2
176
     1
 62
     7
176
     1
 90
        5
176
     1
 90
        0
176
     1
 90
        0
176
     1
290
     0
176
     1
 90
        1
176
     1
 40
0.0
176
     1
 90
        0
176
     1
290
     0
176
     1
290
     1
176
     1
290
     1
176
     1
290
     0
176
     1
290
     0
176
     1
290
     0
176
     1
290
     0
176
     1
290
     0
176
     1
290
     0
176
     1
 90
       50
176
     1
 40
0.0
176
     1
 40
1.0
176
     1
 90
        0
176
     1
 62
    18
420
        0
176
     1
 90
       50
176
     1
 90
        3
176
     1
 62
     5
420
      255
176
     1
290
     0
176
     1
 90
       50
176
     1
 90
       50
176
     1
 90
       50
176
     1
290
     0
176
     1
 90
       50
176
     1
 62
   256
176
     0
 40
1.0
176
     0
 90
        2
176
     1
  1
strokes_ogs.tif
176
     1
290
     0
176
     1
 40
1.0
176
     1
 40
1.0
176
     1
  0
VISUALSTYLE
  5
3C
102
{ACAD_REACTORS
330
2A
102
}
330
2A
100
AcDbVisualStyle
  2
OverhangOff
 70
    21
177
     3
291
     1
 70
    58
 90
        2
176
     0
 90
        2
176
     0
 90
        0
176
     0
 90
        0
176
     0
 40
0.6
176
     0
 40
30.0
176
     0
 62
     7
420
 16777215
176
     0
 90
        1
176
     0
 90
        4
176
     0
 62
     7
176
     0
 62
   257
176
     0
 90
        1
176
     0
 90
        1
176
     0
 40
1.0
176
     0
 90
        9
176
     2
 62
     7
176
     0
 40
1.0
176
     0
 90
        1
176
     0
 90
        6
176
     0
 90
        2
176
     0
 62
     7
176
     0
 90
        5
176
     0
 90
        0
176
     0
 90
        0
176
     0
290
     0
176
     0
 90
        1
176
     0
 40
0.0
176
     0
 90
        0
176
     0
290
     0
176
     0
290
     1
176
     0
290
     1
176
     0
290
     0
176
     0
290
     0
176
     0
290
     0
176
     0
290
     0
176
     0
290
     0
176
     0
290
     0
176
     0
 90
       50
176
     0
 40
0.0
176
     0
 40
1.0
176
     0
 90
        0
176
     0
 62
    18
420
        0
176
     0
 90
       50
176
     0
 90
        3
176
     0
 62
     5
420
      255
176
     0
290
     0
176
     0
 90
       50
176
     0
 90
       50
176
     0
 90
       50
176
     0
290
     0
176
     0
 90
       50
176
     0
 62
   256
176
     0
 40
1.0
176
     0
 90
        2
176
     0
  1
strokes_ogs.tif
176
     0
290
     0
176
     0
 40
1.0
176
     0
 40
1.0
176
     0
  0
VISUALSTYLE
  5
33
102
{ACAD_REACTORS
330
2A
102
}
330
2A
100
AcDbVisualStyle
  2
Realistic
 70
     8
177
     3
291
     0
 70
    58
 90
        2
176
     1
 90
        3
176
     1
 90
        0
176
     1
 90
        2
176
     1
 40
0.6
176
     1
 40
30.0
176
     1
 62
     7
420
 16777215
176
     1
 90
        0
176
     1
 90
        0
176
     1
 62
     7
176
     1
 62
   257
176
     1
 90
        1
176
     1
 90
        1
176
     1
 40
1.0
176
     1
 90
        8
176
     1
 62
   257
176
     1
 40
1.0
176
     1
 90
        1
176
     1
 90
        6
176
     1
 90
        2
176
     1
 62
     7
176
     1
 90
        3
176
     1
 90
        0
176
     1
 90
        0
176
     1
290
     0
176
     1
 90
       13
176
     1
 40
0.0
176
     1
 90
        0
176
     1
290
     0
176
     1
290
     1
176
     1
290
     1
176
     1
290
     0
176
     1
290
     0
176
     1
290
     0
176
     1
290
     0
176
     1
290
     0
176
     1
290
     0
176
     1
 90
       50
176
     1
 40
0.0
176
     1
 40
1.0
176
     1
 90
        0
176
     1
 62
    18
420
        0
176
     1
 90
       50
176
     1
 90
        3
176
     1
 62
     5
420
      255
176
     1
290
     0
176
     1
 90
       50
176
     1
 90
       50
176
     1
 90
       50
176
     1
290
     0
176
     1
 90
       50
176
     1
 62
   256
176
     0
 40
1.0
176
     0
 90
        2
176
     1
  1
strokes_ogs.tif
176
     1
290
     0
176
     1
 40
1.0
176
     1
 40
1.0
176
     1
  0
VISUALSTYLE
  5
42
102
{ACAD_REACTORS
330
2A
102
}
330
2A
100
AcDbVisualStyle
  2
Shaded
 70
    27
177
     3
291
     0
 70
    58
 90
        2
176
     1
 90
        2
176
     1
 90
        1
176
     1
 90
        2
176
     1
 40
0.6
176
     1
 40
30.0
176
     1
 62
     7
420
 16777215
176
     1
 90
        0
176
     1
 90
        4
176
     1
 62
     7
176
     1
 62
   257
176
     1
 90
        1
176
     1
 90
        1
176
     1
 40
1.0
176
     1
 90
        8
176
     1
 62
   257
176
     1
 40
1.0
176
     1
 90
        1
176
     1
 90
        6
176
     1
 90
        2
176
     1
 62
     8
420
  7895160
176
     1
 90
        3
176
     1
 90
        0
176
     1
 90
        0
176
     1
290
     0
176
     1
 90
        5
176
     1
 40
0.0
176
     1
 90
        0
176
     1
290
     0
176
     1
290
     1
176
     1
290
     1
176
     1
290
     0
176
     1
290
     0
176
     1
290
     0
176
     1
290
     0
176
     1
290
     0
176
     1
290
     0
176
     1
 90
       50
176
     1
 40
0.0
176
     1
 40
1.0
176
     1
 90
        0
176
     1
 62
    18
420
        0
176
     1
 90
       50
176
     1
 90
        3
176
     1
 62
     5
420
      255
176
     1
290
     0
176
     1
 90
       50
176
     1
 90
       50
176
     1
 90
       50
176
     1
290
     0
176
     1
 90
       50
176
     1
 62
   256
176
     0
 40
1.0
176
     0
 90
        2
176
     1
  1
strokes_ogs.tif
176
     1
290
     0
176
     1
 40
1.0
176
     1
 40
1.0
176
     1
  0
VISUALSTYLE
  5
41
102
{ACAD_REACTORS
330
2A
102
}
330
2A
100
AcDbVisualStyle
  2
Shaded with edges
 70
    26
177
     3
291
     0
 70
    58
 90
        2
176
     1
 90
        2
176
     1
 90
        1
176
     1
 90
        2
176
     1
 40
0.6
176
     1
 40
30.0
176
     1
 62
     7
420
 16777215
176
     1
 90
        1
176
     1
 90
       10
176
     1
 62
     7
176
     1
 62
   257
176
     1
 90
        2
176
     1
 90
        1
176
     1
 40
1.0
176
     1
 90
        8
176
     1
 62
   257
176
     1
 40
1.0
176
     1
 90
        1
176
     1
 90
        6
176
     1
 90
        2
176
     1
 62
     7
176
     1
 90
        3
176
     1
 90
        0
176
     1
 90
        0
176
     1
290
     0
176
     1
 90
        5
176
     1
 40
0.0
176
     1
 90
        0
176
     1
290
     0
176
     1
290
     1
176
     1
290
     1
176
     1
290
     0
176
     1
290
     0
176
     1
290
     0
176
     1
290
     0
176
     1
290
     0
176
     1
290
     0
176
     1
 90
       50
176
     1
 40
0.0
176
     1
 40
1.0
176
     1
 90
        0
176
     1
 62
    18
420
        0
176
     1
 90
       50
176
     1
 90
        3
176
     1
 62
     5
420
      255
176
     1
290
     0
176
     1
 90
       50
176
     1
 90
       50
176
     1
 90
       50
176
     1
290
     0
176
     1
 90
       50
176
     1
 62
   256
176
     0
 40
1.0
176
     0
 90
        2
176
     1
  1
strokes_ogs.tif
176
     1
290
     0
176
     1
 40
1.0
176
     1
 40
1.0
176
     1
  0
VISUALSTYLE
  5
3E
102
{ACAD_REACTORS
330
2A
102
}
330
2A
100
AcDbVisualStyle
  2
Shades of Gray
 70
    23
177
     3
291
     0
 70
    58
 90
        2
176
     1
 90
        2
176
     1
 90
        3
176
     1
 90
        0
176
     1
 40
0.6
176
     1
 40
30.0
176
     1
 62
     7
420
 16777215
176
     1
 90
        2
176
     1
 90
        2
176
     1
 62
     7
176
     1
 62
     7
176
     1
 90
        1
176
     1
 90
        1
176
     1
 40
40.0
176
     1
 90
        8
176
     1
 62
     7
176
     1
 40
1.0
176
     1
 90
        1
176
     1
 90
        6
176
     1
 90
        2
176
     1
 62
     7
176
     1
 90
        3
176
     1
 90
        0
176
     1
 90
        0
176
     1
290
     0
176
     1
 90
        1
176
     1
 40
0.0
176
     1
 90
        0
176
     1
290
     0
176
     1
290
     1
176
     1
290
     1
176
     1
290
     0
176
     1
290
     0
176
     1
290
     0
176
     1
290
     0
176
     1
290
     0
176
     1
290
     0
176
     1
 90
       50
176
     1
 40
0.0
176
     1
 40
1.0
176
     1
 90
        0
176
     1
 62
    18
420
        0
176
     1
 90
       50
176
     1
 90
        3
176
     1
 62
     5
420
      255
176
     1
290
     0
176
     1
 90
       50
176
     1
 90
       50
176
     1
 90
       50
176
     1
290
     0
176
     1
 90
       50
176
     1
 62
   256
176
     0
 40
1.0
176
     0
 90
        2
176
     1
  1
strokes_ogs.tif
176
     1
290
     0
176
     1
 40
1.0
176
     1
 40
1.0
176
     1
  0
VISUALSTYLE
  5
3F
102
{ACAD_REACTORS
330
2A
102
}
330
2A
100
AcDbVisualStyle
  2
Sketchy
 70
    24
177
     3
291
     0
 70
    58
 90
        1
176
     1
 90
        2
176
     1
 90
        2
176
     1
 90
        0
176
     1
 40
0.6
176
     1
 40
30.0
176
     1
 62
     7
420
 16777215
176
     1
 90
        2
176
     1
 90
        2
176
     1
 62
     7
176
     1
 62
     7
176
     1
 90
        1
176
     1
 90
        1
176
     1
 40
40.0
176
     1
 90
       11
176
     1
 62
     7
176
     1
 40
1.0
176
     1
 90
        1
176
     1
 90
        6
176
     1
 90
        2
176
     1
 62
     7
176
     1
 90
        6
176
     1
 90
        0
176
     1
 90
        0
176
     1
290
     0
176
     1
 90
        1
176
     1
 40
0.0
176
     1
 90
        0
176
     1
290
     0
176
     1
290
     1
176
     1
290
     1
176
     1
290
     0
176
     1
290
     0
176
     1
290
     0
176
     1
290
     0
176
     1
290
     0
176
     1
290
     0
176
     1
 90
       50
176
     1
 40
0.0
176
     1
 40
1.0
176
     1
 90
        0
176
     1
 62
    18
420
        0
176
     1
 90
       50
176
     1
 90
        3
176
     1
 62
     5
420
      255
176
     1
290
     0
176
     1
 90
       50
176
     1
 90
       50
176
     1
 90
       50
176
     1
290
     0
176
     1
 90
       50
176
     1
 62
   256
176
     0
 40
1.0
176
     0
 90
        2
176
     1
  1
strokes_ogs.tif
176
     1
290
     0
176
     1
 40
1.0
176
     1
 40
1.0
176
     1
  0
VISUALSTYLE
  5
37
102
{ACAD_REACTORS
330
2A
102
}
330
2A
100
AcDbVisualStyle
  2
Thicken
 70
    13
177
     3
291
     1
 70
    58
 90
        2
176
     1
 90
        2
176
     1
 90
        0
176
     1
 90
        0
176
     1
 40
0.6
176
     1
 40
30.0
176
     1
 62
     7
420
 16777215
176
     1
 90
        1
176
     1
 90
        4
176
     1
 62
     7
176
     1
 62
   257
176
     1
 90
        1
176
     1
 90
        1
176
     1
 40
1.0
176
     1
 90
       12
176
     1
 62
     7
176
     1
 40
1.0
176
     1
 90
        1
176
     1
 90
        6
176
     1
 90
        2
176
     1
 62
     7
176
     1
 90
        5
176
     1
 90
        0
176
     1
 90
        0
176
     1
290
     0
176
     1
 90
        1
176
     1
 40
0.0
176
     1
 90
        0
176
     1
290
     0
176
     1
290
     1
176
     1
290
     1
176
     1
290
     0
176
     1
290
     0
176
     1
290
     0
176
     1
290
     0
176
     1
290
     0
176
     1
290
     0
176
     1
 90
       50
176
     1
 40
0.0
176
     1
 40
1.0
176
     1
 90
        0
176
     1
 62
    18
420
        0
176
     1
 90
       50
176
     1
 90
        3
176
     1
 62
     5
420
      255
176
     1
290
     0
176
     1
 90
       50
176
     1
 90
       50
176
     1
 90
       50
176
     1
290
     0
176
     1
 90
       50
176
     1
 62
   256
176
     0
 40
1.0
176
     0
 90
        2
176
     1
  1
strokes_ogs.tif
176
     1
290
     0
176
     1
 40
1.0
176
     1
 40
1.0
176
     1
  0
VISUALSTYLE
  5
30
102
{ACAD_REACTORS
330
2A
102
}
330
2A
100
AcDbVisualStyle
  2
Wireframe
 70
     5
177
     3
291
     0
 70
    58
 90
        0
176
     1
 90
        2
176
     1
 90
        0
176
     1
 90
        0
176
     1
 40
0.6
176
     1
 40
30.0
176
     1
 62
     7
420
 16777215
176
     1
 90
        1
176
     1
 90
        4
176
     1
 62
     7
176
     1
 62
   257
176
     1
 90
        1
176
     1
 90
        1
176
     1
 40
1.0
176
     1
 90
        0
176
     1
 62
   257
176
     1
 40
1.0
176
     1
 90
        1
176
     1
 90
        6
176
     1
 90
        2
176
     1
 62
     7
176
     1
 90
        3
176
     1
 90
        0
176
     1
 90
        0
176
     1
290
     0
176
     1
 90
        1
176
     1
 40
0.0
176
     1
 90
        0
176
     1
290
     0
176
     1
290
     1
176
     1
290
     1
176
     1
290
     0
176
     1
290
     0
176
     1
290
     0
176
     1
290
     0
176
     1
290
     0
176
     1
290
     0
176
     1
 90
       50
176
     1
 40
0.0
176
     1
 40
1.0
176
     1
 90
        0
176
     1
 62
    18
420
        0
176
     1
 90
       50
176
     1
 90
        3
176
     1
 62
     5
420
      255
176
     1
290
     0
176
     1
 90
       50
176
     1
 90
       50
176
     1
 90
       50
176
     1
290
     0
176
     1
 90
       50
176
     1
 62
   256
176
     0
 40
1.0
176
     0
 90
        2
176
     1
  1
strokes_ogs.tif
176
     1
290
     0
176
     1
 40
1.0
176
     1
 40
1.0
176
     1
  0
VISUALSTYLE
  5
40
102
{ACAD_REACTORS
330
2A
102
}
330
2A
100
AcDbVisualStyle
  2
X-Ray
 70
    25
177
     3
291
     0
 70
    58
 90
        2
176
     1
 90
        2
176
     1
 90
        1
176
     1
 90
        1
176
     1
 40
0.5
176
     1
 40
30.0
176
     1
 62
     7
420
 16777215
176
     1
 90
        1
176
     1
 90
        0
176
     1
 62
     7
176
     1
 62
   257
176
     1
 90
        1
176
     1
 90
        1
176
     1
 40
1.0
176
     1
 90
        8
176
     1
 62
     7
176
     1
 40
1.0
176
     1
 90
        1
176
     1
 90
        6
176
     1
 90
        2
176
     1
 62
     7
176
     1
 90
        3
176
     1
 90
        0
176
     1
 90
        0
176
     1
290
     0
176
     1
 90
       13
176
     1
 40
0.0
176
     1
 90
        0
176
     1
290
     0
176
     1
290
     1
176
     1
290
     1
176
     1
290
     0
176
     1
290
     0
176
     1
290
     0
176
     1
290
     0
176
     1
290
     0
176
     1
290
     0
176
     1
 90
       50
176
     1
 40
0.0
176
     1
 40
1.0
176
     1
 90
        0
176
     1
 62
    18
420
        0
176
     1
 90
       50
176
     1
 90
        3
176
     1
 62
     5
420
      255
176
     1
290
     0
176
     1
 90
       50
176
     1
 90
       50
176
     1
 90
       50
176
     1
290
     0
176
     1
 90
       50
176
     1
 62
   256
176
     0
 40
1.0
176
     0
 90
        2
176
     1
  1
strokes_ogs.tif
176
     1
290
     0
176
     1
 40
1.0
176
     1
 40
1.0
176
     1
  0
DICTIONARYVAR
  5
1B0
102
{ACAD_REACTORS
330
1AF
102
}
330
1AF
100
DictionaryVariables
280
     0
  1
1:1
  0
DICTIONARYVAR
  5
1B5
102
{ACAD_REACTORS
330
1AF
102
}
330
1AF
100
DictionaryVariables
280
     0
  1
Standard
  0
DICTIONARYVAR
  5
1B4
102
{ACAD_REACTORS
330
1AF
102
}
330
1AF
100
DictionaryVariables
280
     0
  1
Standard
  0
DICTIONARY
  5
1B1
330
6A
100
AcDbDictionary
280
     1
281
     1
  3
ACAD_ROUNDTRIP_2008_TABLESTYLE_CELLSTYLEMAP
360
1B2
  0
CELLSTYLEMAP
  5
1B2
102
{ACAD_REACTORS
330
1B1
102
}
330
1B1
100
AcDbCellStyleMap
 90
        3
300
CELLSTYLE
  1
TABLEFORMAT_BEGIN
 90
        5
170
     1
 91
        0
 92
    32768
 62
   257
 93
        1
300
CONTENTFORMAT
  1
CONTENTFORMAT_BEGIN
 90
        0
 91
        0
 92
        4
 93
        0
300

 40
0.0
140
1.0
 94
        5
 62
     0
340
11
144
0.25
309
CONTENTFORMAT_END
171
     1
301
MARGIN
  1
CELLMARGIN_BEGIN
 40
0.06
 40
0.06
 40
0.06
 40
0.06
 40
0.06
 40
0.06
309
CELLMARGIN_END
 94
        6
 95
        1
302
GRIDFORMAT
  1
GRIDFORMAT_BEGIN
 90
        0
 91
        1
 62
     0
 92
       -2
340
14
 93
        0
 40
0.045
309
GRIDFORMAT_END
 95
        2
302
GRIDFORMAT
  1
GRIDFORMAT_BEGIN
 90
        0
 91
        1
 62
     0
 92
       -2
340
14
 93
        0
 40
0.045
309
GRIDFORMAT_END
 95
        4
302
GRIDFORMAT
  1
GRIDFORMAT_BEGIN
 90
        0
 91
        1
 62
     0
 92
       -2
340
14
 93
        0
 40
0.045
309
GRIDFORMAT_END
 95
        8
302
GRIDFORMAT
  1
GRIDFORMAT_BEGIN
 90
        0
 91
        1
 62
     0
 92
       -2
340
14
 93
        0
 40
0.045
309
GRIDFORMAT_END
 95
       16
302
GRIDFORMAT
  1
GRIDFORMAT_BEGIN
 90
        0
 91
        1
 62
     0
 92
       -2
340
14
 93
        0
 40
0.045
309
GRIDFORMAT_END
 95
       32
302
GRIDFORMAT
  1
GRIDFORMAT_BEGIN
 90
        0
 91
        1
 62
     0
 92
       -2
340
14
 93
        0
 40
0.045
309
GRIDFORMAT_END
309
TABLEFORMAT_END
  1
CELLSTYLE_BEGIN
 90
        1
 91
        1
300
_TITLE
309
CELLSTYLE_END
300
CELLSTYLE
  1
TABLEFORMAT_BEGIN
 90
        5
170
     1
 91
        0
 92
        0
 62
   257
 93
        1
300
CONTENTFORMAT
  1
CONTENTFORMAT_BEGIN
 90
        0
 91
        0
 92
        4
 93
        0
300

 40
0.0
140
1.0
 94
        5
 62
     0
340
11
144
0.18
309
CONTENTFORMAT_END
171
     1
301
MARGIN
  1
CELLMARGIN_BEGIN
 40
0.06
 40
0.06
 40
0.06
 40
0.06
 40
0.06
 40
0.06
309
CELLMARGIN_END
 94
        6
 95
        1
302
GRIDFORMAT
  1
GRIDFORMAT_BEGIN
 90
        0
 91
        1
 62
     0
 92
       -2
340
14
 93
        0
 40
0.045
309
GRIDFORMAT_END
 95
        2
302
GRIDFORMAT
  1
GRIDFORMAT_BEGIN
 90
        0
 91
        1
 62
     0
 92
       -2
340
14
 93
        0
 40
0.045
309
GRIDFORMAT_END
 95
        4
302
GRIDFORMAT
  1
GRIDFORMAT_BEGIN
 90
        0
 91
        1
 62
     0
 92
       -2
340
14
 93
        0
 40
0.045
309
GRIDFORMAT_END
 95
        8
302
GRIDFORMAT
  1
GRIDFORMAT_BEGIN
 90
        0
 91
        1
 62
     0
 92
       -2
340
14
 93
        0
 40
0.045
309
GRIDFORMAT_END
 95
       16
302
GRIDFORMAT
  1
GRIDFORMAT_BEGIN
 90
        0
 91
        1
 62
     0
 92
       -2
340
14
 93
        0
 40
0.045
309
GRIDFORMAT_END
 95
       32
302
GRIDFORMAT
  1
GRIDFORMAT_BEGIN
 90
        0
 91
        1
 62
     0
 92
       -2
340
14
 93
        0
 40
0.045
309
GRIDFORMAT_END
309
TABLEFORMAT_END
  1
CELLSTYLE_BEGIN
 90
        2
 91
        1
300
_HEADER
309
CELLSTYLE_END
300
CELLSTYLE
  1
TABLEFORMAT_BEGIN
 90
        5
170
     1
 91
        0
 92
        0
 62
   257
 93
        1
300
CONTENTFORMAT
  1
CONTENTFORMAT_BEGIN
 90
        0
 91
        0
 92
        4
 93
        0
300

 40
0.0
140
1.0
 94
        2
 62
     0
340
11
144
0.18
309
CONTENTFORMAT_END
171
     1
301
MARGIN
  1
CELLMARGIN_BEGIN
 40
0.06
 40
0.06
 40
0.06
 40
0.06
 40
0.06
 40
0.06
309
CELLMARGIN_END
 94
        6
 95
        1
302
GRIDFORMAT
  1
GRIDFORMAT_BEGIN
 90
        0
 91
        1
 62
     0
 92
       -2
340
14
 93
        0
 40
0.045
309
GRIDFORMAT_END
 95
        2
302
GRIDFORMAT
  1
GRIDFORMAT_BEGIN
 90
        0
 91
        1
 62
     0
 92
       -2
340
14
 93
        0
 40
0.045
309
GRIDFORMAT_END
 95
        4
302
GRIDFORMAT
  1
GRIDFORMAT_BEGIN
 90
        0
 91
        1
 62
     0
 92
       -2
340
14
 93
        0
 40
0.045
309
GRIDFORMAT_END
 95
        8
302
GRIDFORMAT
  1
GRIDFORMAT_BEGIN
 90
        0
 91
        1
 62
     0
 92
       -2
340
14
 93
        0
 40
0.045
309
GRIDFORMAT_END
 95
       16
302
GRIDFORMAT
  1
GRIDFORMAT_BEGIN
 90
        0
 91
        1
 62
     0
 92
       -2
340
14
 93
        0
 40
0.045
309
GRIDFORMAT_END
 95
       32
302
GRIDFORMAT
  1
GRIDFORMAT_BEGIN
 90
        0
 91
        1
 62
     0
 92
       -2
340
14
 93
        0
 40
0.045
309
GRIDFORMAT_END
309
TABLEFORMAT_END
  1
CELLSTYLE_BEGIN
 90
        3
 91
        2
300
_DATA
309
CELLSTYLE_END
  0
ENDSEC
  0
EOF