0
SECTION
  2
HEADER
  9
$ACADVER
  1
AC1027
  9
$ACADMAINTVER
 70
     8
  9
$DWGCODEPAGE
  3
ANSI_1252
  9
$REQUIREDVERSIONS
160
                 0
  9
$COMMENTS
  1
File was created by Cadenas
  9
$CUSTOMPROPERTYTAG
  1
NN
  9
$CUSTOMPROPERTY
  1
Set Screw Wide Slot Take Up Metric Bore - Stainless Housing, Corrosion Resistant Insert
  9
$CUSTOMPROPERTYTAG
  1
NT
  9
$CUSTOMPROPERTY
  1
SC Take-Up Bearings -Wide Slot -(Normal Duty) -Polymer Housed -Corrosion Resistant Insert -E-Z KLEEN
  9
$CUSTOMPROPERTYTAG
  1
NB
  9
$CUSTOMPROPERTY
  1
136982
  9
$CUSTOMPROPERTYTAG
  1
NBSYN
  9
$CUSTOMPROPERTY
  1
$PN.
  9
$CUSTOMPROPERTYTAG
  1
LINA
  9
$CUSTOMPROPERTY
  1
136982
  9
$CUSTOMPROPERTYTAG
  1
SERIES
  9
$CUSTOMPROPERTY
  1
206
  9
$CUSTOMPROPERTYTAG
  1
SS
  9
$CUSTOMPROPERTY
  1
30
  9
$CUSTOMPROPERTYTAG
  1
PN
  9
$CUSTOMPROPERTY
  1
136982
  9
$CUSTOMPROPERTYTAG
  1
DESCRIPTION
  9
$CUSTOMPROPERTY
  1
WSTU-SCEZ-30M-SHCR
  9
$CUSTOMPROPERTYTAG
  1
W
  9
$CUSTOMPROPERTY
  1
1.50
  9
$CUSTOMPROPERTYTAG
  1
FS
  9
$CUSTOMPROPERTY
  1
WS308
  9
$CUSTOMPROPERTYTAG
  1
A
  9
$CUSTOMPROPERTY
  1
38.6
  9
$CUSTOMPROPERTYTAG
  1
B
  9
$CUSTOMPROPERTY
  1
126.7
  9
$CUSTOMPROPERTYTAG
  1
C
  9
$CUSTOMPROPERTY
  1
13.46
  9
$CUSTOMPROPERTYTAG
  1
D
  9
$CUSTOMPROPERTY
  1
57.4
  9
$CUSTOMPROPERTYTAG
  1
E
  9
$CUSTOMPROPERTY
  1
78.7
  9
$CUSTOMPROPERTYTAG
  1
F
  9
$CUSTOMPROPERTY
  1
19.1
  9
$CUSTOMPROPERTYTAG
  1
G
  9
$CUSTOMPROPERTY
  1
14.2
  9
$CUSTOMPROPERTYTAG
  1
H
  9
$CUSTOMPROPERTY
  1
16.5
  9
$CUSTOMPROPERTYTAG
  1
J
  9
$CUSTOMPROPERTY
  1
61.7
  9
$CUSTOMPROPERTYTAG
  1
K
  9
$CUSTOMPROPERTY
  1
35.3
  9
$CUSTOMPROPERTYTAG
  1
L
  9
$CUSTOMPROPERTY
  1
39.9
  9
$CUSTOMPROPERTYTAG
  1
M
  9
$CUSTOMPROPERTY
  1
89.92 / 89.15
  9
$CUSTOMPROPERTYTAG
  1
N
  9
$CUSTOMPROPERTY
  1
106.7
  9
$CUSTOMPROPERTYTAG
  1
R
  9
$CUSTOMPROPERTY
  1
14.7
  9
$CUSTOMPROPERTYTAG
  1
S
  9
$CUSTOMPROPERTY
  1
23.9
  9
$CUSTOMPROPERTYTAG
  1
T
  9
$CUSTOMPROPERTY
  1
41.1
  9
$CUSTOMPROPERTYTAG
  1
COMPANY
  9
$CUSTOMPROPERTY
  1
baldor
  9
$INSBASE
 10
0.0
 20
0.0
 30
0.0
  9
$EXTMIN
 10
1.000000000000000E+20
 20
1.000000000000000E+20
 30
1.000000000000000E+20
  9
$EXTMAX
 10
-1.000000000000000E+20
 20
-1.000000000000000E+20
 30
-1.000000000000000E+20
  9
$LIMMIN
 10
0.0
 20
0.0
  9
$LIMMAX
 10
420.0
 20
297.0
  9
$ORTHOMODE
 70
     0
  9
$REGENMODE
 70
     1
  9
$FILLMODE
 70
     1
  9
$QTEXTMODE
 70
     0
  9
$MIRRTEXT
 70
     1
  9
$LTSCALE
 40
1.0
  9
$ATTMODE
 70
     1
  9
$TEXTSIZE
 40
2.5
  9
$TRACEWID
 40
1.0
  9
$TEXTSTYLE
  7
Standard
  9
$CLAYER
  8
0
  9
$CELTYPE
  6
ByLayer
  9
$CECOLOR
 62
   256
  9
$CELTSCALE
 40
1.0
  9
$DISPSILH
 70
     0
  9
$DIMSCALE
 40
1.0
  9
$DIMASZ
 40
2.5
  9
$DIMEXO
 40
0.625
  9
$DIMDLI
 40
3.75
  9
$DIMRND
 40
0.0
  9
$DIMDLE
 40
0.0
  9
$DIMEXE
 40
1.25
  9
$DIMTP
 40
0.0
  9
$DIMTM
 40
0.0
  9
$DIMTXT
 40
2.5
  9
$DIMCEN
 40
2.5
  9
$DIMTSZ
 40
0.0
  9
$DIMTOL
 70
     0
  9
$DIMLIM
 70
     0
  9
$DIMTIH
 70
     0
  9
$DIMTOH
 70
     0
  9
$DIMSE1
 70
     0
  9
$DIMSE2
 70
     0
  9
$DIMTAD
 70
     1
  9
$DIMZIN
 70
     8
  9
$DIMBLK
  1

  9
$DIMASO
 70
     1
  9
$DIMSHO
 70
     1
  9
$DIMPOST
  1

  9
$DIMAPOST
  1

  9
$DIMALT
 70
     0
  9
$DIMALTD
 70
     3
  9
$DIMALTF
 40
0.03937007874016
  9
$DIMLFAC
 40
1.0
  9
$DIMTOFL
 70
     1
  9
$DIMTVP
 40
0.0
  9
$DIMTIX
 70
     0
  9
$DIMSOXD
 70
     0
  9
$DIMSAH
 70
     0
  9
$DIMBLK1
  1

  9
$DIMBLK2
  1

  9
$DIMSTYLE
  2
ISO-25
  9
$DIMCLRD
 70
     0
  9
$DIMCLRE
 70
     0
  9
$DIMCLRT
 70
     0
  9
$DIMTFAC
 40
1.0
  9
$DIMGAP
 40
0.625
  9
$DIMJUST
 70
     0
  9
$DIMSD1
 70
     0
  9
$DIMSD2
 70
     0
  9
$DIMTOLJ
 70
     0
  9
$DIMTZIN
 70
     8
  9
$DIMALTZ
 70
     0
  9
$DIMALTTZ
 70
     0
  9
$DIMUPT
 70
     0
  9
$DIMDEC
 70
     2
  9
$DIMTDEC
 70
     2
  9
$DIMALTU
 70
     2
  9
$DIMALTTD
 70
     3
  9
$DIMTXSTY
  7
Standard
  9
$DIMAUNIT
 70
     0
  9
$DIMADEC
 70
     0
  9
$DIMALTRND
 40
0.0
  9
$DIMAZIN
 70
     0
  9
$DIMDSEP
 70
    44
  9
$DIMATFIT
 70
     3
  9
$DIMFRAC
 70
     0
  9
$DIMLDRBLK
  1

  9
$DIMLUNIT
 70
     2
  9
$DIMLWD
 70
    -2
  9
$DIMLWE
 70
    -2
  9
$DIMTMOVE
 70
     0
  9
$DIMFXL
 40
1.0
  9
$DIMFXLON
 70
     0
  9
$DIMJOGANG
 40
0.7853981633974483
  9
$DIMTFILL
 70
     0
  9
$DIMTFILLCLR
 70
     0
  9
$DIMARCSYM
 70
     0
  9
$DIMLTYPE
  6

  9
$DIMLTEX1
  6

  9
$DIMLTEX2
  6

  9
$DIMTXTDIRECTION
 70
     0
  9
$LUNITS
 70
     2
  9
$LUPREC
 70
     4
  9
$SKETCHINC
 40
1.0
  9
$FILLETRAD
 40
10.0
  9
$AUNITS
 70
     0
  9
$AUPREC
 70
     0
  9
$MENU
  1
.
  9
$ELEVATION
 40
0.0
  9
$PELEVATION
 40
0.0
  9
$THICKNESS
 40
0.0
  9
$LIMCHECK
 70
     0
  9
$CHAMFERA
 40
0.0
  9
$CHAMFERB
 40
0.0
  9
$CHAMFERC
 40
0.0
  9
$CHAMFERD
 40
0.0
  9
$SKPOLY
 70
     0
  9
$TDCREATE
 40
2458168.890365
  9
$TDUCREATE
 40
2458168.848698333
  9
$TDUPDATE
 40
2458168.890365174
  9
$TDUUPDATE
 40
2458168.848698507
  9
$TDINDWG
 40
0.0000000116
  9
$TDUSRTIMER
 40
0.0000000116
  9
$USRTIMER
 70
     1
  9
$ANGBASE
 50
0.0
  9
$ANGDIR
 70
     0
  9
$PDMODE
 70
     0
  9
$PDSIZE
 40
0.0
  9
$PLINEWID
 40
0.0
  9
$SPLFRAME
 70
     0
  9
$SPLINETYPE
 70
     6
  9
$SPLINESEGS
 70
     8
  9
$HANDSEED
  5
1D0
  9
$SURFTAB1
 70
     6
  9
$SURFTAB2
 70
     6
  9
$SURFTYPE
 70
     6
  9
$SURFU
 70
     6
  9
$SURFV
 70
     6
  9
$UCSBASE
  2

  9
$UCSNAME
  2

  9
$UCSORG
 10
0.0
 20
0.0
 30
0.0
  9
$UCSXDIR
 10
1.0
 20
0.0
 30
0.0
  9
$UCSYDIR
 10
0.0
 20
1.0
 30
0.0
  9
$UCSORTHOREF
  2

  9
$UCSORTHOVIEW
 70
     0
  9
$UCSORGTOP
 10
0.0
 20
0.0
 30
0.0
  9
$UCSORGBOTTOM
 10
0.0
 20
0.0
 30
0.0
  9
$UCSORGLEFT
 10
0.0
 20
0.0
 30
0.0
  9
$UCSORGRIGHT
 10
0.0
 20
0.0
 30
0.0
  9
$UCSORGFRONT
 10
0.0
 20
0.0
 30
0.0
  9
$UCSORGBACK
 10
0.0
 20
0.0
 30
0.0
  9
$PUCSBASE
  2

  9
$PUCSNAME
  2

  9
$PUCSORG
 10
0.0
 20
0.0
 30
0.0
  9
$PUCSXDIR
 10
1.0
 20
0.0
 30
0.0
  9
$PUCSYDIR
 10
0.0
 20
1.0
 30
0.0
  9
$PUCSORTHOREF
  2

  9
$PUCSORTHOVIEW
 70
     0
  9
$PUCSORGTOP
 10
0.0
 20
0.0
 30
0.0
  9
$PUCSORGBOTTOM
 10
0.0
 20
0.0
 30
0.0
  9
$PUCSORGLEFT
 10
0.0
 20
0.0
 30
0.0
  9
$PUCSORGRIGHT
 10
0.0
 20
0.0
 30
0.0
  9
$PUCSORGFRONT
 10
0.0
 20
0.0
 30
0.0
  9
$PUCSORGBACK
 10
0.0
 20
0.0
 30
0.0
  9
$USERI1
 70
     0
  9
$USERI2
 70
     0
  9
$USERI3
 70
     0
  9
$USERI4
 70
     0
  9
$USERI5
 70
     0
  9
$USERR1
 40
0.0
  9
$USERR2
 40
0.0
  9
$USERR3
 40
0.0
  9
$USERR4
 40
0.0
  9
$USERR5
 40
0.0
  9
$WORLDVIEW
 70
     1
  9
$SHADEDGE
 70
     3
  9
$SHADEDIF
 70
    70
  9
$TILEMODE
 70
     1
  9
$MAXACTVP
 70
    64
  9
$PINSBASE
 10
0.0
 20
0.0
 30
0.0
  9
$PLIMCHECK
 70
     0
  9
$PEXTMIN
 10
1.000000000000000E+20
 20
1.000000000000000E+20
 30
1.000000000000000E+20
  9
$PEXTMAX
 10
-1.000000000000000E+20
 20
-1.000000000000000E+20
 30
-1.000000000000000E+20
  9
$PLIMMIN
 10
0.0
 20
0.0
  9
$PLIMMAX
 10
420.0
 20
297.0
  9
$UNITMODE
 70
     0
  9
$VISRETAIN
 70
     1
  9
$PLINEGEN
 70
     0
  9
$PSLTSCALE
 70
     1
  9
$TREEDEPTH
 70
  3020
  9
$CMLSTYLE
  2
Standard
  9
$CMLJUST
 70
     0
  9
$CMLSCALE
 40
20.0
  9
$PROXYGRAPHICS
 70
     1
  9
$MEASUREMENT
 70
     1
  9
$CELWEIGHT
370
    -1
  9
$ENDCAPS
280
     0
  9
$JOINSTYLE
280
     0
  9
$LWDISPLAY
290
     0
  9
$INSUNITS
 70
     4
  9
$HYPERLINKBASE
  1

  9
$STYLESHEET
  1

  9
$XEDIT
290
     1
  9
$CEPSNTYPE
380
     0
  9
$PSTYLEMODE
290
     1
  9
$FINGERPRINTGUID
  2
{36AFCDA9-E357-42E7-AD44-A8354DFD8E87}
  9
$VERSIONGUID
  2
{FAEB1C32-E019-11D5-929B-00C0DF256EC4}
  9
$EXTNAMES
290
     1
  9
$PSVPSCALE
 40
0.0
  9
$OLESTARTUP
290
     0
  9
$SORTENTS
280
   127
  9
$INDEXCTL
280
     0
  9
$HIDETEXT
280
     1
  9
$XCLIPFRAME
280
     2
  9
$HALOGAP
280
     0
  9
$OBSCOLOR
 70
   257
  9
$OBSLTYPE
280
     0
  9
$INTERSECTIONDISPLAY
280
     0
  9
$INTERSECTIONCOLOR
 70
   257
  9
$DIMASSOC
280
     2
  9
$PROJECTNAME
  1

  9
$CAMERADISPLAY
290
     0
  9
$LENSLENGTH
 40
50.0
  9
$CAMERAHEIGHT
 40
0.0
  9
$STEPSPERSEC
 40
2.0
  9
$STEPSIZE
 40
6.0
  9
$3DDWFPREC
 40
2.0
  9
$PSOLWIDTH
 40
5.0
  9
$PSOLHEIGHT
 40
80.0
  9
$LOFTANG1
 40
1.570796326794897
  9
$LOFTANG2
 40
1.570796326794897
  9
$LOFTMAG1
 40
0.0
  9
$LOFTMAG2
 40
0.0
  9
$LOFTPARAM
 70
     7
  9
$LOFTNORMALS
280
     1
  9
$LATITUDE
 40
37.795
  9
$LONGITUDE
 40
-122.394
  9
$NORTHDIRECTION
 40
0.0
  9
$TIMEZONE
 70
 -8000
  9
$LIGHTGLYPHDISPLAY
280
     1
  9
$TILEMODELIGHTSYNCH
280
     1
  9
$CMATERIAL
347
44
  9
$SOLIDHIST
280
     0
  9
$SHOWHIST
280
     1
  9
$DWFFRAME
280
     2
  9
$DGNFRAME
280
     2
  9
$REALWORLDSCALE
290
     1
  9
$INTERFERECOLOR
 62
   256
  9
$CSHADOW
280
     0
  9
$SHADOWPLANELOCATION
 40
0.0
  0
ENDSEC
  0
SECTION
  2
CLASSES
  0
CLASS
  1
ACDBDICTIONARYWDFLT
  2
AcDbDictionaryWithDefault
  3
ObjectDBX Classes
 90
        0
 91
        4
280
     0
281
     0
  0
CLASS
  1
VISUALSTYLE
  2
AcDbVisualStyle
  3
ObjectDBX Classes
 90
     4095
 91
        4
280
     0
281
     0
  0
CLASS
  1
MATERIAL
  2
AcDbMaterial
  3
ObjectDBX Classes
 90
     1153
 91
        4
280
     0
281
     0
  0
CLASS
  1
SCALE
  2
AcDbScale
  3
ObjectDBX Classes
 90
     1153
 91
        4
280
     0
281
     0
  0
CLASS
  1
TABLESTYLE
  2
AcDbTableStyle
  3
ObjectDBX Classes
 90
     4095
 91
        4
280
     0
281
     0
  0
CLASS
  1
MLEADERSTYLE
  2
AcDbMLeaderStyle
  3
ACDB_MLEADERSTYLE_CLASS
 90
     4095
 91
        4
280
     0
281
     0
  0
CLASS
  1
SUN
  2
AcDbSun
  3
SCENEOE
 90
     1153
 91
        4
280
     0
281
     0
  0
CLASS
  1
DICTIONARYVAR
  2
AcDbDictionaryVar
  3
ObjectDBX Classes
 90
        0
 91
        4
280
     0
281
     0
  0
CLASS
  1
CELLSTYLEMAP
  2
AcDbCellStyleMap
  3
ObjectDBX Classes
 90
     1152
 91
        4
280
     0
281
     0
  0
ENDSEC
  0
SECTION
  2
TABLES
  0
TABLE
  2
VPORT
  5
8
330
0
100
AcDbSymbolTable
 70
     1
  0
VPORT
  5
29
330
8
100
AcDbSymbolTableRecord
100
AcDbViewportTableRecord
  2
*Active
 70
     0
 10
0.0
 20
0.0
 11
1.0
 21
1.0
 12
0.0
 22
0.0
 13
0.0
 23
0.0
 14
10.0
 24
10.0
 15
10.0
 25
10.0
 16
0.0
 26
0.0
 36
1.0
 17
-0.0000000000000568
 27
0.0
 37
0.0
 40
108.834
 41
0.4927835051546385
 42
50.0
 43
0.0
 44
0.0
 50
0.0
 51
0.0
 71
     0
 72
   100
 73
     1
 74
     3
 75
     0
 76
     0
 77
     0
 78
     0
281
     0
 65
     1
110
0.0
120
0.0
130
0.0
111
1.0
121
0.0
131
0.0
112
0.0
122
1.0
132
0.0
 79
     0
146
0.0
348
2F
 60
     3
 61
     5
292
     1
282
     1
141
0.0
142
0.0
 63
   250
361
6D
  0
ENDTAB
  0
TABLE
  2
LTYPE
  5
5
330
0
100
AcDbSymbolTable
 70
     3
  0
LTYPE
  5
14
330
5
100
AcDbSymbolTableRecord
100
AcDbLinetypeTableRecord
  2
ByBlock
 70
     0
  3

 72
    65
 73
     0
 40
0.0
  0
LTYPE
  5
15
330
5
100
AcDbSymbolTableRecord
100
AcDbLinetypeTableRecord
  2
ByLayer
 70
     0
  3

 72
    65
 73
     0
 40
0.0
  0
LTYPE
  5
16
330
5
100
AcDbSymbolTableRecord
100
AcDbLinetypeTableRecord
  2
Continuous
 70
     0
  3
Solid line
 72
    65
 73
     0
 40
0.0
  0
LTYPE
  5
A1
330
5
100
AcDbSymbolTableRecord
100
AcDbLinetypeTableRecord
  2
Dashed
 70
     0
  3

 72
    65
 73
     2
 40
2.0
 49
1.0
 74
     0
 49
-1.0
 74
     0
  0
LTYPE
  5
15A
330
5
100
AcDbSymbolTableRecord
100
AcDbLinetypeTableRecord
  2
Center
 70
     0
  3

 72
    65
 73
     4
 40
1.5
 49
0.45
 74
     0
 49
-0.5
 74
     0
 49
0.05
 74
     0
 49
-0.5
 74
     0
  0
ENDTAB
  0
TABLE
  2
LAYER
  5
2
330
0
100
AcDbSymbolTable
 70
     7
  0
LAYER
  5
10
330
2
100
AcDbSymbolTableRecord
100
AcDbLayerTableRecord
  2
0
 70
     0
 62
     7
  6
Continuous
370
    -3
390
F
347
46
348
0
  0
LAYER
  5
72
330
2
100
AcDbSymbolTableRecord
100
AcDbLayerTableRecord
  2
AM_6
 70
     0
 62
    -2
  6
Continuous
370
    35
390
F
347
46
348
0
  0
LAYER
  5
A2
330
2
100
AcDbSymbolTableRecord
100
AcDbLayerTableRecord
  2
AM_9
 70
     0
 62
     6
  6
Dashed
370
    25
390
F
347
46
348
0
  0
LAYER
  5
157
330
2
100
AcDbSymbolTableRecord
100
AcDbLayerTableRecord
  2
AM_5
 70
     0
 62
     3
  6
Continuous
370
    25
390
F
347
46
348
0
  0
LAYER
  5
15B
330
2
100
AcDbSymbolTableRecord
100
AcDbLayerTableRecord
  2
AM_7
 70
     0
 62
     7
  6
Center
370
    25
390
F
347
46
348
0
  0
LAYER
  5
15D
330
2
100
AcDbSymbolTableRecord
100
AcDbLayerTableRecord
  2
AM_4
 70
     0
 62
     7
  6
Continuous
370
    50
390
F
347
46
348
0
  0
LAYER
  5
1C3
330
2
100
AcDbSymbolTableRecord
100
AcDbLayerTableRecord
  2
ConnectionPoints
 70
     0
 62
     7
  6
Continuous
370
    50
390
F
347
46
348
0
  0
ENDTAB
  0
TABLE
  2
STYLE
  5
3
330
0
100
AcDbSymbolTable
 70
     1
  0
STYLE
  5
11
330
3
100
AcDbSymbolTableRecord
100
AcDbTextStyleTableRecord
  2
Standard
 70
     0
 40
0.0
 41
1.0
 50
0.0
 71
     0
 42
2.5
  3
txt
  4

  0
ENDTAB
  0
TABLE
  2
VIEW
  5
6
330
0
100
AcDbSymbolTable
 70
     0
  0
ENDTAB
  0
TABLE
  2
UCS
  5
7
330
0
100
AcDbSymbolTable
 70
     0
  0
ENDTAB
  0
TABLE
  2
APPID
  5
9
330
0
100
AcDbSymbolTable
 70
     1
  0
APPID
  5
12
330
9
100
AcDbSymbolTableRecord
100
AcDbRegAppTableRecord
  2
ACAD
 70
     0
  0
ENDTAB
  0
TABLE
  2
DIMSTYLE
  5
A
330
0
100
AcDbSymbolTable
 70
     1
100
AcDbDimStyleTable
  0
DIMSTYLE
105
27
330
A
100
AcDbSymbolTableRecord
100
AcDbDimStyleTableRecord
  2
ISO-25
 70
     0
 41
2.5
 42
0.625
 43
3.75
 44
1.25
 73
     0
 74
     0
 77
     1
 78
     8
140
2.5
141
2.5
143
0.03937007874016
147
0.625
171
     3
172
     1
178
     0
271
     2
272
     2
274
     3
278
    44
283
     0
284
     8
340
11
  0
ENDTAB
  0
TABLE
  2
BLOCK_RECORD
  5
1
330
0
100
AcDbSymbolTable
 70
     5
  0
BLOCK_RECORD
  5
1F
330
1
100
AcDbSymbolTableRecord
100
AcDbBlockTableRecord
  2
*Model_Space
340
22
 70
     0
280
     1
281
     0
  0
BLOCK_RECORD
  5
1B
330
1
100
AcDbSymbolTableRecord
100
AcDbBlockTableRecord
  2
*Paper_Space
340
1E
 70
     0
280
     1
281
     0
  0
BLOCK_RECORD
  5
23
330
1
100
AcDbSymbolTableRecord
100
AcDbBlockTableRecord
  2
*Paper_Space0
340
26
 70
     0
280
     1
281
     0
  0
BLOCK_RECORD
  5
6E
330
1
100
AcDbSymbolTableRecord
100
AcDbBlockTableRecord
  2
1_136982_2
340
0
102
{BLKREFS
331
6F
102
}
 70
     0
280
     1
281
     0
  0
BLOCK_RECORD
  5
8F
330
1
100
AcDbSymbolTableRecord
100
AcDbBlockTableRecord
  2
2_405020c_M_0_in_136982_2
340
0
102
{BLKREFS
331
90
102
}
 70
     0
280
     1
281
     0
  0
BLOCK_RECORD
  5
F1
330
1
100
AcDbSymbolTableRecord
100
AcDbBlockTableRecord
  2
3_125874_0_in_136982_2
340
0
102
{BLKREFS
331
F2
102
}
 70
     0
280
     1
281
     0
  0
BLOCK_RECORD
  5
166
330
1
100
AcDbSymbolTableRecord
100
AcDbBlockTableRecord
  2
4_136982H_0_in_136982_2
340
0
102
{BLKREFS
331
167
102
}
 70
     0
280
     1
281
     0
  0
ENDTAB
  0
ENDSEC
  0
SECTION
  2
BLOCKS
  0
BLOCK
  5
20
330
1F
100
AcDbEntity
  8
0
100
AcDbBlockBegin
  2
*Model_Space
 70
     0
 10
0.0
 20
0.0
 30
0.0
  3
*Model_Space
  1

  0
ENDBLK
  5
21
330
1F
100
AcDbEntity
  8
0
100
AcDbBlockEnd
  0
BLOCK
  5
1C
330
1B
100
AcDbEntity
 67
     1
  8
0
100
AcDbBlockBegin
  2
*Paper_Space
 70
     0
 10
0.0
 20
0.0
 30
0.0
  3
*Paper_Space
  1

  0
ENDBLK
  5
1D
330
1B
100
AcDbEntity
 67
     1
  8
0
100
AcDbBlockEnd
  0
BLOCK
  5
24
330
23
100
AcDbEntity
  8
0
100
AcDbBlockBegin
  2
*Paper_Space0
 70
     0
 10
0.0
 20
0.0
 30
0.0
  3
*Paper_Space0
  1

  0
ENDBLK
  5
25
330
23
100
AcDbEntity
  8
0
100
AcDbBlockEnd
  0
BLOCK
  5
70
330
6E
100
AcDbEntity
  8
0
100
AcDbBlockBegin
  2
1_136982_2
 70
     2
 10
0.0
 20
0.0
 30
0.0
  3
1_136982_2
  1

  0
ATTDEF
  5
73
330
6E
100
AcDbEntity
  8
AM_6
100
AcDbText
 10
31.28999999999998
 20
53.35
 30
0.0
 40
0.5
  1
Set Screw Wide Slot Take Up Metric Bore - Stainless Housing, Corrosion Resistant Insert
100
AcDbAttributeDefinition
  3

  2
NN
 70
     8
280
     0
  0
ATTDEF
  5
74
330
6E
100
AcDbEntity
  8
AM_6
100
AcDbText
 10
31.28999999999998
 20
52.85
 30
0.0
 40
0.5
  1
SC Take-Up Bearings -Wide Slot -(Normal Duty) -Polymer Housed -Corrosion Resistant Insert -E-Z KLEEN
100
AcDbAttributeDefinition
  3

  2
NT
 70
     8
280
     0
  0
ATTDEF
  5
75
330
6E
100
AcDbEntity
  8
AM_6
100
AcDbText
 10
31.28999999999998
 20
52.35
 30
0.0
 40
0.5
  1
136982
100
AcDbAttributeDefinition
  3

  2
NB
 70
     8
280
     0
  0
ATTDEF
  5
76
330
6E
100
AcDbEntity
  8
AM_6
100
AcDbText
 10
31.28999999999998
 20
51.85
 30
0.0
 40
0.5
  1
$PN.
100
AcDbAttributeDefinition
  3

  2
NBSYN
 70
     8
280
     0
  0
ATTDEF
  5
77
330
6E
100
AcDbEntity
  8
AM_6
100
AcDbText
 10
31.28999999999998
 20
51.35
 30
0.0
 40
0.5
  1
136982
100
AcDbAttributeDefinition
  3

  2
LINA
 70
     8
280
     0
  0
ATTDEF
  5
78
330
6E
100
AcDbEntity
  8
AM_6
100
AcDbText
 10
31.28999999999998
 20
50.85
 30
0.0
 40
0.5
  1
206
100
AcDbAttributeDefinition
  3

  2
SERIES
 70
     8
280
     0
  0
ATTDEF
  5
79
330
6E
100
AcDbEntity
  8
AM_6
100
AcDbText
 10
31.28999999999998
 20
50.35
 30
0.0
 40
0.5
  1
30
100
AcDbAttributeDefinition
  3

  2
SS
 70
     8
280
     0
  0
ATTDEF
  5
7A
330
6E
100
AcDbEntity
  8
AM_6
100
AcDbText
 10
31.28999999999998
 20
49.85
 30
0.0
 40
0.5
  1
136982
100
AcDbAttributeDefinition
  3

  2
PN
 70
     8
280
     0
  0
ATTDEF
  5
7B
330
6E
100
AcDbEntity
  8
AM_6
100
AcDbText
 10
31.28999999999998
 20
49.35
 30
0.0
 40
0.5
  1
WSTU-SCEZ-30M-SHCR
100
AcDbAttributeDefinition
  3

  2
DESCRIPTION
 70
     8
280
     0
  0
ATTDEF
  5
7C
330
6E
100
AcDbEntity
  8
AM_6
100
AcDbText
 10
31.28999999999998
 20
48.85
 30
0.0
 40
0.5
  1
1.50
100
AcDbAttributeDefinition
  3

  2
W
 70
     8
280
     0
  0
ATTDEF
  5
7D
330
6E
100
AcDbEntity
  8
AM_6
100
AcDbText
 10
31.28999999999998
 20
48.35
 30
0.0
 40
0.5
  1
WS308
100
AcDbAttributeDefinition
  3

  2
FS
 70
     8
280
     0
  0
ATTDEF
  5
7E
330
6E
100
AcDbEntity
  8
AM_6
100
AcDbText
 10
31.28999999999998
 20
47.85
 30
0.0
 40
0.5
  1
38.6
100
AcDbAttributeDefinition
  3

  2
A
 70
     8
280
     0
  0
ATTDEF
  5
7F
330
6E
100
AcDbEntity
  8
AM_6
100
AcDbText
 10
31.28999999999998
 20
47.35
 30
0.0
 40
0.5
  1
126.7
100
AcDbAttributeDefinition
  3

  2
B
 70
     8
280
     0
  0
ATTDEF
  5
80
330
6E
100
AcDbEntity
  8
AM_6
100
AcDbText
 10
31.28999999999998
 20
46.85
 30
0.0
 40
0.5
  1
13.46
100
AcDbAttributeDefinition
  3

  2
C
 70
     8
280
     0
  0
ATTDEF
  5
81
330
6E
100
AcDbEntity
  8
AM_6
100
AcDbText
 10
31.28999999999998
 20
46.35
 30
0.0
 40
0.5
  1
57.4
100
AcDbAttributeDefinition
  3

  2
D
 70
     8
280
     0
  0
ATTDEF
  5
82
330
6E
100
AcDbEntity
  8
AM_6
100
AcDbText
 10
31.28999999999998
 20
45.85
 30
0.0
 40
0.5
  1
78.7
100
AcDbAttributeDefinition
  3

  2
E
 70
     8
280
     0
  0
ATTDEF
  5
83
330
6E
100
AcDbEntity
  8
AM_6
100
AcDbText
 10
31.28999999999998
 20
45.35
 30
0.0
 40
0.5
  1
19.1
100
AcDbAttributeDefinition
  3

  2
F
 70
     8
280
     0
  0
ATTDEF
  5
84
330
6E
100
AcDbEntity
  8
AM_6
100
AcDbText
 10
31.28999999999998
 20
44.85
 30
0.0
 40
0.5
  1
14.2
100
AcDbAttributeDefinition
  3

  2
G
 70
     8
280
     0
  0
ATTDEF
  5
85
330
6E
100
AcDbEntity
  8
AM_6
100
AcDbText
 10
31.28999999999998
 20
44.35
 30
0.0
 40
0.5
  1
16.5
100
AcDbAttributeDefinition
  3

  2
H
 70
     8
280
     0
  0
ATTDEF
  5
86
330
6E
100
AcDbEntity
  8
AM_6
100
AcDbText
 10
31.28999999999998
 20
43.85
 30
0.0
 40
0.5
  1
61.7
100
AcDbAttributeDefinition
  3

  2
J
 70
     8
280
     0
  0
ATTDEF
  5
87
330
6E
100
AcDbEntity
  8
AM_6
100
AcDbText
 10
31.28999999999998
 20
43.35
 30
0.0
 40
0.5
  1
35.3
100
AcDbAttributeDefinition
  3

  2
K
 70
     8
280
     0
  0
ATTDEF
  5
88
330
6E
100
AcDbEntity
  8
AM_6
100
AcDbText
 10
31.28999999999998
 20
42.85
 30
0.0
 40
0.5
  1
39.9
100
AcDbAttributeDefinition
  3

  2
L
 70
     8
280
     0
  0
ATTDEF
  5
89
330
6E
100
AcDbEntity
  8
AM_6
100
AcDbText
 10
31.28999999999998
 20
42.35
 30
0.0
 40
0.5
  1
89.92 / 89.15
100
AcDbAttributeDefinition
  3

  2
M
 70
     8
280
     0
  0
ATTDEF
  5
8A
330
6E
100
AcDbEntity
  8
AM_6
100
AcDbText
 10
31.28999999999998
 20
41.85
 30
0.0
 40
0.5
  1
106.7
100
AcDbAttributeDefinition
  3

  2
N
 70
     8
280
     0
  0
ATTDEF
  5
8B
330
6E
100
AcDbEntity
  8
AM_6
100
AcDbText
 10
31.28999999999998
 20
41.35
 30
0.0
 40
0.5
  1
14.7
100
AcDbAttributeDefinition
  3

  2
R
 70
     8
280
     0
  0
ATTDEF
  5
8C
330
6E
100
AcDbEntity
  8
AM_6
100
AcDbText
 10
31.28999999999998
 20
40.85
 30
0.0
 40
0.5
  1
23.9
100
AcDbAttributeDefinition
  3

  2
S
 70
     8
280
     0
  0
ATTDEF
  5
8D
330
6E
100
AcDbEntity
  8
AM_6
100
AcDbText
 10
31.28999999999998
 20
40.35
 30
0.0
 40
0.5
  1
41.1
100
AcDbAttributeDefinition
  3

  2
T
 70
     8
280
     0
  0
ATTDEF
  5
8E
330
6E
100
AcDbEntity
  8
AM_6
100
AcDbText
 10
31.28999999999998
 20
39.85
 30
0.0
 40
0.5
  1
baldor
100
AcDbAttributeDefinition
  3

  2
COMPANY
 70
     8
280
     0
  0
INSERT
  5
90
330
6E
100
AcDbEntity
  8
0
100
AcDbBlockReference
  2
2_405020c_M_0_in_136982_2
 10
0.0
 20
0.0
 30
0.0
  0
INSERT
  5
F2
330
6E
100
AcDbEntity
  8
0
100
AcDbBlockReference
  2
3_125874_0_in_136982_2
 10
0.0
 20
0.0
 30
0.0
  0
INSERT
  5
167
330
6E
100
AcDbEntity
  8
0
100
AcDbBlockReference
  2
4_136982H_0_in_136982_2
 10
0.0
 20
0.0
 30
0.0
  0
ENDBLK
  5
71
330
6E
100
AcDbEntity
  8
0
100
AcDbBlockEnd
  0
BLOCK
  5
91
330
8F
100
AcDbEntity
  8
0
100
AcDbBlockBegin
  2
2_405020c_M_0_in_136982_2
 70
     2
 10
0.0
 20
0.0
 30
0.0
  3
2_405020c_M_0_in_136982_2
  1

  0
ATTDEF
  5
93
330
8F
100
AcDbEntity
  8
AM_6
100
AcDbText
 10
9.041451884327378
 20
-19.15655433713517
 30
0.0
 40
0.5
  1
405020C -Metric
100
AcDbAttributeDefinition
  3

  2
NN
 70
     8
280
     0
  0
ATTDEF
  5
94
330
8F
100
AcDbEntity
  8
AM_6
100
AcDbText
 10
9.041451884327378
 20
-19.65655433713517
 30
0.0
 40
0.5
  1
Grease fitting
100
AcDbAttributeDefinition
  3

  2
NT
 70
     8
280
     0
  0
ATTDEF
  5
95
330
8F
100
AcDbEntity
  8
AM_6
100
AcDbText
 10
9.041451884327378
 20
-20.15655433713517
 30
0.0
 40
0.5
  1
405020c-M
100
AcDbAttributeDefinition
  3

  2
NB
 70
     8
280
     0
  0
ATTDEF
  5
96
330
8F
100
AcDbEntity
  8
AM_6
100
AcDbText
 10
9.041451884327378
 20
-20.65655433713517
 30
0.0
 40
0.5
  1
$MN.-M
100
AcDbAttributeDefinition
  3

  2
NBSYN
 70
     8
280
     0
  0
ATTDEF
  5
97
330
8F
100
AcDbEntity
  8
AM_6
100
AcDbText
 10
9.041451884327378
 20
-21.15655433713517
 30
0.0
 40
0.5
  1
405020c
100
AcDbAttributeDefinition
  3

  2
LINA
 70
     8
280
     0
  0
ATTDEF
  5
98
330
8F
100
AcDbEntity
  8
AM_6
100
AcDbText
 10
9.041451884327378
 20
-21.65655433713517
 30
0.0
 40
0.5
  1
405020c
100
AcDbAttributeDefinition
  3

  2
MN
 70
     8
280
     0
  0
ATTDEF
  5
99
330
8F
100
AcDbEntity
  8
AM_6
100
AcDbText
 10
9.041451884327378
 20
-22.15655433713517
 30
0.0
 40
0.5
  1
5.842
100
AcDbAttributeDefinition
  3

  2
NDR
 70
     8
280
     0
  0
ATTDEF
  5
9A
330
8F
100
AcDbEntity
  8
AM_6
100
AcDbText
 10
9.041451884327378
 20
-22.65655433713517
 30
0.0
 40
0.5
  1
5.359
100
AcDbAttributeDefinition
  3

  2
KDR
 70
     8
280
     0
  0
ATTDEF
  5
9B
330
8F
100
AcDbEntity
  8
AM_6
100
AcDbText
 10
9.041451884327378
 20
-23.15655433713517
 30
0.0
 40
0.5
  1
4.000
100
AcDbAttributeDefinition
  3

  2
BZE
 70
     8
280
     0
  0
ATTDEF
  5
9C
330
8F
100
AcDbEntity
  8
AM_6
100
AcDbText
 10
9.041451884327378
 20
-23.65655433713517
 30
0.0
 40
0.5
  1
7
100
AcDbAttributeDefinition
  3

  2
WAF
 70
     8
280
     0
  0
ATTDEF
  5
9D
330
8F
100
AcDbEntity
  8
AM_6
100
AcDbText
 10
9.041451884327378
 20
-24.15655433713517
 30
0.0
 40
0.5
  1
7.0000
100
AcDbAttributeDefinition
  3

  2
WAF1
 70
     8
280
     0
  0
ATTDEF
  5
9E
330
8F
100
AcDbEntity
  8
AM_6
100
AcDbText
 10
9.041451884327378
 20
-24.65655433713517
 30
0.0
 40
0.5
  1
13.843
100
AcDbAttributeDefinition
  3

  2
BL
 70
     8
280
     0
  0
ATTDEF
  5
9F
330
8F
100
AcDbEntity
  8
AM_6
100
AcDbText
 10
9.041451884327378
 20
-25.15655433713517
 30
0.0
 40
0.5
  1
5.080
100
AcDbAttributeDefinition
  3

  2
TL
 70
     8
280
     0
  0
ATTDEF
  5
A0
330
8F
100
AcDbEntity
  8
AM_6
100
AcDbText
 10
9.041451884327378
 20
-25.65655433713517
 30
0.0
 40
0.5
  1
baldor
100
AcDbAttributeDefinition
  3

  2
COMPANY
 70
     8
280
     0
  0
ELLIPSE
  5
A3
330
8F
100
AcDbEntity
  8
AM_9
100
AcDbEllipse
 10
-0.000000000000003
 20
-28.38149999999999
 30
0.0
 11
-2.107870178878142
 21
2.581396467581275E-16
 31
0.0
210
0.0
220
0.0
230
1.0
 40
0.8660254037844392
 41
0.0
 42
6.283185307179586
  0
LINE
  5
A4
330
8F
100
AcDbEntity
  8
AM_9
100
AcDbLine
 10
1.364975703267568
 20
-30.11388290358238
 30
0.0
 11
1.485526982966039
 21
-30.04382321136947
 31
0.0
  0
LWPOLYLINE
  5
A5
330
8F
100
AcDbEntity
  8
AM_9
100
AcDbPolyline
 90
        4
 70
     0
 43
0.0
 10
0.7875060992697624
 20
-30.34873424917433
 10
0.9842772960227618
 20
-30.28547418069699
 10
1.248540747718892
 20
-30.17390142151992
 10
1.364975703267568
 20
-30.11388290358238
  0
LWPOLYLINE
  5
A6
330
8F
100
AcDbEntity
  8
AM_9
100
AcDbPolyline
 90
       11
 70
     0
 43
0.0
 10
-1.623891587068157
 20
-29.95227664032804
 10
-1.510706730763236
 20
-30.02809206082605
 10
-1.265437431148172
 20
-30.16563078243221
 10
-1.004228628647899
 20
-30.27815603722391
 10
-0.7303113735480765
 20
-30.36420447599675
 10
-0.4470831509299246
 20
-30.42264916311793
 10
-0.1580540331496096
 20
-30.45270794238781
 10
0.1332000114778741
 20
-30.45394353014426
 10
0.4230761445626838
 20
-30.42626026004088
 10
0.7079564808504103
 20
-30.36990676600846
 10
0.7875060992697624
 20
-30.34873424917433
  0
ELLIPSE
  5
A7
330
8F
100
AcDbEntity
  8
AM_9
100
AcDbEllipse
 10
0.0000000000000022
 20
-28.22918278212229
 30
0.0
 11
2.568122605604376
 21
0.0
 31
0.0
210
0.0
220
0.0
230
1.0
 40
0.8660254037844406
 41
3.967571964592134
 42
5.023707118210559
  0
ELLIPSE
  5
A8
330
8F
100
AcDbEntity
  8
AM_9
100
AcDbEllipse
 10
0.0000000000000178
 20
-28.2291827821223
 30
0.0
 11
2.568122605604386
 21
0.0
 31
0.0
210
0.0
220
0.0
230
1.0
 40
0.8660254037844374
 41
5.023707118210553
 42
10.25075727177171
  0
LINE
  5
A9
330
8F
100
AcDbEntity
  8
AM_9
100
AcDbLine
 10
1.74076926641759
 20
-29.86433783864878
 30
0.0
 11
2.254510748456894
 21
-29.45414491264077
 31
0.0
  0
LINE
  5
AA
330
8F
100
AcDbEntity
  8
AM_9
100
AcDbLine
 10
-2.254510748456902
 20
-29.45414491264077
 30
0.0
 11
-1.740769266417596
 21
-29.86433783864878
 31
0.0
  0
ELLIPSE
  5
AB
330
8F
100
AcDbEntity
  8
AM_9
100
AcDbEllipse
 10
-0.0000000000000033
 20
-27.33641758286138
 30
0.0
 11
3.326035293353598
 21
0.0
 31
0.0
210
0.0
220
0.0
230
1.0
 40
0.8660254037844398
 41
5.630750499077696
 42
9.42477796076938
  0
ELLIPSE
  5
AC
330
8F
100
AcDbEntity
  8
AM_9
100
AcDbEllipse
 10
-0.0000000000005689
 20
-27.33641758286085
 30
0.0
 11
3.326035293354349
 21
0.0
 31
0.0
210
0.0
220
0.0
230
1.0
 40
0.8660254037844567
 41
5.45720599617726
 42
5.617308704202033
  0
ELLIPSE
  5
AD
330
8F
100
AcDbEntity
  8
AM_9
100
AcDbEllipse
 10
-0.000000000000032
 20
-27.3364175828614
 30
0.0
 11
3.326035293353569
 21
0.0
 31
0.0
210
0.0
220
0.0
230
1.0
 40
0.8660254037844365
 41
3.141592653589793
 42
3.970086962631226
  0
LWPOLYLINE
  5
AE
330
8F
100
AcDbEntity
  8
AM_9
100
AcDbPolyline
 90
       11
 70
     0
 43
0.0
 10
-3.405530439901163
 20
-27.14105201861674
 10
-3.398651568325255
 20
-27.33736564387352
 10
-3.361741737041856
 20
-27.63498661346927
 10
-3.293388955437814
 20
-27.92742137937372
 10
-3.194332661925775
 20
-28.2120686617448
 10
-3.065500398419528
 20
-28.4864737220433
 10
-2.908015957974239
 20
-28.74825377280139
 10
-2.72321422904256
 20
-28.99509307327596
 10
-2.512661423599948
 20
-29.22474932579441
 10
-2.27817325366219
 20
-29.43507322896014
 10
-2.248149722027383
 20
-29.45921105755546
  0
LWPOLYLINE
  5
AF
330
8F
100
AcDbEntity
  8
AM_9
100
AcDbPolyline
 90
       21
 70
     0
 43
0.0
 10
2.21771551881075
 20
-29.48310099377279
 10
2.291987509581425
 20
-29.42377182588008
 10
2.529410582230947
 20
-29.20806595228824
 10
2.742023573453451
 20
-28.97220018819709
 10
2.927681034359775
 20
-28.71865731678614
 10
3.084585997311007
 20
-28.45012702396708
 10
3.211318141886359
 20
-28.16944160043354
 10
3.306839663744534
 20
-27.87950896984452
 10
3.370480319160461
 20
-27.58325191679808
 10
3.401907316853466
 20
-27.28356001810939
 10
3.401087782430228
 20
-26.98325729591422
 10
3.36825203333368
 20
-26.68508882390535
 10
3.303897691772328
 20
-26.39183642089491
 10
3.208734639676262
 20
-26.10605058800148
 10
3.083665786053536
 20
-25.83019611389767
 10
2.929789090669686
 20
-25.56666455253796
 10
2.748411258315429
 20
-25.31778033893809
 10
2.541067671494003
 20
-25.08579601559629
 10
2.309541263096368
 20
-24.87287435396401
 10
2.055872883347075
 20
-24.68105851185377
 10
1.88616688821475
 20
-24.57217888400496
  0
LWPOLYLINE
  5
B0
330
8F
100
AcDbEntity
  8
AM_9
100
AcDbPolyline
 90
       11
 70
     0
 43
0.0
 10
-2.109529907459672
 20
-24.71853706812767
 10
-2.259836634848703
 20
-24.83222052422583
 10
-2.500272959565716
 20
-25.04517163297558
 10
-2.716197596922067
 20
-25.27858345658236
 10
-2.905423436862239
 20
-25.53000392268141
 10
-3.066106753980595
 20
-25.79676646879021
 10
-3.196778075193278
 20
-26.07605332648813
 10
-3.296350934946978
 20
-26.36496267284535
 10
-3.364109345281095
 20
-26.66057062963831
 10
-3.399679220624534
 20
-26.95998120708178
 10
-3.405530439901163
 20
-27.14105201861674
  0
LWPOLYLINE
  5
B1
330
8F
100
AcDbEntity
  8
AM_9
100
AcDbPolyline
 90
        3
 70
     0
 43
0.0
 10
-1.929373056058544
 20
-24.59857156457093
 10
-1.997370421594274
 20
-24.64191683975407
 10
-2.055662396147644
 20
-24.68091451299049
  0
ELLIPSE
  5
B2
330
8F
100
AcDbEntity
  8
AM_9
100
AcDbEllipse
 10
-0.0000000000000027
 20
-27.33641758286138
 30
0.0
 11
3.326035293353605
 21
0.0
 31
0.0
210
0.0
220
0.0
230
1.0
 40
0.8660254037844368
 41
3.970086962631225
 42
5.442917922158245
  0
ELLIPSE
  5
B3
330
8F
100
AcDbEntity
  8
AM_9
100
AcDbEllipse
 10
-0.0000000000792704
 20
-27.33641758277842
 30
0.0
 11
3.326035293471733
 21
4.956178804444871E-8
 31
0.0
210
0.0
220
0.0
230
1.0
 40
0.8660254037860652
 41
-0.8402673998419026
 42
-0.825979325884612
  0
ELLIPSE
  5
B4
330
8F
100
AcDbEntity
  8
AM_9
100
AcDbEllipse
 10
0.0000000000000011
 20
-26.92974288774642
 30
0.0
 11
3.311838226937835
 21
0.0
 31
0.0
210
0.0
220
0.0
230
1.0
 40
0.8660254037844418
 41
0.9641600723148649
 42
2.192989105044487
  0
ELLIPSE
  5
B5
330
8F
100
AcDbEntity
  8
AM_9
100
AcDbEllipse
 10
-0.00000000018083
 20
-26.92974288749191
 30
0.0
 11
3.311838226629281
 21
0.0
 31
0.0
210
0.0
220
0.0
230
1.0
 40
0.8660254037751459
 41
-4.090196202132836
 42
-4.081779957566171
  0
ELLIPSE
  5
B6
330
8F
100
AcDbEntity
  8
AM_9
100
AcDbEllipse
 10
-0.0000000000000049
 20
-24.75999999999999
 30
0.0
 11
3.499999999999998
 21
0.0
 31
0.0
210
0.0
220
0.0
230
1.0
 40
0.8660254037844355
 41
1.570796326794897
 42
3.665191429188094
  0
LWPOLYLINE
  5
B7
330
8F
100
AcDbEntity
  8
AM_9
100
AcDbPolyline
 90
        3
 70
     0
 43
0.0
 10
-3.031088913245538
 20
-23.24445554337722
 10
-2.525907427704616
 20
-22.46753626878557
 10
-2.020725942163693
 20
-21.65637028918154
  0
LWPOLYLINE
  5
B8
330
8F
100
AcDbEntity
  8
AM_9
100
AcDbPolyline
 90
        4
 70
     0
 43
0.0
 10
-2.020725942163693
 20
-21.65637028918154
 10
-1.546688894797466
 20
-21.68516585518079
 10
-0.775618166840901
 20
-21.71753523217356
 10
-0.0000000000000027
 20
-21.72891108675446
  0
ELLIPSE
  5
B9
330
8F
100
AcDbEntity
  8
AM_9
100
AcDbEllipse
 10
0.0000000000000001
 20
-24.75999999999998
 30
0.0
 11
3.499999999999992
 21
0.0
 31
0.0
210
0.0
220
0.0
230
1.0
 40
0.8660254037844358
 41
5.759586531581281
 42
7.853981633974483
  0
LWPOLYLINE
  5
BA
330
8F
100
AcDbEntity
  8
AM_9
100
AcDbPolyline
 90
        3
 70
     0
 43
0.0
 10
2.020725942163688
 20
-21.65637028918154
 10
2.523635995714039
 20
-22.46395996748303
 10
3.031088913245533
 20
-23.24445554337722
  0
LWPOLYLINE
  5
BB
330
8F
100
AcDbEntity
  8
AM_9
100
AcDbPolyline
 90
        3
 70
     0
 43
0.0
 10
-0.0000000000000027
 20
-21.72891108675446
 10
1.010362971081842
 20
-21.70976404047418
 10
2.020725942163688
 20
-21.65637028918154
  0
LINE
  5
BC
330
8F
100
AcDbEntity
  8
AM_9
100
AcDbLine
 10
-2.020725942163693
 20
-21.65637028918154
 30
0.0
 11
-2.020725942163693
 21
-21.04145188432738
 31
0.0
  0
LINE
  5
BD
330
8F
100
AcDbEntity
  8
AM_9
100
AcDbLine
 10
2.020725942163688
 20
-21.65637028918154
 30
0.0
 11
2.020725942163688
 21
-21.04145188432738
 31
0.0
  0
ELLIPSE
  5
BE
330
8F
100
AcDbEntity
  8
AM_9
100
AcDbEllipse
 10
-0.0000000000000047
 20
-26.92974288774639
 30
0.0
 11
3.31183822693781
 21
4.935023526754694E-8
 31
0.0
210
0.0
220
0.0
230
1.0
 40
0.8660254037844397
 41
3.141592638688632
 42
7.223372596758745
  0
LINE
  5
BF
330
8F
100
AcDbEntity
  8
AM_9
100
AcDbLine
 10
-1.34883883431229
 20
-24.23140282350721
 30
0.0
 11
-1.952781547999869
 21
-24.61323959605903
 31
0.0
  0
LINE
  5
C0
330
8F
100
AcDbEntity
  8
AM_9
100
AcDbLine
 10
1.952781547999864
 20
-24.61323959605903
 30
0.0
 11
1.348838834312285
 21
-24.23140282350721
 31
0.0
  0
ELLIPSE
  5
C1
330
8F
100
AcDbEntity
  8
AM_9
100
AcDbEllipse
 10
-0.0000000000000036
 20
-25.83147406692945
 30
0.0
 11
2.287575903218216
 21
0.0
 31
0.0
210
0.0
220
0.0
230
1.0
 40
0.8660254037844357
 41
0.9401873039794832
 42
2.339542154421765
  0
ELLIPSE
  5
C2
330
8F
100
AcDbEntity
  8
AM_9
100
AcDbEllipse
 10
0.000000000000004
 20
-25.83147406692945
 30
0.0
 11
2.28757590321823
 21
0.0
 31
0.0
210
0.0
220
0.0
230
1.0
 40
0.8660254037844382
 41
2.554671871331256
 42
3.141592653589793
  0
ELLIPSE
  5
C3
330
8F
100
AcDbEntity
  8
AM_9
100
AcDbEllipse
 10
-0.000000000000649
 20
-26.92974288778084
 30
0.0
 11
3.311838226938709
 21
0.0
 31
0.0
210
0.0
220
0.0
230
1.0
 40
0.8660254037927757
 41
0.9401873039818254
 42
0.9641600723170394
  0
ELLIPSE
  5
C4
330
8F
100
AcDbEntity
  8
AM_9
100
AcDbEllipse
 10
0.0000000000000031
 20
-26.92974288774638
 30
0.0
 11
3.311838226937815
 21
4.935023526754701E-8
 31
0.0
210
0.0
220
0.0
230
1.0
 40
0.8660254037844384
 41
2.201405335209984
 42
3.141592638688632
  0
ELLIPSE
  5
C5
330
8F
100
AcDbEntity
  8
AM_9
100
AcDbEllipse
 10
-0.0000000000000027
 20
-25.26661154546584
 30
0.0
 11
-2.486776909068323
 21
3.045423381884070E-16
 31
0.0
210
0.0
220
0.0
230
1.0
 40
0.8660254037844384
 41
0.0
 42
6.283185307179586
  0
ELLIPSE
  5
C6
330
8F
100
AcDbEntity
  8
AM_9
100
AcDbEllipse
 10
0.0000000000008589
 20
-25.83147406692592
 30
0.0
 11
2.287575903216872
 21
0.0
 31
0.0
210
0.0
220
0.0
230
1.0
 40
0.8660254037835498
 41
0.8575758776982694
 42
0.9401873039792255
  0
ELLIPSE
  5
C7
330
8F
100
AcDbEntity
  8
AM_9
100
AcDbEllipse
 10
-0.0000000000000036
 20
-25.83147406692946
 30
0.0
 11
2.287575903218223
 21
0.0
 31
0.0
210
0.0
220
0.0
230
1.0
 40
0.866025403784439
 41
4.863043857897205
 42
6.919933025413326
  0
ELLIPSE
  5
C8
330
8F
100
AcDbEntity
  8
AM_9
100
AcDbEllipse
 10
-0.0000000000000064
 20
-25.83147406692931
 30
0.0
 11
2.287575903218506
 21
0.0
 31
0.0
210
0.0
220
0.0
230
1.0
 40
0.8660254037843927
 41
3.141592653589793
 42
4.863043857897188
  0
LWPOLYLINE
  5
C9
330
8F
100
AcDbEntity
  8
AM_9
100
AcDbPolyline
 90
       10
 70
     0
 43
0.0
 10
-2.193883690254874
 20
-25.6201649360591
 10
-2.191300841862893
 20
-25.53528578576756
 10
-2.162308884393327
 20
-25.32427819490232
 10
-2.101317641336226
 20
-25.11677324957728
 10
-2.009784700308666
 20
-24.91721901454885
 10
-1.889837787386333
 20
-24.72883649181182
 10
-1.743682541675826
 20
-24.55395805588227
 10
-1.573485827990795
 20
-24.39454136124655
 10
-1.381503743333601
 20
-24.25245917369027
 10
-1.333434229932621
 20
-24.22175141467802
  0
LWPOLYLINE
  5
CA
330
8F
100
AcDbEntity
  8
AM_9
100
AcDbPolyline
 90
       36
 70
     0
 43
0.0
 10
1.38940739772401
 20
-24.25767777174993
 10
1.47315957217641
 20
-24.31612509004806
 10
1.650958539324986
 20
-24.46244221671696
 10
1.806019327753536
 20
-24.62317334253019
 10
1.936811231800187
 20
-24.79620292713835
 10
2.042116203985383
 20
-24.97967101131113
 10
2.120835649139725
 20
-25.17206025917333
 10
2.171736077882907
 20
-25.3721134803817
 10
2.193259703200049
 20
-25.57843704694185
 10
2.183676728607012
 20
-25.78876600232427
 10
2.141896925742551
 20
-25.99902603013971
 10
2.068565325475654
 20
-26.20383981755381
 10
1.965499054717212
 20
-26.39928807393323
 10
1.834899891737581
 20
-26.58256423372242
 10
1.678951218001639
 20
-26.75153795866223
 10
1.499836087039779
 20
-26.90430408866755
 10
1.299887731213754
 20
-27.03900000615127
 10
1.081707106586592
 20
-27.15381294867755
 10
0.8482133033990072
 20
-27.2470643038375
 10
0.6026383354458982
 20
-27.31730834420007
 10
0.3484838821240447
 20
-27.36341959912546
 10
0.0894538409993702
 20
-27.38466027059918
 10
-0.1706277749158771
 20
-27.38072581177085
 10
-0.427902152876669
 20
-27.35176968620393
 10
-0.6785511225272983
 20
-27.29841354366743
 10
-0.9189358249800142
 20
-27.22172494976985
 10
-1.145660832262162
 20
-27.12317930373262
 10
-1.355659836440192
 20
-27.00459711431781
 10
-1.546266272211049
 20
-26.86805326413718
 10
-1.715257627019019
 20
-26.71575722822091
 10
-1.860857758313686
 20
-26.54990760808279
 10
-1.981677435412012
 20
-26.37253473830034
 10
-2.07657377374245
 20
-26.18536670492222
 10
-2.144425891315433
 20
-25.98979354301422
 10
-2.183882960547117
 20
-25.78705755002741
 10
-2.193883690254874
 20
-25.6201649360591
  0
LWPOLYLINE
  5
CB
330
8F
100
AcDbEntity
  8
AM_9
100
AcDbPolyline
 90
        3
 70
     0
 43
0.0
 10
-2.020725942163693
 20
-21.04145188432738
 10
-2.523635995714045
 20
-21.74259236667694
 10
-3.031088913245538
 20
-22.48445554337723
  0
LWPOLYLINE
  5
CC
330
8F
100
AcDbEntity
  8
AM_9
100
AcDbPolyline
 90
        4
 70
     0
 43
0.0
 10
-0.0000000000000027
 20
-20.96891108675446
 10
-0.773344447398734
 20
-20.98022112681698
 10
-1.546688894797466
 20
-21.01265631832813
 10
-2.020725942163693
 20
-21.04145188432738
  0
LWPOLYLINE
  5
CD
330
8F
100
AcDbEntity
  8
AM_9
100
AcDbPolyline
 90
        3
 70
     0
 43
0.0
 10
3.031088913245533
 20
-22.48445554337723
 10
2.525907427704611
 20
-21.74583036134612
 10
2.020725942163688
 20
-21.04145188432738
  0
LINE
  5
CE
330
8F
100
AcDbEntity
  8
AM_9
100
AcDbLine
 10
0.1387673238929151
 20
-20.96927949409189
 30
0.0
 11
-0.0000000000000027
 21
-20.96891108675446
 31
0.0
  0
LWPOLYLINE
  5
CF
330
8F
100
AcDbEntity
  8
AM_9
100
AcDbPolyline
 90
        3
 70
     0
 43
0.0
 10
2.020725942163688
 20
-21.04145188432738
 10
1.014905835062985
 20
-20.98822728635142
 10
0.1387673238929151
 20
-20.96927949409189
  0
LWPOLYLINE
  5
D0
330
8F
100
AcDbEntity
  8
AM_9
100
AcDbPolyline
 90
        3
 70
     0
 43
0.0
 10
-4.041451884327382
 20
-24.68745920242708
 10
-3.538541830777032
 20
-23.98631872007751
 10
-3.031088913245538
 20
-23.24445554337722
  0
LWPOLYLINE
  5
D1
330
8F
100
AcDbEntity
  8
AM_9
100
AcDbPolyline
 90
        3
 70
     0
 43
0.0
 10
3.031088913245533
 20
-23.24445554337722
 10
3.536270398786455
 20
-23.98308072540834
 10
4.041451884327378
 20
-24.68745920242708
  0
ELLIPSE
  5
D2
330
8F
100
AcDbEntity
  8
AM_9
100
AcDbEllipse
 10
-0.0000000000000138
 20
-24.76
 30
0.0
 11
3.500000000000016
 21
5.215406417846705E-8
 31
0.0
210
0.0
220
0.0
230
1.0
 40
0.8660254037844348
 41
4.712388967479908
 42
5.759586515450307
  0
ELLIPSE
  5
D3
330
8F
100
AcDbEntity
  8
AM_9
100
AcDbEllipse
 10
0.0000000000000078
 20
-24.75999999999999
 30
0.0
 11
3.500000000000015
 21
0.0
 31
0.0
210
0.0
220
0.0
230
1.0
 40
0.8660254037844352
 41
3.665191429188091
 42
4.71238898038469
  0
LWPOLYLINE
  5
D4
330
8F
100
AcDbEntity
  8
AM_9
100
AcDbPolyline
 90
        3
 70
     0
 43
0.0
 10
-3.031088913245538
 20
-22.48445554337723
 10
-3.536270398786461
 20
-23.26137481796889
 10
-4.041451884327382
 20
-24.07254079757291
  0
LWPOLYLINE
  5
D5
330
8F
100
AcDbEntity
  8
AM_9
100
AcDbPolyline
 90
        3
 70
     0
 43
0.0
 10
4.041451884327378
 20
-24.07254079757291
 10
3.538541830777026
 20
-23.26495111927143
 10
3.031088913245533
 20
-22.48445554337723
  0
ELLIPSE
  5
D6
330
8F
100
AcDbEntity
  8
AM_9
100
AcDbEllipse
 10
0.0000000000000049
 20
-23.99999999999998
 30
0.0
 11
3.500000000000006
 21
5.215406417846690E-8
 31
0.0
210
0.0
220
0.0
230
1.0
 40
0.8660254037844404
 41
3.907213309348771
 42
4.712388967479903
  0
ELLIPSE
  5
D7
330
8F
100
AcDbEntity
  8
AM_9
100
AcDbEllipse
 10
-0.0000000000000484
 20
-24.00000000000025
 30
0.0
 11
3.499999999999945
 21
0.0
 31
0.0
210
0.0
220
0.0
230
1.0
 40
0.8660254037843977
 41
3.665191429188045
 42
3.907213324489375
  0
ELLIPSE
  5
D8
330
8F
100
AcDbEntity
  8
AM_9
100
AcDbEllipse
 10
-0.0000000000001128
 20
-23.99999999998507
 30
0.0
 11
3.500000000001258
 21
0.0
 31
0.0
210
0.0
220
0.0
230
1.0
 40
0.8660254037798655
 41
4.71238898038469
 42
8.901179185173042
  0
ELLIPSE
  5
D9
330
8F
100
AcDbEntity
  8
AM_9
100
AcDbEllipse
 10
0.000000000000004
 20
-23.99999999999999
 30
0.0
 11
3.500000000000007
 21
0.0
 31
0.0
210
0.0
220
0.0
230
1.0
 40
0.8660254037844382
 41
2.617993877991496
 42
3.665191429188091
  0
LINE
  5
DA
330
8F
100
AcDbEntity
  8
AM_9
100
AcDbLine
 10
4.041451884327378
 20
-24.68745920242708
 30
0.0
 11
4.041451884327378
 21
-24.07254079757291
 31
0.0
  0
LWPOLYLINE
  5
DB
330
8F
100
AcDbEntity
  8
AM_9
100
AcDbPolyline
 90
        3
 70
     0
 43
0.0
 10
3.031088913245533
 20
-25.51554445662276
 10
3.536270398786455
 20
-24.77691927459165
 10
4.041451884327378
 20
-24.07254079757291
  0
LWPOLYLINE
  5
DC
330
8F
100
AcDbEntity
  8
AM_9
100
AcDbPolyline
 90
        3
 70
     0
 43
0.0
 10
2.020725942163688
 20
-27.10362971081844
 10
2.52363599571404
 20
-26.29604003251696
 10
3.031088913245533
 20
-25.51554445662276
  0
LWPOLYLINE
  5
DD
330
8F
100
AcDbEntity
  8
AM_9
100
AcDbPolyline
 90
        3
 70
     0
 43
0.0
 10
3.031088913245533
 20
-26.27554445662276
 10
2.525907427704611
 20
-27.01416963865387
 10
2.020725942163688
 20
-27.71854811567261
  0
LWPOLYLINE
  5
DE
330
8F
100
AcDbEntity
  8
AM_9
100
AcDbPolyline
 90
        3
 70
     0
 43
0.0
 10
4.041451884327378
 20
-24.68745920242708
 10
3.538541830777026
 20
-25.49504888072856
 10
3.031088913245533
 20
-26.27554445662276
  0
LINE
  5
DF
330
8F
100
AcDbEntity
  8
AM_9
100
AcDbLine
 10
2.020725942163688
 20
-27.71854811567261
 30
0.0
 11
2.020725942163688
 21
-27.10362971081844
 31
0.0
  0
LWPOLYLINE
  5
E0
330
8F
100
AcDbEntity
  8
AM_9
100
AcDbPolyline
 90
        3
 70
     0
 43
0.0
 10
-0.0000000000000024
 20
-27.03108891324553
 10
1.010362971081843
 20
-27.0502359595258
 10
2.020725942163688
 20
-27.10362971081844
  0
LWPOLYLINE
  5
E1
330
8F
100
AcDbEntity
  8
AM_9
100
AcDbPolyline
 90
        4
 70
     0
 43
0.0
 10
-2.020725942163693
 20
-27.10362971081844
 10
-1.546688894797465
 20
-27.0748341448192
 10
-0.7756181668409007
 20
-27.04246476782643
 10
-0.0000000000000024
 20
-27.03108891324553
  0
LWPOLYLINE
  5
E2
330
8F
100
AcDbEntity
  8
AM_9
100
AcDbPolyline
 90
        4
 70
     0
 43
0.0
 10
-0.0000000000000025
 20
-27.79108891324553
 10
-0.773344447398734
 20
-27.779778873183
 10
-1.546688894797466
 20
-27.74734368167186
 10
-2.020725942163693
 20
-27.71854811567261
  0
LWPOLYLINE
  5
E3
330
8F
100
AcDbEntity
  8
AM_9
100
AcDbPolyline
 90
        3
 70
     0
 43
0.0
 10
2.020725942163688
 20
-27.71854811567261
 10
1.014905835062985
 20
-27.77177271364857
 10
-0.0000000000000025
 20
-27.79108891324553
  0
LINE
  5
E4
330
8F
100
AcDbEntity
  8
AM_9
100
AcDbLine
 10
-2.020725942163693
 20
-27.71854811567261
 30
0.0
 11
-2.020725942163693
 21
-27.10362971081844
 31
0.0
  0
LINE
  5
E5
330
8F
100
AcDbEntity
  8
AM_9
100
AcDbLine
 10
-2.523327369691204
 20
-26.29652600892416
 30
0.0
 11
-2.020725942163693
 21
-27.10362971081844
 31
0.0
  0
LINE
  5
E6
330
8F
100
AcDbEntity
  8
AM_9
100
AcDbLine
 10
-3.031088913245539
 20
-25.51554445662276
 30
0.0
 11
-2.523327369691204
 21
-26.29652600892416
 31
0.0
  0
LWPOLYLINE
  5
E7
330
8F
100
AcDbEntity
  8
AM_9
100
AcDbPolyline
 90
        3
 70
     0
 43
0.0
 10
-4.041451884327382
 20
-24.07254079757291
 10
-3.538541830777032
 20
-24.77368127992248
 10
-3.031088913245539
 20
-25.51554445662276
  0
LINE
  5
E8
330
8F
100
AcDbEntity
  8
AM_9
100
AcDbLine
 10
-4.041451884327382
 20
-24.68745920242708
 30
0.0
 11
-4.041451884327382
 21
-24.07254079757291
 31
0.0
  0
LWPOLYLINE
  5
E9
330
8F
100
AcDbEntity
  8
AM_9
100
AcDbPolyline
 90
        3
 70
     0
 43
0.0
 10
-3.031088913245538
 20
-26.27554445662276
 10
-3.536270398786461
 20
-25.4986251820311
 10
-4.041451884327382
 20
-24.68745920242708
  0
LWPOLYLINE
  5
EA
330
8F
100
AcDbEntity
  8
AM_9
100
AcDbPolyline
 90
        3
 70
     0
 43
0.0
 10
-2.020725942163693
 20
-27.71854811567261
 10
-2.523635995714045
 20
-27.01740763332304
 10
-3.031088913245538
 20
-26.27554445662276
  0
ELLIPSE
  5
EB
330
8F
100
AcDbEntity
  8
AM_9
100
AcDbEllipse
 10
-0.0000000000000087
 20
-23.99999999999999
 30
0.0
 11
2.954751686640448
 21
0.0
 31
0.0
210
0.0
220
0.0
230
1.0
 40
0.8660254037844382
 41
3.141592653589793
 42
6.33734106773997
  0
LINE
  5
EC
330
8F
100
AcDbEntity
  8
AM_9
100
AcDbLine
 10
-2.799677745749697
 20
-21.45327207173991
 30
0.0
 11
-2.950419829092162
 21
-23.8614890930169
 31
0.0
  0
LINE
  5
ED
330
8F
100
AcDbEntity
  8
AM_9
100
AcDbLine
 10
2.950419829092157
 20
-23.8614890930169
 30
0.0
 11
2.799677745749693
 21
-21.45327207173991
 31
0.0
  0
ELLIPSE
  5
EE
330
8F
100
AcDbEntity
  8
AM_9
100
AcDbEllipse
 10
-0.0000000000000024
 20
-24.0
 30
0.0
 11
2.954751686640454
 21
0.0
 31
0.0
210
0.0
220
0.0
230
1.0
 40
0.866025403784439
 41
0.0541557605603833
 42
3.141592653589793
  0
ELLIPSE
  5
EF
330
8F
100
AcDbEntity
  8
AM_9
100
AcDbEllipse
 10
-0.0000000000000023
 20
-21.45999999999999
 30
0.0
 11
-2.55437585025611
 21
3.128208208835444E-16
 31
0.0
210
0.0
220
0.0
230
1.0
 40
0.8660254037844387
 41
0.0
 42
6.283185307179586
  0
ELLIPSE
  5
F0
330
8F
100
AcDbEntity
  8
AM_9
100
AcDbEllipse
 10
-0.000000000000002
 20
-21.58470621545074
 30
0.0
 11
2.803788281157611
 21
0.0
 31
0.0
210
0.0
220
0.0
230
1.0
 40
0.8660254037844319
 41
0.0
 42
6.283185307179586
  0
ENDBLK
  5
92
330
8F
100
AcDbEntity
  8
0
100
AcDbBlockEnd
  0
BLOCK
  5
F3
330
F1
100
AcDbEntity
  8
0
100
AcDbBlockBegin
  2
3_125874_0_in_136982_2
 70
     2
 10
0.0
 20
0.0
 30
0.0
  3
3_125874_0_in_136982_2
  1

  0
ATTDEF
  5
F5
330
F1
100
AcDbEntity
  8
AM_6
100
AcDbText
 10
19.7
 20
30.98953406218504
 30
0.0
 40
0.5
  1
Set Screw Insert Metric Bore - Corrosion Resistant
100
AcDbAttributeDefinition
  3

  2
NN
 70
     8
280
     0
  0
ATTDEF
  5
F6
330
F1
100
AcDbEntity
  8
AM_6
100
AcDbText
 10
19.7
 20
30.48953406218504
 30
0.0
 40
0.5
  1
SC Bearing Insert -Metric
100
AcDbAttributeDefinition
  3

  2
NT
 70
     8
280
     0
  0
ATTDEF
  5
F7
330
F1
100
AcDbEntity
  8
AM_6
100
AcDbText
 10
19.7
 20
29.98953406218504
 30
0.0
 40
0.5
  1
125874
100
AcDbAttributeDefinition
  3

  2
NB
 70
     8
280
     0
  0
ATTDEF
  5
F8
330
F1
100
AcDbEntity
  8
AM_6
100
AcDbText
 10
19.7
 20
29.48953406218504
 30
0.0
 40
0.5
  1
$PN.
100
AcDbAttributeDefinition
  3

  2
NBSYN
 70
     8
280
     0
  0
ATTDEF
  5
F9
330
F1
100
AcDbEntity
  8
AM_6
100
AcDbText
 10
19.7
 20
28.98953406218504
 30
0.0
 40
0.5
  1
125874
100
AcDbAttributeDefinition
  3

  2
LINA
 70
     8
280
     0
  0
ATTDEF
  5
FA
330
F1
100
AcDbEntity
  8
AM_6
100
AcDbText
 10
19.7
 20
28.48953406218504
 30
0.0
 40
0.5
  1
206
100
AcDbAttributeDefinition
  3

  2
SERIES
 70
     8
280
     0
  0
ATTDEF
  5
FB
330
F1
100
AcDbEntity
  8
AM_6
100
AcDbText
 10
19.7
 20
27.98953406218504
 30
0.0
 40
0.5
  1
30
100
AcDbAttributeDefinition
  3

  2
SS
 70
     8
280
     0
  0
ATTDEF
  5
FC
330
F1
100
AcDbEntity
  8
AM_6
100
AcDbText
 10
19.7
 20
27.48953406218504
 30
0.0
 40
0.5
  1
125874
100
AcDbAttributeDefinition
  3

  2
PN
 70
     8
280
     0
  0
ATTDEF
  5
FD
330
F1
100
AcDbEntity
  8
AM_6
100
AcDbText
 10
19.7
 20
26.98953406218504
 30
0.0
 40
0.5
  1
INS-SC-30M-CR
100
AcDbAttributeDefinition
  3

  2
DESCRIPTION
 70
     8
280
     0
  0
ATTDEF
  5
FE
330
F1
100
AcDbEntity
  8
AM_6
100
AcDbText
 10
19.7
 20
26.48953406218504
 30
0.0
 40
0.5
  1
38.6
100
AcDbAttributeDefinition
  3

  2
A
 70
     8
280
     0
  0
ATTDEF
  5
FF
330
F1
100
AcDbEntity
  8
AM_6
100
AcDbText
 10
19.7
 20
25.98953406218504
 30
0.0
 40
0.5
  1
17.5
100
AcDbAttributeDefinition
  3

  2
C
 70
     8
280
     0
  0
ATTDEF
  5
100
330
F1
100
AcDbEntity
  8
AM_6
100
AcDbText
 10
19.7
 20
25.48953406218504
 30
0.0
 40
0.5
  1
62
100
AcDbAttributeDefinition
  3

  2
D
 70
     8
280
     0
  0
ATTDEF
  5
101
330
F1
100
AcDbEntity
  8
AM_6
100
AcDbText
 10
19.7
 20
24.98953406218504
 30
0.0
 40
0.5
  1
4.1
100
AcDbAttributeDefinition
  3

  2
J
 70
     8
280
     0
  0
ATTDEF
  5
102
330
F1
100
AcDbEntity
  8
AM_6
100
AcDbText
 10
19.7
 20
24.48953406218504
 30
0.0
 40
0.5
  1
39.9
100
AcDbAttributeDefinition
  3

  2
L
 70
     8
280
     0
  0
ATTDEF
  5
103
330
F1
100
AcDbEntity
  8
AM_6
100
AcDbText
 10
19.7
 20
23.98953406218504
 30
0.0
 40
0.5
  1
M8 x 1.25
100
AcDbAttributeDefinition
  3

  2
N
 70
     8
280
     0
  0
ATTDEF
  5
104
330
F1
100
AcDbEntity
  8
AM_6
100
AcDbText
 10
19.7
 20
23.48953406218504
 30
0.0
 40
0.5
  1
14.7
100
AcDbAttributeDefinition
  3

  2
W
 70
     8
280
     0
  0
ATTDEF
  5
105
330
F1
100
AcDbEntity
  8
AM_6
100
AcDbText
 10
19.7
 20
22.98953406218504
 30
0.0
 40
0.5
  1
23.9
100
AcDbAttributeDefinition
  3

  2
Y
 70
     8
280
     0
  0
ATTDEF
  5
106
330
F1
100
AcDbEntity
  8
AM_6
100
AcDbText
 10
19.7
 20
22.48953406218504
 30
0.0
 40
0.5
  1
baldor
100
AcDbAttributeDefinition
  3

  2
COMPANY
 70
     8
280
     0
  0
ELLIPSE
  5
107
330
F1
100
AcDbEntity
  8
AM_9
100
AcDbEllipse
 10
-16.32500000000003
 20
8.374343243719347
 30
0.0
 11
4.000000000000021
 21
0.0
 31
0.0
210
0.0
220
0.0
230
1.0
 40
0.9063077870366509
 41
0.0
 42
0.6167859755887548
  0
LINE
  5
108
330
F1
100
AcDbEntity
  8
AM_9
100
AcDbLine
 10
-12.325
 20
8.374343243719363
 30
0.0
 11
-12.325
 21
8.431234321726967
 31
0.0
  0
ELLIPSE
  5
109
330
F1
100
AcDbEntity
  8
AM_9
100
AcDbEllipse
 10
-16.325
 20
8.374343243719379
 30
0.0
 11
3.999999999999993
 21
0.0
 31
0.0
210
0.0
220
0.0
230
1.0
 40
0.9063077870366507
 41
5.666399331590823
 42
6.283185307179586
  0
LINE
  5
10A
330
F1
100
AcDbEntity
  8
AM_9
100
AcDbLine
 10
-12.32500001908196
 20
8.431588425229858
 30
0.0
 11
-12.32803736238592
 21
8.57222642311907
 31
0.0
  0
ELLIPSE
  5
10B
330
F1
100
AcDbEntity
  8
AM_9
100
AcDbEllipse
 10
-16.32500000000002
 20
8.374343243719375
 30
0.0
 11
3.999999999999984
 21
0.0
 31
0.0
210
0.0
220
0.0
230
1.0
 40
0.9063077870366507
 41
2.524806678001037
 42
3.758378629178558
  0
LINE
  5
10C
330
F1
100
AcDbEntity
  8
AM_9
100
AcDbLine
 10
-20.325
 20
8.431234321726965
 30
0.0
 11
-20.325
 21
8.37434324371936
 31
0.0
  0
LINE
  5
10D
330
F1
100
AcDbEntity
  8
AM_9
100
AcDbLine
 10
-19.6509344029264
 20
6.364771769506193
 30
0.0
 11
-19.58796684391085
 21
6.277450315766231
 31
0.0
  0
LWPOLYLINE
  5
10E
330
F1
100
AcDbEntity
  8
AM_9
100
AcDbPolyline
 90
        6
 70
     0
 43
0.0
 10
-20.32499998091804
 20
8.430880214990232
 10
-20.31946157404379
 20
8.240059709491716
 10
-20.22963356529151
 20
7.637978491342691
 10
-20.03385676984984
 20
7.049665123208258
 10
-19.83448611685166
 20
6.652867736634724
 10
-19.6509344029264
 20
6.364771769506193
  0
ELLIPSE
  5
10F
330
F1
100
AcDbEntity
  8
AM_9
100
AcDbEllipse
 10
-16.32500000000003
 20
8.088441989651713
 30
0.0
 11
3.323499999999971
 21
0.0
 31
0.0
210
0.0
220
0.0
230
1.0
 40
0.9063077870366469
 41
3.141592653589793
 42
3.439537772706879
  0
ELLIPSE
  5
110
330
F1
100
AcDbEntity
  8
AM_9
100
AcDbEllipse
 10
-16.325
 20
8.08844198965178
 30
0.0
 11
3.323500000000008
 21
4.952400922775281E-8
 31
0.0
210
0.0
220
0.0
230
1.0
 40
0.9063077870366487
 41
3.439537756518344
 42
4.71238896687965
  0
ELLIPSE
  5
111
330
F1
100
AcDbEntity
  8
AM_9
100
AcDbEllipse
 10
-16.32500000000001
 20
6.281304348972316
 30
0.0
 11
3.323500000000003
 21
0.0
 31
0.0
210
0.0
220
0.0
230
1.0
 40
0.9063077870366493
 41
3.796353787320751
 42
5.62842417344863
  0
LINE
  5
112
330
F1
100
AcDbEntity
  8
AM_9
100
AcDbLine
 10
-13.0015
 20
6.338918189995403
 30
0.0
 11
-13.0015
 21
8.088441989651777
 31
0.0
  0
LINE
  5
113
330
F1
100
AcDbEntity
  8
AM_9
100
AcDbLine
 10
-19.6485
 20
8.088441989651775
 30
0.0
 11
-19.6485
 21
6.338918189995402
 31
0.0
  0
ELLIPSE
  5
114
330
F1
100
AcDbEntity
  8
AM_9
100
AcDbEllipse
 10
-16.325
 20
8.088441989651773
 30
0.0
 11
3.323499999999997
 21
0.0
 31
0.0
210
0.0
220
0.0
230
1.0
 40
0.9063077870366504
 41
4.71238898038469
 42
9.42477796076938
  0
LWPOLYLINE
  5
115
330
F1
100
AcDbEntity
  8
AM_9
100
AcDbPolyline
 90
        6
 70
     0
 43
0.0
 10
-19.64849998942161
 20
6.339514250154439
 10
-19.64813365782634
 20
6.383961503258155
 10
-19.59435429353366
 20
6.874041026567063
 10
-19.45225098713041
 20
7.341143512374083
 10
-19.24113940438187
 20
7.747843990494541
 10
-18.96117830834305
 20
8.11559074721436
  0
LWPOLYLINE
  5
116
330
F1
100
AcDbEntity
  8
AM_9
100
AcDbPolyline
 90
        6
 70
     0
 43
0.0
 10
-13.0015000105784
 20
6.339033600085463
 10
-13.00186634217367
 20
6.294517745373934
 10
-13.05564570646635
 20
5.794396234379506
 10
-13.1977490128696
 20
5.301686355970142
 10
-13.40886059561814
 20
4.858872625503723
 10
-13.68882169165696
 20
4.44701795073026
  0
ELLIPSE
  5
117
330
F1
100
AcDbEntity
  8
AM_9
100
AcDbEllipse
 10
4.099999999999999
 20
-29.45500307869112
 30
0.0
 11
-0.1590909090909109
 21
1.948301725916266E-17
 31
0.0
210
0.0
220
0.0
230
1.0
 40
0.4226182617407082
 41
0.0
 42
6.283185307179586
  0
LWPOLYLINE
  5
118
330
F1
100
AcDbEntity
  8
AM_9
100
AcDbPolyline
 90
       27
 70
     0
 43
0.0
 10
2.35000003592371
 20
-28.01349087384701
 10
2.35583438453433
 20
-28.15048865569263
 10
2.390157031257627
 20
-28.37157075583576
 10
2.452281007284509
 20
-28.5796738858742
 10
2.53887000264548
 20
-28.77247748377352
 10
2.646669533116395
 20
-28.9481793888873
 10
2.772571526079498
 20
-29.10550316840546
 10
2.9137331256063
 20
-29.24369189505727
 10
3.067761829183404
 20
-29.36247929172965
 10
3.232991244492295
 20
-29.46201635112127
 10
3.408865485259351
 20
-29.54270334865867
 10
3.596357439669503
 20
-29.6048254629233
 10
3.797981961911062
 20
-29.64785411557032
 10
4.016397369247432
 20
-29.66951573903516
 10
4.251726499552049
 20
-29.66542648745191
 10
4.478241902018821
 20
-29.63429927362065
 10
4.694315334943885
 20
-29.57762415487366
 10
4.894767201070111
 20
-29.49802953276581
 10
5.080724658547607
 20
-29.39628661262979
 10
5.252008987862055
 20
-29.2726459955675
 10
5.406715851999234
 20
-29.12793811626465
 10
5.542192511077346
 20
-28.96380397304772
 10
5.65570800306136
 20
-28.78262738013959
 10
5.744820519700757
 20
-28.58738384396003
 10
5.807560791469216
 20
-28.38148531611929
 10
5.84251747475987
 20
-28.16864281284115
 10
5.849999904886479
 20
-28.01370479388361
  0
ELLIPSE
  5
119
330
F1
100
AcDbEntity
  8
AM_9
100
AcDbEllipse
 10
-16.325
 20
6.28130434897232
 30
0.0
 11
3.323499999999992
 21
4.952400922775257E-8
 31
0.0
210
0.0
220
0.0
230
1.0
 40
0.9063077870366503
 41
0.6547611183783504
 42
2.486831504506242
  0
ELLIPSE
  5
11A
330
F1
100
AcDbEntity
  8
AM_9
100
AcDbEllipse
 10
4.099999999999999
 20
-28.01314978113281
 30
0.0
 11
1.750000000000002
 21
2.607703208923344E-8
 31
0.0
210
0.0
220
0.0
230
1.0
 40
0.4226182617406982
 41
1.570796326794897
 42
3.141592620269783
  0
LINE
  5
11B
330
F1
100
AcDbEntity
  8
AM_9
100
AcDbLine
 10
5.850000000000001
 20
-28.01314978113281
 30
0.0
 11
5.850000000000001
 21
-27.40328302118834
 31
0.0
  0
LINE
  5
11C
330
F1
100
AcDbEntity
  8
AM_9
100
AcDbLine
 10
2.349999999999997
 20
-27.98451100282296
 30
0.0
 11
2.349999999999997
 21
-28.01314978113281
 31
0.0
  0
LWPOLYLINE
  5
11D
330
F1
100
AcDbEntity
  8
AM_9
100
AcDbPolyline
 90
       21
 70
     0
 43
0.0
 10
5.849999995195222
 20
-27.40215649942535
 10
5.846707666430875
 20
-27.35874742965403
 10
5.805606280473003
 20
-27.24504750805512
 10
5.718016210572679
 20
-27.14541948018692
 10
5.587184050507746
 20
-27.06153236235957
 10
5.414693219446288
 20
-26.99506796733714
 10
5.207136391674994
 20
-26.94803405058344
 10
4.965318148125838
 20
-26.92124242429536
 10
4.699955119520155
 20
-26.91581335650483
 10
4.413010135014158
 20
-26.93233678354735
 10
4.117184894131348
 20
-26.9701864920741
 10
3.818187034397407
 20
-27.02911920704312
 10
3.526992096978376
 20
-27.10708363618645
 10
3.253085493455324
 20
-27.20197626816315
 10
3.003312687365981
 20
-27.31137087425851
 10
2.787959912241049
 20
-27.43112355820861
 10
2.610002466126453
 20
-27.55913491317369
 10
2.477114638204093
 20
-27.69014422426815
 10
2.389960321289514
 20
-27.82227561835097
 10
2.35208905178432
 20
-27.95040701832949
 10
2.350000009735905
 20
-27.98516650861978
  0
LWPOLYLINE
  5
11E
330
F1
100
AcDbEntity
  8
AM_9
100
AcDbPolyline
 90
       15
 70
     0
 43
0.0
 10
2.350000009735905
 20
-27.98516650861978
 10
2.362732997723509
 20
-28.07244567463299
 10
2.421852982495757
 20
-28.18425254536652
 10
2.526915434210971
 20
-28.28336672165849
 10
2.675788507427619
 20
-28.36687471844865
 10
2.863290416874399
 20
-28.43230620762392
 10
3.086575797580771
 20
-28.47777937068023
 10
3.337252102880836
 20
-28.50155263970237
 10
3.612265891960385
 20
-28.50245998999113
 10
3.900450890707135
 20
-28.48029690336485
 10
4.197840750831405
 20
-28.43460594322956
 10
4.492310213016379
 20
-28.36714913079168
 10
4.777621746869701
 20
-28.27883795430799
 10
5.043565547106018
 20
-28.17297736914323
 10
5.348874673556811
 20
-28.01319863257457
  0
ELLIPSE
  5
11F
330
F1
100
AcDbEntity
  8
AM_9
100
AcDbEllipse
 10
4.099999999999999
 20
-28.01314978113281
 30
0.0
 11
1.750000000000002
 21
2.607703208923344E-8
 31
0.0
210
0.0
220
0.0
230
1.0
 40
0.4226182617406982
 41
3.141592620269783
 42
7.853981633974483
  0
LINE
  5
120
330
F1
100
AcDbEntity
  8
AM_9
100
AcDbLine
 10
-12.32500000000001
 20
19.81538424115118
 30
0.0
 11
-12.32500000000001
 21
19.94752903991954
 31
0.0
  0
LINE
  5
121
330
F1
100
AcDbEntity
  8
AM_9
100
AcDbLine
 10
-20.325
 20
19.94752903991955
 30
0.0
 11
-20.325
 21
19.81538424115118
 31
0.0
  0
LINE
  5
122
330
F1
100
AcDbEntity
  8
AM_9
100
AcDbLine
 10
-13.06203315608914
 20
19.81538424115118
 30
0.0
 11
-12.32500000000001
 21
19.81538424115118
 31
0.0
  0
LINE
  5
123
330
F1
100
AcDbEntity
  8
AM_9
100
AcDbLine
 10
-13.0015
 20
19.13888424115118
 30
0.0
 11
-12.32500000000001
 21
19.81538424115118
 31
0.0
  0
LINE
  5
124
330
F1
100
AcDbEntity
  8
AM_9
100
AcDbLine
 10
-20.325
 20
19.81538424115118
 30
0.0
 11
-19.6485
 21
19.13888424115118
 31
0.0
  0
LINE
  5
125
330
F1
100
AcDbEntity
  8
AM_9
100
AcDbLine
 10
-20.325
 20
19.81538424115118
 30
0.0
 11
-19.58796684391087
 21
19.81538424115118
 31
0.0
  0
LINE
  5
126
330
F1
100
AcDbEntity
  8
AM_9
100
AcDbLine
 10
-18.96117830834307
 20
14.86283229480097
 30
0.0
 11
-13.68882169165694
 21
14.86283229480097
 31
0.0
  0
LINE
  5
127
330
F1
100
AcDbEntity
  8
AM_9
100
AcDbLine
 10
-13.0015
 20
15.0
 30
0.0
 11
-13.0015
 21
19.13888424115118
 31
0.0
  0
LINE
  5
128
330
F1
100
AcDbEntity
  8
AM_9
100
AcDbLine
 10
-19.6485
 20
19.13888424115118
 30
0.0
 11
-19.6485
 21
15.0
 31
0.0
  0
LINE
  5
129
330
F1
100
AcDbEntity
  8
AM_9
100
AcDbLine
 10
-19.6485
 20
19.13888424115118
 30
0.0
 11
-13.0015
 21
19.13888424115118
 31
0.0
  0
LWPOLYLINE
  5
12A
330
F1
100
AcDbEntity
  8
AM_9
100
AcDbPolyline
 90
       14
 70
     0
 43
0.0
 10
-13.68882169165695
 20
4.447017950730289
 10
-14.05227997423067
 20
3.954929858558345
 10
-14.50605590003597
 20
3.521725796581479
 10
-15.03567550890529
 20
3.177664540302206
 10
-15.46868227965176
 20
2.99649285728614
 10
-15.92607398880445
 20
2.887626877702146
 10
-16.39733117335932
 20
2.859436491353867
 10
-16.86635957358668
 20
2.912708463091546
 10
-17.29578448636968
 20
3.036603062582962
 10
-17.70064890351884
 20
3.223863991075795
 10
-18.09858294289603
 20
3.48589264831576
 10
-18.45365342083565
 20
3.799905203850222
 10
-18.72655823419962
 20
4.110572487165476
 10
-18.96117830834306
 20
4.447017950730289
  0
LWPOLYLINE
  5
12B
330
F1
100
AcDbEntity
  8
AM_9
100
AcDbPolyline
 90
        5
 70
     0
 43
0.0
 10
-18.96117830834306
 20
4.447017950730287
 10
-19.26048945671924
 20
4.89319692430944
 10
-19.47908256971964
 20
5.374369185797021
 10
-19.60932578680848
 20
5.876586329566112
 10
-19.64849998942161
 20
6.339514250154439
  0
LWPOLYLINE
  5
12C
330
F1
100
AcDbEntity
  8
AM_9
100
AcDbPolyline
 90
       14
 70
     0
 43
0.0
 10
-18.96117830834307
 20
8.115590747214334
 10
-18.59772002576934
 20
8.5418910249845
 10
-18.14394409996404
 20
8.905708914320844
 10
-17.61432449109472
 20
9.187304515766993
 10
-17.18131772034825
 20
9.332969866139086
 10
-16.72392601119556
 20
9.419606557557795
 10
-16.25266882664069
 20
9.441986713385525
 10
-15.78364042641333
 20
9.399698134177152
 10
-15.35421551363033
 20
9.300871361800922
 10
-14.94935109648117
 20
9.149878191783836
 10
-14.55141705710398
 20
8.935371500903004
 10
-14.19634657916436
 20
8.673317193601028
 10
-13.92344176580038
 20
8.408547417774278
 10
-13.68882169165694
 20
8.115590747214334
  0
LWPOLYLINE
  5
12D
330
F1
100
AcDbEntity
  8
AM_9
100
AcDbPolyline
 90
        5
 70
     0
 43
0.0
 10
-13.68882169165694
 20
8.115590747214334
 10
-13.38951054328076
 20
7.716720969621333
 10
-13.17091743028036
 20
7.273221687147018
 10
-13.04067421319152
 20
6.79461274632827
 10
-13.0015000105784
 20
6.339033600085463
  0
LWPOLYLINE
  5
12E
330
F1
100
AcDbEntity
  8
AM_9
100
AcDbPolyline
 90
       14
 70
     0
 43
0.0
 10
-18.96117830834307
 20
14.86283229480097
 10
-18.60457732117618
 20
14.78636962148959
 10
-18.15148736353888
 20
14.7041317634747
 10
-17.62217445447875
 20
14.6299215328628
 10
-17.1893254490454
 20
14.58762359755766
 10
-16.73185244381185
 20
14.5609896514364
 10
-16.26022953917602
 20
14.55377680444762
 10
-15.79060635884639
 20
14.56647572183738
 10
-15.3608764516428
 20
14.5958908415036
 10
-14.95556664501404
 20
14.63861502667472
 10
-14.53494376685728
 20
14.69823007857658
 10
-14.16254375978712
 20
14.76347812393123
 10
-13.90865876438211
 20
14.8144951901516
 10
-13.68882169165694
 20
14.86283229480097
  0
LWPOLYLINE
  5
12F
330
F1
100
AcDbEntity
  8
AM_9
100
AcDbPolyline
 90
        5
 70
     0
 43
0.0
 10
-13.68882169165694
 20
14.86283229480097
 10
-13.39292464719105
 20
14.91815717924133
 10
-13.17091743028036
 20
14.96337477331265
 10
-13.04159089106033
 20
14.99116817084873
 10
-13.00150000002599
 20
14.99999999999424
  0
LINE
  5
130
330
F1
100
AcDbEntity
  8
AM_9
100
AcDbLine
 10
-23.102
 20
-15.0
 30
0.0
 11
13.90200000000001
 21
-15.0
 31
0.0
  0
LINE
  5
131
330
F1
100
AcDbEntity
  8
AM_9
100
AcDbLine
 10
13.90200000000001
 20
15.0
 30
0.0
 11
-13.00534092899674
 21
15.0
 31
0.0
  0
LINE
  5
132
330
F1
100
AcDbEntity
  8
AM_9
100
AcDbLine
 10
-19.64465907100328
 20
15.0
 30
0.0
 11
-23.102
 21
15.0
 31
0.0
  0
LWPOLYLINE
  5
133
330
F1
100
AcDbEntity
  8
AM_9
100
AcDbPolyline
 90
        6
 70
     0
 43
0.0
 10
-19.64849999997401
 20
14.99999999999424
 10
-19.64813365782634
 20
14.99991883503968
 10
-19.59607885463445
 20
14.9884723912491
 10
-19.45225098713041
 20
14.95774202500191
 10
-19.2443214947936
 20
14.91565572611422
 10
-18.96117830834305
 20
14.86283229480096
  0
LINE
  5
134
330
F1
100
AcDbEntity
  8
AM_9
100
AcDbLine
 10
-23.102
 20
15.0
 30
0.0
 11
-23.9
 21
15.79800000000003
 31
0.0
  0
LINE
  5
135
330
F1
100
AcDbEntity
  8
AM_9
100
AcDbLine
 10
-23.9
 20
-15.79800000000003
 30
0.0
 11
-23.102
 21
-15.0
 31
0.0
  0
LINE
  5
136
330
F1
100
AcDbEntity
  8
AM_9
100
AcDbLine
 10
13.90200000000001
 20
-15.0
 30
0.0
 11
14.7
 21
-15.79800000000003
 31
0.0
  0
LINE
  5
137
330
F1
100
AcDbEntity
  8
AM_9
100
AcDbLine
 10
14.7
 20
15.79800000000003
 30
0.0
 11
13.90200000000001
 21
15.0
 31
0.0
  0
LINE
  5
138
330
F1
100
AcDbEntity
  8
AM_9
100
AcDbLine
 10
14.7
 20
19.152
 30
0.0
 11
13.902
 21
19.95000000000003
 31
0.0
  0
LINE
  5
139
330
F1
100
AcDbEntity
  8
AM_9
100
AcDbLine
 10
13.902
 20
-19.95000000000003
 30
0.0
 11
14.7
 21
-19.152
 31
0.0
  0
LINE
  5
13A
330
F1
100
AcDbEntity
  8
AM_9
100
AcDbLine
 10
14.7
 20
19.152
 30
0.0
 11
14.7
 21
-19.152
 31
0.0
  0
LINE
  5
13B
330
F1
100
AcDbEntity
  8
AM_9
100
AcDbLine
 10
8.75
 20
-19.95000000000003
 30
0.0
 11
13.902
 21
-19.95000000000003
 31
0.0
  0
LINE
  5
13C
330
F1
100
AcDbEntity
  8
AM_9
100
AcDbLine
 10
13.902
 20
19.95000000000003
 30
0.0
 11
8.75
 21
19.95000000000003
 31
0.0
  0
LINE
  5
13D
330
F1
100
AcDbEntity
  8
AM_9
100
AcDbLine
 10
13.902
 20
19.95000000000003
 30
0.0
 11
13.902
 21
-19.95000000000003
 31
0.0
  0
LWPOLYLINE
  5
13E
330
F1
100
AcDbEntity
  8
AM_9
100
AcDbPolyline
 90
       12
 70
     0
 43
0.0
 10
-19.58796684391084
 20
6.277450315766231
 10
-19.32724094572766
 20
6.011639173182784
 10
-18.83373449515411
 20
5.619863950352827
 10
-18.28333554755073
 20
5.302934777810487
 10
-17.63522639726465
 20
5.05140355624773
 10
-16.95392271905356
 20
4.901888779152246
 10
-16.22096579621424
 20
4.859852500303256
 10
-15.49087302052499
 20
4.935309074619227
 10
-14.77468727969814
 20
5.131337683817208
 10
-14.10341408876857
 20
5.440992717187046
 10
-13.54620715831655
 20
5.819278113873711
 10
-13.06203315608916
 20
6.277450315766231
  0
LINE
  5
13F
330
F1
100
AcDbEntity
  8
AM_9
100
AcDbLine
 10
-12.32574449290066
 20
8.361230413276447
 30
0.0
 11
-12.32500001908196
 21
8.431588425229858
 31
0.0
  0
LWPOLYLINE
  5
140
330
F1
100
AcDbEntity
  8
AM_9
100
AcDbPolyline
 90
       12
 70
     0
 43
0.0
 10
-13.06203315608915
 20
10.47123617167248
 10
-13.32275905427234
 20
10.70801798010122
 10
-13.8162655048459
 20
11.05131906082707
 10
-14.36666445244928
 20
11.32413616064813
 10
-15.01477360273536
 20
11.53764210270041
 10
-15.69607728094645
 20
11.66320587159316
 10
-16.42903420378577
 20
11.69842417673012
 10
-17.15912697947502
 20
11.63521072925773
 10
-17.87531272030188
 20
11.47010578902958
 10
-18.54658591123144
 20
11.20582409707196
 10
-19.10379284168346
 20
10.87741066105055
 10
-19.58796684391085
 20
10.47123617167248
  0
LWPOLYLINE
  5
141
330
F1
100
AcDbEntity
  8
AM_9
100
AcDbPolyline
 90
        5
 70
     0
 43
0.0
 10
-19.58796684391085
 20
10.47123617167248
 10
-19.92672884315439
 20
9.975249500264589
 10
-20.16630004753099
 20
9.42905952268942
 10
-20.29813480830287
 20
8.845083037968669
 10
-20.32499998091804
 20
8.430880214990232
  0
LWPOLYLINE
  5
142
330
F1
100
AcDbEntity
  8
AM_9
100
AcDbPolyline
 90
       13
 70
     0
 43
0.0
 10
-13.06203315608914
 20
19.81538424115118
 10
-13.17651341940866
 20
19.79996437587975
 10
-13.60898112175268
 20
19.74656144717815
 10
-14.09473782966535
 20
19.69568134691951
 10
-14.71290413842123
 20
19.64530301768146
 10
-15.37111363966577
 20
19.60917086987917
 10
-16.0929691394905
 20
19.59102514532278
 10
-16.82111501337262
 20
19.59498095842991
 10
-17.55049609110962
 20
19.62196478117906
 10
-18.24475767294994
 20
19.66832093401973
 10
-18.8767872814465
 20
19.72833591753979
 10
-19.43213466308408
 20
19.79452509801146
 10
-19.53812759770823
 20
19.80860594287362
  0
LINE
  5
143
330
F1
100
AcDbEntity
  8
AM_9
100
AcDbLine
 10
-19.4304058127871
 20
-19.95000000000003
 30
0.0
 11
-8.750000000000002
 21
-19.95000000000003
 31
0.0
  0
LINE
  5
144
330
F1
100
AcDbEntity
  8
AM_9
100
AcDbLine
 10
-8.750000000000002
 20
19.95000000000003
 30
0.0
 11
-12.33736718595233
 21
19.95000000000003
 31
0.0
  0
LWPOLYLINE
  5
145
330
F1
100
AcDbEntity
  8
AM_9
100
AcDbPolyline
 90
        6
 70
     0
 43
0.0
 10
-12.32500000003234
 20
19.94999999999355
 10
-12.33053842595623
 20
19.9488902765671
 10
-12.41795029353721
 20
19.93157137329549
 10
-12.61614323015018
 20
19.89367031342537
 10
-12.81390906293576
 20
19.85775061703454
 10
-13.06203315608914
 20
19.81538424115119
  0
LINE
  5
146
330
F1
100
AcDbEntity
  8
AM_9
100
AcDbLine
 10
-4.856666666666664
 20
-29.25
 30
0.0
 11
-2.523333333333331
 21
-29.25
 31
0.0
  0
LINE
  5
147
330
F1
100
AcDbEntity
  8
AM_9
100
AcDbLine
 10
-2.523333333333331
 20
29.25
 30
0.0
 11
-4.856666666666664
 21
29.25
 31
0.0
  0
LINE
  5
148
330
F1
100
AcDbEntity
  8
AM_9
100
AcDbLine
 10
8.75
 20
28.77802961806125
 30
0.0
 11
8.75
 21
-28.77802961806125
 31
0.0
  0
ARC
  5
149
330
F1
100
AcDbEntity
  8
AM_9
100
AcDbCircle
 10
8.050000000000004
 20
-28.77802961806125
 30
0.0
 40
0.6999999999999945
100
AcDbArc
 50
291.4124702738447
 51
0.0
  0
ARC
  5
14A
330
F1
100
AcDbEntity
  8
AM_9
100
AcDbCircle
 10
8.050000000000004
 20
28.77802961806125
 30
0.0
 40
0.6999999999999957
100
AcDbArc
 50
0.0
 51
68.58752972615521
  0
LINE
  5
14B
330
F1
100
AcDbEntity
  8
AM_9
100
AcDbLine
 10
-8.749999999999998
 20
28.77802961806126
 30
0.0
 11
-8.749999999999998
 21
-28.77802961806126
 31
0.0
  0
ARC
  5
14C
330
F1
100
AcDbEntity
  8
AM_9
100
AcDbCircle
 10
-8.050000000000002
 20
-28.77802961806126
 30
0.0
 40
0.6999999999999957
100
AcDbArc
 50
180.0
 51
248.5875329531162
  0
ARC
  5
14D
330
F1
100
AcDbEntity
  8
AM_9
100
AcDbCircle
 10
-8.050000000000002
 20
28.77802961806126
 30
0.0
 40
0.6999999999999978
100
AcDbArc
 50
111.4124670468837
 51
180.0
  0
ARC
  5
14E
330
F1
100
AcDbEntity
  8
AM_9
100
AcDbCircle
 10
-0.0000000000003544
 20
-8.250000000001052
 30
0.0
 40
22.74999999999889
100
AcDbArc
 50
248.5875329531158
 51
257.6736410797009
  0
ARC
  5
14F
330
F1
100
AcDbEntity
  8
AM_9
100
AcDbCircle
 10
-0.0000000000005453
 20
8.250000000001684
 30
0.0
 40
22.74999999999823
100
AcDbArc
 50
102.3263589202989
 51
111.4124670468843
  0
LINE
  5
150
330
F1
100
AcDbEntity
  8
AM_9
100
AcDbLine
 10
-8.305555555555555
 20
29.42971309799971
 30
0.0
 11
-8.305555555555555
 21
-29.42971309799971
 31
0.0
  0
LINE
  5
151
330
F1
100
AcDbEntity
  8
AM_9
100
AcDbLine
 10
-4.856666666666664
 20
30.47555486121525
 30
0.0
 11
-4.856666666666664
 21
-30.47555486121525
 31
0.0
  0
LWPOLYLINE
  5
152
330
F1
100
AcDbEntity
  8
AM_9
100
AcDbPolyline
 90
        6
 70
     0
 43
0.0
 10
5.348874673556811
 20
-28.01319863257457
 10
5.534815366710371
 20
-27.88432286764861
 10
5.681627261433805
 20
-27.75032329788887
 10
5.784294053652337
 20
-27.61505292547295
 10
5.840088019452875
 20
-27.4826854336918
 10
5.849999995195222
 20
-27.40215649942535
  0
ARC
  5
153
330
F1
100
AcDbEntity
  8
AM_9
100
AcDbCircle
 10
-0.0000000000000197
 20
-8.249999999999993
 30
0.0
 40
22.75
100
AcDbArc
 50
263.6318927234947
 51
291.4124671461752
  0
ARC
  5
154
330
F1
100
AcDbEntity
  8
AM_9
100
AcDbCircle
 10
-0.0000000000000178
 20
8.249999999999993
 30
0.0
 40
22.75
100
AcDbArc
 50
68.58753285382478
 51
96.36810727650526
  0
LINE
  5
155
330
F1
100
AcDbEntity
  8
AM_9
100
AcDbLine
 10
-2.523333333333331
 20
30.85962823420343
 30
0.0
 11
-2.523333333333331
 21
-30.85962823420343
 31
0.0
  0
LINE
  5
156
330
F1
100
AcDbEntity
  8
AM_9
100
AcDbLine
 10
8.305555592259081
 20
29.42971308360653
 30
0.0
 11
8.305555592259081
 21
-29.42971308360653
 31
0.0
  0
LINE
  5
158
330
F1
100
AcDbEntity
  8
AM_5
100
AcDbLine
 10
-12.325
 20
15.0
 30
0.0
 11
-12.325
 21
19.81538424115119
 31
0.0
  0
LINE
  5
159
330
F1
100
AcDbEntity
  8
AM_5
100
AcDbLine
 10
-20.325
 20
15.0
 30
0.0
 11
-20.325
 21
19.81538424115119
 31
0.0
  0
LINE
  5
15C
330
F1
100
AcDbEntity
  8
AM_7
100
AcDbLine
 10
-16.325
 20
12.1945819226217
 30
0.0
 11
-16.325
 21
22.30713461333045
 31
0.0
  0
LINE
  5
15E
330
F1
100
AcDbEntity
  8
AM_4
100
AcDbLine
 10
-23.9
 20
-19.152
 30
0.0
 11
-23.102
 21
-19.95000000000003
 31
0.0
  0
LINE
  5
15F
330
F1
100
AcDbEntity
  8
AM_4
100
AcDbLine
 10
-23.102
 20
19.95000000000003
 30
0.0
 11
-23.9
 21
19.152
 31
0.0
  0
LINE
  5
160
330
F1
100
AcDbEntity
  8
AM_4
100
AcDbLine
 10
-23.9
 20
19.152
 30
0.0
 11
-23.9
 21
-19.152
 31
0.0
  0
LINE
  5
161
330
F1
100
AcDbEntity
  8
AM_4
100
AcDbLine
 10
-19.53812759770823
 20
19.80860594287362
 30
0.0
 11
-19.58796684391108
 21
19.81538424115113
 31
0.0
  0
LWPOLYLINE
  5
162
330
F1
100
AcDbEntity
  8
AM_4
100
AcDbPolyline
 90
        5
 70
     0
 43
0.0
 10
-19.58796684391087
 20
19.81538424115119
 10
-19.92294105309559
 20
19.87329061382517
 10
-20.166300047531
 20
19.9187872636655
 10
-20.29741107710824
 20
19.94448670097913
 10
-20.32499999996767
 20
19.94999999999355
  0
LINE
  5
163
330
F1
100
AcDbEntity
  8
AM_4
100
AcDbLine
 10
-23.102
 20
-19.95000000000003
 30
0.0
 11
-19.4304058127871
 21
-19.95000000000003
 31
0.0
  0
LINE
  5
164
330
F1
100
AcDbEntity
  8
AM_4
100
AcDbLine
 10
-20.31263281404768
 20
19.95000000000003
 30
0.0
 11
-23.102
 21
19.95000000000003
 31
0.0
  0
LINE
  5
165
330
F1
100
AcDbEntity
  8
AM_4
100
AcDbLine
 10
-23.102
 20
19.95000000000003
 30
0.0
 11
-23.102
 21
-19.95000000000003
 31
0.0
  0
ENDBLK
  5
F4
330
F1
100
AcDbEntity
  8
0
100
AcDbBlockEnd
  0
BLOCK
  5
168
330
166
100
AcDbEntity
  8
0
100
AcDbBlockBegin
  2
4_136982H_0_in_136982_2
 70
     2
 10
0.0
 20
0.0
 30
0.0
  3
4_136982H_0_in_136982_2
  1

  0
ATTDEF
  5
16A
330
166
100
AcDbEntity
  8
AM_6
100
AcDbText
 10
31.28999999999998
 20
53.35
 30
0.0
 40
0.5
  1
WSTU-SCEZ-SHCR - Metric - housing
100
AcDbAttributeDefinition
  3

  2
NN
 70
     8
280
     0
  0
ATTDEF
  5
16B
330
166
100
AcDbEntity
  8
AM_6
100
AcDbText
 10
31.28999999999998
 20
52.85
 30
0.0
 40
0.5
  1
SC Take-Up Bearings -Wide Slot -(Normal Duty) -Polymer Housed -Corrosion Resistant Insert -E-Z KLEEN
100
AcDbAttributeDefinition
  3

  2
NT
 70
     8
280
     0
  0
ATTDEF
  5
16C
330
166
100
AcDbEntity
  8
AM_6
100
AcDbText
 10
31.28999999999998
 20
52.35
 30
0.0
 40
0.5
  1
136982H
100
AcDbAttributeDefinition
  3

  2
NB
 70
     8
280
     0
  0
ATTDEF
  5
16D
330
166
100
AcDbEntity
  8
AM_6
100
AcDbText
 10
31.28999999999998
 20
51.85
 30
0.0
 40
0.5
  1
$PN.H
100
AcDbAttributeDefinition
  3

  2
NBSYN
 70
     8
280
     0
  0
ATTDEF
  5
16E
330
166
100
AcDbEntity
  8
AM_6
100
AcDbText
 10
31.28999999999998
 20
51.35
 30
0.0
 40
0.5
  1
136982
100
AcDbAttributeDefinition
  3

  2
LINA
 70
     8
280
     0
  0
ATTDEF
  5
16F
330
166
100
AcDbEntity
  8
AM_6
100
AcDbText
 10
31.28999999999998
 20
50.85
 30
0.0
 40
0.5
  1
206
100
AcDbAttributeDefinition
  3

  2
SERIES
 70
     8
280
     0
  0
ATTDEF
  5
170
330
166
100
AcDbEntity
  8
AM_6
100
AcDbText
 10
31.28999999999998
 20
50.35
 30
0.0
 40
0.5
  1
30
100
AcDbAttributeDefinition
  3

  2
SS
 70
     8
280
     0
  0
ATTDEF
  5
171
330
166
100
AcDbEntity
  8
AM_6
100
AcDbText
 10
31.28999999999998
 20
49.85
 30
0.0
 40
0.5
  1
136982
100
AcDbAttributeDefinition
  3

  2
PN
 70
     8
280
     0
  0
ATTDEF
  5
172
330
166
100
AcDbEntity
  8
AM_6
100
AcDbText
 10
31.28999999999998
 20
49.35
 30
0.0
 40
0.5
  1
WSTU-SCEZ-30M-SHCR
100
AcDbAttributeDefinition
  3

  2
DESCRIPTION
 70
     8
280
     0
  0
ATTDEF
  5
173
330
166
100
AcDbEntity
  8
AM_6
100
AcDbText
 10
31.28999999999998
 20
48.85
 30
0.0
 40
0.5
  1
1.50
100
AcDbAttributeDefinition
  3

  2
W
 70
     8
280
     0
  0
ATTDEF
  5
174
330
166
100
AcDbEntity
  8
AM_6
100
AcDbText
 10
31.28999999999998
 20
48.35
 30
0.0
 40
0.5
  1
WS308
100
AcDbAttributeDefinition
  3

  2
FS
 70
     8
280
     0
  0
ATTDEF
  5
175
330
166
100
AcDbEntity
  8
AM_6
100
AcDbText
 10
31.28999999999998
 20
47.85
 30
0.0
 40
0.5
  1
38.6
100
AcDbAttributeDefinition
  3

  2
A
 70
     8
280
     0
  0
ATTDEF
  5
176
330
166
100
AcDbEntity
  8
AM_6
100
AcDbText
 10
31.28999999999998
 20
47.35
 30
0.0
 40
0.5
  1
126.7
100
AcDbAttributeDefinition
  3

  2
B
 70
     8
280
     0
  0
ATTDEF
  5
177
330
166
100
AcDbEntity
  8
AM_6
100
AcDbText
 10
31.28999999999998
 20
46.85
 30
0.0
 40
0.5
  1
13.46
100
AcDbAttributeDefinition
  3

  2
C
 70
     8
280
     0
  0
ATTDEF
  5
178
330
166
100
AcDbEntity
  8
AM_6
100
AcDbText
 10
31.28999999999998
 20
46.35
 30
0.0
 40
0.5
  1
57.4
100
AcDbAttributeDefinition
  3

  2
D
 70
     8
280
     0
  0
ATTDEF
  5
179
330
166
100
AcDbEntity
  8
AM_6
100
AcDbText
 10
31.28999999999998
 20
45.85
 30
0.0
 40
0.5
  1
78.7
100
AcDbAttributeDefinition
  3

  2
E
 70
     8
280
     0
  0
ATTDEF
  5
17A
330
166
100
AcDbEntity
  8
AM_6
100
AcDbText
 10
31.28999999999998
 20
45.35
 30
0.0
 40
0.5
  1
19.1
100
AcDbAttributeDefinition
  3

  2
F
 70
     8
280
     0
  0
ATTDEF
  5
17B
330
166
100
AcDbEntity
  8
AM_6
100
AcDbText
 10
31.28999999999998
 20
44.85
 30
0.0
 40
0.5
  1
14.2
100
AcDbAttributeDefinition
  3

  2
G
 70
     8
280
     0
  0
ATTDEF
  5
17C
330
166
100
AcDbEntity
  8
AM_6
100
AcDbText
 10
31.28999999999998
 20
44.35
 30
0.0
 40
0.5
  1
16.5
100
AcDbAttributeDefinition
  3

  2
H
 70
     8
280
     0
  0
ATTDEF
  5
17D
330
166
100
AcDbEntity
  8
AM_6
100
AcDbText
 10
31.28999999999998
 20
43.85
 30
0.0
 40
0.5
  1
61.7
100
AcDbAttributeDefinition
  3

  2
J
 70
     8
280
     0
  0
ATTDEF
  5
17E
330
166
100
AcDbEntity
  8
AM_6
100
AcDbText
 10
31.28999999999998
 20
43.35
 30
0.0
 40
0.5
  1
35.3
100
AcDbAttributeDefinition
  3

  2
K
 70
     8
280
     0
  0
ATTDEF
  5
17F
330
166
100
AcDbEntity
  8
AM_6
100
AcDbText
 10
31.28999999999998
 20
42.85
 30
0.0
 40
0.5
  1
39.9
100
AcDbAttributeDefinition
  3

  2
L
 70
     8
280
     0
  0
ATTDEF
  5
180
330
166
100
AcDbEntity
  8
AM_6
100
AcDbText
 10
31.28999999999998
 20
42.35
 30
0.0
 40
0.5
  1
89.92 / 89.15
100
AcDbAttributeDefinition
  3

  2
M
 70
     8
280
     0
  0
ATTDEF
  5
181
330
166
100
AcDbEntity
  8
AM_6
100
AcDbText
 10
31.28999999999998
 20
41.85
 30
0.0
 40
0.5
  1
106.7
100
AcDbAttributeDefinition
  3

  2
N
 70
     8
280
     0
  0
ATTDEF
  5
182
330
166
100
AcDbEntity
  8
AM_6
100
AcDbText
 10
31.28999999999998
 20
41.35
 30
0.0
 40
0.5
  1
14.7
100
AcDbAttributeDefinition
  3

  2
R
 70
     8
280
     0
  0
ATTDEF
  5
183
330
166
100
AcDbEntity
  8
AM_6
100
AcDbText
 10
31.28999999999998
 20
40.85
 30
0.0
 40
0.5
  1
23.9
100
AcDbAttributeDefinition
  3

  2
S
 70
     8
280
     0
  0
ATTDEF
  5
184
330
166
100
AcDbEntity
  8
AM_6
100
AcDbText
 10
31.28999999999998
 20
40.35
 30
0.0
 40
0.5
  1
41.1
100
AcDbAttributeDefinition
  3

  2
T
 70
     8
280
     0
  0
ATTDEF
  5
185
330
166
100
AcDbEntity
  8
AM_6
100
AcDbText
 10
31.28999999999998
 20
39.85
 30
0.0
 40
0.5
  1
2250
100
AcDbAttributeDefinition
  3

  2
CAPS
 70
     8
280
     0
  0
ATTDEF
  5
186
330
166
100
AcDbEntity
  8
AM_6
100
AcDbText
 10
31.28999999999998
 20
39.35
 30
0.0
 40
0.5
  1
4368
100
AcDbAttributeDefinition
  3

  2
CAPD
 70
     8
280
     0
  0
ATTDEF
  5
187
330
166
100
AcDbEntity
  8
AM_6
100
AcDbText
 10
31.28999999999998
 20
38.85
 30
0.0
 40
0.5
  1
baldor
100
AcDbAttributeDefinition
  3

  2
COMPANY
 70
     8
280
     0
  0
LINE
  5
188
330
166
100
AcDbEntity
  8
AM_9
100
AcDbLine
 10
-11.21666662180001
 20
-38.05484384061045
 30
0.0
 11
11.21666662179999
 21
-38.05484384061045
 31
0.0
  0
LINE
  5
189
330
166
100
AcDbEntity
  8
AM_9
100
AcDbLine
 10
-11.2166666218
 20
38.05484384061047
 30
0.0
 11
11.2166666218
 21
38.05484384061047
 31
0.0
  0
LINE
  5
18A
330
166
100
AcDbEntity
  8
AM_9
100
AcDbLine
 10
-11.2166666218
 20
39.1806329708952
 30
0.0
 11
11.2166666218
 21
39.1806329708952
 31
0.0
  0
LINE
  5
18B
330
166
100
AcDbEntity
  8
AM_9
100
AcDbLine
 10
-11.21666662180001
 20
-39.1806329708952
 30
0.0
 11
11.21666662179999
 21
-39.1806329708952
 31
0.0
  0
LINE
  5
18C
330
166
100
AcDbEntity
  8
AM_9
100
AcDbLine
 10
-4.037999999999999
 20
-30.92329222447054
 30
0.0
 11
11.2166666218
 21
-30.92329222447054
 31
0.0
  0
LINE
  5
18D
330
166
100
AcDbEntity
  8
AM_9
100
AcDbLine
 10
-4.038
 20
-32.5
 30
0.0
 11
11.2166666218
 21
-32.5
 31
0.0
  0
LINE
  5
18E
330
166
100
AcDbEntity
  8
AM_9
100
AcDbLine
 10
-4.037999999999999
 20
29.34280153632233
 30
0.0
 11
-4.038
 21
32.5
 31
0.0
  0
LINE
  5
18F
330
166
100
AcDbEntity
  8
AM_9
100
AcDbLine
 10
-4.037999999999999
 20
30.92329222447054
 30
0.0
 11
11.2166666218
 21
30.92329222447054
 31
0.0
  0
LINE
  5
190
330
166
100
AcDbEntity
  8
AM_9
100
AcDbLine
 10
11.2166666218
 20
32.5
 30
0.0
 11
-4.038
 21
32.5
 31
0.0
  0
LINE
  5
191
330
166
100
AcDbEntity
  8
AM_9
100
AcDbLine
 10
-4.038
 20
-32.5
 30
0.0
 11
-4.037999999999999
 21
-29.34280153632233
 31
0.0
  0
LINE
  5
192
330
166
100
AcDbEntity
  8
AM_9
100
AcDbLine
 10
-4.037999999999999
 20
29.34280153632233
 30
0.0
 11
11.2166666218
 21
29.34280153632233
 31
0.0
  0
LINE
  5
193
330
166
100
AcDbEntity
  8
AM_9
100
AcDbLine
 10
11.2166666218
 20
-29.34280153632233
 30
0.0
 11
-4.037999999999999
 21
-29.34280153632233
 31
0.0
  0
LINE
  5
194
330
166
100
AcDbEntity
  8
AM_9
100
AcDbLine
 10
-11.2166666218
 20
-31.0
 30
0.0
 11
-4.038
 21
-31.0
 31
0.0
  0
LINE
  5
195
330
166
100
AcDbEntity
  8
AM_9
100
AcDbLine
 10
-4.038
 20
31.0
 30
0.0
 11
-11.2166666218
 21
31.0
 31
0.0
  0
LINE
  5
196
330
166
100
AcDbEntity
  8
AM_9
100
AcDbLine
 10
-11.2166666218
 20
-17.65
 30
0.0
 11
11.2166666218
 21
-17.65
 31
0.0
  0
LINE
  5
197
330
166
100
AcDbEntity
  8
AM_9
100
AcDbLine
 10
-11.2166666218
 20
17.65
 30
0.0
 11
11.2166666218
 21
17.65
 31
0.0
  0
LINE
  5
198
330
166
100
AcDbEntity
  8
AM_9
100
AcDbLine
 10
-11.21666666666666
 20
30.85
 30
0.0
 11
-11.21666666666666
 21
-30.85
 31
0.0
  0
LINE
  5
199
330
166
100
AcDbEntity
  8
AM_9
100
AcDbLine
 10
11.21666666666667
 20
-30.85
 30
0.0
 11
11.21666666666667
 21
30.85
 31
0.0
  0
LINE
  5
19A
330
166
100
AcDbEntity
  8
AM_7
100
AcDbLine
 10
0.0000000000000048
 20
-10.0275
 30
0.0
 11
0.0000000000000048
 21
10.0275
 31
0.0
  0
LINE
  5
19B
330
166
100
AcDbEntity
  8
AM_7
100
AcDbLine
 10
-26.29
 20
0.0
 30
0.0
 11
26.28999999999998
 21
0.0
 31
0.0
  0
LINE
  5
19C
330
166
100
AcDbEntity
  8
AM_4
100
AcDbLine
 10
6.729999999999997
 20
-44.95999999999999
 30
0.0
 11
6.729999999999996
 21
-53.35
 31
0.0
  0
LINE
  5
19D
330
166
100
AcDbEntity
  8
AM_4
100
AcDbLine
 10
-6.730000000000006
 20
-53.35
 30
0.0
 11
-6.730000000000004
 21
-44.95999999999999
 31
0.0
  0
LINE
  5
19E
330
166
100
AcDbEntity
  8
AM_4
100
AcDbLine
 10
-6.730000000000004
 20
-44.95999999999999
 30
0.0
 11
6.729999999999997
 21
-44.95999999999999
 31
0.0
  0
LINE
  5
19F
330
166
100
AcDbEntity
  8
AM_4
100
AcDbLine
 10
-13.46
 20
-42.81904796160001
 30
0.0
 11
-13.46000000000001
 21
-53.35
 31
0.0
  0
LINE
  5
1A0
330
166
100
AcDbEntity
  8
AM_4
100
AcDbLine
 10
-13.46000000000001
 20
-51.92999999999999
 30
0.0
 11
-6.730000000000005
 21
-51.92999999999999
 31
0.0
  0
LINE
  5
1A1
330
166
100
AcDbEntity
  8
AM_4
100
AcDbLine
 10
-13.46000000000001
 20
-53.35
 30
0.0
 11
-6.730000000000006
 21
-53.35
 31
0.0
  0
LINE
  5
1A2
330
166
100
AcDbEntity
  8
AM_4
100
AcDbLine
 10
6.729999999999996
 20
-53.35
 30
0.0
 11
13.46
 21
-53.35
 31
0.0
  0
LINE
  5
1A3
330
166
100
AcDbEntity
  8
AM_4
100
AcDbLine
 10
6.729999999999998
 20
-51.92999999999999
 30
0.0
 11
13.46
 21
-51.92999999999999
 31
0.0
  0
LINE
  5
1A4
330
166
100
AcDbEntity
  8
AM_4
100
AcDbLine
 10
6.730000000000002
 20
53.35
 30
0.0
 11
13.46
 21
53.35
 31
0.0
  0
LINE
  5
1A5
330
166
100
AcDbEntity
  8
AM_4
100
AcDbLine
 10
6.730000000000002
 20
53.35
 30
0.0
 11
6.730000000000001
 21
44.95999999999999
 31
0.0
  0
LINE
  5
1A6
330
166
100
AcDbEntity
  8
AM_4
100
AcDbLine
 10
-6.729999999999999
 20
44.95999999999999
 30
0.0
 11
-6.729999999999998
 21
53.35
 31
0.0
  0
LINE
  5
1A7
330
166
100
AcDbEntity
  8
AM_4
100
AcDbLine
 10
-13.46
 20
53.35
 30
0.0
 11
-6.729999999999998
 21
53.35
 31
0.0
  0
LINE
  5
1A8
330
166
100
AcDbEntity
  8
AM_4
100
AcDbLine
 10
-13.46
 20
51.93000000000001
 30
0.0
 11
-6.729999999999998
 21
51.93000000000001
 31
0.0
  0
LINE
  5
1A9
330
166
100
AcDbEntity
  8
AM_4
100
AcDbLine
 10
6.730000000000001
 20
51.93000000000001
 30
0.0
 11
13.46
 21
51.93000000000001
 31
0.0
  0
LINE
  5
1AA
330
166
100
AcDbEntity
  8
AM_4
100
AcDbLine
 10
6.730000000000001
 20
44.95999999999999
 30
0.0
 11
-6.729999999999999
 21
44.95999999999999
 31
0.0
  0
LINE
  5
1AB
330
166
100
AcDbEntity
  8
AM_4
100
AcDbLine
 10
-11.21666662180001
 20
-30.84999999999991
 30
0.0
 11
-11.21666662180001
 21
-40.57571458340001
 31
0.0
  0
LINE
  5
1AC
330
166
100
AcDbEntity
  8
AM_4
100
AcDbLine
 10
11.2166666218
 20
-40.57571458339999
 30
0.0
 11
11.2166666218
 21
-30.84999999999991
 31
0.0
  0
LINE
  5
1AD
330
166
100
AcDbEntity
  8
AM_4
100
AcDbLine
 10
-11.21666662180001
 20
-40.57571458340001
 30
0.0
 11
-13.46
 21
-42.81904796160001
 31
0.0
  0
LINE
  5
1AE
330
166
100
AcDbEntity
  8
AM_4
100
AcDbLine
 10
-13.46
 20
-43.54999999999991
 30
0.0
 11
13.46
 21
-43.54999999999991
 31
0.0
  0
LINE
  5
1AF
330
166
100
AcDbEntity
  8
AM_4
100
AcDbLine
 10
13.46
 20
-53.35
 30
0.0
 11
13.46
 21
-42.8190479616
 31
0.0
  0
LINE
  5
1B0
330
166
100
AcDbEntity
  8
AM_4
100
AcDbLine
 10
13.46
 20
-42.8190479616
 30
0.0
 11
11.2166666218
 21
-40.57571458339999
 31
0.0
  0
LINE
  5
1B1
330
166
100
AcDbEntity
  8
AM_4
100
AcDbLine
 10
-11.2166666218
 20
40.57571458339999
 30
0.0
 11
-11.2166666218
 21
30.85
 31
0.0
  0
LINE
  5
1B2
330
166
100
AcDbEntity
  8
AM_4
100
AcDbLine
 10
11.21666662180001
 20
30.85
 30
0.0
 11
11.21666662180001
 21
40.57571458340001
 31
0.0
  0
LINE
  5
1B3
330
166
100
AcDbEntity
  8
AM_4
100
AcDbLine
 10
-13.46
 20
42.8190479616
 30
0.0
 11
-11.2166666218
 21
40.57571458339999
 31
0.0
  0
LINE
  5
1B4
330
166
100
AcDbEntity
  8
AM_4
100
AcDbLine
 10
11.21666662180001
 20
40.57571458340001
 30
0.0
 11
13.46000000000001
 21
42.81904796160001
 31
0.0
  0
LINE
  5
1B5
330
166
100
AcDbEntity
  8
AM_4
100
AcDbLine
 10
13.46000000000001
 20
42.81904796160001
 30
0.0
 11
13.46
 21
53.35
 31
0.0
  0
LINE
  5
1B6
330
166
100
AcDbEntity
  8
AM_4
100
AcDbLine
 10
-13.46
 20
43.55
 30
0.0
 11
13.46
 21
43.55
 31
0.0
  0
LINE
  5
1B7
330
166
100
AcDbEntity
  8
AM_4
100
AcDbLine
 10
-13.46
 20
53.35
 30
0.0
 11
-13.46
 21
42.8190479616
 31
0.0
  0
LINE
  5
1B8
330
166
100
AcDbEntity
  8
AM_4
100
AcDbLine
 10
20.55000000000001
 20
-18.46424833154284
 30
0.0
 11
11.21666666666674
 21
-30.84999999999991
 31
0.0
  0
LINE
  5
1B9
330
166
100
AcDbEntity
  8
AM_4
100
AcDbLine
 10
-11.21666666666673
 20
-30.84999999999991
 30
0.0
 11
-20.55
 21
-18.46424833154284
 31
0.0
  0
LINE
  5
1BA
330
166
100
AcDbEntity
  8
AM_4
100
AcDbLine
 10
-11.21666666666666
 20
-30.85
 30
0.0
 11
11.21666666666667
 21
-30.85
 31
0.0
  0
CIRCLE
  5
1BB
330
166
100
AcDbEntity
  8
AM_4
100
AcDbCircle
 10
0.0000000000000048
 20
0.0
 30
0.0
 40
9.55
  0
LINE
  5
1BC
330
166
100
AcDbEntity
  8
AM_4
100
AcDbLine
 10
-20.55
 20
-18.46424833154284
 30
0.0
 11
-20.55
 21
18.46424833154284
 31
0.0
  0
LINE
  5
1BD
330
166
100
AcDbEntity
  8
AM_4
100
AcDbLine
 10
20.55000000000001
 20
-18.46424833154284
 30
0.0
 11
20.55
 21
18.46424833154284
 31
0.0
  0
LINE
  5
1BE
330
166
100
AcDbEntity
  8
AM_4
100
AcDbLine
 10
-11.21666666666666
 20
30.85
 30
0.0
 11
-20.55
 21
18.46424833154284
 31
0.0
  0
LINE
  5
1BF
330
166
100
AcDbEntity
  8
AM_4
100
AcDbLine
 10
-12.28671341781268
 20
-29.42999999999994
 30
0.0
 11
12.28671341781269
 21
-29.42999999999994
 31
0.0
  0
LINE
  5
1C0
330
166
100
AcDbEntity
  8
AM_4
100
AcDbLine
 10
20.55
 20
18.46424833154284
 30
0.0
 11
11.21666666666667
 21
30.85
 31
0.0
  0
LINE
  5
1C1
330
166
100
AcDbEntity
  8
AM_4
100
AcDbLine
 10
-12.28671341781262
 20
29.43000000000001
 30
0.0
 11
12.28671341781262
 21
29.43000000000002
 31
0.0
  0
LINE
  5
1C2
330
166
100
AcDbEntity
  8
AM_4
100
AcDbLine
 10
-11.21666666666666
 20
30.85
 30
0.0
 11
11.21666666666667
 21
30.85
 31
0.0
  0
ENDBLK
  5
169
330
166
100
AcDbEntity
  8
0
100
AcDbBlockEnd
  0
ENDSEC
  0
SECTION
  2
ENTITIES
  0
INSERT
  5
6F
330
1F
100
AcDbEntity
  8
0
100
AcDbBlockReference
  2
1_136982_2
 10
0.0
 20
0.0
 30
0.0
  0
POINT
  5
1C4
330
1F
100
AcDbEntity
  8
ConnectionPoints
100
AcDbPoint
 10
-23.9
 20
0.0
 30
0.0000000000000015
  0
POINT
  5
1C5
330
1F
100
AcDbEntity
  8
ConnectionPoints
100
AcDbPoint
 10
-0.0000000000000025
 20
-23.99999999999999
 30
-41.56921938165305
  0
POINT
  5
1C6
330
1F
100
AcDbEntity
  8
ConnectionPoints
100
AcDbPoint
 10
-23.9
 20
0.0
 30
0.0000000000000015
  0
ENDSEC
  0
SECTION
  2
OBJECTS
  0
DICTIONARY
  5
C
330
0
100
AcDbDictionary
281
     1
  3
ACAD_DETAILVIEWSTYLE
350
1CE
  3
ACAD_GROUP
350
D
  3
ACAD_LAYOUT
350
1A
  3
ACAD_MATERIAL
350
43
  3
ACAD_MLEADERSTYLE
350
6B
  3
ACAD_MLINESTYLE
350
17
  3
ACAD_PLOTSETTINGS
350
19
  3
ACAD_PLOTSTYLENAME
350
E
  3
ACAD_SCALELIST
350
47
  3
ACAD_SECTIONVIEWSTYLE
350
1CF
  3
ACAD_TABLESTYLE
350
69
  3
ACAD_VISUALSTYLE
350
2A
  3
ACDB_RECOMPOSE_DATA
350
1CB
  3
AcDbVariableDictionary
350
1C7
  0
SUN
  5
6D
330
29
100
AcDbSun
 90
        1
290
     0
 63
     7
421
 16777215
 40
1.0
291
     1
 91
  2455826
 92
 54000000
292
     0
 70
     2
 71
   256
280
     1
  0
DICTIONARY
  5
1CE
102
{ACAD_REACTORS
330
C
102
}
330
C
100
AcDbDictionary
281
     1
  0
DICTIONARY
  5
D
102
{ACAD_REACTORS
330
C
102
}
330
C
100
AcDbDictionary
281
     1
  0
DICTIONARY
  5
1A
102
{ACAD_REACTORS
330
C
102
}
330
C
100
AcDbDictionary
281
     1
  3
Layout1
350
1E
  3
Layout2
350
26
  3
Model
350
22
  0
DICTIONARY
  5
43
102
{ACAD_REACTORS
330
C
102
}
330
C
100
AcDbDictionary
281
     1
  3
ByBlock
350
45
  3
ByLayer
350
44
  3
Global
350
46
  0
DICTIONARY
  5
6B
102
{ACAD_REACTORS
330
C
102
}
330
C
100
AcDbDictionary
281
     1
  3
Standard
350
6C
  0
DICTIONARY
  5
17
102
{ACAD_REACTORS
330
C
102
}
330
C
100
AcDbDictionary
281
     1
  3
Standard
350
18
  0
DICTIONARY
  5
19
102
{ACAD_REACTORS
330
C
102
}
330
C
100
AcDbDictionary
281
     1
  0
ACDBDICTIONARYWDFLT
  5
E
102
{ACAD_REACTORS
330
C
102
}
330
C
100
AcDbDictionary
281
     1
  3
Normal
350
F
100
AcDbDictionaryWithDefault
340
F
  0
DICTIONARY
  5
47
102
{ACAD_REACTORS
330
C
102
}
330
C
100
AcDbDictionary
281
     1
  3
A0
350
48
  3
A1
350
49
  3
A2
350
4A
  3
A3
350
4B
  3
A4
350
4C
  3
A5
350
4D
  3
A6
350
4E
  3
A7
350
4F
  3
A8
350
50
  3
A9
350
51
  3
B0
350
52
  3
B1
350
53
  3
B2
350
54
  3
B3
350
55
  3
B4
350
56
  3
B5
350
57
  3
B6
350
58
  3
B7
350
59
  3
B8
350
5A
  3
B9
350
5B
  3
C0
350
5C
  3
C1
350
5D
  3
C2
350
5E
  3
C3
350
5F
  3
C4
350
60
  3
C5
350
61
  3
C6
350
62
  3
C7
350
63
  3
C8
350
64
  3
C9
350
65
  3
D0
350
66
  3
D1
350
67
  3
D2
350
68
  0
DICTIONARY
  5
1CF
102
{ACAD_REACTORS
330
C
102
}
330
C
100
AcDbDictionary
281
     1
  0
DICTIONARY
  5
69
102
{ACAD_REACTORS
330
C
102
}
330
C
100
AcDbDictionary
281
     1
  3
Standard
350
6A
  0
DICTIONARY
  5
2A
102
{ACAD_REACTORS
330
C
102
}
330
C
100
AcDbDictionary
281
     1
  3
2dWireframe
350
2F
  3
Basic
350
32
  3
Brighten
350
36
  3
ColorChange
350
3A
  3
Conceptual
350
34
  3
Dim
350
35
  3
EdgeColorOff
350
3D
  3
Facepattern
350
39
  3
Flat
350
2B
  3
FlatWithEdges
350
2C
  3
Gouraud
350
2D
  3
GouraudWithEdges
350
2E
  3
Hidden
350
31
  3
JitterOff
350
3B
  3
Linepattern
350
38
  3
OverhangOff
350
3C
  3
Realistic
350
33
  3
Shaded
350
42
  3
Shaded with edges
350
41
  3
Shades of Gray
350
3E
  3
Sketchy
350
3F
  3
Thicken
350
37
  3
Wireframe
350
30
  3
X-Ray
350
40
  0
XRECORD
  5
1CB
102
{ACAD_REACTORS
330
C
102
}
330
C
100
AcDbXrecord
280
     1
 90
        1
330
6A
  0
DICTIONARY
  5
1C7
102
{ACAD_REACTORS
330
C
102
}
330
C
100
AcDbDictionary
281
     1
  3
CANNOSCALE
350
1C8
  3
CMLEADERSTYLE
350
1CD
  3
CTABLESTYLE
350
1CC
  0
LAYOUT
  5
1E
102
{ACAD_REACTORS
330
1A
102
}
330
1A
100
AcDbPlotSettings
  1

  2
none_device
  4

  6

 40
0.0
 41
0.0
 42
0.0
 43
0.0
 44
0.0
 45
0.0
 46
0.0
 47
0.0
 48
0.0
 49
0.0
140
0.0
141
0.0
142
1.0
143
1.0
 70
   688
 72
     1
 73
     0
 74
     5
  7

 75
    16
 76
     0
 77
     2
 78
   300
147
1.0
148
0.0
149
0.0
100
AcDbLayout
  1
Layout1
 70
     1
 71
     1
 10
0.0
 20
0.0
 11
420.0
 21
297.0
 12
0.0
 22
0.0
 32
0.0
 14
1.000000000000000E+20
 24
1.000000000000000E+20
 34
1.000000000000000E+20
 15
-1.000000000000000E+20
 25
-1.000000000000000E+20
 35
-1.000000000000000E+20
146
0.0
 13
0.0
 23
0.0
 33
0.0
 16
1.0
 26
0.0
 36
0.0
 17
0.0
 27
1.0
 37
0.0
 76
     0
330
1B
  0
LAYOUT
  5
26
102
{ACAD_REACTORS
330
1A
102
}
330
1A
100
AcDbPlotSettings
  1

  2
none_device
  4

  6

 40
0.0
 41
0.0
 42
0.0
 43
0.0
 44
0.0
 45
0.0
 46
0.0
 47
0.0
 48
0.0
 49
0.0
140
0.0
141
0.0
142
1.0
143
1.0
 70
   688
 72
     1
 73
     0
 74
     5
  7

 75
    16
 76
     0
 77
     2
 78
   300
147
1.0
148
0.0
149
0.0
100
AcDbLayout
  1
Layout2
 70
     1
 71
     2
 10
0.0
 20
0.0
 11
0.0
 21
0.0
 12
0.0
 22
0.0
 32
0.0
 14
0.0
 24
0.0
 34
0.0
 15
0.0
 25
0.0
 35
0.0
146
0.0
 13
0.0
 23
0.0
 33
0.0
 16
1.0
 26
0.0
 36
0.0
 17
0.0
 27
1.0
 37
0.0
 76
     0
330
23
  0
LAYOUT
  5
22
102
{ACAD_REACTORS
330
1A
102
}
330
1A
100
AcDbPlotSettings
  1

  2
none_device
  4
Letter_(8.50_x_11.00_Inches)
  6

 40
6.35
 41
6.35
 42
6.35000508
 43
6.35000508
 44
215.9
 45
279.4
 46
0.0
 47
0.0
 48
0.0
 49
0.0
140
0.0
141
0.0
142
1.0
143
1.0
 70
  1712
 72
     1
 73
     0
 74
     0
  7

 75
     0
 76
     0
 77
     2
 78
   300
147
1.0
148
0.0
149
0.0
100
AcDbLayout
  1
Model
 70
     1
 71
     0
 10
0.0
 20
0.0
 11
420.0
 21
297.0
 12
0.0
 22
0.0
 32
0.0
 14
1.000000000000000E+20
 24
1.000000000000000E+20
 34
1.000000000000000E+20
 15
-1.000000000000000E+20
 25
-1.000000000000000E+20
 35
-1.000000000000000E+20
146
0.0
 13
0.0
 23
0.0
 33
0.0
 16
1.0
 26
0.0
 36
0.0
 17
0.0
 27
1.0
 37
0.0
 76
     0
330
1F
331
29
  0
MATERIAL
  5
45
102
{ACAD_REACTORS
330
43
102
}
330
43
100
AcDbMaterial
  1
ByBlock
 72
     1
 94
      127
  0
MATERIAL
  5
44
102
{ACAD_REACTORS
330
43
102
}
330
43
100
AcDbMaterial
  1
ByLayer
 72
     1
 94
      127
  0
MATERIAL
  5
46
102
{ACAD_REACTORS
330
43
102
}
330
43
100
AcDbMaterial
  1
Global
 72
     1
 94
      127
  0
MLEADERSTYLE
  5
6C
102
{ACAD_REACTORS
330
6B
102
}
330
6B
100
AcDbMLeaderStyle
179
     2
170
     2
171
     1
172
     0
 90
        2
 40
0.0
 41
0.0
173
     1
 91
-1056964608
340
14
 92
       -2
290
     1
 42
2.0
291
     1
 43
8.0
  3
Standard
341
0
 44
4.0
300

342
11
174
     1
178
     6
175
     1
176
     0
 93
-1056964608
 45
4.0
292
     0
297
     0
 46
4.0
343
0
 94
-1056964608
 47
1.0
 49
1.0
140
1.0
293
     1
141
0.0
294
     1
177
     0
142
1.0
295
     0
296
     0
143
3.75
271
     0
272
     9
273
     9
298
     0
  0
MLINESTYLE
  5
18
102
{ACAD_REACTORS
330
17
102
}
330
17
100
AcDbMlineStyle
  2
Standard
 70
     0
  3

 62
   256
 51
90.0
 52
90.0
 71
     2
 49
0.5
 62
   256
  6
BYLAYER
 49
-0.5
 62
   256
  6
BYLAYER
  0
ACDBPLACEHOLDER
  5
F
102
{ACAD_REACTORS
330
E
102
}
330
E
  0
SCALE
  5
48
102
{ACAD_REACTORS
330
47
102
}
330
47
100
AcDbScale
 70
     0
300
1:1
140
1.0
141
1.0
290
     1
  0
SCALE
  5
49
102
{ACAD_REACTORS
330
47
102
}
330
47
100
AcDbScale
 70
     0
300
1:2
140
1.0
141
2.0
290
     0
  0
SCALE
  5
4A
102
{ACAD_REACTORS
330
47
102
}
330
47
100
AcDbScale
 70
     0
300
1:4
140
1.0
141
4.0
290
     0
  0
SCALE
  5
4B
102
{ACAD_REACTORS
330
47
102
}
330
47
100
AcDbScale
 70
     0
300
1:5
140
1.0
141
5.0
290
     0
  0
SCALE
  5
4C
102
{ACAD_REACTORS
330
47
102
}
330
47
100
AcDbScale
 70
     0
300
1:8
140
1.0
141
8.0
290
     0
  0
SCALE
  5
4D
102
{ACAD_REACTORS
330
47
102
}
330
47
100
AcDbScale
 70
     0
300
1:10
140
1.0
141
10.0
290
     0
  0
SCALE
  5
4E
102
{ACAD_REACTORS
330
47
102
}
330
47
100
AcDbScale
 70
     0
300
1:16
140
1.0
141
16.0
290
     0
  0
SCALE
  5
4F
102
{ACAD_REACTORS
330
47
102
}
330
47
100
AcDbScale
 70
     0
300
1:20
140
1.0
141
20.0
290
     0
  0
SCALE
  5
50
102
{ACAD_REACTORS
330
47
102
}
330
47
100
AcDbScale
 70
     0
300
1:30
140
1.0
141
30.0
290
     0
  0
SCALE
  5
51
102
{ACAD_REACTORS
330
47
102
}
330
47
100
AcDbScale
 70
     0
300
1:40
140
1.0
141
40.0
290
     0
  0
SCALE
  5
52
102
{ACAD_REACTORS
330
47
102
}
330
47
100
AcDbScale
 70
     0
300
1:50
140
1.0
141
50.0
290
     0
  0
SCALE
  5
53
102
{ACAD_REACTORS
330
47
102
}
330
47
100
AcDbScale
 70
     0
300
1:100
140
1.0
141
100.0
290
     0
  0
SCALE
  5
54
102
{ACAD_REACTORS
330
47
102
}
330
47
100
AcDbScale
 70
     0
300
2:1
140
2.0
141
1.0
290
     0
  0
SCALE
  5
55
102
{ACAD_REACTORS
330
47
102
}
330
47
100
AcDbScale
 70
     0
300
4:1
140
4.0
141
1.0
290
     0
  0
SCALE
  5
56
102
{ACAD_REACTORS
330
47
102
}
330
47
100
AcDbScale
 70
     0
300
8:1
140
8.0
141
1.0
290
     0
  0
SCALE
  5
57
102
{ACAD_REACTORS
330
47
102
}
330
47
100
AcDbScale
 70
     0
300
10:1
140
10.0
141
1.0
290
     0
  0
SCALE
  5
58
102
{ACAD_REACTORS
330
47
102
}
330
47
100
AcDbScale
 70
     0
300
100:1
140
100.0
141
1.0
290
     0
  0
SCALE
  5
59
102
{ACAD_REACTORS
330
47
102
}
330
47
100
AcDbScale
 70
     0
300
1/128" = 1'-0"
140
0.0078125
141
12.0
290
     0
  0
SCALE
  5
5A
102
{ACAD_REACTORS
330
47
102
}
330
47
100
AcDbScale
 70
     0
300
1/64" = 1'-0"
140
0.015625
141
12.0
290
     0
  0
SCALE
  5
5B
102
{ACAD_REACTORS
330
47
102
}
330
47
100
AcDbScale
 70
     0
300
1/32" = 1'-0"
140
0.03125
141
12.0
290
     0
  0
SCALE
  5
5C
102
{ACAD_REACTORS
330
47
102
}
330
47
100
AcDbScale
 70
     0
300
1/16" = 1'-0"
140
0.0625
141
12.0
290
     0
  0
SCALE
  5
5D
102
{ACAD_REACTORS
330
47
102
}
330
47
100
AcDbScale
 70
     0
300
3/32" = 1'-0"
140
0.09375
141
12.0
290
     0
  0
SCALE
  5
5E
102
{ACAD_REACTORS
330
47
102
}
330
47
100
AcDbScale
 70
     0
300
1/8" = 1'-0"
140
0.125
141
12.0
290
     0
  0
SCALE
  5
5F
102
{ACAD_REACTORS
330
47
102
}
330
47
100
AcDbScale
 70
     0
300
3/16" = 1'-0"
140
0.1875
141
12.0
290
     0
  0
SCALE
  5
60
102
{ACAD_REACTORS
330
47
102
}
330
47
100
AcDbScale
 70
     0
300
1/4" = 1'-0"
140
0.25
141
12.0
290
     0
  0
SCALE
  5
61
102
{ACAD_REACTORS
330
47
102
}
330
47
100
AcDbScale
 70
     0
300
3/8" = 1'-0"
140
0.375
141
12.0
290
     0
  0
SCALE
  5
62
102
{ACAD_REACTORS
330
47
102
}
330
47
100
AcDbScale
 70
     0
300
1/2" = 1'-0"
140
0.5
141
12.0
290
     0
  0
SCALE
  5
63
102
{ACAD_REACTORS
330
47
102
}
330
47
100
AcDbScale
 70
     0
300
3/4" = 1'-0"
140
0.75
141
12.0
290
     0
  0
SCALE
  5
64
102
{ACAD_REACTORS
330
47
102
}
330
47
100
AcDbScale
 70
     0
300
1" = 1'-0"
140
1.0
141
12.0
290
     0
  0
SCALE
  5
65
102
{ACAD_REACTORS
330
47
102
}
330
47
100
AcDbScale
 70
     0
300
1-1/2" = 1'-0"
140
1.5
141
12.0
290
     0
  0
SCALE
  5
66
102
{ACAD_REACTORS
330
47
102
}
330
47
100
AcDbScale
 70
     0
300
3" = 1'-0"
140
3.0
141
12.0
290
     0
  0
SCALE
  5
67
102
{ACAD_REACTORS
330
47
102
}
330
47
100
AcDbScale
 70
     0
300
6" = 1'-0"
140
6.0
141
12.0
290
     0
  0
SCALE
  5
68
102
{ACAD_REACTORS
330
47
102
}
330
47
100
AcDbScale
 70
     0
300
1'-0" = 1'-0"
140
12.0
141
12.0
290
     0
  0
TABLESTYLE
  5
6A
102
{ACAD_REACTORS
330
69
102
}
102
{ACAD_XDICTIONARY
360
1C9
102
}
330
69
100
AcDbTableStyle
  3
Standard
 70
     0
 71
     0
 40
0.06
 41
0.06
280
     0
281
     0
  7
Standard
140
4.5
170
     2
 62
     0
 63
   257
283
     0
 90
        4
 91
        0
  1

274
    -2
284
     1
 64
     0
275
    -2
285
     1
 65
     0
276
    -2
286
     1
 66
     0
277
    -2
287
     1
 67
     0
278
    -2
288
     1
 68
     0
279
    -2
289
     1
 69
     0
  7
Standard
140
6.0
170
     5
 62
     0
 63
   257
283
     0
 90
        4
 91
        0
  1

274
    -2
284
     1
 64
     0
275
    -2
285
     1
 65
     0
276
    -2
286
     1
 66
     0
277
    -2
287
     1
 67
     0
278
    -2
288
     1
 68
     0
279
    -2
289
     1
 69
     0
  7
Standard
140
4.5
170
     5
 62
     0
 63
   257
283
     0
 90
        4
 91
        0
  1

274
    -2
284
     1
 64
     0
275
    -2
285
     1
 65
     0
276
    -2
286
     1
 66
     0
277
    -2
287
     1
 67
     0
278
    -2
288
     1
 68
     0
279
    -2
289
     1
 69
     0
  0
VISUALSTYLE
  5
2F
102
{ACAD_REACTORS
330
2A
102
}
330
2A
100
AcDbVisualStyle
  2
2dWireframe
 70
     4
177
     3
291
     0
 70
    58
 90
        0
176
     1
 90
        2
176
     1
 90
        0
176
     1
 90
        0
176
     1
 40
0.6
176
     1
 40
30.0
176
     1
 62
     7
420
 16777215
176
     1
 90
        1
176
     1
 90
        4
176
     1
 62
     7
176
     1
 62
   257
176
     1
 90
        1
176
     1
 90
        1
176
     1
 40
1.0
176
     1
 90
        0
176
     1
 62
   257
176
     1
 40
1.0
176
     1
 90
        1
176
     1
 90
        6
176
     1
 90
        2
176
     1
 62
     7
176
     1
 90
        5
176
     1
 90
        0
176
     1
 90
        0
176
     1
290
     0
176
     1
 90
        1
176
     1
 40
0.0
176
     1
 90
        0
176
     1
290
     1
176
     1
290
     1
176
     1
290
     0
176
     1
290
     0
176
     1
290
     0
176
     1
290
     0
176
     1
290
     0
176
     1
290
     0
176
     1
290
     0
176
     1
 90
       50
176
     1
 40
0.0
176
     1
 40
1.0
176
     1
 90
        0
176
     1
 62
    18
420
        0
176
     1
 90
       50
176
     1
 90
        3
176
     1
 62
     5
420
      255
176
     1
290
     0
176
     1
 90
       50
176
     1
 90
       50
176
     1
 90
       50
176
     1
290
     0
176
     1
 90
       50
176
     1
 62
   256
176
     0
 40
1.0
176
     0
 90
        2
176
     1
  1
strokes_ogs.tif
176
     1
290
     0
176
     1
 40
1.0
176
     1
 40
1.0
176
     1
  0
VISUALSTYLE
  5
32
102
{ACAD_REACTORS
330
2A
102
}
330
2A
100
AcDbVisualStyle
  2
Basic
 70
     7
177
     3
291
     1
 70
    58
 90
        1
176
     1
 90
        0
176
     1
 90
        1
176
     1
 90
        0
176
     1
 40
0.6
176
     1
 40
30.0
176
     1
 62
     7
420
 16777215
176
     1
 90
        0
176
     1
 90
        4
176
     1
 62
     7
176
     1
 62
   257
176
     1
 90
        1
176
     1
 90
        1
176
     1
 40
1.0
176
     1
 90
        8
176
     1
 62
     7
176
     1
 40
1.0
176
     1
 90
        1
176
     1
 90
        6
176
     1
 90
        2
176
     1
 62
     7
176
     1
 90
        5
176
     1
 90
        0
176
     1
 90
        0
176
     1
290
     0
176
     1
 90
        1
176
     1
 40
0.0
176
     1
 90
        0
176
     1
290
     0
176
     1
290
     1
176
     1
290
     1
176
     1
290
     0
176
     1
290
     0
176
     1
290
     0
176
     1
290
     0
176
     1
290
     0
176
     1
290
     0
176
     1
 90
       50
176
     1
 40
0.0
176
     1
 40
1.0
176
     1
 90
        0
176
     1
 62
    18
420
        0
176
     1
 90
       50
176
     1
 90
        3
176
     1
 62
     5
420
      255
176
     1
290
     0
176
     1
 90
       50
176
     1
 90
       50
176
     1
 90
       50
176
     1
290
     0
176
     1
 90
       50
176
     1
 62
   256
176
     0
 40
1.0
176
     0
 90
        2
176
     1
  1
strokes_ogs.tif
176
     1
290
     0
176
     1
 40
1.0
176
     1
 40
1.0
176
     1
  0
VISUALSTYLE
  5
36
102
{ACAD_REACTORS
330
2A
102
}
330
2A
100
AcDbVisualStyle
  2
Brighten
 70
    12
177
     3
291
     1
 70
    58
 90
        2
176
     1
 90
        2
176
     1
 90
        0
176
     1
 90
        0
176
     1
 40
0.6
176
     1
 40
30.0
176
     1
 62
     7
420
 16777215
176
     1
 90
        1
176
     1
 90
        4
176
     1
 62
     7
176
     1
 62
   257
176
     1
 90
        1
176
     1
 90
        1
176
     1
 40
1.0
176
     1
 90
        8
176
     1
 62
     7
176
     1
 40
1.0
176
     1
 90
        1
176
     1
 90
        6
176
     1
 90
        2
176
     1
 62
     7
176
     1
 90
        5
176
     1
 90
        0
176
     1
 90
        0
176
     1
290
     0
176
     1
 90
        1
176
     1
 40
50.0
176
     1
 90
        0
176
     1
290
     0
176
     1
290
     1
176
     1
290
     1
176
     1
290
     0
176
     1
290
     0
176
     1
290
     0
176
     1
290
     0
176
     1
290
     0
176
     1
290
     0
176
     1
 90
       50
176
     1
 40
0.0
176
     1
 40
1.0
176
     1
 90
        0
176
     1
 62
    18
420
        0
176
     1
 90
       50
176
     1
 90
        3
176
     1
 62
     5
420
      255
176
     1
290
     0
176
     1
 90
       50
176
     1
 90
       50
176
     1
 90
       50
176
     1
290
     0
176
     1
 90
       50
176
     1
 62
   256
176
     0
 40
1.0
176
     0
 90
        2
176
     1
  1
strokes_ogs.tif
176
     1
290
     0
176
     1
 40
1.0
176
     1
 40
1.0
176
     1
  0
VISUALSTYLE
  5
3A
102
{ACAD_REACTORS
330
2A
102
}
330
2A
100
AcDbVisualStyle
  2
ColorChange
 70
    16
177
     3
291
     1
 70
    58
 90
        2
176
     1
 90
        2
176
     1
 90
        3
176
     1
 90
        0
176
     1
 40
0.6
176
     1
 40
30.0
176
     1
 62
     8
420
  8421504
176
     1
 90
        1
176
     1
 90
        4
176
     1
 62
     7
176
     1
 62
   257
176
     1
 90
        1
176
     1
 90
        1
176
     1
 40
1.0
176
     1
 90
        8
176
     1
 62
     8
420
  8421504
176
     1
 40
1.0
176
     1
 90
        1
176
     1
 90
        6
176
     1
 90
        2
176
     1
 62
     7
176
     1
 90
        5
176
     1
 90
        0
176
     1
 90
        0
176
     1
290
     0
176
     1
 90
        1
176
     1
 40
0.0
176
     1
 90
        0
176
     1
290
     0
176
     1
290
     1
176
     1
290
     1
176
     1
290
     0
176
     1
290
     0
176
     1
290
     0
176
     1
290
     0
176
     1
290
     0
176
     1
290
     0
176
     1
 90
       50
176
     1
 40
0.0
176
     1
 40
1.0
176
     1
 90
        0
176
     1
 62
    18
420
        0
176
     1
 90
       50
176
     1
 90
        3
176
     1
 62
     5
420
      255
176
     1
290
     0
176
     1
 90
       50
176
     1
 90
       50
176
     1
 90
       50
176
     1
290
     0
176
     1
 90
       50
176
     1
 62
   256
176
     0
 40
1.0
176
     0
 90
        2
176
     1
  1
strokes_ogs.tif
176
     1
290
     0
176
     1
 40
1.0
176
     1
 40
1.0
176
     1
  0
VISUALSTYLE
  5
34
102
{ACAD_REACTORS
330
2A
102
}
330
2A
100
AcDbVisualStyle
  2
Conceptual
 70
     9
177
     3
291
     0
 70
    58
 90
        3
176
     1
 90
        2
176
     1
 90
        0
176
     1
 90
        0
176
     1
 40
0.6
176
     1
 40
30.0
176
     1
 62
     7
420
 16777215
176
     1
 90
        2
176
     1
 90
        2
176
     1
 62
     7
176
     1
 62
   257
176
     1
 90
        1
176
     1
 90
        1
176
     1
 40
179.0
176
     1
 90
        8
176
     1
 62
     7
176
     1
 40
1.0
176
     1
 90
        1
176
     1
 90
        6
176
     1
 90
        2
176
     1
 62
     7
176
     1
 90
        3
176
     1
 90
        0
176
     1
 90
        0
176
     1
290
     0
176
     1
 90
        1
176
     1
 40
0.0
176
     1
 90
        0
176
     1
290
     0
176
     1
290
     1
176
     1
290
     1
176
     1
290
     0
176
     1
290
     0
176
     1
290
     0
176
     1
290
     0
176
     1
290
     0
176
     1
290
     0
176
     1
 90
       50
176
     1
 40
0.0
176
     1
 40
1.0
176
     1
 90
        0
176
     1
 62
    18
420
        0
176
     1
 90
       50
176
     1
 90
        3
176
     1
 62
     5
420
      255
176
     1
290
     0
176
     1
 90
       50
176
     1
 90
       50
176
     1
 90
       50
176
     1
290
     0
176
     1
 90
       50
176
     1
 62
   256
176
     0
 40
1.0
176
     0
 90
        2
176
     1
  1
strokes_ogs.tif
176
     1
290
     0
176
     1
 40
1.0
176
     1
 40
1.0
176
     1
  0
VISUALSTYLE
  5
35
102
{ACAD_REACTORS
330
2A
102
}
330
2A
100
AcDbVisualStyle
  2
Dim
 70
    11
177
     3
291
     1
 70
    58
 90
        2
176
     1
 90
        2
176
     1
 90
        0
176
     1
 90
        0
176
     1
 40
0.6
176
     1
 40
30.0
176
     1
 62
     7
420
 16777215
176
     1
 90
        1
176
     1
 90
        4
176
     1
 62
     7
176
     1
 62
   257
176
     1
 90
        1
176
     1
 90
        1
176
     1
 40
1.0
176
     1
 90
        8
176
     1
 62
     7
176
     1
 40
1.0
176
     1
 90
        1
176
     1
 90
        6
176
     1
 90
        2
176
     1
 62
     7
176
     1
 90
        5
176
     1
 90
        0
176
     1
 90
        0
176
     1
290
     0
176
     1
 90
        1
176
     1
 40
-50.0
176
     1
 90
        0
176
     1
290
     0
176
     1
290
     1
176
     1
290
     1
176
     1
290
     0
176
     1
290
     0
176
     1
290
     0
176
     1
290
     0
176
     1
290
     0
176
     1
290
     0
176
     1
 90
       50
176
     1
 40
0.0
176
     1
 40
1.0
176
     1
 90
        0
176
     1
 62
    18
420
        0
176
     1
 90
       50
176
     1
 90
        3
176
     1
 62
     5
420
      255
176
     1
290
     0
176
     1
 90
       50
176
     1
 90
       50
176
     1
 90
       50
176
     1
290
     0
176
     1
 90
       50
176
     1
 62
   256
176
     0
 40
1.0
176
     0
 90
        2
176
     1
  1
strokes_ogs.tif
176
     1
290
     0
176
     1
 40
1.0
176
     1
 40
1.0
176
     1
  0
VISUALSTYLE
  5
3D
102
{ACAD_REACTORS
330
2A
102
}
330
2A
100
AcDbVisualStyle
  2
EdgeColorOff
 70
    22
177
     3
291
     1
 70
    58
 90
        2
176
     0
 90
        2
176
     0
 90
        0
176
     0
 90
        0
176
     0
 40
0.6
176
     0
 40
30.0
176
     0
 62
     7
420
 16777215
176
     0
 90
        1
176
     0
 90
        4
176
     0
 62
     7
176
     0
 62
   257
176
     0
 90
        1
176
     0
 90
        1
176
     0
 40
1.0
176
     0
 90
        8
176
     2
 62
     7
176
     0
 40
1.0
176
     0
 90
        1
176
     0
 90
        6
176
     0
 90
        2
176
     0
 62
     7
176
     0
 90
        5
176
     0
 90
        0
176
     0
 90
        0
176
     0
290
     0
176
     0
 90
        1
176
     0
 40
0.0
176
     0
 90
        0
176
     0
290
     0
176
     0
290
     1
176
     0
290
     1
176
     0
290
     0
176
     0
290
     0
176
     0
290
     0
176
     0
290
     0
176
     0
290
     0
176
     0
290
     0
176
     0
 90
       50
176
     0
 40
0.0
176
     0
 40
1.0
176
     0
 90
        0
176
     0
 62
    18
420
        0
176
     0
 90
       50
176
     0
 90
        3
176
     0
 62
     5
420
      255
176
     0
290
     0
176
     0
 90
       50
176
     0
 90
       50
176
     0
 90
       50
176
     0
290
     0
176
     0
 90
       50
176
     0
 62
   256
176
     0
 40
1.0
176
     0
 90
        2
176
     0
  1
strokes_ogs.tif
176
     0
290
     0
176
     0
 40
1.0
176
     0
 40
1.0
176
     0
  0
VISUALSTYLE
  5
39
102
{ACAD_REACTORS
330
2A
102
}
330
2A
100
AcDbVisualStyle
  2
Facepattern
 70
    15
177
     3
291
     1
 70
    58
 90
        2
176
     1
 90
        2
176
     1
 90
        0
176
     1
 90
        0
176
     1
 40
0.6
176
     1
 40
30.0
176
     1
 62
     7
420
 16777215
176
     1
 90
        1
176
     1
 90
        4
176
     1
 62
     7
176
     1
 62
   257
176
     1
 90
        1
176
     1
 90
        1
176
     1
 40
1.0
176
     1
 90
        8
176
     1
 62
     7
176
     1
 40
1.0
176
     1
 90
        1
176
     1
 90
        6
176
     1
 90
        2
176
     1
 62
     7
176
     1
 90
        5
176
     1
 90
        0
176
     1
 90
        0
176
     1
290
     0
176
     1
 90
        1
176
     1
 40
0.0
176
     1
 90
        0
176
     1
290
     0
176
     1
290
     1
176
     1
290
     1
176
     1
290
     0
176
     1
290
     0
176
     1
290
     0
176
     1
290
     0
176
     1
290
     0
176
     1
290
     0
176
     1
 90
       50
176
     1
 40
0.0
176
     1
 40
1.0
176
     1
 90
        0
176
     1
 62
    18
420
        0
176
     1
 90
       50
176
     1
 90
        3
176
     1
 62
     5
420
      255
176
     1
290
     0
176
     1
 90
       50
176
     1
 90
       50
176
     1
 90
       50
176
     1
290
     0
176
     1
 90
       50
176
     1
 62
   256
176
     0
 40
1.0
176
     0
 90
        2
176
     1
  1
strokes_ogs.tif
176
     1
290
     0
176
     1
 40
1.0
176
     1
 40
1.0
176
     1
  0
VISUALSTYLE
  5
2B
102
{ACAD_REACTORS
330
2A
102
}
330
2A
100
AcDbVisualStyle
  2
Flat
 70
     0
177
     3
291
     1
 70
    58
 90
        2
176
     1
 90
        1
176
     1
 90
        1
176
     1
 90
        2
176
     1
 40
0.6
176
     1
 40
30.0
176
     1
 62
     7
420
 16777215
176
     1
 90
        0
176
     1
 90
        0
176
     1
 62
     7
176
     1
 62
   257
176
     1
 90
        1
176
     1
 90
        1
176
     1
 40
1.0
176
     1
 90
        8
176
     1
 62
     7
176
     1
 40
1.0
176
     1
 90
        1
176
     1
 90
        6
176
     1
 90
        2
176
     1
 62
     7
176
     1
 90
        5
176
     1
 90
        0
176
     1
 90
        0
176
     1
290
     0
176
     1
 90
       13
176
     1
 40
0.0
176
     1
 90
        0
176
     1
290
     0
176
     1
290
     1
176
     1
290
     1
176
     1
290
     0
176
     1
290
     0
176
     1
290
     0
176
     1
290
     0
176
     1
290
     0
176
     1
290
     0
176
     1
 90
       50
176
     1
 40
0.0
176
     1
 40
1.0
176
     1
 90
        0
176
     1
 62
    18
420
        0
176
     1
 90
       50
176
     1
 90
        3
176
     1
 62
     5
420
      255
176
     1
290
     0
176
     1
 90
       50
176
     1
 90
       50
176
     1
 90
       50
176
     1
290
     0
176
     1
 90
       50
176
     1
 62
   256
176
     0
 40
1.0
176
     0
 90
        2
176
     1
  1
strokes_ogs.tif
176
     1
290
     0
176
     1
 40
1.0
176
     1
 40
1.0
176
     1
  0
VISUALSTYLE
  5
2C
102
{ACAD_REACTORS
330
2A
102
}
330
2A
100
AcDbVisualStyle
  2
FlatWithEdges
 70
     1
177
     3
291
     1
 70
    58
 90
        2
176
     1
 90
        1
176
     1
 90
        1
176
     1
 90
        2
176
     1
 40
0.6
176
     1
 40
30.0
176
     1
 62
     7
420
 16777215
176
     1
 90
        1
176
     1
 90
        0
176
     1
 62
     7
176
     1
 62
   257
176
     1
 90
        1
176
     1
 90
        1
176
     1
 40
1.0
176
     1
 90
        0
176
     1
 62
   257
176
     1
 40
1.0
176
     1
 90
        1
176
     1
 90
        6
176
     1
 90
        2
176
     1
 62
     7
176
     1
 90
        5
176
     1
 90
        0
176
     1
 90
        0
176
     1
290
     0
176
     1
 90
       13
176
     1
 40
0.0
176
     1
 90
        0
176
     1
290
     0
176
     1
290
     1
176
     1
290
     1
176
     1
290
     0
176
     1
290
     0
176
     1
290
     0
176
     1
290
     0
176
     1
290
     0
176
     1
290
     0
176
     1
 90
       50
176
     1
 40
0.0
176
     1
 40
1.0
176
     1
 90
        0
176
     1
 62
    18
420
        0
176
     1
 90
       50
176
     1
 90
        3
176
     1
 62
     5
420
      255
176
     1
290
     0
176
     1
 90
       50
176
     1
 90
       50
176
     1
 90
       50
176
     1
290
     0
176
     1
 90
       50
176
     1
 62
   256
176
     0
 40
1.0
176
     0
 90
        2
176
     1
  1
strokes_ogs.tif
176
     1
290
     0
176
     1
 40
1.0
176
     1
 40
1.0
176
     1
  0
VISUALSTYLE
  5
2D
102
{ACAD_REACTORS
330
2A
102
}
330
2A
100
AcDbVisualStyle
  2
Gouraud
 70
     2
177
     3
291
     1
 70
    58
 90
        2
176
     1
 90
        2
176
     1
 90
        1
176
     1
 90
        2
176
     1
 40
0.6
176
     1
 40
30.0
176
     1
 62
     7
420
 16777215
176
     1
 90
        0
176
     1
 90
        0
176
     1
 62
     7
176
     1
 62
   257
176
     1
 90
        1
176
     1
 90
        1
176
     1
 40
1.0
176
     1
 90
        0
176
     1
 62
     7
176
     1
 40
1.0
176
     1
 90
        1
176
     1
 90
        6
176
     1
 90
        2
176
     1
 62
     7
176
     1
 90
        5
176
     1
 90
        0
176
     1
 90
        0
176
     1
290
     0
176
     1
 90
       13
176
     1
 40
0.0
176
     1
 90
        0
176
     1
290
     0
176
     1
290
     1
176
     1
290
     1
176
     1
290
     0
176
     1
290
     0
176
     1
290
     0
176
     1
290
     0
176
     1
290
     0
176
     1
290
     0
176
     1
 90
       50
176
     1
 40
0.0
176
     1
 40
1.0
176
     1
 90
        0
176
     1
 62
    18
420
        0
176
     1
 90
       50
176
     1
 90
        3
176
     1
 62
     5
420
      255
176
     1
290
     0
176
     1
 90
       50
176
     1
 90
       50
176
     1
 90
       50
176
     1
290
     0
176
     1
 90
       50
176
     1
 62
   256
176
     0
 40
1.0
176
     0
 90
        2
176
     1
  1
strokes_ogs.tif
176
     1
290
     0
176
     1
 40
1.0
176
     1
 40
1.0
176
     1
  0
VISUALSTYLE
  5
2E
102
{ACAD_REACTORS
330
2A
102
}
330
2A
100
AcDbVisualStyle
  2
GouraudWithEdges
 70
     3
177
     3
291
     1
 70
    58
 90
        2
176
     1
 90
        2
176
     1
 90
        1
176
     1
 90
        2
176
     1
 40
0.6
176
     1
 40
30.0
176
     1
 62
     7
420
 16777215
176
     1
 90
        1
176
     1
 90
        0
176
     1
 62
     7
176
     1
 62
   257
176
     1
 90
        1
176
     1
 90
        1
176
     1
 40
1.0
176
     1
 90
        0
176
     1
 62
   257
176
     1
 40
1.0
176
     1
 90
        1
176
     1
 90
        6
176
     1
 90
        2
176
     1
 62
     7
176
     1
 90
        5
176
     1
 90
        0
176
     1
 90
        0
176
     1
290
     0
176
     1
 90
       13
176
     1
 40
0.0
176
     1
 90
        0
176
     1
290
     0
176
     1
290
     1
176
     1
290
     1
176
     1
290
     0
176
     1
290
     0
176
     1
290
     0
176
     1
290
     0
176
     1
290
     0
176
     1
290
     0
176
     1
 90
       50
176
     1
 40
0.0
176
     1
 40
1.0
176
     1
 90
        0
176
     1
 62
    18
420
        0
176
     1
 90
       50
176
     1
 90
        3
176
     1
 62
     5
420
      255
176
     1
290
     0
176
     1
 90
       50
176
     1
 90
       50
176
     1
 90
       50
176
     1
290
     0
176
     1
 90
       50
176
     1
 62
   256
176
     0
 40
1.0
176
     0
 90
        2
176
     1
  1
strokes_ogs.tif
176
     1
290
     0
176
     1
 40
1.0
176
     1
 40
1.0
176
     1
  0
VISUALSTYLE
  5
31
102
{ACAD_REACTORS
330
2A
102
}
330
2A
100
AcDbVisualStyle
  2
Hidden
 70
     6
177
     3
291
     0
 70
    58
 90
        1
176
     1
 90
        2
176
     1
 90
        2
176
     1
 90
        0
176
     1
 40
0.6
176
     1
 40
30.0
176
     1
 62
     7
420
 16777215
176
     1
 90
        2
176
     1
 90
        2
176
     1
 62
     7
176
     1
 62
   257
176
     1
 90
        2
176
     1
 90
        1
176
     1
 40
40.0
176
     1
 90
        0
176
     1
 62
   257
176
     1
 40
1.0
176
     1
 90
        1
176
     1
 90
        6
176
     1
 90
        2
176
     1
 62
     7
176
     1
 90
        3
176
     1
 90
        0
176
     1
 90
        0
176
     1
290
     0
176
     1
 90
        1
176
     1
 40
0.0
176
     1
 90
        0
176
     1
290
     0
176
     1
290
     1
176
     1
290
     1
176
     1
290
     0
176
     1
290
     0
176
     1
290
     0
176
     1
290
     0
176
     1
290
     0
176
     1
290
     0
176
     1
 90
       50
176
     1
 40
0.0
176
     1
 40
1.0
176
     1
 90
        0
176
     1
 62
    18
420
        0
176
     1
 90
       50
176
     1
 90
        3
176
     1
 62
     5
420
      255
176
     1
290
     0
176
     1
 90
       50
176
     1
 90
       50
176
     1
 90
       50
176
     1
290
     0
176
     1
 90
       50
176
     1
 62
   256
176
     0
 40
1.0
176
     0
 90
        2
176
     1
  1
strokes_ogs.tif
176
     1
290
     0
176
     1
 40
1.0
176
     1
 40
1.0
176
     1
  0
VISUALSTYLE
  5
3B
102
{ACAD_REACTORS
330
2A
102
}
330
2A
100
AcDbVisualStyle
  2
JitterOff
 70
    20
177
     3
291
     1
 70
    58
 90
        2
176
     0
 90
        2
176
     0
 90
        0
176
     0
 90
        0
176
     0
 40
0.6
176
     0
 40
30.0
176
     0
 62
     7
420
 16777215
176
     0
 90
        1
176
     0
 90
        4
176
     0
 62
     7
176
     0
 62
   257
176
     0
 90
        1
176
     0
 90
        1
176
     0
 40
1.0
176
     0
 90
       10
176
     2
 62
     7
176
     0
 40
1.0
176
     0
 90
        1
176
     0
 90
        6
176
     0
 90
        2
176
     0
 62
     7
176
     0
 90
        5
176
     0
 90
        0
176
     0
 90
        0
176
     0
290
     0
176
     0
 90
        1
176
     0
 40
0.0
176
     0
 90
        0
176
     0
290
     0
176
     0
290
     1
176
     0
290
     1
176
     0
290
     0
176
     0
290
     0
176
     0
290
     0
176
     0
290
     0
176
     0
290
     0
176
     0
290
     0
176
     0
 90
       50
176
     0
 40
0.0
176
     0
 40
1.0
176
     0
 90
        0
176
     0
 62
    18
420
        0
176
     0
 90
       50
176
     0
 90
        3
176
     0
 62
     5
420
      255
176
     0
290
     0
176
     0
 90
       50
176
     0
 90
       50
176
     0
 90
       50
176
     0
290
     0
176
     0
 90
       50
176
     0
 62
   256
176
     0
 40
1.0
176
     0
 90
        2
176
     0
  1
strokes_ogs.tif
176
     0
290
     0
176
     0
 40
1.0
176
     0
 40
1.0
176
     0
  0
VISUALSTYLE
  5
38
102
{ACAD_REACTORS
330
2A
102
}
330
2A
100
AcDbVisualStyle
  2
Linepattern
 70
    14
177
     3
291
     1
 70
    58
 90
        2
176
     1
 90
        2
176
     1
 90
        0
176
     1
 90
        0
176
     1
 40
0.6
176
     1
 40
30.0
176
     1
 62
     7
420
 16777215
176
     1
 90
        1
176
     1
 90
        4
176
     1
 62
     7
176
     1
 62
   257
176
     1
 90
        7
176
     1
 90
        7
176
     1
 40
1.0
176
     1
 90
        8
176
     1
 62
     7
176
     1
 40
1.0
176
     1
 90
        1
176
     1
 90
        6
176
     1
 90
        2
176
     1
 62
     7
176
     1
 90
        5
176
     1
 90
        0
176
     1
 90
        0
176
     1
290
     0
176
     1
 90
        1
176
     1
 40
0.0
176
     1
 90
        0
176
     1
290
     0
176
     1
290
     1
176
     1
290
     1
176
     1
290
     0
176
     1
290
     0
176
     1
290
     0
176
     1
290
     0
176
     1
290
     0
176
     1
290
     0
176
     1
 90
       50
176
     1
 40
0.0
176
     1
 40
1.0
176
     1
 90
        0
176
     1
 62
    18
420
        0
176
     1
 90
       50
176
     1
 90
        3
176
     1
 62
     5
420
      255
176
     1
290
     0
176
     1
 90
       50
176
     1
 90
       50
176
     1
 90
       50
176
     1
290
     0
176
     1
 90
       50
176
     1
 62
   256
176
     0
 40
1.0
176
     0
 90
        2
176
     1
  1
strokes_ogs.tif
176
     1
290
     0
176
     1
 40
1.0
176
     1
 40
1.0
176
     1
  0
VISUALSTYLE
  5
3C
102
{ACAD_REACTORS
330
2A
102
}
330
2A
100
AcDbVisualStyle
  2
OverhangOff
 70
    21
177
     3
291
     1
 70
    58
 90
        2
176
     0
 90
        2
176
     0
 90
        0
176
     0
 90
        0
176
     0
 40
0.6
176
     0
 40
30.0
176
     0
 62
     7
420
 16777215
176
     0
 90
        1
176
     0
 90
        4
176
     0
 62
     7
176
     0
 62
   257
176
     0
 90
        1
176
     0
 90
        1
176
     0
 40
1.0
176
     0
 90
        9
176
     2
 62
     7
176
     0
 40
1.0
176
     0
 90
        1
176
     0
 90
        6
176
     0
 90
        2
176
     0
 62
     7
176
     0
 90
        5
176
     0
 90
        0
176
     0
 90
        0
176
     0
290
     0
176
     0
 90
        1
176
     0
 40
0.0
176
     0
 90
        0
176
     0
290
     0
176
     0
290
     1
176
     0
290
     1
176
     0
290
     0
176
     0
290
     0
176
     0
290
     0
176
     0
290
     0
176
     0
290
     0
176
     0
290
     0
176
     0
 90
       50
176
     0
 40
0.0
176
     0
 40
1.0
176
     0
 90
        0
176
     0
 62
    18
420
        0
176
     0
 90
       50
176
     0
 90
        3
176
     0
 62
     5
420
      255
176
     0
290
     0
176
     0
 90
       50
176
     0
 90
       50
176
     0
 90
       50
176
     0
290
     0
176
     0
 90
       50
176
     0
 62
   256
176
     0
 40
1.0
176
     0
 90
        2
176
     0
  1
strokes_ogs.tif
176
     0
290
     0
176
     0
 40
1.0
176
     0
 40
1.0
176
     0
  0
VISUALSTYLE
  5
33
102
{ACAD_REACTORS
330
2A
102
}
330
2A
100
AcDbVisualStyle
  2
Realistic
 70
     8
177
     3
291
     0
 70
    58
 90
        2
176
     1
 90
        3
176
     1
 90
        0
176
     1
 90
        2
176
     1
 40
0.6
176
     1
 40
30.0
176
     1
 62
     7
420
 16777215
176
     1
 90
        0
176
     1
 90
        0
176
     1
 62
     7
176
     1
 62
   257
176
     1
 90
        1
176
     1
 90
        1
176
     1
 40
1.0
176
     1
 90
        8
176
     1
 62
   257
176
     1
 40
1.0
176
     1
 90
        1
176
     1
 90
        6
176
     1
 90
        2
176
     1
 62
     7
176
     1
 90
        3
176
     1
 90
        0
176
     1
 90
        0
176
     1
290
     0
176
     1
 90
       13
176
     1
 40
0.0
176
     1
 90
        0
176
     1
290
     0
176
     1
290
     1
176
     1
290
     1
176
     1
290
     0
176
     1
290
     0
176
     1
290
     0
176
     1
290
     0
176
     1
290
     0
176
     1
290
     0
176
     1
 90
       50
176
     1
 40
0.0
176
     1
 40
1.0
176
     1
 90
        0
176
     1
 62
    18
420
        0
176
     1
 90
       50
176
     1
 90
        3
176
     1
 62
     5
420
      255
176
     1
290
     0
176
     1
 90
       50
176
     1
 90
       50
176
     1
 90
       50
176
     1
290
     0
176
     1
 90
       50
176
     1
 62
   256
176
     0
 40
1.0
176
     0
 90
        2
176
     1
  1
strokes_ogs.tif
176
     1
290
     0
176
     1
 40
1.0
176
     1
 40
1.0
176
     1
  0
VISUALSTYLE
  5
42
102
{ACAD_REACTORS
330
2A
102
}
330
2A
100
AcDbVisualStyle
  2
Shaded
 70
    27
177
     3
291
     0
 70
    58
 90
        2
176
     1
 90
        2
176
     1
 90
        1
176
     1
 90
        2
176
     1
 40
0.6
176
     1
 40
30.0
176
     1
 62
     7
420
 16777215
176
     1
 90
        0
176
     1
 90
        4
176
     1
 62
     7
176
     1
 62
   257
176
     1
 90
        1
176
     1
 90
        1
176
     1
 40
1.0
176
     1
 90
        8
176
     1
 62
   257
176
     1
 40
1.0
176
     1
 90
        1
176
     1
 90
        6
176
     1
 90
        2
176
     1
 62
     8
420
  7895160
176
     1
 90
        3
176
     1
 90
        0
176
     1
 90
        0
176
     1
290
     0
176
     1
 90
        5
176
     1
 40
0.0
176
     1
 90
        0
176
     1
290
     0
176
     1
290
     1
176
     1
290
     1
176
     1
290
     0
176
     1
290
     0
176
     1
290
     0
176
     1
290
     0
176
     1
290
     0
176
     1
290
     0
176
     1
 90
       50
176
     1
 40
0.0
176
     1
 40
1.0
176
     1
 90
        0
176
     1
 62
    18
420
        0
176
     1
 90
       50
176
     1
 90
        3
176
     1
 62
     5
420
      255
176
     1
290
     0
176
     1
 90
       50
176
     1
 90
       50
176
     1
 90
       50
176
     1
290
     0
176
     1
 90
       50
176
     1
 62
   256
176
     0
 40
1.0
176
     0
 90
        2
176
     1
  1
strokes_ogs.tif
176
     1
290
     0
176
     1
 40
1.0
176
     1
 40
1.0
176
     1
  0
VISUALSTYLE
  5
41
102
{ACAD_REACTORS
330
2A
102
}
330
2A
100
AcDbVisualStyle
  2
Shaded with edges
 70
    26
177
     3
291
     0
 70
    58
 90
        2
176
     1
 90
        2
176
     1
 90
        1
176
     1
 90
        2
176
     1
 40
0.6
176
     1
 40
30.0
176
     1
 62
     7
420
 16777215
176
     1
 90
        1
176
     1
 90
       10
176
     1
 62
     7
176
     1
 62
   257
176
     1
 90
        2
176
     1
 90
        1
176
     1
 40
1.0
176
     1
 90
        8
176
     1
 62
   257
176
     1
 40
1.0
176
     1
 90
        1
176
     1
 90
        6
176
     1
 90
        2
176
     1
 62
     7
176
     1
 90
        3
176
     1
 90
        0
176
     1
 90
        0
176
     1
290
     0
176
     1
 90
        5
176
     1
 40
0.0
176
     1
 90
        0
176
     1
290
     0
176
     1
290
     1
176
     1
290
     1
176
     1
290
     0
176
     1
290
     0
176
     1
290
     0
176
     1
290
     0
176
     1
290
     0
176
     1
290
     0
176
     1
 90
       50
176
     1
 40
0.0
176
     1
 40
1.0
176
     1
 90
        0
176
     1
 62
    18
420
        0
176
     1
 90
       50
176
     1
 90
        3
176
     1
 62
     5
420
      255
176
     1
290
     0
176
     1
 90
       50
176
     1
 90
       50
176
     1
 90
       50
176
     1
290
     0
176
     1
 90
       50
176
     1
 62
   256
176
     0
 40
1.0
176
     0
 90
        2
176
     1
  1
strokes_ogs.tif
176
     1
290
     0
176
     1
 40
1.0
176
     1
 40
1.0
176
     1
  0
VISUALSTYLE
  5
3E
102
{ACAD_REACTORS
330
2A
102
}
330
2A
100
AcDbVisualStyle
  2
Shades of Gray
 70
    23
177
     3
291
     0
 70
    58
 90
        2
176
     1
 90
        2
176
     1
 90
        3
176
     1
 90
        0
176
     1
 40
0.6
176
     1
 40
30.0
176
     1
 62
     7
420
 16777215
176
     1
 90
        2
176
     1
 90
        2
176
     1
 62
     7
176
     1
 62
     7
176
     1
 90
        1
176
     1
 90
        1
176
     1
 40
40.0
176
     1
 90
        8
176
     1
 62
     7
176
     1
 40
1.0
176
     1
 90
        1
176
     1
 90
        6
176
     1
 90
        2
176
     1
 62
     7
176
     1
 90
        3
176
     1
 90
        0
176
     1
 90
        0
176
     1
290
     0
176
     1
 90
        1
176
     1
 40
0.0
176
     1
 90
        0
176
     1
290
     0
176
     1
290
     1
176
     1
290
     1
176
     1
290
     0
176
     1
290
     0
176
     1
290
     0
176
     1
290
     0
176
     1
290
     0
176
     1
290
     0
176
     1
 90
       50
176
     1
 40
0.0
176
     1
 40
1.0
176
     1
 90
        0
176
     1
 62
    18
420
        0
176
     1
 90
       50
176
     1
 90
        3
176
     1
 62
     5
420
      255
176
     1
290
     0
176
     1
 90
       50
176
     1
 90
       50
176
     1
 90
       50
176
     1
290
     0
176
     1
 90
       50
176
     1
 62
   256
176
     0
 40
1.0
176
     0
 90
        2
176
     1
  1
strokes_ogs.tif
176
     1
290
     0
176
     1
 40
1.0
176
     1
 40
1.0
176
     1
  0
VISUALSTYLE
  5
3F
102
{ACAD_REACTORS
330
2A
102
}
330
2A
100
AcDbVisualStyle
  2
Sketchy
 70
    24
177
     3
291
     0
 70
    58
 90
        1
176
     1
 90
        2
176
     1
 90
        2
176
     1
 90
        0
176
     1
 40
0.6
176
     1
 40
30.0
176
     1
 62
     7
420
 16777215
176
     1
 90
        2
176
     1
 90
        2
176
     1
 62
     7
176
     1
 62
     7
176
     1
 90
        1
176
     1
 90
        1
176
     1
 40
40.0
176
     1
 90
       11
176
     1
 62
     7
176
     1
 40
1.0
176
     1
 90
        1
176
     1
 90
        6
176
     1
 90
        2
176
     1
 62
     7
176
     1
 90
        6
176
     1
 90
        0
176
     1
 90
        0
176
     1
290
     0
176
     1
 90
        1
176
     1
 40
0.0
176
     1
 90
        0
176
     1
290
     0
176
     1
290
     1
176
     1
290
     1
176
     1
290
     0
176
     1
290
     0
176
     1
290
     0
176
     1
290
     0
176
     1
290
     0
176
     1
290
     0
176
     1
 90
       50
176
     1
 40
0.0
176
     1
 40
1.0
176
     1
 90
        0
176
     1
 62
    18
420
        0
176
     1
 90
       50
176
     1
 90
        3
176
     1
 62
     5
420
      255
176
     1
290
     0
176
     1
 90
       50
176
     1
 90
       50
176
     1
 90
       50
176
     1
290
     0
176
     1
 90
       50
176
     1
 62
   256
176
     0
 40
1.0
176
     0
 90
        2
176
     1
  1
strokes_ogs.tif
176
     1
290
     0
176
     1
 40
1.0
176
     1
 40
1.0
176
     1
  0
VISUALSTYLE
  5
37
102
{ACAD_REACTORS
330
2A
102
}
330
2A
100
AcDbVisualStyle
  2
Thicken
 70
    13
177
     3
291
     1
 70
    58
 90
        2
176
     1
 90
        2
176
     1
 90
        0
176
     1
 90
        0
176
     1
 40
0.6
176
     1
 40
30.0
176
     1
 62
     7
420
 16777215
176
     1
 90
        1
176
     1
 90
        4
176
     1
 62
     7
176
     1
 62
   257
176
     1
 90
        1
176
     1
 90
        1
176
     1
 40
1.0
176
     1
 90
       12
176
     1
 62
     7
176
     1
 40
1.0
176
     1
 90
        1
176
     1
 90
        6
176
     1
 90
        2
176
     1
 62
     7
176
     1
 90
        5
176
     1
 90
        0
176
     1
 90
        0
176
     1
290
     0
176
     1
 90
        1
176
     1
 40
0.0
176
     1
 90
        0
176
     1
290
     0
176
     1
290
     1
176
     1
290
     1
176
     1
290
     0
176
     1
290
     0
176
     1
290
     0
176
     1
290
     0
176
     1
290
     0
176
     1
290
     0
176
     1
 90
       50
176
     1
 40
0.0
176
     1
 40
1.0
176
     1
 90
        0
176
     1
 62
    18
420
        0
176
     1
 90
       50
176
     1
 90
        3
176
     1
 62
     5
420
      255
176
     1
290
     0
176
     1
 90
       50
176
     1
 90
       50
176
     1
 90
       50
176
     1
290
     0
176
     1
 90
       50
176
     1
 62
   256
176
     0
 40
1.0
176
     0
 90
        2
176
     1
  1
strokes_ogs.tif
176
     1
290
     0
176
     1
 40
1.0
176
     1
 40
1.0
176
     1
  0
VISUALSTYLE
  5
30
102
{ACAD_REACTORS
330
2A
102
}
330
2A
100
AcDbVisualStyle
  2
Wireframe
 70
     5
177
     3
291
     0
 70
    58
 90
        0
176
     1
 90
        2
176
     1
 90
        0
176
     1
 90
        0
176
     1
 40
0.6
176
     1
 40
30.0
176
     1
 62
     7
420
 16777215
176
     1
 90
        1
176
     1
 90
        4
176
     1
 62
     7
176
     1
 62
   257
176
     1
 90
        1
176
     1
 90
        1
176
     1
 40
1.0
176
     1
 90
        0
176
     1
 62
   257
176
     1
 40
1.0
176
     1
 90
        1
176
     1
 90
        6
176
     1
 90
        2
176
     1
 62
     7
176
     1
 90
        3
176
     1
 90
        0
176
     1
 90
        0
176
     1
290
     0
176
     1
 90
        1
176
     1
 40
0.0
176
     1
 90
        0
176
     1
290
     0
176
     1
290
     1
176
     1
290
     1
176
     1
290
     0
176
     1
290
     0
176
     1
290
     0
176
     1
290
     0
176
     1
290
     0
176
     1
290
     0
176
     1
 90
       50
176
     1
 40
0.0
176
     1
 40
1.0
176
     1
 90
        0
176
     1
 62
    18
420
        0
176
     1
 90
       50
176
     1
 90
        3
176
     1
 62
     5
420
      255
176
     1
290
     0
176
     1
 90
       50
176
     1
 90
       50
176
     1
 90
       50
176
     1
290
     0
176
     1
 90
       50
176
     1
 62
   256
176
     0
 40
1.0
176
     0
 90
        2
176
     1
  1
strokes_ogs.tif
176
     1
290
     0
176
     1
 40
1.0
176
     1
 40
1.0
176
     1
  0
VISUALSTYLE
  5
40
102
{ACAD_REACTORS
330
2A
102
}
330
2A
100
AcDbVisualStyle
  2
X-Ray
 70
    25
177
     3
291
     0
 70
    58
 90
        2
176
     1
 90
        2
176
     1
 90
        1
176
     1
 90
        1
176
     1
 40
0.5
176
     1
 40
30.0
176
     1
 62
     7
420
 16777215
176
     1
 90
        1
176
     1
 90
        0
176
     1
 62
     7
176
     1
 62
   257
176
     1
 90
        1
176
     1
 90
        1
176
     1
 40
1.0
176
     1
 90
        8
176
     1
 62
     7
176
     1
 40
1.0
176
     1
 90
        1
176
     1
 90
        6
176
     1
 90
        2
176
     1
 62
     7
176
     1
 90
        3
176
     1
 90
        0
176
     1
 90
        0
176
     1
290
     0
176
     1
 90
       13
176
     1
 40
0.0
176
     1
 90
        0
176
     1
290
     0
176
     1
290
     1
176
     1
290
     1
176
     1
290
     0
176
     1
290
     0
176
     1
290
     0
176
     1
290
     0
176
     1
290
     0
176
     1
290
     0
176
     1
 90
       50
176
     1
 40
0.0
176
     1
 40
1.0
176
     1
 90
        0
176
     1
 62
    18
420
        0
176
     1
 90
       50
176
     1
 90
        3
176
     1
 62
     5
420
      255
176
     1
290
     0
176
     1
 90
       50
176
     1
 90
       50
176
     1
 90
       50
176
     1
290
     0
176
     1
 90
       50
176
     1
 62
   256
176
     0
 40
1.0
176
     0
 90
        2
176
     1
  1
strokes_ogs.tif
176
     1
290
     0
176
     1
 40
1.0
176
     1
 40
1.0
176
     1
  0
DICTIONARYVAR
  5
1C8
102
{ACAD_REACTORS
330
1C7
102
}
330
1C7
100
DictionaryVariables
280
     0
  1
1:1
  0
DICTIONARYVAR
  5
1CD
102
{ACAD_REACTORS
330
1C7
102
}
330
1C7
100
DictionaryVariables
280
     0
  1
Standard
  0
DICTIONARYVAR
  5
1CC
102
{ACAD_REACTORS
330
1C7
102
}
330
1C7
100
DictionaryVariables
280
     0
  1
Standard
  0
DICTIONARY
  5
1C9
330
6A
100
AcDbDictionary
280
     1
281
     1
  3
ACAD_ROUNDTRIP_2008_TABLESTYLE_CELLSTYLEMAP
360
1CA
  0
CELLSTYLEMAP
  5
1CA
102
{ACAD_REACTORS
330
1C9
102
}
330
1C9
100
AcDbCellStyleMap
 90
        3
300
CELLSTYLE
  1
TABLEFORMAT_BEGIN
 90
        5
170
     1
 91
        0
 92
    32768
 62
   257
 93
        1
300
CONTENTFORMAT
  1
CONTENTFORMAT_BEGIN
 90
        0
 91
        0
 92
        4
 93
        0
300

 40
0.0
140
1.0
 94
        5
 62
     0
340
11
144
6.0
309
CONTENTFORMAT_END
171
     1
301
MARGIN
  1
CELLMARGIN_BEGIN
 40
1.5
 40
1.5
 40
1.5
 40
1.5
 40
1.5
 40
1.5
309
CELLMARGIN_END
 94
        6
 95
        1
302
GRIDFORMAT
  1
GRIDFORMAT_BEGIN
 90
        0
 91
        1
 62
     0
 92
       -2
340
14
 93
        0
 40
0.045
309
GRIDFORMAT_END
 95
        2
302
GRIDFORMAT
  1
GRIDFORMAT_BEGIN
 90
        0
 91
        1
 62
     0
 92
       -2
340
14
 93
        0
 40
0.045
309
GRIDFORMAT_END
 95
        4
302
GRIDFORMAT
  1
GRIDFORMAT_BEGIN
 90
        0
 91
        1
 62
     0
 92
       -2
340
14
 93
        0
 40
0.045
309
GRIDFORMAT_END
 95
        8
302
GRIDFORMAT
  1
GRIDFORMAT_BEGIN
 90
        0
 91
        1
 62
     0
 92
       -2
340
14
 93
        0
 40
0.045
309
GRIDFORMAT_END
 95
       16
302
GRIDFORMAT
  1
GRIDFORMAT_BEGIN
 90
        0
 91
        1
 62
     0
 92
       -2
340
14
 93
        0
 40
0.045
309
GRIDFORMAT_END
 95
       32
302
GRIDFORMAT
  1
GRIDFORMAT_BEGIN
 90
        0
 91
        1
 62
     0
 92
       -2
340
14
 93
        0
 40
0.045
309
GRIDFORMAT_END
309
TABLEFORMAT_END
  1
CELLSTYLE_BEGIN
 90
        1
 91
        1
300
_TITLE
309
CELLSTYLE_END
300
CELLSTYLE
  1
TABLEFORMAT_BEGIN
 90
        5
170
     1
 91
        0
 92
        0
 62
   257
 93
        1
300
CONTENTFORMAT
  1
CONTENTFORMAT_BEGIN
 90
        0
 91
        0
 92
        4
 93
        0
300

 40
0.0
140
1.0
 94
        5
 62
     0
340
11
144
4.5
309
CONTENTFORMAT_END
171
     1
301
MARGIN
  1
CELLMARGIN_BEGIN
 40
1.5
 40
1.5
 40
1.5
 40
1.5
 40
1.5
 40
1.5
309
CELLMARGIN_END
 94
        6
 95
        1
302
GRIDFORMAT
  1
GRIDFORMAT_BEGIN
 90
        0
 91
        1
 62
     0
 92
       -2
340
14
 93
        0
 40
0.045
309
GRIDFORMAT_END
 95
        2
302
GRIDFORMAT
  1
GRIDFORMAT_BEGIN
 90
        0
 91
        1
 62
     0
 92
       -2
340
14
 93
        0
 40
0.045
309
GRIDFORMAT_END
 95
        4
302
GRIDFORMAT
  1
GRIDFORMAT_BEGIN
 90
        0
 91
        1
 62
     0
 92
       -2
340
14
 93
        0
 40
0.045
309
GRIDFORMAT_END
 95
        8
302
GRIDFORMAT
  1
GRIDFORMAT_BEGIN
 90
        0
 91
        1
 62
     0
 92
       -2
340
14
 93
        0
 40
0.045
309
GRIDFORMAT_END
 95
       16
302
GRIDFORMAT
  1
GRIDFORMAT_BEGIN
 90
        0
 91
        1
 62
     0
 92
       -2
340
14
 93
        0
 40
0.045
309
GRIDFORMAT_END
 95
       32
302
GRIDFORMAT
  1
GRIDFORMAT_BEGIN
 90
        0
 91
        1
 62
     0
 92
       -2
340
14
 93
        0
 40
0.045
309
GRIDFORMAT_END
309
TABLEFORMAT_END
  1
CELLSTYLE_BEGIN
 90
        2
 91
        1
300
_HEADER
309
CELLSTYLE_END
300
CELLSTYLE
  1
TABLEFORMAT_BEGIN
 90
        5
170
     1
 91
        0
 92
        0
 62
   257
 93
        1
300
CONTENTFORMAT
  1
CONTENTFORMAT_BEGIN
 90
        0
 91
        0
 92
        4
 93
        0
300

 40
0.0
140
1.0
 94
        2
 62
     0
340
11
144
4.5
309
CONTENTFORMAT_END
171
     1
301
MARGIN
  1
CELLMARGIN_BEGIN
 40
1.5
 40
1.5
 40
1.5
 40
1.5
 40
1.5
 40
1.5
309
CELLMARGIN_END
 94
        6
 95
        1
302
GRIDFORMAT
  1
GRIDFORMAT_BEGIN
 90
        0
 91
        1
 62
     0
 92
       -2
340
14
 93
        0
 40
0.045
309
GRIDFORMAT_END
 95
        2
302
GRIDFORMAT
  1
GRIDFORMAT_BEGIN
 90
        0
 91
        1
 62
     0
 92
       -2
340
14
 93
        0
 40
0.045
309
GRIDFORMAT_END
 95
        4
302
GRIDFORMAT
  1
GRIDFORMAT_BEGIN
 90
        0
 91
        1
 62
     0
 92
       -2
340
14
 93
        0
 40
0.045
309
GRIDFORMAT_END
 95
        8
302
GRIDFORMAT
  1
GRIDFORMAT_BEGIN
 90
        0
 91
        1
 62
     0
 92
       -2
340
14
 93
        0
 40
0.045
309
GRIDFORMAT_END
 95
       16
302
GRIDFORMAT
  1
GRIDFORMAT_BEGIN
 90
        0
 91
        1
 62
     0
 92
       -2
340
14
 93
        0
 40
0.045
309
GRIDFORMAT_END
 95
       32
302
GRIDFORMAT
  1
GRIDFORMAT_BEGIN
 90
        0
 91
        1
 62
     0
 92
       -2
340
14
 93
        0
 40
0.045
309
GRIDFORMAT_END
309
TABLEFORMAT_END
  1
CELLSTYLE_BEGIN
 90
        3
 91
        2
300
_DATA
309
CELLSTYLE_END
  0
ENDSEC
  0
EOF