0
SECTION
  2
HEADER
  9
$ACADVER
  1
AC1027
  9
$ACADMAINTVER
 70
     8
  9
$DWGCODEPAGE
  3
ANSI_1252
  9
$REQUIREDVERSIONS
160
                 0
  9
$COMMENTS
  1
File was created by Cadenas
  9
$CUSTOMPROPERTYTAG
  1
NN
  9
$CUSTOMPROPERTY
  1
Set Screw Narrow Slot Take Up Metric Bore - Stainless Housing, Corrosion Resistant Insert
  9
$CUSTOMPROPERTYTAG
  1
NT
  9
$CUSTOMPROPERTY
  1
SC Take-Up Bearings -Wide Slot -(Normal Duty) -Polymer Housed -Corrosion Resistant Insert -E-Z KLEEN
  9
$CUSTOMPROPERTYTAG
  1
NB
  9
$CUSTOMPROPERTY
  1
136979
  9
$CUSTOMPROPERTYTAG
  1
NBSYN
  9
$CUSTOMPROPERTY
  1
$PN.
  9
$CUSTOMPROPERTYTAG
  1
LINA
  9
$CUSTOMPROPERTY
  1
136979
  9
$CUSTOMPROPERTYTAG
  1
SERIES
  9
$CUSTOMPROPERTY
  1
210
  9
$CUSTOMPROPERTYTAG
  1
SS
  9
$CUSTOMPROPERTY
  1
50
  9
$CUSTOMPROPERTYTAG
  1
PN
  9
$CUSTOMPROPERTY
  1
136979
  9
$CUSTOMPROPERTYTAG
  1
DESCRIPTION
  9
$CUSTOMPROPERTY
  1
NSTU-SCEZ-50M-SHCR
  9
$CUSTOMPROPERTYTAG
  1
W
  9
$CUSTOMPROPERTY
  1
1.76
  9
$CUSTOMPROPERTYTAG
  1
FS
  9
$CUSTOMPROPERTY
  1
NS400
  9
$CUSTOMPROPERTYTAG
  1
A
  9
$CUSTOMPROPERTY
  1
49.3
  9
$CUSTOMPROPERTYTAG
  1
B
  9
$CUSTOMPROPERTY
  1
139.7
  9
$CUSTOMPROPERTYTAG
  1
C
  9
$CUSTOMPROPERTY
  1
8.33
  9
$CUSTOMPROPERTYTAG
  1
D
  9
$CUSTOMPROPERTY
  1
76.2
  9
$CUSTOMPROPERTYTAG
  1
E
  9
$CUSTOMPROPERTY
  1
82.6
  9
$CUSTOMPROPERTYTAG
  1
F
  9
$CUSTOMPROPERTY
  1
25.4
  9
$CUSTOMPROPERTYTAG
  1
G
  9
$CUSTOMPROPERTY
  1
16.8
  9
$CUSTOMPROPERTYTAG
  1
H
  9
$CUSTOMPROPERTY
  1
29.5
  9
$CUSTOMPROPERTYTAG
  1
J
  9
$CUSTOMPROPERTY
  1
38.1
  9
$CUSTOMPROPERTYTAG
  1
L
  9
$CUSTOMPROPERTY
  1
61.7
  9
$CUSTOMPROPERTYTAG
  1
M
  9
$CUSTOMPROPERTY
  1
101.98 / 101.22
  9
$CUSTOMPROPERTYTAG
  1
N
  9
$CUSTOMPROPERTY
  1
120.7
  9
$CUSTOMPROPERTYTAG
  1
P
  9
$CUSTOMPROPERTY
  1
9.7
  9
$CUSTOMPROPERTYTAG
  1
R
  9
$CUSTOMPROPERTY
  1
19.1
  9
$CUSTOMPROPERTYTAG
  1
S
  9
$CUSTOMPROPERTY
  1
30.2
  9
$CUSTOMPROPERTYTAG
  1
COMPANY
  9
$CUSTOMPROPERTY
  1
baldor
  9
$INSBASE
 10
0.0
 20
0.0
 30
0.0
  9
$EXTMIN
 10
1.000000000000000E+20
 20
1.000000000000000E+20
 30
1.000000000000000E+20
  9
$EXTMAX
 10
-1.000000000000000E+20
 20
-1.000000000000000E+20
 30
-1.000000000000000E+20
  9
$LIMMIN
 10
0.0
 20
0.0
  9
$LIMMAX
 10
420.0
 20
297.0
  9
$ORTHOMODE
 70
     0
  9
$REGENMODE
 70
     1
  9
$FILLMODE
 70
     1
  9
$QTEXTMODE
 70
     0
  9
$MIRRTEXT
 70
     1
  9
$LTSCALE
 40
1.0
  9
$ATTMODE
 70
     1
  9
$TEXTSIZE
 40
2.5
  9
$TRACEWID
 40
1.0
  9
$TEXTSTYLE
  7
Standard
  9
$CLAYER
  8
0
  9
$CELTYPE
  6
ByLayer
  9
$CECOLOR
 62
   256
  9
$CELTSCALE
 40
1.0
  9
$DISPSILH
 70
     0
  9
$DIMSCALE
 40
1.0
  9
$DIMASZ
 40
2.5
  9
$DIMEXO
 40
0.625
  9
$DIMDLI
 40
3.75
  9
$DIMRND
 40
0.0
  9
$DIMDLE
 40
0.0
  9
$DIMEXE
 40
1.25
  9
$DIMTP
 40
0.0
  9
$DIMTM
 40
0.0
  9
$DIMTXT
 40
2.5
  9
$DIMCEN
 40
2.5
  9
$DIMTSZ
 40
0.0
  9
$DIMTOL
 70
     0
  9
$DIMLIM
 70
     0
  9
$DIMTIH
 70
     0
  9
$DIMTOH
 70
     0
  9
$DIMSE1
 70
     0
  9
$DIMSE2
 70
     0
  9
$DIMTAD
 70
     1
  9
$DIMZIN
 70
     8
  9
$DIMBLK
  1

  9
$DIMASO
 70
     1
  9
$DIMSHO
 70
     1
  9
$DIMPOST
  1

  9
$DIMAPOST
  1

  9
$DIMALT
 70
     0
  9
$DIMALTD
 70
     3
  9
$DIMALTF
 40
0.03937007874016
  9
$DIMLFAC
 40
1.0
  9
$DIMTOFL
 70
     1
  9
$DIMTVP
 40
0.0
  9
$DIMTIX
 70
     0
  9
$DIMSOXD
 70
     0
  9
$DIMSAH
 70
     0
  9
$DIMBLK1
  1

  9
$DIMBLK2
  1

  9
$DIMSTYLE
  2
ISO-25
  9
$DIMCLRD
 70
     0
  9
$DIMCLRE
 70
     0
  9
$DIMCLRT
 70
     0
  9
$DIMTFAC
 40
1.0
  9
$DIMGAP
 40
0.625
  9
$DIMJUST
 70
     0
  9
$DIMSD1
 70
     0
  9
$DIMSD2
 70
     0
  9
$DIMTOLJ
 70
     0
  9
$DIMTZIN
 70
     8
  9
$DIMALTZ
 70
     0
  9
$DIMALTTZ
 70
     0
  9
$DIMUPT
 70
     0
  9
$DIMDEC
 70
     2
  9
$DIMTDEC
 70
     2
  9
$DIMALTU
 70
     2
  9
$DIMALTTD
 70
     3
  9
$DIMTXSTY
  7
Standard
  9
$DIMAUNIT
 70
     0
  9
$DIMADEC
 70
     0
  9
$DIMALTRND
 40
0.0
  9
$DIMAZIN
 70
     0
  9
$DIMDSEP
 70
    44
  9
$DIMATFIT
 70
     3
  9
$DIMFRAC
 70
     0
  9
$DIMLDRBLK
  1

  9
$DIMLUNIT
 70
     2
  9
$DIMLWD
 70
    -2
  9
$DIMLWE
 70
    -2
  9
$DIMTMOVE
 70
     0
  9
$DIMFXL
 40
1.0
  9
$DIMFXLON
 70
     0
  9
$DIMJOGANG
 40
0.7853981633974483
  9
$DIMTFILL
 70
     0
  9
$DIMTFILLCLR
 70
     0
  9
$DIMARCSYM
 70
     0
  9
$DIMLTYPE
  6

  9
$DIMLTEX1
  6

  9
$DIMLTEX2
  6

  9
$DIMTXTDIRECTION
 70
     0
  9
$LUNITS
 70
     2
  9
$LUPREC
 70
     4
  9
$SKETCHINC
 40
1.0
  9
$FILLETRAD
 40
10.0
  9
$AUNITS
 70
     0
  9
$AUPREC
 70
     0
  9
$MENU
  1
.
  9
$ELEVATION
 40
0.0
  9
$PELEVATION
 40
0.0
  9
$THICKNESS
 40
0.0
  9
$LIMCHECK
 70
     0
  9
$CHAMFERA
 40
0.0
  9
$CHAMFERB
 40
0.0
  9
$CHAMFERC
 40
0.0
  9
$CHAMFERD
 40
0.0
  9
$SKPOLY
 70
     0
  9
$TDCREATE
 40
2458168.890400266
  9
$TDUCREATE
 40
2458168.8487336
  9
$TDUPDATE
 40
2458168.89040044
  9
$TDUUPDATE
 40
2458168.848733773
  9
$TDINDWG
 40
0.0000000116
  9
$TDUSRTIMER
 40
0.0000000116
  9
$USRTIMER
 70
     1
  9
$ANGBASE
 50
0.0
  9
$ANGDIR
 70
     0
  9
$PDMODE
 70
     0
  9
$PDSIZE
 40
0.0
  9
$PLINEWID
 40
0.0
  9
$SPLFRAME
 70
     0
  9
$SPLINETYPE
 70
     6
  9
$SPLINESEGS
 70
     8
  9
$HANDSEED
  5
19F
  9
$SURFTAB1
 70
     6
  9
$SURFTAB2
 70
     6
  9
$SURFTYPE
 70
     6
  9
$SURFU
 70
     6
  9
$SURFV
 70
     6
  9
$UCSBASE
  2

  9
$UCSNAME
  2

  9
$UCSORG
 10
0.0
 20
0.0
 30
0.0
  9
$UCSXDIR
 10
1.0
 20
0.0
 30
0.0
  9
$UCSYDIR
 10
0.0
 20
1.0
 30
0.0
  9
$UCSORTHOREF
  2

  9
$UCSORTHOVIEW
 70
     0
  9
$UCSORGTOP
 10
0.0
 20
0.0
 30
0.0
  9
$UCSORGBOTTOM
 10
0.0
 20
0.0
 30
0.0
  9
$UCSORGLEFT
 10
0.0
 20
0.0
 30
0.0
  9
$UCSORGRIGHT
 10
0.0
 20
0.0
 30
0.0
  9
$UCSORGFRONT
 10
0.0
 20
0.0
 30
0.0
  9
$UCSORGBACK
 10
0.0
 20
0.0
 30
0.0
  9
$PUCSBASE
  2

  9
$PUCSNAME
  2

  9
$PUCSORG
 10
0.0
 20
0.0
 30
0.0
  9
$PUCSXDIR
 10
1.0
 20
0.0
 30
0.0
  9
$PUCSYDIR
 10
0.0
 20
1.0
 30
0.0
  9
$PUCSORTHOREF
  2

  9
$PUCSORTHOVIEW
 70
     0
  9
$PUCSORGTOP
 10
0.0
 20
0.0
 30
0.0
  9
$PUCSORGBOTTOM
 10
0.0
 20
0.0
 30
0.0
  9
$PUCSORGLEFT
 10
0.0
 20
0.0
 30
0.0
  9
$PUCSORGRIGHT
 10
0.0
 20
0.0
 30
0.0
  9
$PUCSORGFRONT
 10
0.0
 20
0.0
 30
0.0
  9
$PUCSORGBACK
 10
0.0
 20
0.0
 30
0.0
  9
$USERI1
 70
     0
  9
$USERI2
 70
     0
  9
$USERI3
 70
     0
  9
$USERI4
 70
     0
  9
$USERI5
 70
     0
  9
$USERR1
 40
0.0
  9
$USERR2
 40
0.0
  9
$USERR3
 40
0.0
  9
$USERR4
 40
0.0
  9
$USERR5
 40
0.0
  9
$WORLDVIEW
 70
     1
  9
$SHADEDGE
 70
     3
  9
$SHADEDIF
 70
    70
  9
$TILEMODE
 70
     1
  9
$MAXACTVP
 70
    64
  9
$PINSBASE
 10
0.0
 20
0.0
 30
0.0
  9
$PLIMCHECK
 70
     0
  9
$PEXTMIN
 10
1.000000000000000E+20
 20
1.000000000000000E+20
 30
1.000000000000000E+20
  9
$PEXTMAX
 10
-1.000000000000000E+20
 20
-1.000000000000000E+20
 30
-1.000000000000000E+20
  9
$PLIMMIN
 10
0.0
 20
0.0
  9
$PLIMMAX
 10
420.0
 20
297.0
  9
$UNITMODE
 70
     0
  9
$VISRETAIN
 70
     1
  9
$PLINEGEN
 70
     0
  9
$PSLTSCALE
 70
     1
  9
$TREEDEPTH
 70
  3020
  9
$CMLSTYLE
  2
Standard
  9
$CMLJUST
 70
     0
  9
$CMLSCALE
 40
20.0
  9
$PROXYGRAPHICS
 70
     1
  9
$MEASUREMENT
 70
     1
  9
$CELWEIGHT
370
    -1
  9
$ENDCAPS
280
     0
  9
$JOINSTYLE
280
     0
  9
$LWDISPLAY
290
     0
  9
$INSUNITS
 70
     4
  9
$HYPERLINKBASE
  1

  9
$STYLESHEET
  1

  9
$XEDIT
290
     1
  9
$CEPSNTYPE
380
     0
  9
$PSTYLEMODE
290
     1
  9
$FINGERPRINTGUID
  2
{42DC1B44-95CC-4500-865F-412A5CD79490}
  9
$VERSIONGUID
  2
{FAEB1C32-E019-11D5-929B-00C0DF256EC4}
  9
$EXTNAMES
290
     1
  9
$PSVPSCALE
 40
0.0
  9
$OLESTARTUP
290
     0
  9
$SORTENTS
280
   127
  9
$INDEXCTL
280
     0
  9
$HIDETEXT
280
     1
  9
$XCLIPFRAME
280
     2
  9
$HALOGAP
280
     0
  9
$OBSCOLOR
 70
   257
  9
$OBSLTYPE
280
     0
  9
$INTERSECTIONDISPLAY
280
     0
  9
$INTERSECTIONCOLOR
 70
   257
  9
$DIMASSOC
280
     2
  9
$PROJECTNAME
  1

  9
$CAMERADISPLAY
290
     0
  9
$LENSLENGTH
 40
50.0
  9
$CAMERAHEIGHT
 40
0.0
  9
$STEPSPERSEC
 40
2.0
  9
$STEPSIZE
 40
6.0
  9
$3DDWFPREC
 40
2.0
  9
$PSOLWIDTH
 40
5.0
  9
$PSOLHEIGHT
 40
80.0
  9
$LOFTANG1
 40
1.570796326794897
  9
$LOFTANG2
 40
1.570796326794897
  9
$LOFTMAG1
 40
0.0
  9
$LOFTMAG2
 40
0.0
  9
$LOFTPARAM
 70
     7
  9
$LOFTNORMALS
280
     1
  9
$LATITUDE
 40
37.795
  9
$LONGITUDE
 40
-122.394
  9
$NORTHDIRECTION
 40
0.0
  9
$TIMEZONE
 70
 -8000
  9
$LIGHTGLYPHDISPLAY
280
     1
  9
$TILEMODELIGHTSYNCH
280
     1
  9
$CMATERIAL
347
44
  9
$SOLIDHIST
280
     0
  9
$SHOWHIST
280
     1
  9
$DWFFRAME
280
     2
  9
$DGNFRAME
280
     2
  9
$REALWORLDSCALE
290
     1
  9
$INTERFERECOLOR
 62
   256
  9
$CSHADOW
280
     0
  9
$SHADOWPLANELOCATION
 40
0.0
  0
ENDSEC
  0
SECTION
  2
CLASSES
  0
CLASS
  1
ACDBDICTIONARYWDFLT
  2
AcDbDictionaryWithDefault
  3
ObjectDBX Classes
 90
        0
 91
        4
280
     0
281
     0
  0
CLASS
  1
VISUALSTYLE
  2
AcDbVisualStyle
  3
ObjectDBX Classes
 90
     4095
 91
        4
280
     0
281
     0
  0
CLASS
  1
MATERIAL
  2
AcDbMaterial
  3
ObjectDBX Classes
 90
     1153
 91
        4
280
     0
281
     0
  0
CLASS
  1
SCALE
  2
AcDbScale
  3
ObjectDBX Classes
 90
     1153
 91
        4
280
     0
281
     0
  0
CLASS
  1
TABLESTYLE
  2
AcDbTableStyle
  3
ObjectDBX Classes
 90
     4095
 91
        4
280
     0
281
     0
  0
CLASS
  1
MLEADERSTYLE
  2
AcDbMLeaderStyle
  3
ACDB_MLEADERSTYLE_CLASS
 90
     4095
 91
        4
280
     0
281
     0
  0
CLASS
  1
SUN
  2
AcDbSun
  3
SCENEOE
 90
     1153
 91
        4
280
     0
281
     0
  0
CLASS
  1
DICTIONARYVAR
  2
AcDbDictionaryVar
  3
ObjectDBX Classes
 90
        0
 91
        4
280
     0
281
     0
  0
CLASS
  1
CELLSTYLEMAP
  2
AcDbCellStyleMap
  3
ObjectDBX Classes
 90
     1152
 91
        4
280
     0
281
     0
  0
ENDSEC
  0
SECTION
  2
TABLES
  0
TABLE
  2
VPORT
  5
8
330
0
100
AcDbSymbolTable
 70
     1
  0
VPORT
  5
29
330
8
100
AcDbSymbolTableRecord
100
AcDbViewportTableRecord
  2
*Active
 70
     0
 10
0.0
 20
0.0
 11
1.0
 21
1.0
 12
12.95768720261032
 22
-5.550000190734863
 13
0.0
 23
0.0
 14
10.0
 24
10.0
 15
10.0
 25
10.0
 16
0.0
 26
0.0
 36
1.0
 17
0.0
 27
0.0
 37
0.0
 40
107.7160615078831
 41
1.346868016484779
 42
50.0
 43
0.0
 44
0.0
 50
0.0
 51
0.0
 71
     0
 72
   100
 73
     1
 74
     3
 75
     0
 76
     0
 77
     0
 78
     0
281
     0
 65
     1
110
0.0
120
0.0
130
0.0
111
1.0
121
0.0
131
0.0
112
0.0
122
1.0
132
0.0
 79
     0
146
0.0
348
2F
 60
     3
 61
     5
292
     1
282
     1
141
0.0
142
0.0
 63
   250
361
6D
  0
ENDTAB
  0
TABLE
  2
LTYPE
  5
5
330
0
100
AcDbSymbolTable
 70
     3
  0
LTYPE
  5
14
330
5
100
AcDbSymbolTableRecord
100
AcDbLinetypeTableRecord
  2
ByBlock
 70
     0
  3

 72
    65
 73
     0
 40
0.0
  0
LTYPE
  5
15
330
5
100
AcDbSymbolTableRecord
100
AcDbLinetypeTableRecord
  2
ByLayer
 70
     0
  3

 72
    65
 73
     0
 40
0.0
  0
LTYPE
  5
16
330
5
100
AcDbSymbolTableRecord
100
AcDbLinetypeTableRecord
  2
Continuous
 70
     0
  3
Solid line
 72
    65
 73
     0
 40
0.0
  0
LTYPE
  5
A0
330
5
100
AcDbSymbolTableRecord
100
AcDbLinetypeTableRecord
  2
Dashed
 70
     0
  3

 72
    65
 73
     2
 40
2.0
 49
1.0
 74
     0
 49
-1.0
 74
     0
  0
LTYPE
  5
120
330
5
100
AcDbSymbolTableRecord
100
AcDbLinetypeTableRecord
  2
Center
 70
     0
  3

 72
    65
 73
     4
 40
1.5
 49
0.45
 74
     0
 49
-0.5
 74
     0
 49
0.05
 74
     0
 49
-0.5
 74
     0
  0
ENDTAB
  0
TABLE
  2
LAYER
  5
2
330
0
100
AcDbSymbolTable
 70
     7
  0
LAYER
  5
10
330
2
100
AcDbSymbolTableRecord
100
AcDbLayerTableRecord
  2
0
 70
     0
 62
     7
  6
Continuous
370
    -3
390
F
347
46
348
0
  0
LAYER
  5
72
330
2
100
AcDbSymbolTableRecord
100
AcDbLayerTableRecord
  2
AM_6
 70
     0
 62
    -2
  6
Continuous
370
    35
390
F
347
46
348
0
  0
LAYER
  5
A1
330
2
100
AcDbSymbolTableRecord
100
AcDbLayerTableRecord
  2
AM_9
 70
     0
 62
     6
  6
Dashed
370
    25
390
F
347
46
348
0
  0
LAYER
  5
DD
330
2
100
AcDbSymbolTableRecord
100
AcDbLayerTableRecord
  2
AM_4
 70
     0
 62
     7
  6
Continuous
370
    50
390
F
347
46
348
0
  0
LAYER
  5
121
330
2
100
AcDbSymbolTableRecord
100
AcDbLayerTableRecord
  2
AM_7
 70
     0
 62
     7
  6
Center
370
    25
390
F
347
46
348
0
  0
LAYER
  5
136
330
2
100
AcDbSymbolTableRecord
100
AcDbLayerTableRecord
  2
AM_5
 70
     0
 62
     3
  6
Continuous
370
    25
390
F
347
46
348
0
  0
LAYER
  5
192
330
2
100
AcDbSymbolTableRecord
100
AcDbLayerTableRecord
  2
ConnectionPoints
 70
     0
 62
     7
  6
Continuous
370
    50
390
F
347
46
348
0
  0
ENDTAB
  0
TABLE
  2
STYLE
  5
3
330
0
100
AcDbSymbolTable
 70
     1
  0
STYLE
  5
11
330
3
100
AcDbSymbolTableRecord
100
AcDbTextStyleTableRecord
  2
Standard
 70
     0
 40
0.0
 41
1.0
 50
0.0
 71
     0
 42
2.5
  3
txt
  4

  0
ENDTAB
  0
TABLE
  2
VIEW
  5
6
330
0
100
AcDbSymbolTable
 70
     0
  0
ENDTAB
  0
TABLE
  2
UCS
  5
7
330
0
100
AcDbSymbolTable
 70
     0
  0
ENDTAB
  0
TABLE
  2
APPID
  5
9
330
0
100
AcDbSymbolTable
 70
     1
  0
APPID
  5
12
330
9
100
AcDbSymbolTableRecord
100
AcDbRegAppTableRecord
  2
ACAD
 70
     0
  0
ENDTAB
  0
TABLE
  2
DIMSTYLE
  5
A
330
0
100
AcDbSymbolTable
 70
     1
100
AcDbDimStyleTable
  0
DIMSTYLE
105
27
330
A
100
AcDbSymbolTableRecord
100
AcDbDimStyleTableRecord
  2
ISO-25
 70
     0
 41
2.5
 42
0.625
 43
3.75
 44
1.25
 73
     0
 74
     0
 77
     1
 78
     8
140
2.5
141
2.5
143
0.03937007874016
147
0.625
171
     3
172
     1
178
     0
271
     2
272
     2
274
     3
278
    44
283
     0
284
     8
340
11
  0
ENDTAB
  0
TABLE
  2
BLOCK_RECORD
  5
1
330
0
100
AcDbSymbolTable
 70
     5
  0
BLOCK_RECORD
  5
1F
330
1
100
AcDbSymbolTableRecord
100
AcDbBlockTableRecord
  2
*Model_Space
340
22
 70
     0
280
     1
281
     0
  0
BLOCK_RECORD
  5
1B
330
1
100
AcDbSymbolTableRecord
100
AcDbBlockTableRecord
  2
*Paper_Space
340
1E
 70
     0
280
     1
281
     0
  0
BLOCK_RECORD
  5
23
330
1
100
AcDbSymbolTableRecord
100
AcDbBlockTableRecord
  2
*Paper_Space0
340
26
 70
     0
280
     1
281
     0
  0
BLOCK_RECORD
  5
6E
330
1
100
AcDbSymbolTableRecord
100
AcDbBlockTableRecord
  2
1_136979_4
340
0
102
{BLKREFS
331
6F
102
}
 70
     0
280
     1
281
     0
  0
BLOCK_RECORD
  5
8E
330
1
100
AcDbSymbolTableRecord
100
AcDbBlockTableRecord
  2
2_405020c_M_0_in_136979_4
340
0
102
{BLKREFS
331
8F
102
}
 70
     0
280
     1
281
     0
  0
BLOCK_RECORD
  5
E0
330
1
100
AcDbSymbolTableRecord
100
AcDbBlockTableRecord
  2
3_050656_0_in_136979_4
340
0
102
{BLKREFS
331
E1
102
}
 70
     0
280
     1
281
     0
  0
BLOCK_RECORD
  5
139
330
1
100
AcDbSymbolTableRecord
100
AcDbBlockTableRecord
  2
4_136979H_0_in_136979_4
340
0
102
{BLKREFS
331
13A
102
}
 70
     0
280
     1
281
     0
  0
ENDTAB
  0
ENDSEC
  0
SECTION
  2
BLOCKS
  0
BLOCK
  5
20
330
1F
100
AcDbEntity
  8
0
100
AcDbBlockBegin
  2
*Model_Space
 70
     0
 10
0.0
 20
0.0
 30
0.0
  3
*Model_Space
  1

  0
ENDBLK
  5
21
330
1F
100
AcDbEntity
  8
0
100
AcDbBlockEnd
  0
BLOCK
  5
1C
330
1B
100
AcDbEntity
 67
     1
  8
0
100
AcDbBlockBegin
  2
*Paper_Space
 70
     0
 10
0.0
 20
0.0
 30
0.0
  3
*Paper_Space
  1

  0
ENDBLK
  5
1D
330
1B
100
AcDbEntity
 67
     1
  8
0
100
AcDbBlockEnd
  0
BLOCK
  5
24
330
23
100
AcDbEntity
  8
0
100
AcDbBlockBegin
  2
*Paper_Space0
 70
     0
 10
0.0
 20
0.0
 30
0.0
  3
*Paper_Space0
  1

  0
ENDBLK
  5
25
330
23
100
AcDbEntity
  8
0
100
AcDbBlockEnd
  0
BLOCK
  5
70
330
6E
100
AcDbEntity
  8
0
100
AcDbBlockBegin
  2
1_136979_4
 70
     2
 10
0.0
 20
0.0
 30
0.0
  3
1_136979_4
  1

  0
ATTDEF
  5
73
330
6E
100
AcDbEntity
  8
AM_6
100
AcDbText
 10
89.07499999999999
 20
47.25199074450194
 30
0.0
 40
0.5
  1
Set Screw Narrow Slot Take Up Metric Bore - Stainless Housing, Corrosion Resistant Insert
100
AcDbAttributeDefinition
  3

  2
NN
 70
     8
280
     0
  0
ATTDEF
  5
74
330
6E
100
AcDbEntity
  8
AM_6
100
AcDbText
 10
89.07499999999999
 20
46.75199074450194
 30
0.0
 40
0.5
  1
SC Take-Up Bearings -Wide Slot -(Normal Duty) -Polymer Housed -Corrosion Resistant Insert -E-Z KLEEN
100
AcDbAttributeDefinition
  3

  2
NT
 70
     8
280
     0
  0
ATTDEF
  5
75
330
6E
100
AcDbEntity
  8
AM_6
100
AcDbText
 10
89.07499999999999
 20
46.25199074450194
 30
0.0
 40
0.5
  1
136979
100
AcDbAttributeDefinition
  3

  2
NB
 70
     8
280
     0
  0
ATTDEF
  5
76
330
6E
100
AcDbEntity
  8
AM_6
100
AcDbText
 10
89.07499999999999
 20
45.75199074450194
 30
0.0
 40
0.5
  1
$PN.
100
AcDbAttributeDefinition
  3

  2
NBSYN
 70
     8
280
     0
  0
ATTDEF
  5
77
330
6E
100
AcDbEntity
  8
AM_6
100
AcDbText
 10
89.07499999999999
 20
45.25199074450194
 30
0.0
 40
0.5
  1
136979
100
AcDbAttributeDefinition
  3

  2
LINA
 70
     8
280
     0
  0
ATTDEF
  5
78
330
6E
100
AcDbEntity
  8
AM_6
100
AcDbText
 10
89.07499999999999
 20
44.75199074450194
 30
0.0
 40
0.5
  1
210
100
AcDbAttributeDefinition
  3

  2
SERIES
 70
     8
280
     0
  0
ATTDEF
  5
79
330
6E
100
AcDbEntity
  8
AM_6
100
AcDbText
 10
89.07499999999999
 20
44.25199074450194
 30
0.0
 40
0.5
  1
50
100
AcDbAttributeDefinition
  3

  2
SS
 70
     8
280
     0
  0
ATTDEF
  5
7A
330
6E
100
AcDbEntity
  8
AM_6
100
AcDbText
 10
89.07499999999999
 20
43.75199074450194
 30
0.0
 40
0.5
  1
136979
100
AcDbAttributeDefinition
  3

  2
PN
 70
     8
280
     0
  0
ATTDEF
  5
7B
330
6E
100
AcDbEntity
  8
AM_6
100
AcDbText
 10
89.07499999999999
 20
43.25199074450194
 30
0.0
 40
0.5
  1
NSTU-SCEZ-50M-SHCR
100
AcDbAttributeDefinition
  3

  2
DESCRIPTION
 70
     8
280
     0
  0
ATTDEF
  5
7C
330
6E
100
AcDbEntity
  8
AM_6
100
AcDbText
 10
89.07499999999999
 20
42.75199074450194
 30
0.0
 40
0.5
  1
1.76
100
AcDbAttributeDefinition
  3

  2
W
 70
     8
280
     0
  0
ATTDEF
  5
7D
330
6E
100
AcDbEntity
  8
AM_6
100
AcDbText
 10
89.07499999999999
 20
42.25199074450194
 30
0.0
 40
0.5
  1
NS400
100
AcDbAttributeDefinition
  3

  2
FS
 70
     8
280
     0
  0
ATTDEF
  5
7E
330
6E
100
AcDbEntity
  8
AM_6
100
AcDbText
 10
89.07499999999999
 20
41.75199074450194
 30
0.0
 40
0.5
  1
49.3
100
AcDbAttributeDefinition
  3

  2
A
 70
     8
280
     0
  0
ATTDEF
  5
7F
330
6E
100
AcDbEntity
  8
AM_6
100
AcDbText
 10
89.07499999999999
 20
41.25199074450194
 30
0.0
 40
0.5
  1
139.7
100
AcDbAttributeDefinition
  3

  2
B
 70
     8
280
     0
  0
ATTDEF
  5
80
330
6E
100
AcDbEntity
  8
AM_6
100
AcDbText
 10
89.07499999999999
 20
40.75199074450194
 30
0.0
 40
0.5
  1
8.33
100
AcDbAttributeDefinition
  3

  2
C
 70
     8
280
     0
  0
ATTDEF
  5
81
330
6E
100
AcDbEntity
  8
AM_6
100
AcDbText
 10
89.07499999999999
 20
40.25199074450194
 30
0.0
 40
0.5
  1
76.2
100
AcDbAttributeDefinition
  3

  2
D
 70
     8
280
     0
  0
ATTDEF
  5
82
330
6E
100
AcDbEntity
  8
AM_6
100
AcDbText
 10
89.07499999999999
 20
39.75199074450194
 30
0.0
 40
0.5
  1
82.6
100
AcDbAttributeDefinition
  3

  2
E
 70
     8
280
     0
  0
ATTDEF
  5
83
330
6E
100
AcDbEntity
  8
AM_6
100
AcDbText
 10
89.07499999999999
 20
39.25199074450194
 30
0.0
 40
0.5
  1
25.4
100
AcDbAttributeDefinition
  3

  2
F
 70
     8
280
     0
  0
ATTDEF
  5
84
330
6E
100
AcDbEntity
  8
AM_6
100
AcDbText
 10
89.07499999999999
 20
38.75199074450194
 30
0.0
 40
0.5
  1
16.8
100
AcDbAttributeDefinition
  3

  2
G
 70
     8
280
     0
  0
ATTDEF
  5
85
330
6E
100
AcDbEntity
  8
AM_6
100
AcDbText
 10
89.07499999999999
 20
38.25199074450194
 30
0.0
 40
0.5
  1
29.5
100
AcDbAttributeDefinition
  3

  2
H
 70
     8
280
     0
  0
ATTDEF
  5
86
330
6E
100
AcDbEntity
  8
AM_6
100
AcDbText
 10
89.07499999999999
 20
37.75199074450194
 30
0.0
 40
0.5
  1
38.1
100
AcDbAttributeDefinition
  3

  2
J
 70
     8
280
     0
  0
ATTDEF
  5
87
330
6E
100
AcDbEntity
  8
AM_6
100
AcDbText
 10
89.07499999999999
 20
37.25199074450194
 30
0.0
 40
0.5
  1
61.7
100
AcDbAttributeDefinition
  3

  2
L
 70
     8
280
     0
  0
ATTDEF
  5
88
330
6E
100
AcDbEntity
  8
AM_6
100
AcDbText
 10
89.07499999999999
 20
36.75199074450194
 30
0.0
 40
0.5
  1
101.98 / 101.22
100
AcDbAttributeDefinition
  3

  2
M
 70
     8
280
     0
  0
ATTDEF
  5
89
330
6E
100
AcDbEntity
  8
AM_6
100
AcDbText
 10
89.07499999999999
 20
36.25199074450194
 30
0.0
 40
0.5
  1
120.7
100
AcDbAttributeDefinition
  3

  2
N
 70
     8
280
     0
  0
ATTDEF
  5
8A
330
6E
100
AcDbEntity
  8
AM_6
100
AcDbText
 10
89.07499999999999
 20
35.75199074450194
 30
0.0
 40
0.5
  1
9.7
100
AcDbAttributeDefinition
  3

  2
P
 70
     8
280
     0
  0
ATTDEF
  5
8B
330
6E
100
AcDbEntity
  8
AM_6
100
AcDbText
 10
89.07499999999999
 20
35.25199074450194
 30
0.0
 40
0.5
  1
19.1
100
AcDbAttributeDefinition
  3

  2
R
 70
     8
280
     0
  0
ATTDEF
  5
8C
330
6E
100
AcDbEntity
  8
AM_6
100
AcDbText
 10
89.07499999999999
 20
34.75199074450194
 30
0.0
 40
0.5
  1
30.2
100
AcDbAttributeDefinition
  3

  2
S
 70
     8
280
     0
  0
ATTDEF
  5
8D
330
6E
100
AcDbEntity
  8
AM_6
100
AcDbText
 10
89.07499999999999
 20
34.25199074450194
 30
0.0
 40
0.5
  1
baldor
100
AcDbAttributeDefinition
  3

  2
COMPANY
 70
     8
280
     0
  0
INSERT
  5
8F
330
6E
100
AcDbEntity
  8
0
100
AcDbBlockReference
  2
2_405020c_M_0_in_136979_4
 10
0.0
 20
0.0
 30
0.0
  0
INSERT
  5
E1
330
6E
100
AcDbEntity
  8
0
100
AcDbBlockReference
  2
3_050656_0_in_136979_4
 10
0.0
 20
0.0
 30
0.0
  0
INSERT
  5
13A
330
6E
100
AcDbEntity
  8
0
100
AcDbBlockReference
  2
4_136979H_0_in_136979_4
 10
0.0
 20
0.0
 30
0.0
  0
ENDBLK
  5
71
330
6E
100
AcDbEntity
  8
0
100
AcDbBlockEnd
  0
BLOCK
  5
90
330
8E
100
AcDbEntity
  8
0
100
AcDbBlockBegin
  2
2_405020c_M_0_in_136979_4
 70
     2
 10
0.0
 20
0.0
 30
0.0
  3
2_405020c_M_0_in_136979_4
  1

  0
ATTDEF
  5
92
330
8E
100
AcDbEntity
  8
AM_6
100
AcDbText
 10
-38.77345357973847
 20
4.041451884327379
 30
0.0
 40
0.5
  1
405020C -Metric
100
AcDbAttributeDefinition
  3

  2
NN
 70
     8
280
     0
  0
ATTDEF
  5
93
330
8E
100
AcDbEntity
  8
AM_6
100
AcDbText
 10
-38.77345357973847
 20
3.541451884327379
 30
0.0
 40
0.5
  1
Grease fitting
100
AcDbAttributeDefinition
  3

  2
NT
 70
     8
280
     0
  0
ATTDEF
  5
94
330
8E
100
AcDbEntity
  8
AM_6
100
AcDbText
 10
-38.77345357973847
 20
3.041451884327379
 30
0.0
 40
0.5
  1
405020c-M
100
AcDbAttributeDefinition
  3

  2
NB
 70
     8
280
     0
  0
ATTDEF
  5
95
330
8E
100
AcDbEntity
  8
AM_6
100
AcDbText
 10
-38.77345357973847
 20
2.541451884327379
 30
0.0
 40
0.5
  1
$MN.-M
100
AcDbAttributeDefinition
  3

  2
NBSYN
 70
     8
280
     0
  0
ATTDEF
  5
96
330
8E
100
AcDbEntity
  8
AM_6
100
AcDbText
 10
-38.77345357973847
 20
2.041451884327379
 30
0.0
 40
0.5
  1
405020c
100
AcDbAttributeDefinition
  3

  2
LINA
 70
     8
280
     0
  0
ATTDEF
  5
97
330
8E
100
AcDbEntity
  8
AM_6
100
AcDbText
 10
-38.77345357973847
 20
1.541451884327379
 30
0.0
 40
0.5
  1
405020c
100
AcDbAttributeDefinition
  3

  2
MN
 70
     8
280
     0
  0
ATTDEF
  5
98
330
8E
100
AcDbEntity
  8
AM_6
100
AcDbText
 10
-38.77345357973847
 20
1.041451884327379
 30
0.0
 40
0.5
  1
5.842
100
AcDbAttributeDefinition
  3

  2
NDR
 70
     8
280
     0
  0
ATTDEF
  5
99
330
8E
100
AcDbEntity
  8
AM_6
100
AcDbText
 10
-38.77345357973847
 20
0.5414518843273788
 30
0.0
 40
0.5
  1
5.359
100
AcDbAttributeDefinition
  3

  2
KDR
 70
     8
280
     0
  0
ATTDEF
  5
9A
330
8E
100
AcDbEntity
  8
AM_6
100
AcDbText
 10
-38.77345357973847
 20
0.0414518843273788
 30
0.0
 40
0.5
  1
4.000
100
AcDbAttributeDefinition
  3

  2
BZE
 70
     8
280
     0
  0
ATTDEF
  5
9B
330
8E
100
AcDbEntity
  8
AM_6
100
AcDbText
 10
-38.77345357973847
 20
-0.4585481156726212
 30
0.0
 40
0.5
  1
7
100
AcDbAttributeDefinition
  3

  2
WAF
 70
     8
280
     0
  0
ATTDEF
  5
9C
330
8E
100
AcDbEntity
  8
AM_6
100
AcDbText
 10
-38.77345357973847
 20
-0.9585481156726212
 30
0.0
 40
0.5
  1
7.0000
100
AcDbAttributeDefinition
  3

  2
WAF1
 70
     8
280
     0
  0
ATTDEF
  5
9D
330
8E
100
AcDbEntity
  8
AM_6
100
AcDbText
 10
-38.77345357973847
 20
-1.458548115672621
 30
0.0
 40
0.5
  1
13.843
100
AcDbAttributeDefinition
  3

  2
BL
 70
     8
280
     0
  0
ATTDEF
  5
9E
330
8E
100
AcDbEntity
  8
AM_6
100
AcDbText
 10
-38.77345357973847
 20
-1.958548115672621
 30
0.0
 40
0.5
  1
5.080
100
AcDbAttributeDefinition
  3

  2
TL
 70
     8
280
     0
  0
ATTDEF
  5
9F
330
8E
100
AcDbEntity
  8
AM_6
100
AcDbText
 10
-38.77345357973847
 20
-2.458548115672621
 30
0.0
 40
0.5
  1
baldor
100
AcDbAttributeDefinition
  3

  2
COMPANY
 70
     8
280
     0
  0
LINE
  5
A2
330
8E
100
AcDbEntity
  8
AM_9
100
AcDbLine
 10
-48.89076482282594
 20
-2.020725942163693
 30
0.0
 11
-47.8256949031093
 21
-2.020725942163692
 31
0.0
  0
LINE
  5
A3
330
8E
100
AcDbEntity
  8
AM_9
100
AcDbLine
 10
-48.89076482282594
 20
2.020725942163689
 30
0.0
 11
-47.8256949031093
 21
2.020725942163689
 31
0.0
  0
LWPOLYLINE
  5
A4
330
8E
100
AcDbEntity
  8
AM_9
100
AcDbPolyline
 90
        3
 70
     0
 43
0.0
 10
-49.0164091698438
 20
-0.000000000000002
 10
-48.98324551287148
 20
-1.010362971081847
 10
-48.89076482282594
 20
-2.020725942163693
  0
LWPOLYLINE
  5
A5
330
8E
100
AcDbEntity
  8
AM_9
100
AcDbPolyline
 90
        4
 70
     0
 43
0.0
 10
-48.89076482282594
 20
2.020725942163689
 10
-48.94064020616934
 20
1.546688894797461
 10
-48.99670561173016
 20
0.7756181668408964
 10
-49.0164091698438
 20
-0.000000000000002
  0
LWPOLYLINE
  5
A6
330
8E
100
AcDbEntity
  8
AM_9
100
AcDbPolyline
 90
        3
 70
     0
 43
0.0
 10
-49.8914091698438
 20
3.031088913245534
 10
-49.42074551287148
 20
2.525907427704611
 10
-48.89076482282594
 20
2.020725942163689
  0
LWPOLYLINE
  5
A7
330
8E
100
AcDbEntity
  8
AM_9
100
AcDbPolyline
 90
        3
 70
     0
 43
0.0
 10
-48.89076482282594
 20
-2.020725942163693
 10
-49.41848541292591
 20
-2.523635995714044
 10
-49.8914091698438
 20
-3.031088913245537
  0
ELLIPSE
  5
A8
330
8E
100
AcDbEntity
  8
AM_9
100
AcDbEllipse
 10
-57.03903116945448
 20
-0.000000000000002
 30
0.0
 11
1.290698233790638E-16
 21
2.107870178878142
 31
0.0
210
0.0
220
0.0
230
1.0
 40
0.5000000000000006
 41
0.0
 42
6.283185307179586
  0
LWPOLYLINE
  5
A9
330
8E
100
AcDbEntity
  8
AM_9
100
AcDbPolyline
 90
        3
 70
     0
 43
0.0
 10
-48.48081519948969
 20
-2.920401255216205
 10
-48.17071421306376
 20
-2.525907427704615
 10
-47.8256949031093
 20
-2.020725942163692
  0
LINE
  5
AA
330
8E
100
AcDbEntity
  8
AM_9
100
AcDbLine
 10
-48.57505055609145
 20
-3.031088913245537
 30
0.0
 11
-48.48081519948969
 21
-2.920401255216205
 31
0.0
  0
LWPOLYLINE
  5
AB
330
8E
100
AcDbEntity
  8
AM_9
100
AcDbPolyline
 90
        3
 70
     0
 43
0.0
 10
-47.8256949031093
 20
-2.020725942163692
 10
-47.73350719520252
 20
-1.014905835062989
 10
-47.70005055609145
 20
-0.0000000000000019
  0
LINE
  5
AC
330
8E
100
AcDbEntity
  8
AM_9
100
AcDbLine
 10
-48.4808159193737
 20
2.920402115570625
 30
0.0
 11
-48.57505055609145
 21
3.031088913245534
 31
0.0
  0
LWPOLYLINE
  5
AD
330
8E
100
AcDbEntity
  8
AM_9
100
AcDbPolyline
 90
        3
 70
     0
 43
0.0
 10
-47.8256949031093
 20
2.020725942163689
 10
-48.16904007739572
 20
2.523635995714041
 10
-48.4808159193737
 20
2.920402115570625
  0
LWPOLYLINE
  5
AE
330
8E
100
AcDbEntity
  8
AM_9
100
AcDbPolyline
 90
        4
 70
     0
 43
0.0
 10
-47.70005055609145
 20
-0.0000000000000019
 10
-47.71964012011538
 20
0.7733444473987294
 10
-47.7758195197659
 20
1.546688894797461
 10
-47.8256949031093
 20
2.020725942163689
  0
ELLIPSE
  5
AF
330
8E
100
AcDbEntity
  8
AM_9
100
AcDbEllipse
 10
-56.77521000922231
 20
-0.0000000000000306
 30
0.0
 11
-4.717564693157067E-16
 21
-2.568122605604391
 31
0.0
210
0.0
220
0.0
230
1.0
 40
0.5000000000000158
 41
6.027533853805856
 42
9.680495448262688
  0
LINE
  5
B0
330
8E
100
AcDbEntity
  8
AM_9
100
AcDbLine
 10
-57.08989574657357
 20
-2.489808278612661
 30
0.0
 11
-55.63645213951295
 21
-3.224608587719996
 31
0.0
  0
LINE
  5
B1
330
8E
100
AcDbEntity
  8
AM_9
100
AcDbLine
 10
-55.63645213951295
 20
3.224608587719993
 30
0.0
 11
-57.08989574657357
 21
2.489808278612657
 31
0.0
  0
LWPOLYLINE
  5
B2
330
8E
100
AcDbEntity
  8
AM_9
100
AcDbPolyline
 90
        3
 70
     0
 43
0.0
 10
-50.64076482282594
 20
4.041451884327379
 10
-50.29741964853952
 20
3.538541830777027
 10
-49.8914091698438
 20
3.031088913245534
  0
LWPOLYLINE
  5
B3
330
8E
100
AcDbEntity
  8
AM_9
100
AcDbPolyline
 90
        3
 70
     0
 43
0.0
 10
-49.8914091698438
 20
-3.031088913245537
 10
-50.29574551287148
 20
-3.53627039878646
 10
-50.64076482282594
 20
-4.041451884327381
  0
ELLIPSE
  5
B4
330
8E
100
AcDbEntity
  8
AM_9
100
AcDbEllipse
 10
-55.22889532489452
 20
0.0000000000059446
 30
0.0
 11
-6.109827713773689E-16
 21
-3.326035293347485
 31
0.0
210
0.0
220
0.0
230
1.0
 40
0.499999999998522
 41
3.368214762463058
 42
6.030088854483168
  0
ELLIPSE
  5
B5
330
8E
100
AcDbEntity
  8
AM_9
100
AcDbEllipse
 10
-55.22889532487411
 20
-0.0000000000000488
 30
0.0
 11
-6.109827713785008E-16
 21
-3.326035293353648
 31
0.0
210
0.0
220
0.0
230
1.0
 40
0.4999999999999734
 41
3.141592653589793
 42
3.355078051643017
  0
LWPOLYLINE
  5
B6
330
8E
100
AcDbEntity
  8
AM_9
100
AcDbPolyline
 90
        5
 70
     0
 43
0.0
 10
-54.89051224155243
 20
3.405530439901158
 10
-55.09422790577309
 20
3.392535042945906
 10
-55.32553205748545
 20
3.345644457311313
 10
-55.54653805518397
 20
3.266915152853449
 10
-55.64330670603859
 20
3.221124514341908
  0
LWPOLYLINE
  5
B7
330
8E
100
AcDbEntity
  8
AM_9
100
AcDbPolyline
 90
        9
 70
     0
 43
0.0
 10
-55.65184267861051
 20
-3.216733365562272
 10
-55.58241507587682
 20
-3.250781121526344
 10
-55.36668236249348
 20
-3.333584627698349
 10
-55.12183410807582
 20
-3.388760104291836
 10
-54.87845036335873
 20
-3.405485013409392
 10
-54.6405658034947
 20
-3.385938515453566
 10
-54.41120825437687
 20
-3.33261871766506
 10
-54.1923446512428
 20
-3.247863125692688
 10
-54.0623752981992
 20
-3.180318376262743
  0
LWPOLYLINE
  5
B8
330
8E
100
AcDbEntity
  8
AM_9
100
AcDbPolyline
 90
        5
 70
     0
 43
0.0
 10
-54.06534123022173
 20
3.182013419784967
 10
-54.24552239709546
 20
3.271682634958964
 10
-54.46276182492143
 20
3.34765528112839
 10
-54.70753307859129
 20
3.39505194696504
 10
-54.89051224155243
 20
3.405530439901158
  0
LWPOLYLINE
  5
B9
330
8E
100
AcDbEntity
  8
AM_9
100
AcDbPolyline
 90
        4
 70
     0
 43
0.0
 10
-52.26577892387142
 20
2.147122806214076
 10
-52.24147845942867
 20
2.170303197621349
 10
-52.20676465608649
 20
2.197794307174021
 10
-52.19620882698914
 20
2.204169692377132
  0
LWPOLYLINE
  5
BA
330
8E
100
AcDbEntity
  8
AM_9
100
AcDbPolyline
 90
        3
 70
     0
 43
0.0
 10
-52.3500735257325
 20
2.046686215933266
 10
-52.29569917461861
 20
2.114891633274433
 10
-52.26577892387142
 20
2.147122806214076
  0
ELLIPSE
  5
BB
330
8E
100
AcDbEntity
  8
AM_9
100
AcDbEllipse
 10
-51.64388610642064
 20
-0.0000000000122551
 30
0.0
 11
-4.568135072853629E-16
 21
-2.486776909083306
 31
0.0
210
0.0
220
0.0
230
1.0
 40
0.4999999999693352
 41
3.141592653589793
 42
5.667705598562168
  0
LINE
  5
BC
330
8E
100
AcDbEntity
  8
AM_9
100
AcDbLine
 10
-52.314709673457
 20
2.203330089206133
 30
0.0
 11
-54.07870282443697
 21
3.1895582296937
 31
0.0
  0
LINE
  5
BD
330
8E
100
AcDbEntity
  8
AM_9
100
AcDbLine
 10
-54.07870282443697
 20
-3.189558229693704
 30
0.0
 11
-52.31432283838727
 21
-2.203113814198902
 31
0.0
  0
LWPOLYLINE
  5
BE
330
8E
100
AcDbEntity
  8
AM_9
100
AcDbPolyline
 90
        3
 70
     0
 43
0.0
 10
-48.57505055609145
 20
3.031088913245534
 10
-49.04571421306376
 20
3.536270398786456
 10
-49.57569490310931
 20
4.041451884327379
  0
LWPOLYLINE
  5
BF
330
8E
100
AcDbEntity
  8
AM_9
100
AcDbPolyline
 90
        3
 70
     0
 43
0.0
 10
-49.57569490310931
 20
-4.041451884327381
 10
-49.04797431300933
 20
-3.538541830777031
 10
-48.57505055609145
 20
-3.031088913245537
  0
LINE
  5
C0
330
8E
100
AcDbEntity
  8
AM_9
100
AcDbLine
 10
-52.36175676522419
 20
-2.030444843784307
 30
0.0
 11
-51.77677214092564
 21
-2.857738033247043
 31
0.0
  0
LINE
  5
C1
330
8E
100
AcDbEntity
  8
AM_9
100
AcDbLine
 10
-51.77677214092564
 20
2.85773803324704
 30
0.0
 11
-52.36175676522419
 21
2.030444843784303
 31
0.0
  0
LINE
  5
C2
330
8E
100
AcDbEntity
  8
AM_9
100
AcDbLine
 10
-50.64076482282594
 20
-4.041451884327381
 30
0.0
 11
-49.57569490310931
 21
-4.041451884327381
 31
0.0
  0
LWPOLYLINE
  5
C3
330
8E
100
AcDbEntity
  8
AM_9
100
AcDbPolyline
 90
        3
 70
     0
 43
0.0
 10
-50.32505055609145
 20
-3.031088913245538
 10
-49.92071421306376
 20
-3.53627039878646
 10
-49.57569490310931
 20
-4.041451884327381
  0
LWPOLYLINE
  5
C4
330
8E
100
AcDbEntity
  8
AM_9
100
AcDbPolyline
 90
        3
 70
     0
 43
0.0
 10
-51.64140916984379
 20
-3.031088913245537
 10
-52.04574551287148
 20
-2.525907427704615
 10
-52.39076482282593
 20
-2.020725942163692
  0
LWPOLYLINE
  5
C5
330
8E
100
AcDbEntity
  8
AM_9
100
AcDbPolyline
 90
        3
 70
     0
 43
0.0
 10
-50.64076482282594
 20
-4.041451884327381
 10
-51.16848541292592
 20
-3.538541830777031
 10
-51.64140916984379
 20
-3.031088913245537
  0
LWPOLYLINE
  5
C6
330
8E
100
AcDbEntity
  8
AM_9
100
AcDbPolyline
 90
        3
 70
     0
 43
0.0
 10
-51.3256949031093
 20
-2.020725942163692
 10
-50.79797431300932
 20
-2.523635995714044
 10
-50.32505055609145
 20
-3.031088913245538
  0
LWPOLYLINE
  5
C7
330
8E
100
AcDbEntity
  8
AM_9
100
AcDbPolyline
 90
        3
 70
     0
 43
0.0
 10
-50.32505055609145
 20
3.031088913245534
 10
-50.79571421306376
 20
2.525907427704611
 10
-51.3256949031093
 20
2.020725942163689
  0
LWPOLYLINE
  5
C8
330
8E
100
AcDbEntity
  8
AM_9
100
AcDbPolyline
 90
        3
 70
     0
 43
0.0
 10
-49.57569490310931
 20
4.041451884327379
 10
-49.91904007739572
 20
3.538541830777028
 10
-50.32505055609145
 20
3.031088913245534
  0
LINE
  5
C9
330
8E
100
AcDbEntity
  8
AM_9
100
AcDbLine
 10
-50.64076482282594
 20
4.041451884327379
 30
0.0
 11
-49.57569490310931
 21
4.041451884327379
 31
0.0
  0
LWPOLYLINE
  5
CA
330
8E
100
AcDbEntity
  8
AM_9
100
AcDbPolyline
 90
        3
 70
     0
 43
0.0
 10
-51.64140916984379
 20
3.031088913245534
 10
-51.17074551287148
 20
3.536270398786456
 10
-50.64076482282594
 20
4.041451884327379
  0
LWPOLYLINE
  5
CB
330
8E
100
AcDbEntity
  8
AM_9
100
AcDbPolyline
 90
        3
 70
     0
 43
0.0
 10
-52.39076482282593
 20
2.020725942163689
 10
-52.04741964853952
 20
2.52363599571404
 10
-51.64140916984379
 20
3.031088913245534
  0
LINE
  5
CC
330
8E
100
AcDbEntity
  8
AM_9
100
AcDbLine
 10
-52.39076482282593
 20
-2.020725942163692
 30
0.0
 11
-51.3256949031093
 21
-2.020725942163692
 31
0.0
  0
LWPOLYLINE
  5
CD
330
8E
100
AcDbEntity
  8
AM_9
100
AcDbPolyline
 90
        3
 70
     0
 43
0.0
 10
-51.20005055609145
 20
-0.0000000000000016
 10
-51.23321421306376
 20
-1.010362971081847
 10
-51.3256949031093
 20
-2.020725942163692
  0
LWPOLYLINE
  5
CE
330
8E
100
AcDbEntity
  8
AM_9
100
AcDbPolyline
 90
        4
 70
     0
 43
0.0
 10
-51.3256949031093
 20
2.020725942163689
 10
-51.2758195197659
 20
1.546688894797461
 10
-51.21975411420507
 20
0.7756181668408967
 10
-51.20005055609145
 20
-0.0000000000000016
  0
LINE
  5
CF
330
8E
100
AcDbEntity
  8
AM_9
100
AcDbLine
 10
-52.39076482282593
 20
2.020725942163689
 30
0.0
 11
-51.3256949031093
 21
2.020725942163689
 31
0.0
  0
LWPOLYLINE
  5
D0
330
8E
100
AcDbEntity
  8
AM_9
100
AcDbPolyline
 90
        4
 70
     0
 43
0.0
 10
-52.51640916984379
 20
-0.0000000000000016
 10
-52.49681960581986
 20
0.7733444473987299
 10
-52.44064020616933
 20
1.546688894797462
 10
-52.39076482282593
 20
2.020725942163689
  0
LWPOLYLINE
  5
D1
330
8E
100
AcDbEntity
  8
AM_9
100
AcDbPolyline
 90
        3
 70
     0
 43
0.0
 10
-52.39076482282593
 20
-2.020725942163692
 10
-52.48295253073272
 20
-1.014905835062989
 10
-52.51640916984379
 20
-0.0000000000000016
  0
LINE
  5
D2
330
8E
100
AcDbEntity
  8
AM_9
100
AcDbLine
 10
-44.31325671248808
 20
2.085639148138467
 30
0.0
 11
-44.4572550466083
 21
2.289283545210417
 31
0.0
  0
LINE
  5
D3
330
8E
100
AcDbEntity
  8
AM_9
100
AcDbLine
 10
-44.4572550466083
 20
-2.289283545210421
 30
0.0
 11
-44.31325671248808
 21
-2.085639148138471
 31
0.0
  0
LINE
  5
D4
330
8E
100
AcDbEntity
  8
AM_9
100
AcDbLine
 10
-45.24134449329611
 20
2.80333185264527
 30
0.0
 11
-49.4233725725968
 21
2.954269905128661
 31
0.0
  0
LINE
  5
D5
330
8E
100
AcDbEntity
  8
AM_9
100
AcDbLine
 10
-49.4233725725968
 20
-2.954269905128664
 30
0.0
 11
-45.24134449329611
 21
-2.803331852645274
 31
0.0
  0
ELLIPSE
  5
D6
330
8E
100
AcDbEntity
  8
AM_9
100
AcDbEllipse
 10
-52.62225669275808
 20
-0.0000000000000064
 30
0.0
 11
-4.202208761524217E-16
 21
-2.287575903218222
 31
0.0
210
0.0
220
0.0
230
1.0
 40
0.500000000000007
 41
0.0
 42
6.283185307179586
  0
ELLIPSE
  5
D7
330
8E
100
AcDbEntity
  8
AM_9
100
AcDbEllipse
 10
-54.52451409078177
 20
0.0000000000000024
 30
0.0
 11
-6.083748125869839E-16
 21
-3.311838226937803
 31
0.0
210
0.0
220
0.0
230
1.0
 40
0.5000000000000008
 41
0.0
 42
6.283185307179586
  0
ELLIPSE
  5
D8
330
8E
100
AcDbEntity
  8
AM_9
100
AcDbEllipse
 10
-50.7664091698438
 20
0.0000000000000062
 30
0.0
 11
-6.429395695523618E-16
 21
-3.500000000000008
 31
0.0
210
0.0
220
0.0
230
1.0
 40
0.4999999999999969
 41
0.0
 42
6.283185307179586
  0
ELLIPSE
  5
D9
330
8E
100
AcDbEntity
  8
AM_9
100
AcDbEllipse
 10
-49.45005055609404
 20
0.0000000000030296
 30
0.0
 11
-6.429395695517062E-16
 21
-3.499999999996438
 31
0.0
210
0.0
220
0.0
230
1.0
 40
0.5000000000005372
 41
0.0
 42
6.283185307179586
  0
ELLIPSE
  5
DA
330
8E
100
AcDbEntity
  8
AM_9
100
AcDbEllipse
 10
-45.05064150486658
 20
-0.0000000000000644
 30
0.0
 11
-4.692312313253288E-16
 21
-2.554375850256177
 31
0.0
210
0.0
220
0.0
230
1.0
 40
0.5000000000000115
 41
0.0
 42
6.283185307179586
  0
ELLIPSE
  5
DB
330
8E
100
AcDbEntity
  8
AM_9
100
AcDbEllipse
 10
-45.26663900604682
 20
-0.000000000000004
 30
0.0
 11
-5.150475516009800E-16
 21
-2.803788281157616
 31
0.0
210
0.0
220
0.0
230
1.0
 40
0.5000000000000139
 41
0.0
 42
6.283185307179586
  0
ELLIPSE
  5
DC
330
8E
100
AcDbEntity
  8
AM_9
100
AcDbEllipse
 10
-49.45005055613174
 20
-0.000000000009627
 30
0.0
 11
-5.427790792996885E-16
 21
-2.954751686650074
 31
0.0
210
0.0
220
0.0
230
1.0
 40
0.5000000000001676
 41
0.0
 42
6.283185307179586
  0
LWPOLYLINE
  5
DE
330
8E
100
AcDbEntity
  8
AM_4
100
AcDbPolyline
 90
       24
 70
     0
 43
0.0
 10
-57.09191867021656
 20
2.488783122912171
 10
-57.10591343406373
 20
2.48155616960181
 10
-57.27201532885424
 20
2.37669671629517
 10
-57.42904472516494
 20
2.240747903138412
 10
-57.57640950627227
 20
2.072579859851576
 10
-57.71198088343576
 20
1.872376457612529
 10
-57.83257918039678
 20
1.643264216133389
 10
-57.93537176579689
 20
1.390931594931967
 10
-58.01898983158717
 20
1.12110328990998
 10
-58.08321738240503
 20
0.8379376455265827
 10
-58.12805262866068
 20
0.545098130356756
 10
-58.15351651214004
 20
0.2460860634876495
 10
-58.15962559477939
 20
-0.0556127085654245
 10
-58.1464060102181
 20
-0.3565082248437781
 10
-58.11391877639164
 20
-0.6529865440822824
 10
-58.06223294717564
 20
-0.9416296169618937
 10
-57.99133411855087
 20
-1.219252819785314
 10
-57.90101575765115
 20
-1.482837895851651
 10
-57.79074406621218
 20
-1.729433173617021
 10
-57.65959665954239
 20
-1.955820139099339
 10
-57.50663093474238
 20
-2.157764463841902
 10
-57.35307826275386
 20
-2.311462629264722
 10
-57.19015705146575
 20
-2.432918664824115
 10
-57.10462323465001
 20
-2.482232335845235
  0
ELLIPSE
  5
DF
330
8E
100
AcDbEntity
  8
AM_4
100
AcDbEllipse
 10
-56.7752100092228
 20
-0.0000000000000056
 30
0.0
 11
-4.717564693157024E-16
 21
-2.568122605604367
 31
0.0
210
0.0
220
0.0
230
1.0
 40
0.4999999999999956
 41
3.397310141082745
 42
6.027533853806217
  0
ENDBLK
  5
91
330
8E
100
AcDbEntity
  8
0
100
AcDbBlockEnd
  0
BLOCK
  5
E2
330
E0
100
AcDbEntity
  8
0
100
AcDbBlockBegin
  2
3_050656_0_in_136979_4
 70
     2
 10
0.0
 20
0.0
 30
0.0
  3
3_050656_0_in_136979_4
  1

  0
ATTDEF
  5
E4
330
E0
100
AcDbEntity
  8
AM_6
100
AcDbText
 10
49.99121541260941
 20
19.09999999999999
 30
0.0
 40
0.5
  1
Set Screw Insert Metric Bore - Corrosion Resistant
100
AcDbAttributeDefinition
  3

  2
NN
 70
     8
280
     0
  0
ATTDEF
  5
E5
330
E0
100
AcDbEntity
  8
AM_6
100
AcDbText
 10
49.99121541260941
 20
18.59999999999999
 30
0.0
 40
0.5
  1
SC Bearing Insert -Metric
100
AcDbAttributeDefinition
  3

  2
NT
 70
     8
280
     0
  0
ATTDEF
  5
E6
330
E0
100
AcDbEntity
  8
AM_6
100
AcDbText
 10
49.99121541260941
 20
18.09999999999999
 30
0.0
 40
0.5
  1
050656
100
AcDbAttributeDefinition
  3

  2
NB
 70
     8
280
     0
  0
ATTDEF
  5
E7
330
E0
100
AcDbEntity
  8
AM_6
100
AcDbText
 10
49.99121541260941
 20
17.59999999999999
 30
0.0
 40
0.5
  1
$PN.
100
AcDbAttributeDefinition
  3

  2
NBSYN
 70
     8
280
     0
  0
ATTDEF
  5
E8
330
E0
100
AcDbEntity
  8
AM_6
100
AcDbText
 10
49.99121541260941
 20
17.09999999999999
 30
0.0
 40
0.5
  1
050656
100
AcDbAttributeDefinition
  3

  2
LINA
 70
     8
280
     0
  0
ATTDEF
  5
E9
330
E0
100
AcDbEntity
  8
AM_6
100
AcDbText
 10
49.99121541260941
 20
16.59999999999999
 30
0.0
 40
0.5
  1
210
100
AcDbAttributeDefinition
  3

  2
SERIES
 70
     8
280
     0
  0
ATTDEF
  5
EA
330
E0
100
AcDbEntity
  8
AM_6
100
AcDbText
 10
49.99121541260941
 20
16.09999999999999
 30
0.0
 40
0.5
  1
50
100
AcDbAttributeDefinition
  3

  2
SS
 70
     8
280
     0
  0
ATTDEF
  5
EB
330
E0
100
AcDbEntity
  8
AM_6
100
AcDbText
 10
49.99121541260941
 20
15.59999999999999
 30
0.0
 40
0.5
  1
050656
100
AcDbAttributeDefinition
  3

  2
PN
 70
     8
280
     0
  0
ATTDEF
  5
EC
330
E0
100
AcDbEntity
  8
AM_6
100
AcDbText
 10
49.99121541260941
 20
15.09999999999999
 30
0.0
 40
0.5
  1
INS-SC-50M-CR
100
AcDbAttributeDefinition
  3

  2
DESCRIPTION
 70
     8
280
     0
  0
ATTDEF
  5
ED
330
E0
100
AcDbEntity
  8
AM_6
100
AcDbText
 10
49.99121541260941
 20
14.59999999999999
 30
0.0
 40
0.5
  1
49.3
100
AcDbAttributeDefinition
  3

  2
A
 70
     8
280
     0
  0
ATTDEF
  5
EE
330
E0
100
AcDbEntity
  8
AM_6
100
AcDbText
 10
49.99121541260941
 20
14.09999999999999
 30
0.0
 40
0.5
  1
22.1
100
AcDbAttributeDefinition
  3

  2
C
 70
     8
280
     0
  0
ATTDEF
  5
EF
330
E0
100
AcDbEntity
  8
AM_6
100
AcDbText
 10
49.99121541260941
 20
13.59999999999999
 30
0.0
 40
0.5
  1
90
100
AcDbAttributeDefinition
  3

  2
D
 70
     8
280
     0
  0
ATTDEF
  5
F0
330
E0
100
AcDbEntity
  8
AM_6
100
AcDbText
 10
49.99121541260941
 20
13.09999999999999
 30
0.0
 40
0.5
  1
6.4
100
AcDbAttributeDefinition
  3

  2
J
 70
     8
280
     0
  0
ATTDEF
  5
F1
330
E0
100
AcDbEntity
  8
AM_6
100
AcDbText
 10
49.99121541260941
 20
12.59999999999999
 30
0.0
 40
0.5
  1
61.7
100
AcDbAttributeDefinition
  3

  2
L
 70
     8
280
     0
  0
ATTDEF
  5
F2
330
E0
100
AcDbEntity
  8
AM_6
100
AcDbText
 10
49.99121541260941
 20
12.09999999999999
 30
0.0
 40
0.5
  1
M10 x 1.5
100
AcDbAttributeDefinition
  3

  2
N
 70
     8
280
     0
  0
ATTDEF
  5
F3
330
E0
100
AcDbEntity
  8
AM_6
100
AcDbText
 10
49.99121541260941
 20
11.59999999999999
 30
0.0
 40
0.5
  1
19.1
100
AcDbAttributeDefinition
  3

  2
W
 70
     8
280
     0
  0
ATTDEF
  5
F4
330
E0
100
AcDbEntity
  8
AM_6
100
AcDbText
 10
49.99121541260941
 20
11.09999999999999
 30
0.0
 40
0.5
  1
30.2
100
AcDbAttributeDefinition
  3

  2
Y
 70
     8
280
     0
  0
ATTDEF
  5
F5
330
E0
100
AcDbEntity
  8
AM_6
100
AcDbText
 10
49.99121541260941
 20
10.59999999999999
 30
0.0
 40
0.5
  1
baldor
100
AcDbAttributeDefinition
  3

  2
COMPANY
 70
     8
280
     0
  0
LINE
  5
F6
330
E0
100
AcDbEntity
  8
AM_9
100
AcDbLine
 10
-47.5
 20
6.600909090909089
 30
0.0
 11
-47.5
 21
6.199090909090912
 31
0.0
  0
ARC
  5
F7
330
E0
100
AcDbEntity
  8
AM_9
100
AcDbCircle
 10
-45.49090909090908
 20
6.199090909090907
 30
0.0
 40
2.009090909090915
100
AcDbArc
 50
180.0
 51
270.0
  0
ARC
  5
F8
330
E0
100
AcDbEntity
  8
AM_9
100
AcDbCircle
 10
-45.49090909090908
 20
6.600909090909092
 30
0.0
 40
2.009090909090907
100
AcDbArc
 50
90.0
 51
180.0
  0
LINE
  5
F9
330
E0
100
AcDbEntity
  8
AM_9
100
AcDbLine
 10
-45.4909090909091
 20
8.61
 30
0.0
 11
-45.4909090909091
 21
4.19
 31
0.0
  0
LINE
  5
FA
330
E0
100
AcDbEntity
  8
AM_9
100
AcDbLine
 10
-45.4909090909091
 20
4.19
 30
0.0
 11
-44.69126132022674
 21
4.19
 31
0.0
  0
LINE
  5
FB
330
E0
100
AcDbEntity
  8
AM_9
100
AcDbLine
 10
-43.6804835444733
 20
8.61
 30
0.0
 11
-45.4909090909091
 21
8.61
 31
0.0
  0
LINE
  5
FC
330
E0
100
AcDbEntity
  8
AM_9
100
AcDbLine
 10
22.65556916135708
 20
-24.813
 30
0.0
 11
27.58992787792071
 21
-24.813
 31
0.0
  0
LINE
  5
FD
330
E0
100
AcDbEntity
  8
AM_9
100
AcDbLine
 10
27.58992787792071
 20
-16.437
 30
0.0
 11
22.65715160397221
 21
-16.437
 31
0.0
  0
LWPOLYLINE
  5
FE
330
E0
100
AcDbEntity
  8
AM_9
100
AcDbPolyline
 90
       21
 70
     0
 43
0.0
 10
22.65755202915317
 20
-24.81299998639878
 10
22.84697745068978
 20
-24.78800944542597
 10
23.11234352398952
 20
-24.65749039142872
 10
23.35651895568412
 20
-24.41054268300072
 10
23.56302586160189
 20
-24.06604219206332
 10
23.74048193228948
 20
-23.61533308590081
 10
23.88014327542942
 20
-23.08850880320384
 10
23.98820786881822
 20
-22.4751354341345
 10
24.05962370244267
 20
-21.82573974170464
 10
24.09948304212425
 20
-21.12161285746922
 10
24.10623664344415
 20
-20.43163379012983
 10
24.08110167327657
 20
-19.72716476848986
 10
24.02552716100509
 20
-19.07181297927356
 10
23.9354232116977
 20
-18.4420261551753
 10
23.81350703173957
 20
-17.88435631494399
 10
23.65268231650192
 20
-17.38881957971778
 10
23.45962495920939
 20
-16.99241974314841
 10
23.22578699097915
 20
-16.68953044448144
 10
22.96874413759817
 20
-16.50669123079843
 10
22.67755754430895
 20
-16.43726480166354
 10
22.65780285782026
 20
-16.43700000782322
  0
LWPOLYLINE
  5
FF
330
E0
100
AcDbEntity
  8
AM_9
100
AcDbPolyline
 90
       11
 70
     0
 43
0.0
 10
22.65780285782026
 20
-16.43700000782322
 10
22.38010584017358
 20
-16.48608216281405
 10
22.06491330207809
 20
-16.65281282552977
 10
21.76057494242752
 20
-16.92293255121296
 10
21.46112014395699
 20
-17.30390444502207
 10
21.19182596497463
 20
-17.770266930992
 10
20.95307000863783
 20
-18.3315553590603
 10
20.76789990676854
 20
-18.94567931489345
 10
20.63682826440093
 20
-19.62736792744857
 10
20.58527782097713
 20
-20.11873411007047
 10
20.56758620890206
 20
-20.625
  0
ELLIPSE
  5
100
330
E0
100
AcDbEntity
  8
AM_9
100
AcDbEllipse
 10
27.58992787792072
 20
-20.62500000000001
 30
0.0
 11
-7.693231192243657E-16
 21
-4.187999999999992
 31
0.0
210
0.0
220
0.0
230
1.0
 40
0.4226182617407004
 41
3.559421542160399
 42
5.868267999643069
  0
LINE
  5
101
330
E0
100
AcDbEntity
  8
AM_9
100
AcDbLine
 10
26.76459816541529
 20
-24.32979950446319
 30
0.0
 11
26.99778822615284
 21
-24.62065433913907
 31
0.0
  0
LINE
  5
102
330
E0
100
AcDbEntity
  8
AM_9
100
AcDbLine
 10
27.00123421423372
 20
-16.62504752615317
 30
0.0
 11
26.76459816541529
 21
-16.92020049553681
 31
0.0
  0
LWPOLYLINE
  5
103
330
E0
100
AcDbEntity
  8
AM_9
100
AcDbPolyline
 90
       11
 70
     0
 43
0.0
 10
20.56758620890206
 20
-20.625
 10
20.60029497019668
 20
-21.3125947545914
 10
20.70047003761933
 20
-22.0001895091828
 10
20.85733960649549
 20
-22.62982636321153
 10
21.07184935399644
 20
-23.2201745295535
 10
21.32466903973899
 20
-23.7271015796819
 10
21.61684182545935
 20
-24.15976548687559
 10
21.92181194018282
 20
-24.48382475567161
 10
22.24314668608925
 20
-24.70550612456223
 10
22.54796384349552
 20
-24.80511834062801
 10
22.65755202915317
 20
-24.81299998639878
  0
LINE
  5
104
330
E0
100
AcDbEntity
  8
AM_9
100
AcDbLine
 10
25.0
 20
-28.966
 30
0.0
 11
25.0
 21
17.866
 31
0.0
  0
LINE
  5
105
330
E0
100
AcDbEntity
  8
AM_9
100
AcDbLine
 10
-25.0
 20
17.866
 30
0.0
 11
-25.0
 21
-28.966
 31
0.0
  0
LINE
  5
106
330
E0
100
AcDbEntity
  8
AM_9
100
AcDbLine
 10
25.0
 20
17.866
 30
0.0
 11
26.23400000000004
 21
19.09999999999999
 31
0.0
  0
LINE
  5
107
330
E0
100
AcDbEntity
  8
AM_9
100
AcDbLine
 10
-26.23400000000004
 20
19.09999999999999
 30
0.0
 11
-25.0
 21
17.866
 31
0.0
  0
LINE
  5
108
330
E0
100
AcDbEntity
  8
AM_9
100
AcDbLine
 10
-25.0
 20
-28.966
 30
0.0
 11
-26.23400000000004
 21
-30.2
 31
0.0
  0
LINE
  5
109
330
E0
100
AcDbEntity
  8
AM_9
100
AcDbLine
 10
26.23400000000004
 20
-30.2
 30
0.0
 11
25.0
 21
-28.966
 31
0.0
  0
LINE
  5
10A
330
E0
100
AcDbEntity
  8
AM_9
100
AcDbLine
 10
30.84999999999998
 20
11.05
 30
0.0
 11
30.84999999999998
 21
12.7
 31
0.0
  0
LINE
  5
10B
330
E0
100
AcDbEntity
  8
AM_9
100
AcDbLine
 10
-30.84999999999998
 20
12.7
 30
0.0
 11
-30.84999999999998
 21
11.05
 31
0.0
  0
LINE
  5
10C
330
E0
100
AcDbEntity
  8
AM_9
100
AcDbLine
 10
30.84999999999999
 20
-12.7
 30
0.0
 11
30.84999999999999
 21
-11.05
 31
0.0
  0
LINE
  5
10D
330
E0
100
AcDbEntity
  8
AM_9
100
AcDbLine
 10
-30.84999999999999
 20
-11.05
 30
0.0
 11
-30.84999999999999
 21
-12.7
 31
0.0
  0
LINE
  5
10E
330
E0
100
AcDbEntity
  8
AM_9
100
AcDbLine
 10
42.78999999999994
 20
-7.233333333333334
 30
0.0
 11
42.78999999999994
 21
-4.286666666666664
 31
0.0
  0
LINE
  5
10F
330
E0
100
AcDbEntity
  8
AM_9
100
AcDbLine
 10
-42.78999999999994
 20
-4.286666666666664
 30
0.0
 11
-42.78999999999994
 21
-7.233333333333334
 31
0.0
  0
LINE
  5
110
330
E0
100
AcDbEntity
  8
AM_9
100
AcDbLine
 10
-42.19396883195163
 20
11.05
 30
0.0
 11
42.19396883192567
 21
11.05
 31
0.0
  0
ARC
  5
111
330
E0
100
AcDbEntity
  8
AM_9
100
AcDbCircle
 10
42.19396883195164
 20
10.16600000000002
 30
0.0
 40
0.8839999999999852
100
AcDbArc
 50
21.41247877657207
 51
90.0
  0
ARC
  5
112
330
E0
100
AcDbEntity
  8
AM_9
100
AcDbCircle
 10
-42.19396883195164
 20
10.16600000000002
 30
0.0
 40
0.8839999999999808
100
AcDbArc
 50
90.0
 51
158.587521223428
  0
LINE
  5
113
330
E0
100
AcDbEntity
  8
AM_9
100
AcDbLine
 10
-42.1939688319516
 20
-11.05
 30
0.0
 11
42.19396883192564
 21
-11.05
 31
0.0
  0
ARC
  5
114
330
E0
100
AcDbEntity
  8
AM_9
100
AcDbCircle
 10
42.1939688319516
 20
-10.16599999999998
 30
0.0
 40
0.8840000000000163
100
AcDbArc
 50
270.0
 51
338.587532953115
  0
ARC
  5
115
330
E0
100
AcDbEntity
  8
AM_9
100
AcDbCircle
 10
-42.1939688319516
 20
-10.16599999999998
 30
0.0
 40
0.8840000000000177
100
AcDbArc
 50
201.412467046885
 51
270.0
  0
LINE
  5
116
330
E0
100
AcDbEntity
  8
AM_9
100
AcDbLine
 10
-43.01695196947389
 20
-10.48873015873016
 30
0.0
 11
43.01695196947389
 21
-10.48873015873016
 31
0.0
  0
LINE
  5
117
330
E0
100
AcDbEntity
  8
AM_9
100
AcDbLine
 10
-44.07452820834922
 20
-7.233333333333334
 30
0.0
 11
44.07452820834922
 21
-7.233333333333334
 31
0.0
  0
ARC
  5
118
330
E0
100
AcDbEntity
  8
AM_9
100
AcDbCircle
 10
16.270000000002
 20
-0.0000000000006501
 30
0.0
 40
28.72999999999788
100
AcDbArc
 50
338.5875329531157
 51
345.4177622541455
  0
ARC
  5
119
330
E0
100
AcDbEntity
  8
AM_9
100
AcDbCircle
 10
-16.26999999999963
 20
0.0000000000001172
 30
0.0
 40
28.73000000000037
100
AcDbArc
 50
194.5822377458548
 51
201.412467046884
  0
LINE
  5
11A
330
E0
100
AcDbEntity
  8
AM_9
100
AcDbLine
 10
-44.67840349067311
 20
-4.286666666666668
 30
0.0
 11
44.67840349067311
 21
-4.286666666666668
 31
0.0
  0
LINE
  5
11B
330
E0
100
AcDbEntity
  8
AM_9
100
AcDbLine
 10
-43.01695190340402
 20
10.48873032721265
 30
0.0
 11
43.01695190340402
 21
10.48873032721265
 31
0.0
  0
ARC
  5
11C
330
E0
100
AcDbEntity
  8
AM_9
100
AcDbCircle
 10
16.27000000000032
 20
0.0000000000000193
 30
0.0
 40
28.72999999999967
100
AcDbArc
 50
351.4191278814025
 51
21.41246740779779
  0
ARC
  5
11D
330
E0
100
AcDbEntity
  8
AM_9
100
AcDbCircle
 10
-16.26999999998954
 20
-0.0000000000038138
 30
0.0
 40
28.7300000000111
100
AcDbArc
 50
158.587532592203
 51
162.5687931004093
  0
ARC
  5
11E
330
E0
100
AcDbEntity
  8
AM_9
100
AcDbCircle
 10
-16.27000000000224
 20
-0.0000000000000231
 30
0.0
 40
28.72999999999776
100
AcDbArc
 50
171.5977818291933
 51
188.580872118598
  0
LWPOLYLINE
  5
11F
330
E0
100
AcDbEntity
  8
AM_9
100
AcDbPolyline
 90
       21
 70
     0
 43
0.0
 10
-43.67950200204525
 20
8.60999999999143
 10
-43.67967644066896
 20
8.609338052510585
 10
-43.69017526377173
 20
8.56944718034878
 10
-43.71514168847242
 20
8.474182902507374
 10
-43.7549130783438
 20
8.32123988471411
 10
-43.80646923999544
 20
8.120760063587396
 10
-43.87016531420234
 20
7.869514943095974
 10
-43.94247516563054
 20
7.579353455026816
 10
-44.02310581973306
 20
7.249339489438863
 10
-44.10759050301345
 20
6.895877713376884
 10
-44.19574071131082
 20
6.518246133976073
 10
-44.28143791212323
 20
6.141962865454917
 10
-44.36588268015878
 20
5.761796013358665
 10
-44.44181258986573
 20
5.411516284960627
 10
-44.51211016323914
 20
5.079654278666001
 10
-44.57008063499973
 20
4.800205001070978
 10
-44.61917225638735
 20
4.559262094806693
 10
-44.65479388383033
 20
4.381860290754208
 10
-44.67951907705797
 20
4.257411613344605
 10
-44.69131903379952
 20
4.197631488729787
 10
-44.69282181627985
 20
4.190000000000485
  0
LINE
  5
122
330
E0
100
AcDbEntity
  8
AM_7
100
AcDbLine
 10
-4.3974
 20
-20.625
 30
0.0
 11
4.3974
 21
-20.625
 31
0.0
  0
LINE
  5
123
330
E0
100
AcDbEntity
  8
AM_7
100
AcDbLine
 10
-48.3325
 20
6.4
 30
0.0
 11
-30.0175
 21
6.4
 31
0.0
  0
ELLIPSE
  5
124
330
E0
100
AcDbEntity
  8
AM_4
100
AcDbEllipse
 10
27.5899278779207
 20
-20.625
 30
0.0
 11
-7.693231192243684E-16
 21
-4.188000000000006
 31
0.0
210
0.0
220
0.0
230
1.0
 40
0.4226182617406998
 41
5.868267999643075
 42
9.84260684933998
  0
LWPOLYLINE
  5
125
330
E0
100
AcDbEntity
  8
AM_4
100
AcDbPolyline
 90
       14
 70
     0
 43
0.0
 10
27.00229952451931
 20
-24.62628111890205
 10
26.89492961066503
 20
-24.48374588481943
 10
26.6254829894983
 20
-24.04132786064409
 10
26.38696549773652
 20
-23.51989177486681
 10
26.17569018168256
 20
-22.89168535262126
 10
26.01588821890095
 20
-22.2076557908734
 10
25.90994783998444
 20
-21.44241432440741
 10
25.87199619928882
 20
-20.65544392240591
 10
25.90663800855349
 20
-19.84442790706694
 10
26.01346575770879
 20
-19.05539975546545
 10
26.18947389340159
 20
-18.31060075036605
 10
26.4260710162266
 20
-17.63375054906496
 10
26.70533761558062
 20
-17.06402966664295
 10
27.00263563136546
 20
-16.62329955850064
  0
LWPOLYLINE
  5
126
330
E0
100
AcDbEntity
  8
AM_4
100
AcDbPolyline
 90
        6
 70
     0
 43
0.0
 10
27.00263563136546
 20
-16.62329955850064
 10
27.02075216690785
 20
-16.60093860123503
 10
27.33805226275685
 20
-16.28233762980867
 10
27.66290351523769
 20
-16.08826377574736
 10
27.8576382233579
 20
-16.03636909449063
 10
28.04782169889123
 20
-16.03464870573412
  0
LINE
  5
127
330
E0
100
AcDbEntity
  8
AM_4
100
AcDbLine
 10
-29.61600000000003
 20
19.09999999999999
 30
0.0
 11
29.61600000000003
 21
19.09999999999999
 31
0.0
  0
LINE
  5
128
330
E0
100
AcDbEntity
  8
AM_4
100
AcDbLine
 10
-29.61600000000003
 20
19.09999999999999
 30
0.0
 11
-30.84999999999999
 21
17.86599999999999
 31
0.0
  0
LINE
  5
129
330
E0
100
AcDbEntity
  8
AM_4
100
AcDbLine
 10
30.84999999999999
 20
17.86599999999999
 30
0.0
 11
29.61600000000003
 21
19.09999999999999
 31
0.0
  0
LINE
  5
12A
330
E0
100
AcDbEntity
  8
AM_4
100
AcDbLine
 10
-30.84999999999999
 20
17.86599999999999
 30
0.0
 11
30.84999999999998
 21
17.86599999999999
 31
0.0
  0
LINE
  5
12B
330
E0
100
AcDbEntity
  8
AM_4
100
AcDbLine
 10
30.84999999999998
 20
12.7
 30
0.0
 11
30.84999999999998
 21
17.86599999999999
 31
0.0
  0
LINE
  5
12C
330
E0
100
AcDbEntity
  8
AM_4
100
AcDbLine
 10
-30.84999999999998
 20
17.86599999999999
 30
0.0
 11
-30.84999999999998
 21
12.7
 31
0.0
  0
CIRCLE
  5
12D
330
E0
100
AcDbEntity
  8
AM_4
100
AcDbCircle
 10
0.0
 20
-20.625
 30
0.0
 40
4.188
  0
LINE
  5
12E
330
E0
100
AcDbEntity
  8
AM_4
100
AcDbLine
 10
-29.61600000000003
 20
-30.2
 30
0.0
 11
29.61600000000003
 21
-30.2
 31
0.0
  0
LINE
  5
12F
330
E0
100
AcDbEntity
  8
AM_4
100
AcDbLine
 10
29.61600000000003
 20
-30.2
 30
0.0
 11
30.84999999999999
 21
-28.966
 31
0.0
  0
LINE
  5
130
330
E0
100
AcDbEntity
  8
AM_4
100
AcDbLine
 10
-30.84999999999999
 20
-28.966
 30
0.0
 11
-29.61600000000003
 21
-30.2
 31
0.0
  0
LINE
  5
131
330
E0
100
AcDbEntity
  8
AM_4
100
AcDbLine
 10
-30.84999999999999
 20
-28.966
 30
0.0
 11
30.84999999999999
 21
-28.966
 31
0.0
  0
LWPOLYLINE
  5
132
330
E0
100
AcDbEntity
  8
AM_4
100
AcDbPolyline
 90
       39
 70
     0
 43
0.0
 10
-3.093601738165689
 20
-17.43962742808609
 10
-2.624305047311222
 20
-16.98909365878664
 10
-2.080149998051467
 20
-16.60571016941082
 10
-1.426705657131576
 20
-16.2909096019971
 10
-0.7039479753220222
 20
-16.0914773889579
 10
-0.0257048942105141
 20
-16.02919980001387
 10
0.67418001542636
 20
-16.08628276139993
 10
1.313644317097406
 20
-16.25006423578364
 10
1.934224383981521
 20
-16.52296386224218
 10
2.501646125720236
 20
-16.8913197140958
 10
3.016553812573135
 20
-17.35612748039228
 10
3.467600727859446
 20
-17.9159234097609
 10
3.834118613159161
 20
-18.55609793671989
 10
4.104540449532757
 20
-19.27256427620227
 10
4.260773179943167
 20
-20.04378135489137
 10
4.290668996192643
 20
-20.8399353043724
 10
4.186284705863732
 20
-21.65245788830835
 10
3.952407334048856
 20
-22.42177537383031
 10
3.580299575916934
 20
-23.16092804528336
 10
3.109267352074831
 20
-23.79286546259787
 10
2.515110359810774
 20
-24.34829825135767
 10
1.886183604138849
 20
-24.75262373889301
 10
1.170788597401333
 20
-25.04626746488022
 10
0.490281082658052
 20
-25.19073828142945
 10
-0.2275420114770787
 20
-25.21440634984043
 10
-0.8839667852433523
 20
-25.12216234588479
 10
-1.533851261469407
 20
-24.91687419822411
 10
-2.128941563761965
 20
-24.61487919421092
 10
-2.682290034515382
 20
-24.21209437276094
 10
-3.178223604901302
 20
-23.71355158957308
 10
-3.600163831996991
 20
-23.12857303374455
 10
-3.937978971680052
 20
-22.45759519107972
 10
-4.170797024836602
 20
-21.72197726983376
 10
-4.285165523435874
 20
-20.94127760653459
 10
-4.270331964364702
 20
-20.13023471414373
 10
-4.123364323362291
 20
-19.33957564556776
 10
-3.837497322610756
 20
-18.5632661080969
 10
-3.510641877004804
 20
-17.98007085360681
 10
-3.093601738315106
 20
-17.43962742798741
  0
LWPOLYLINE
  5
133
330
E0
100
AcDbEntity
  8
AM_4
100
AcDbPolyline
 90
       23
 70
     0
 43
0.0
 10
28.04782169889123
 20
-16.03464870573412
 10
28.32358703901373
 20
-16.12945592890172
 10
28.57630204565344
 20
-16.33645507622363
 10
28.7978824344389
 20
-16.64451807679065
 10
28.98955221925545
 20
-17.04354241904556
 10
29.15770364269838
 20
-17.55029590589654
 10
29.29156913232432
 20
-18.12933784783316
 10
29.39729743661245
 20
-18.81054867933169
 10
29.46620795324636
 20
-19.53762242705152
 10
29.49987624485915
 20
-20.32975585282896
 10
29.49484814671914
 20
-21.12990997088472
 10
29.44949683811546
 20
-21.93163697388806
 10
29.36288236161568
 20
-22.69600163604389
 10
29.23430259201134
 20
-23.39415111936882
 10
29.06218960211855
 20
-24.01014066842958
 10
28.85454545129243
 20
-24.50222042421369
 10
28.60699790742829
 20
-24.87882529436513
 10
28.34275262216102
 20
-25.10910287704195
 10
28.05235182442045
 20
-25.21476361573858
 10
27.76277942003066
 20
-25.19408450150457
 10
27.46583635867595
 20
-25.06007979003914
 10
27.17467688397858
 20
-24.82021815273092
 10
27.00229952451931
 20
-24.62628111890205
  0
LINE
  5
134
330
E0
100
AcDbEntity
  8
AM_4
100
AcDbLine
 10
30.84999999999999
 20
-28.966
 30
0.0
 11
30.84999999999999
 21
-12.7
 31
0.0
  0
LINE
  5
135
330
E0
100
AcDbEntity
  8
AM_4
100
AcDbLine
 10
-30.84999999999999
 20
-12.7
 30
0.0
 11
-30.84999999999999
 21
-28.966
 31
0.0
  0
ARC
  5
137
330
E0
100
AcDbEntity
  8
AM_5
100
AcDbCircle
 10
0.0000000000000024
 20
-20.625
 30
0.0
 40
4.999999999999996
100
AcDbArc
 50
75.0
 51
14.99999999999994
  0
ARC
  5
138
330
E0
100
AcDbEntity
  8
AM_5
100
AcDbCircle
 10
-0.0000000000000013
 20
-20.2
 30
0.0
 40
4.999999999999999
100
AcDbArc
 50
75.0
 51
15.00000000000002
  0
ENDBLK
  5
E3
330
E0
100
AcDbEntity
  8
0
100
AcDbBlockEnd
  0
BLOCK
  5
13B
330
139
100
AcDbEntity
  8
0
100
AcDbBlockBegin
  2
4_136979H_0_in_136979_4
 70
     2
 10
0.0
 20
0.0
 30
0.0
  3
4_136979H_0_in_136979_4
  1

  0
ATTDEF
  5
13D
330
139
100
AcDbEntity
  8
AM_6
100
AcDbText
 10
89.07499999999999
 20
47.25199074450194
 30
0.0
 40
0.5
  1
NSTU-SCEZ-SHCR - Metric - housing
100
AcDbAttributeDefinition
  3

  2
NN
 70
     8
280
     0
  0
ATTDEF
  5
13E
330
139
100
AcDbEntity
  8
AM_6
100
AcDbText
 10
89.07499999999999
 20
46.75199074450194
 30
0.0
 40
0.5
  1
SC Take-Up Bearings -Wide Slot -(Normal Duty) -Polymer Housed -Corrosion Resistant Insert -E-Z KLEEN
100
AcDbAttributeDefinition
  3

  2
NT
 70
     8
280
     0
  0
ATTDEF
  5
13F
330
139
100
AcDbEntity
  8
AM_6
100
AcDbText
 10
89.07499999999999
 20
46.25199074450194
 30
0.0
 40
0.5
  1
136979H
100
AcDbAttributeDefinition
  3

  2
NB
 70
     8
280
     0
  0
ATTDEF
  5
140
330
139
100
AcDbEntity
  8
AM_6
100
AcDbText
 10
89.07499999999999
 20
45.75199074450194
 30
0.0
 40
0.5
  1
$PN.H
100
AcDbAttributeDefinition
  3

  2
NBSYN
 70
     8
280
     0
  0
ATTDEF
  5
141
330
139
100
AcDbEntity
  8
AM_6
100
AcDbText
 10
89.07499999999999
 20
45.25199074450194
 30
0.0
 40
0.5
  1
136979
100
AcDbAttributeDefinition
  3

  2
LINA
 70
     8
280
     0
  0
ATTDEF
  5
142
330
139
100
AcDbEntity
  8
AM_6
100
AcDbText
 10
89.07499999999999
 20
44.75199074450194
 30
0.0
 40
0.5
  1
210
100
AcDbAttributeDefinition
  3

  2
SERIES
 70
     8
280
     0
  0
ATTDEF
  5
143
330
139
100
AcDbEntity
  8
AM_6
100
AcDbText
 10
89.07499999999999
 20
44.25199074450194
 30
0.0
 40
0.5
  1
50
100
AcDbAttributeDefinition
  3

  2
SS
 70
     8
280
     0
  0
ATTDEF
  5
144
330
139
100
AcDbEntity
  8
AM_6
100
AcDbText
 10
89.07499999999999
 20
43.75199074450194
 30
0.0
 40
0.5
  1
136979
100
AcDbAttributeDefinition
  3

  2
PN
 70
     8
280
     0
  0
ATTDEF
  5
145
330
139
100
AcDbEntity
  8
AM_6
100
AcDbText
 10
89.07499999999999
 20
43.25199074450194
 30
0.0
 40
0.5
  1
NSTU-SCEZ-50M-SHCR
100
AcDbAttributeDefinition
  3

  2
DESCRIPTION
 70
     8
280
     0
  0
ATTDEF
  5
146
330
139
100
AcDbEntity
  8
AM_6
100
AcDbText
 10
89.07499999999999
 20
42.75199074450194
 30
0.0
 40
0.5
  1
1.76
100
AcDbAttributeDefinition
  3

  2
W
 70
     8
280
     0
  0
ATTDEF
  5
147
330
139
100
AcDbEntity
  8
AM_6
100
AcDbText
 10
89.07499999999999
 20
42.25199074450194
 30
0.0
 40
0.5
  1
NS400
100
AcDbAttributeDefinition
  3

  2
FS
 70
     8
280
     0
  0
ATTDEF
  5
148
330
139
100
AcDbEntity
  8
AM_6
100
AcDbText
 10
89.07499999999999
 20
41.75199074450194
 30
0.0
 40
0.5
  1
49.3
100
AcDbAttributeDefinition
  3

  2
A
 70
     8
280
     0
  0
ATTDEF
  5
149
330
139
100
AcDbEntity
  8
AM_6
100
AcDbText
 10
89.07499999999999
 20
41.25199074450194
 30
0.0
 40
0.5
  1
139.7
100
AcDbAttributeDefinition
  3

  2
B
 70
     8
280
     0
  0
ATTDEF
  5
14A
330
139
100
AcDbEntity
  8
AM_6
100
AcDbText
 10
89.07499999999999
 20
40.75199074450194
 30
0.0
 40
0.5
  1
8.33
100
AcDbAttributeDefinition
  3

  2
C
 70
     8
280
     0
  0
ATTDEF
  5
14B
330
139
100
AcDbEntity
  8
AM_6
100
AcDbText
 10
89.07499999999999
 20
40.25199074450194
 30
0.0
 40
0.5
  1
76.2
100
AcDbAttributeDefinition
  3

  2
D
 70
     8
280
     0
  0
ATTDEF
  5
14C
330
139
100
AcDbEntity
  8
AM_6
100
AcDbText
 10
89.07499999999999
 20
39.75199074450194
 30
0.0
 40
0.5
  1
82.6
100
AcDbAttributeDefinition
  3

  2
E
 70
     8
280
     0
  0
ATTDEF
  5
14D
330
139
100
AcDbEntity
  8
AM_6
100
AcDbText
 10
89.07499999999999
 20
39.25199074450194
 30
0.0
 40
0.5
  1
25.4
100
AcDbAttributeDefinition
  3

  2
F
 70
     8
280
     0
  0
ATTDEF
  5
14E
330
139
100
AcDbEntity
  8
AM_6
100
AcDbText
 10
89.07499999999999
 20
38.75199074450194
 30
0.0
 40
0.5
  1
16.8
100
AcDbAttributeDefinition
  3

  2
G
 70
     8
280
     0
  0
ATTDEF
  5
14F
330
139
100
AcDbEntity
  8
AM_6
100
AcDbText
 10
89.07499999999999
 20
38.25199074450194
 30
0.0
 40
0.5
  1
29.5
100
AcDbAttributeDefinition
  3

  2
H
 70
     8
280
     0
  0
ATTDEF
  5
150
330
139
100
AcDbEntity
  8
AM_6
100
AcDbText
 10
89.07499999999999
 20
37.75199074450194
 30
0.0
 40
0.5
  1
38.1
100
AcDbAttributeDefinition
  3

  2
J
 70
     8
280
     0
  0
ATTDEF
  5
151
330
139
100
AcDbEntity
  8
AM_6
100
AcDbText
 10
89.07499999999999
 20
37.25199074450194
 30
0.0
 40
0.5
  1
61.7
100
AcDbAttributeDefinition
  3

  2
L
 70
     8
280
     0
  0
ATTDEF
  5
152
330
139
100
AcDbEntity
  8
AM_6
100
AcDbText
 10
89.07499999999999
 20
36.75199074450194
 30
0.0
 40
0.5
  1
101.98 / 101.22
100
AcDbAttributeDefinition
  3

  2
M
 70
     8
280
     0
  0
ATTDEF
  5
153
330
139
100
AcDbEntity
  8
AM_6
100
AcDbText
 10
89.07499999999999
 20
36.25199074450194
 30
0.0
 40
0.5
  1
120.7
100
AcDbAttributeDefinition
  3

  2
N
 70
     8
280
     0
  0
ATTDEF
  5
154
330
139
100
AcDbEntity
  8
AM_6
100
AcDbText
 10
89.07499999999999
 20
35.75199074450194
 30
0.0
 40
0.5
  1
9.7
100
AcDbAttributeDefinition
  3

  2
P
 70
     8
280
     0
  0
ATTDEF
  5
155
330
139
100
AcDbEntity
  8
AM_6
100
AcDbText
 10
89.07499999999999
 20
35.25199074450194
 30
0.0
 40
0.5
  1
19.1
100
AcDbAttributeDefinition
  3

  2
R
 70
     8
280
     0
  0
ATTDEF
  5
156
330
139
100
AcDbEntity
  8
AM_6
100
AcDbText
 10
89.07499999999999
 20
34.75199074450194
 30
0.0
 40
0.5
  1
30.2
100
AcDbAttributeDefinition
  3

  2
S
 70
     8
280
     0
  0
ATTDEF
  5
157
330
139
100
AcDbEntity
  8
AM_6
100
AcDbText
 10
89.07499999999999
 20
34.25199074450194
 30
0.0
 40
0.5
  1
4450
100
AcDbAttributeDefinition
  3

  2
CAPS
 70
     8
280
     0
  0
ATTDEF
  5
158
330
139
100
AcDbEntity
  8
AM_6
100
AcDbText
 10
89.07499999999999
 20
33.75199074450194
 30
0.0
 40
0.5
  1
7891
100
AcDbAttributeDefinition
  3

  2
CAPD
 70
     8
280
     0
  0
ATTDEF
  5
159
330
139
100
AcDbEntity
  8
AM_6
100
AcDbText
 10
89.07499999999999
 20
33.25199074450194
 30
0.0
 40
0.5
  1
baldor
100
AcDbAttributeDefinition
  3

  2
COMPANY
 70
     8
280
     0
  0
LINE
  5
15A
330
139
100
AcDbEntity
  8
AM_9
100
AcDbLine
 10
70.64999999999999
 20
12.69798317420786
 30
0.0
 11
70.64999999999999
 21
19.05
 31
0.0
  0
LINE
  5
15B
330
139
100
AcDbEntity
  8
AM_9
100
AcDbLine
 10
60.95
 20
19.05
 30
0.0
 11
60.95
 21
12.7
 31
0.0
  0
LINE
  5
15C
330
139
100
AcDbEntity
  8
AM_9
100
AcDbLine
 10
70.64999999999999
 20
-19.05
 30
0.0
 11
70.64999999999999
 21
-12.69798317420786
 31
0.0
  0
LINE
  5
15D
330
139
100
AcDbEntity
  8
AM_9
100
AcDbLine
 10
60.95
 20
-12.7
 30
0.0
 11
60.95
 21
-19.05
 31
0.0
  0
LINE
  5
15E
330
139
100
AcDbEntity
  8
AM_9
100
AcDbLine
 10
50.99000000000007
 20
13.025640954
 30
0.0
 11
53.67221745787712
 21
19.05
 31
0.0
  0
LINE
  5
15F
330
139
100
AcDbEntity
  8
AM_9
100
AcDbLine
 10
50.99000000000007
 20
13.025640954
 30
0.0
 11
49.46569860216962
 21
13.025640954
 31
0.0
  0
LINE
  5
160
330
139
100
AcDbEntity
  8
AM_9
100
AcDbLine
 10
53.79920475862512
 20
-19.05
 30
0.0
 11
50.98999999999999
 21
-13.025640954
 31
0.0
  0
LINE
  5
161
330
139
100
AcDbEntity
  8
AM_9
100
AcDbLine
 10
50.98999999999999
 20
-13.025640954
 30
0.0
 11
49.46569860216954
 21
-13.025640954
 31
0.0
  0
LINE
  5
162
330
139
100
AcDbEntity
  8
AM_9
100
AcDbLine
 10
70.44732475792097
 20
-12.62399015389291
 30
0.0
 11
70.64999999970618
 21
-12.6999999998878
 31
0.0
  0
LWPOLYLINE
  5
163
330
139
100
AcDbEntity
  8
AM_9
100
AcDbPolyline
 90
       23
 70
     0
 43
0.0
 10
60.95
 20
12.7
 10
61.01171551544715
 20
12.67655979771363
 10
61.20182936157888
 20
12.60597767807154
 10
61.50225836013128
 20
12.49952331903347
 10
61.91979257858268
 20
12.36218061804721
 10
62.44348384067299
 20
12.20793597328489
 10
63.07376427666178
 20
12.04989050652351
 10
63.79092069941363
 20
11.90814425660206
 10
64.18672218566431
 20
11.84781612602619
 10
64.59638587184864
 20
11.79899093013829
 10
65.38183170646461
 20
11.74488674793071
 10
66.2067477192847
 20
11.74448567231206
 10
66.94587821794579
 20
11.79324115289612
 10
67.67347508415298
 20
11.88601736878009
 10
68.3459036708282
 20
12.0103757435451
 10
68.96842539199557
 20
12.15756634629819
 10
69.53111441485417
 20
12.31619725307827
 10
70.00383884394319
 20
12.46754831656351
 10
70.35178345265706
 20
12.58913152683229
 10
70.48125755331115
 20
12.63651184558589
 10
70.57481330456737
 20
12.67147750238596
 10
70.64949907241699
 20
12.69980870932208
 10
70.64999999970618
 20
12.6999999998878
  0
LINE
  5
164
330
139
100
AcDbEntity
  8
AM_9
100
AcDbLine
 10
53.09999999999999
 20
12.7
 30
0.0
 11
53.09999999999999
 21
-12.7
 31
0.0
  0
LINE
  5
165
330
139
100
AcDbEntity
  8
AM_9
100
AcDbLine
 10
53.09999999999999
 20
-12.7
 30
0.0
 11
60.95
 21
-12.7
 31
0.0
  0
LINE
  5
166
330
139
100
AcDbEntity
  8
AM_9
100
AcDbLine
 10
70.64467288926313
 20
-12.7
 30
0.0
 11
82.6
 21
-12.7
 31
0.0
  0
LINE
  5
167
330
139
100
AcDbEntity
  8
AM_9
100
AcDbLine
 10
82.6
 20
12.7
 30
0.0
 11
70.64467288926313
 21
12.7
 31
0.0
  0
LINE
  5
168
330
139
100
AcDbEntity
  8
AM_9
100
AcDbLine
 10
60.95
 20
12.7
 30
0.0
 11
53.09999999999999
 21
12.7
 31
0.0
  0
LWPOLYLINE
  5
169
330
139
100
AcDbEntity
  8
AM_9
100
AcDbPolyline
 90
       23
 70
     0
 43
0.0
 10
70.64999999970618
 20
-12.6999999998878
 10
70.59354134419759
 20
-12.67854639217492
 10
70.42177010707263
 20
-12.61460498480353
 10
70.13137262882638
 20
-12.51112660193902
 10
69.73321140387986
 20
-12.3789196599546
 10
69.22475730027651
 20
-12.22687460333986
 10
68.60640607489728
 20
-12.06828136302847
 10
67.88636466085288
 20
-11.92142682308019
 10
67.11956572660672
 20
-11.81138237916439
 10
66.7051944353735
 20
-11.77232546509082
 10
66.2828292578693
 20
-11.74736668757108
 10
65.5106912331937
 20
-11.74100504908123
 10
64.72363084624291
 20
-11.78669039871497
 10
64.01312196677374
 20
-11.87267590333479
 10
63.33172741442318
 20
-11.99415981037063
 10
62.69766193056157
 20
-12.1405107593168
 10
62.13061601239936
 20
-12.29763712460487
 10
61.64935700702922
 20
-12.44971233623883
 10
61.27576069556447
 20
-12.57919875364879
 10
61.13697145951258
 20
-12.62976948991245
 10
61.03565178017601
 20
-12.66753780178847
 10
60.97154680196579
 20
-12.69177211250496
 10
60.95
 20
-12.7
  0
LINE
  5
16A
330
139
100
AcDbEntity
  8
AM_9
100
AcDbLine
 10
70.64999999970618
 20
12.6999999998878
 30
0.0
 11
70.44977848336858
 21
12.62489366071641
 31
0.0
  0
LINE
  5
16B
330
139
100
AcDbEntity
  8
AM_9
100
AcDbLine
 10
16.6666665
 20
-2.498999999999995
 30
0.0
 11
16.6666665
 21
12.7
 31
0.0
  0
LINE
  5
16C
330
139
100
AcDbEntity
  8
AM_9
100
AcDbLine
 10
-16.6666665
 20
-2.498999999999995
 30
0.0
 11
-16.6666665
 21
12.7
 31
0.0
  0
LINE
  5
16D
330
139
100
AcDbEntity
  8
AM_9
100
AcDbLine
 10
45.0
 20
-13.02564095399999
 30
0.0
 11
45.0
 21
13.02564095399999
 31
0.0
  0
LINE
  5
16E
330
139
100
AcDbEntity
  8
AM_9
100
AcDbLine
 10
-45.0
 20
12.7
 30
0.0
 11
-45.0
 21
-12.7
 31
0.0
  0
LINE
  5
16F
330
139
100
AcDbEntity
  8
AM_9
100
AcDbLine
 10
16.6666665
 20
-2.498999999999995
 30
0.0
 11
-16.6666665
 21
-2.498999999999995
 31
0.0
  0
LINE
  5
170
330
139
100
AcDbEntity
  8
AM_7
100
AcDbLine
 10
65.8
 20
27.94
 30
0.0
 11
65.8
 21
-27.94
 31
0.0
  0
LINE
  5
171
330
139
100
AcDbEntity
  8
AM_7
100
AcDbLine
 10
84.07499999999999
 20
0.0
 30
0.0
 11
51.62499999999999
 21
0.0
 31
0.0
  0
LINE
  5
172
330
139
100
AcDbEntity
  8
AM_7
100
AcDbLine
 10
0.0
 20
47.25199074450194
 30
0.0
 11
0.0
 21
-58.35199112597164
 31
0.0
  0
LINE
  5
173
330
139
100
AcDbEntity
  8
AM_4
100
AcDbLine
 10
82.6
 20
19.05
 30
0.0
 11
82.6
 21
-19.05
 31
0.0
  0
LINE
  5
174
330
139
100
AcDbEntity
  8
AM_4
100
AcDbLine
 10
43.26517350249133
 20
-13.02564095399999
 30
0.0
 11
49.46569860216954
 21
-13.025640954
 31
0.0
  0
LWPOLYLINE
  5
175
330
139
100
AcDbEntity
  8
AM_4
100
AcDbPolyline
 90
        3
 70
     0
 43
0.0
 10
49.46569860216953
 20
-13.02564095399998
 10
52.83921256104136
 20
-18.0749453900911
 10
53.42314042304584
 20
-19.05
  0
LINE
  5
176
330
139
100
AcDbEntity
  8
AM_4
100
AcDbLine
 10
53.4231404230458
 20
-19.05
 30
0.0
 11
82.6
 21
-19.05
 31
0.0
  0
LINE
  5
177
330
139
100
AcDbEntity
  8
AM_4
100
AcDbLine
 10
53.82850081508863
 20
-6.349999999999999
 30
0.0
 11
82.6
 21
-6.349999999999999
 31
0.0
  0
LINE
  5
178
330
139
100
AcDbEntity
  8
AM_4
100
AcDbLine
 10
53.29525707645708
 20
19.05
 30
0.0
 11
82.6
 21
19.05
 31
0.0
  0
LWPOLYLINE
  5
179
330
139
100
AcDbEntity
  8
AM_4
100
AcDbPolyline
 90
        3
 70
     0
 43
0.0
 10
53.29525707645711
 20
19.04999999999998
 10
50.1484066793865
 20
14.00603900564807
 10
49.46569860216964
 20
13.02564095399998
  0
LINE
  5
17A
330
139
100
AcDbEntity
  8
AM_4
100
AcDbLine
 10
49.46569860216962
 20
13.025640954
 30
0.0
 11
43.26517350249132
 21
13.025640954
 31
0.0
  0
LINE
  5
17B
330
139
100
AcDbEntity
  8
AM_4
100
AcDbLine
 10
53.82850081508863
 20
6.349999999999997
 30
0.0
 11
82.6
 21
6.349999999999997
 31
0.0
  0
LWPOLYLINE
  5
17C
330
139
100
AcDbEntity
  8
AM_4
100
AcDbPolyline
 90
        3
 70
     0
 43
0.0
 10
51.38895041738058
 20
-12.7
 10
52.98895728414517
 20
-10.62462571068769
 10
54.55255974745823
 20
-8.534999999999998
  0
LINE
  5
17D
330
139
100
AcDbEntity
  8
AM_4
100
AcDbLine
 10
-52.935
 20
12.7
 30
0.0
 11
-57.1
 21
8.535
 31
0.0
  0
LINE
  5
17E
330
139
100
AcDbEntity
  8
AM_4
100
AcDbLine
 10
51.38895041738058
 20
-12.7
 30
0.0
 11
-52.935
 21
-12.7
 31
0.0
  0
LINE
  5
17F
330
139
100
AcDbEntity
  8
AM_4
100
AcDbLine
 10
-57.1
 20
-8.535
 30
0.0
 11
-52.935
 21
-12.7
 31
0.0
  0
LINE
  5
180
330
139
100
AcDbEntity
  8
AM_4
100
AcDbLine
 10
51.38895041738058
 20
12.7
 30
0.0
 11
-52.935
 21
12.7
 31
0.0
  0
LWPOLYLINE
  5
181
330
139
100
AcDbEntity
  8
AM_4
100
AcDbPolyline
 90
        3
 70
     0
 43
0.0
 10
54.55255974745823
 20
8.535000000000002
 10
52.98920241586744
 20
10.62430287473877
 10
51.38895041738058
 20
12.7
  0
LINE
  5
182
330
139
100
AcDbEntity
  8
AM_4
100
AcDbLine
 10
-57.1
 20
8.535
 30
0.0
 11
-57.1
 21
-8.535
 31
0.0
  0
LINE
  5
183
330
139
100
AcDbEntity
  8
AM_4
100
AcDbLine
 10
54.55255974745823
 20
-8.534999999999998
 30
0.0
 11
-57.1
 21
-8.535
 31
0.0
  0
LINE
  5
184
330
139
100
AcDbEntity
  8
AM_4
100
AcDbLine
 10
54.55255974745824
 20
-8.535
 30
0.0
 11
53.82850081508867
 21
-6.349999999999991
 31
0.0
  0
LINE
  5
185
330
139
100
AcDbEntity
  8
AM_4
100
AcDbLine
 10
53.82850081508863
 20
-6.349999999999999
 30
0.0
 11
53.82850081508863
 21
6.349999999999997
 31
0.0
  0
LINE
  5
186
330
139
100
AcDbEntity
  8
AM_4
100
AcDbLine
 10
53.82850081508867
 20
6.349999999999994
 30
0.0
 11
54.55255974745825
 21
8.534999999999997
 31
0.0
  0
LINE
  5
187
330
139
100
AcDbEntity
  8
AM_4
100
AcDbLine
 10
54.55255974745823
 20
8.535000000000002
 30
0.0
 11
-57.1
 21
8.535
 31
0.0
  0
LINE
  5
188
330
139
100
AcDbEntity
  8
AM_4
100
AcDbLine
 10
43.17070766156144
 20
-12.69999999999999
 30
0.0
 11
43.26517350249134
 21
-13.02564095399999
 31
0.0
  0
LINE
  5
189
330
139
100
AcDbEntity
  8
AM_4
100
AcDbLine
 10
43.26517350249134
 20
13.025640954
 30
0.0
 11
43.17070766156145
 21
12.69999999999999
 31
0.0
  0
LINE
  5
18A
330
139
100
AcDbEntity
  8
AM_4
100
AcDbLine
 10
38.1
 20
-8.534999999999997
 30
0.0
 11
33.93500000000001
 21
-12.7
 31
0.0
  0
LINE
  5
18B
330
139
100
AcDbEntity
  8
AM_4
100
AcDbLine
 10
-33.935
 20
-12.7
 30
0.0
 11
-38.09999999999999
 21
-8.534999999999997
 31
0.0
  0
LINE
  5
18C
330
139
100
AcDbEntity
  8
AM_4
100
AcDbLine
 10
38.09999999999999
 20
4.165000000000004
 30
0.0
 11
-38.1
 21
4.165000000000004
 31
0.0
  0
LINE
  5
18D
330
139
100
AcDbEntity
  8
AM_4
100
AcDbLine
 10
-38.09999999999999
 20
8.535000000000007
 30
0.0
 11
-38.09999999999999
 21
-8.534999999999997
 31
0.0
  0
LINE
  5
18E
330
139
100
AcDbEntity
  8
AM_4
100
AcDbLine
 10
38.1
 20
-8.534999999999997
 30
0.0
 11
38.09999999999999
 21
8.535000000000004
 31
0.0
  0
LINE
  5
18F
330
139
100
AcDbEntity
  8
AM_4
100
AcDbLine
 10
38.1
 20
-4.164999999999996
 30
0.0
 11
-38.09999999999999
 21
-4.164999999999996
 31
0.0
  0
LINE
  5
190
330
139
100
AcDbEntity
  8
AM_4
100
AcDbLine
 10
-38.09999999999999
 20
8.535000000000007
 30
0.0
 11
-33.93500000000001
 21
12.7
 31
0.0
  0
LINE
  5
191
330
139
100
AcDbEntity
  8
AM_4
100
AcDbLine
 10
33.935
 20
12.7
 30
0.0
 11
38.09999999999999
 21
8.535000000000004
 31
0.0
  0
ENDBLK
  5
13C
330
139
100
AcDbEntity
  8
0
100
AcDbBlockEnd
  0
ENDSEC
  0
SECTION
  2
ENTITIES
  0
INSERT
  5
6F
330
1F
100
AcDbEntity
  8
0
100
AcDbBlockReference
  2
1_136979_4
 10
0.0
 20
0.0
 30
0.0
  0
POINT
  5
193
330
1F
100
AcDbEntity
  8
ConnectionPoints
100
AcDbPoint
 10
0.0
 20
-30.2
 30
0.0000000000000018
  0
POINT
  5
194
330
1F
100
AcDbEntity
  8
ConnectionPoints
100
AcDbPoint
 10
-49.45005055609145
 20
-0.0000000000000017
 30
-28.54999999999999
  0
POINT
  5
195
330
1F
100
AcDbEntity
  8
ConnectionPoints
100
AcDbPoint
 10
0.0
 20
-30.2
 30
0.0000000000000018
  0
ENDSEC
  0
SECTION
  2
OBJECTS
  0
DICTIONARY
  5
C
330
0
100
AcDbDictionary
281
     1
  3
ACAD_DETAILVIEWSTYLE
350
19D
  3
ACAD_GROUP
350
D
  3
ACAD_LAYOUT
350
1A
  3
ACAD_MATERIAL
350
43
  3
ACAD_MLEADERSTYLE
350
6B
  3
ACAD_MLINESTYLE
350
17
  3
ACAD_PLOTSETTINGS
350
19
  3
ACAD_PLOTSTYLENAME
350
E
  3
ACAD_SCALELIST
350
47
  3
ACAD_SECTIONVIEWSTYLE
350
19E
  3
ACAD_TABLESTYLE
350
69
  3
ACAD_VISUALSTYLE
350
2A
  3
ACDB_RECOMPOSE_DATA
350
19A
  3
AcDbVariableDictionary
350
196
  0
SUN
  5
6D
330
29
100
AcDbSun
 90
        1
290
     0
 63
     7
421
 16777215
 40
1.0
291
     1
 91
  2455826
 92
 54000000
292
     0
 70
     2
 71
   256
280
     1
  0
DICTIONARY
  5
19D
102
{ACAD_REACTORS
330
C
102
}
330
C
100
AcDbDictionary
281
     1
  0
DICTIONARY
  5
D
102
{ACAD_REACTORS
330
C
102
}
330
C
100
AcDbDictionary
281
     1
  0
DICTIONARY
  5
1A
102
{ACAD_REACTORS
330
C
102
}
330
C
100
AcDbDictionary
281
     1
  3
Layout1
350
1E
  3
Layout2
350
26
  3
Model
350
22
  0
DICTIONARY
  5
43
102
{ACAD_REACTORS
330
C
102
}
330
C
100
AcDbDictionary
281
     1
  3
ByBlock
350
45
  3
ByLayer
350
44
  3
Global
350
46
  0
DICTIONARY
  5
6B
102
{ACAD_REACTORS
330
C
102
}
330
C
100
AcDbDictionary
281
     1
  3
Standard
350
6C
  0
DICTIONARY
  5
17
102
{ACAD_REACTORS
330
C
102
}
330
C
100
AcDbDictionary
281
     1
  3
Standard
350
18
  0
DICTIONARY
  5
19
102
{ACAD_REACTORS
330
C
102
}
330
C
100
AcDbDictionary
281
     1
  0
ACDBDICTIONARYWDFLT
  5
E
102
{ACAD_REACTORS
330
C
102
}
330
C
100
AcDbDictionary
281
     1
  3
Normal
350
F
100
AcDbDictionaryWithDefault
340
F
  0
DICTIONARY
  5
47
102
{ACAD_REACTORS
330
C
102
}
330
C
100
AcDbDictionary
281
     1
  3
A0
350
48
  3
A1
350
49
  3
A2
350
4A
  3
A3
350
4B
  3
A4
350
4C
  3
A5
350
4D
  3
A6
350
4E
  3
A7
350
4F
  3
A8
350
50
  3
A9
350
51
  3
B0
350
52
  3
B1
350
53
  3
B2
350
54
  3
B3
350
55
  3
B4
350
56
  3
B5
350
57
  3
B6
350
58
  3
B7
350
59
  3
B8
350
5A
  3
B9
350
5B
  3
C0
350
5C
  3
C1
350
5D
  3
C2
350
5E
  3
C3
350
5F
  3
C4
350
60
  3
C5
350
61
  3
C6
350
62
  3
C7
350
63
  3
C8
350
64
  3
C9
350
65
  3
D0
350
66
  3
D1
350
67
  3
D2
350
68
  0
DICTIONARY
  5
19E
102
{ACAD_REACTORS
330
C
102
}
330
C
100
AcDbDictionary
281
     1
  0
DICTIONARY
  5
69
102
{ACAD_REACTORS
330
C
102
}
330
C
100
AcDbDictionary
281
     1
  3
Standard
350
6A
  0
DICTIONARY
  5
2A
102
{ACAD_REACTORS
330
C
102
}
330
C
100
AcDbDictionary
281
     1
  3
2dWireframe
350
2F
  3
Basic
350
32
  3
Brighten
350
36
  3
ColorChange
350
3A
  3
Conceptual
350
34
  3
Dim
350
35
  3
EdgeColorOff
350
3D
  3
Facepattern
350
39
  3
Flat
350
2B
  3
FlatWithEdges
350
2C
  3
Gouraud
350
2D
  3
GouraudWithEdges
350
2E
  3
Hidden
350
31
  3
JitterOff
350
3B
  3
Linepattern
350
38
  3
OverhangOff
350
3C
  3
Realistic
350
33
  3
Shaded
350
42
  3
Shaded with edges
350
41
  3
Shades of Gray
350
3E
  3
Sketchy
350
3F
  3
Thicken
350
37
  3
Wireframe
350
30
  3
X-Ray
350
40
  0
XRECORD
  5
19A
102
{ACAD_REACTORS
330
C
102
}
330
C
100
AcDbXrecord
280
     1
 90
        1
330
6A
  0
DICTIONARY
  5
196
102
{ACAD_REACTORS
330
C
102
}
330
C
100
AcDbDictionary
281
     1
  3
CANNOSCALE
350
197
  3
CMLEADERSTYLE
350
19C
  3
CTABLESTYLE
350
19B
  0
LAYOUT
  5
1E
102
{ACAD_REACTORS
330
1A
102
}
330
1A
100
AcDbPlotSettings
  1

  2
none_device
  4

  6

 40
0.0
 41
0.0
 42
0.0
 43
0.0
 44
0.0
 45
0.0
 46
0.0
 47
0.0
 48
0.0
 49
0.0
140
0.0
141
0.0
142
1.0
143
1.0
 70
   688
 72
     1
 73
     0
 74
     5
  7

 75
    16
 76
     0
 77
     2
 78
   300
147
1.0
148
0.0
149
0.0
100
AcDbLayout
  1
Layout1
 70
     1
 71
     1
 10
0.0
 20
0.0
 11
420.0
 21
297.0
 12
0.0
 22
0.0
 32
0.0
 14
1.000000000000000E+20
 24
1.000000000000000E+20
 34
1.000000000000000E+20
 15
-1.000000000000000E+20
 25
-1.000000000000000E+20
 35
-1.000000000000000E+20
146
0.0
 13
0.0
 23
0.0
 33
0.0
 16
1.0
 26
0.0
 36
0.0
 17
0.0
 27
1.0
 37
0.0
 76
     0
330
1B
  0
LAYOUT
  5
26
102
{ACAD_REACTORS
330
1A
102
}
330
1A
100
AcDbPlotSettings
  1

  2
none_device
  4

  6

 40
0.0
 41
0.0
 42
0.0
 43
0.0
 44
0.0
 45
0.0
 46
0.0
 47
0.0
 48
0.0
 49
0.0
140
0.0
141
0.0
142
1.0
143
1.0
 70
   688
 72
     1
 73
     0
 74
     5
  7

 75
    16
 76
     0
 77
     2
 78
   300
147
1.0
148
0.0
149
0.0
100
AcDbLayout
  1
Layout2
 70
     1
 71
     2
 10
0.0
 20
0.0
 11
0.0
 21
0.0
 12
0.0
 22
0.0
 32
0.0
 14
0.0
 24
0.0
 34
0.0
 15
0.0
 25
0.0
 35
0.0
146
0.0
 13
0.0
 23
0.0
 33
0.0
 16
1.0
 26
0.0
 36
0.0
 17
0.0
 27
1.0
 37
0.0
 76
     0
330
23
  0
LAYOUT
  5
22
102
{ACAD_REACTORS
330
1A
102
}
330
1A
100
AcDbPlotSettings
  1

  2
none_device
  4
Letter_(8.50_x_11.00_Inches)
  6

 40
6.35
 41
6.35
 42
6.35000508
 43
6.35000508
 44
215.9
 45
279.4
 46
0.0
 47
0.0
 48
0.0
 49
0.0
140
0.0
141
0.0
142
1.0
143
1.0
 70
  1712
 72
     1
 73
     0
 74
     0
  7

 75
     0
 76
     0
 77
     2
 78
   300
147
1.0
148
0.0
149
0.0
100
AcDbLayout
  1
Model
 70
     1
 71
     0
 10
0.0
 20
0.0
 11
420.0
 21
297.0
 12
0.0
 22
0.0
 32
0.0
 14
1.000000000000000E+20
 24
1.000000000000000E+20
 34
1.000000000000000E+20
 15
-1.000000000000000E+20
 25
-1.000000000000000E+20
 35
-1.000000000000000E+20
146
0.0
 13
0.0
 23
0.0
 33
0.0
 16
1.0
 26
0.0
 36
0.0
 17
0.0
 27
1.0
 37
0.0
 76
     0
330
1F
331
29
  0
MATERIAL
  5
45
102
{ACAD_REACTORS
330
43
102
}
330
43
100
AcDbMaterial
  1
ByBlock
 72
     1
 94
      127
  0
MATERIAL
  5
44
102
{ACAD_REACTORS
330
43
102
}
330
43
100
AcDbMaterial
  1
ByLayer
 72
     1
 94
      127
  0
MATERIAL
  5
46
102
{ACAD_REACTORS
330
43
102
}
330
43
100
AcDbMaterial
  1
Global
 72
     1
 94
      127
  0
MLEADERSTYLE
  5
6C
102
{ACAD_REACTORS
330
6B
102
}
330
6B
100
AcDbMLeaderStyle
179
     2
170
     2
171
     1
172
     0
 90
        2
 40
0.0
 41
0.0
173
     1
 91
-1056964608
340
14
 92
       -2
290
     1
 42
2.0
291
     1
 43
8.0
  3
Standard
341
0
 44
4.0
300

342
11
174
     1
178
     6
175
     1
176
     0
 93
-1056964608
 45
4.0
292
     0
297
     0
 46
4.0
343
0
 94
-1056964608
 47
1.0
 49
1.0
140
1.0
293
     1
141
0.0
294
     1
177
     0
142
1.0
295
     0
296
     0
143
3.75
271
     0
272
     9
273
     9
298
     0
  0
MLINESTYLE
  5
18
102
{ACAD_REACTORS
330
17
102
}
330
17
100
AcDbMlineStyle
  2
Standard
 70
     0
  3

 62
   256
 51
90.0
 52
90.0
 71
     2
 49
0.5
 62
   256
  6
BYLAYER
 49
-0.5
 62
   256
  6
BYLAYER
  0
ACDBPLACEHOLDER
  5
F
102
{ACAD_REACTORS
330
E
102
}
330
E
  0
SCALE
  5
48
102
{ACAD_REACTORS
330
47
102
}
330
47
100
AcDbScale
 70
     0
300
1:1
140
1.0
141
1.0
290
     1
  0
SCALE
  5
49
102
{ACAD_REACTORS
330
47
102
}
330
47
100
AcDbScale
 70
     0
300
1:2
140
1.0
141
2.0
290
     0
  0
SCALE
  5
4A
102
{ACAD_REACTORS
330
47
102
}
330
47
100
AcDbScale
 70
     0
300
1:4
140
1.0
141
4.0
290
     0
  0
SCALE
  5
4B
102
{ACAD_REACTORS
330
47
102
}
330
47
100
AcDbScale
 70
     0
300
1:5
140
1.0
141
5.0
290
     0
  0
SCALE
  5
4C
102
{ACAD_REACTORS
330
47
102
}
330
47
100
AcDbScale
 70
     0
300
1:8
140
1.0
141
8.0
290
     0
  0
SCALE
  5
4D
102
{ACAD_REACTORS
330
47
102
}
330
47
100
AcDbScale
 70
     0
300
1:10
140
1.0
141
10.0
290
     0
  0
SCALE
  5
4E
102
{ACAD_REACTORS
330
47
102
}
330
47
100
AcDbScale
 70
     0
300
1:16
140
1.0
141
16.0
290
     0
  0
SCALE
  5
4F
102
{ACAD_REACTORS
330
47
102
}
330
47
100
AcDbScale
 70
     0
300
1:20
140
1.0
141
20.0
290
     0
  0
SCALE
  5
50
102
{ACAD_REACTORS
330
47
102
}
330
47
100
AcDbScale
 70
     0
300
1:30
140
1.0
141
30.0
290
     0
  0
SCALE
  5
51
102
{ACAD_REACTORS
330
47
102
}
330
47
100
AcDbScale
 70
     0
300
1:40
140
1.0
141
40.0
290
     0
  0
SCALE
  5
52
102
{ACAD_REACTORS
330
47
102
}
330
47
100
AcDbScale
 70
     0
300
1:50
140
1.0
141
50.0
290
     0
  0
SCALE
  5
53
102
{ACAD_REACTORS
330
47
102
}
330
47
100
AcDbScale
 70
     0
300
1:100
140
1.0
141
100.0
290
     0
  0
SCALE
  5
54
102
{ACAD_REACTORS
330
47
102
}
330
47
100
AcDbScale
 70
     0
300
2:1
140
2.0
141
1.0
290
     0
  0
SCALE
  5
55
102
{ACAD_REACTORS
330
47
102
}
330
47
100
AcDbScale
 70
     0
300
4:1
140
4.0
141
1.0
290
     0
  0
SCALE
  5
56
102
{ACAD_REACTORS
330
47
102
}
330
47
100
AcDbScale
 70
     0
300
8:1
140
8.0
141
1.0
290
     0
  0
SCALE
  5
57
102
{ACAD_REACTORS
330
47
102
}
330
47
100
AcDbScale
 70
     0
300
10:1
140
10.0
141
1.0
290
     0
  0
SCALE
  5
58
102
{ACAD_REACTORS
330
47
102
}
330
47
100
AcDbScale
 70
     0
300
100:1
140
100.0
141
1.0
290
     0
  0
SCALE
  5
59
102
{ACAD_REACTORS
330
47
102
}
330
47
100
AcDbScale
 70
     0
300
1/128" = 1'-0"
140
0.0078125
141
12.0
290
     0
  0
SCALE
  5
5A
102
{ACAD_REACTORS
330
47
102
}
330
47
100
AcDbScale
 70
     0
300
1/64" = 1'-0"
140
0.015625
141
12.0
290
     0
  0
SCALE
  5
5B
102
{ACAD_REACTORS
330
47
102
}
330
47
100
AcDbScale
 70
     0
300
1/32" = 1'-0"
140
0.03125
141
12.0
290
     0
  0
SCALE
  5
5C
102
{ACAD_REACTORS
330
47
102
}
330
47
100
AcDbScale
 70
     0
300
1/16" = 1'-0"
140
0.0625
141
12.0
290
     0
  0
SCALE
  5
5D
102
{ACAD_REACTORS
330
47
102
}
330
47
100
AcDbScale
 70
     0
300
3/32" = 1'-0"
140
0.09375
141
12.0
290
     0
  0
SCALE
  5
5E
102
{ACAD_REACTORS
330
47
102
}
330
47
100
AcDbScale
 70
     0
300
1/8" = 1'-0"
140
0.125
141
12.0
290
     0
  0
SCALE
  5
5F
102
{ACAD_REACTORS
330
47
102
}
330
47
100
AcDbScale
 70
     0
300
3/16" = 1'-0"
140
0.1875
141
12.0
290
     0
  0
SCALE
  5
60
102
{ACAD_REACTORS
330
47
102
}
330
47
100
AcDbScale
 70
     0
300
1/4" = 1'-0"
140
0.25
141
12.0
290
     0
  0
SCALE
  5
61
102
{ACAD_REACTORS
330
47
102
}
330
47
100
AcDbScale
 70
     0
300
3/8" = 1'-0"
140
0.375
141
12.0
290
     0
  0
SCALE
  5
62
102
{ACAD_REACTORS
330
47
102
}
330
47
100
AcDbScale
 70
     0
300
1/2" = 1'-0"
140
0.5
141
12.0
290
     0
  0
SCALE
  5
63
102
{ACAD_REACTORS
330
47
102
}
330
47
100
AcDbScale
 70
     0
300
3/4" = 1'-0"
140
0.75
141
12.0
290
     0
  0
SCALE
  5
64
102
{ACAD_REACTORS
330
47
102
}
330
47
100
AcDbScale
 70
     0
300
1" = 1'-0"
140
1.0
141
12.0
290
     0
  0
SCALE
  5
65
102
{ACAD_REACTORS
330
47
102
}
330
47
100
AcDbScale
 70
     0
300
1-1/2" = 1'-0"
140
1.5
141
12.0
290
     0
  0
SCALE
  5
66
102
{ACAD_REACTORS
330
47
102
}
330
47
100
AcDbScale
 70
     0
300
3" = 1'-0"
140
3.0
141
12.0
290
     0
  0
SCALE
  5
67
102
{ACAD_REACTORS
330
47
102
}
330
47
100
AcDbScale
 70
     0
300
6" = 1'-0"
140
6.0
141
12.0
290
     0
  0
SCALE
  5
68
102
{ACAD_REACTORS
330
47
102
}
330
47
100
AcDbScale
 70
     0
300
1'-0" = 1'-0"
140
12.0
141
12.0
290
     0
  0
TABLESTYLE
  5
6A
102
{ACAD_REACTORS
330
69
102
}
102
{ACAD_XDICTIONARY
360
198
102
}
330
69
100
AcDbTableStyle
  3
Standard
 70
     0
 71
     0
 40
0.06
 41
0.06
280
     0
281
     0
  7
Standard
140
4.5
170
     2
 62
     0
 63
   257
283
     0
 90
        4
 91
        0
  1

274
    -2
284
     1
 64
     0
275
    -2
285
     1
 65
     0
276
    -2
286
     1
 66
     0
277
    -2
287
     1
 67
     0
278
    -2
288
     1
 68
     0
279
    -2
289
     1
 69
     0
  7
Standard
140
6.0
170
     5
 62
     0
 63
   257
283
     0
 90
        4
 91
        0
  1

274
    -2
284
     1
 64
     0
275
    -2
285
     1
 65
     0
276
    -2
286
     1
 66
     0
277
    -2
287
     1
 67
     0
278
    -2
288
     1
 68
     0
279
    -2
289
     1
 69
     0
  7
Standard
140
4.5
170
     5
 62
     0
 63
   257
283
     0
 90
        4
 91
        0
  1

274
    -2
284
     1
 64
     0
275
    -2
285
     1
 65
     0
276
    -2
286
     1
 66
     0
277
    -2
287
     1
 67
     0
278
    -2
288
     1
 68
     0
279
    -2
289
     1
 69
     0
  0
VISUALSTYLE
  5
2F
102
{ACAD_REACTORS
330
2A
102
}
330
2A
100
AcDbVisualStyle
  2
2dWireframe
 70
     4
177
     3
291
     0
 70
    58
 90
        0
176
     1
 90
        2
176
     1
 90
        0
176
     1
 90
        0
176
     1
 40
0.6
176
     1
 40
30.0
176
     1
 62
     7
420
 16777215
176
     1
 90
        1
176
     1
 90
        4
176
     1
 62
     7
176
     1
 62
   257
176
     1
 90
        1
176
     1
 90
        1
176
     1
 40
1.0
176
     1
 90
        0
176
     1
 62
   257
176
     1
 40
1.0
176
     1
 90
        1
176
     1
 90
        6
176
     1
 90
        2
176
     1
 62
     7
176
     1
 90
        5
176
     1
 90
        0
176
     1
 90
        0
176
     1
290
     0
176
     1
 90
        1
176
     1
 40
0.0
176
     1
 90
        0
176
     1
290
     1
176
     1
290
     1
176
     1
290
     0
176
     1
290
     0
176
     1
290
     0
176
     1
290
     0
176
     1
290
     0
176
     1
290
     0
176
     1
290
     0
176
     1
 90
       50
176
     1
 40
0.0
176
     1
 40
1.0
176
     1
 90
        0
176
     1
 62
    18
420
        0
176
     1
 90
       50
176
     1
 90
        3
176
     1
 62
     5
420
      255
176
     1
290
     0
176
     1
 90
       50
176
     1
 90
       50
176
     1
 90
       50
176
     1
290
     0
176
     1
 90
       50
176
     1
 62
   256
176
     0
 40
1.0
176
     0
 90
        2
176
     1
  1
strokes_ogs.tif
176
     1
290
     0
176
     1
 40
1.0
176
     1
 40
1.0
176
     1
  0
VISUALSTYLE
  5
32
102
{ACAD_REACTORS
330
2A
102
}
330
2A
100
AcDbVisualStyle
  2
Basic
 70
     7
177
     3
291
     1
 70
    58
 90
        1
176
     1
 90
        0
176
     1
 90
        1
176
     1
 90
        0
176
     1
 40
0.6
176
     1
 40
30.0
176
     1
 62
     7
420
 16777215
176
     1
 90
        0
176
     1
 90
        4
176
     1
 62
     7
176
     1
 62
   257
176
     1
 90
        1
176
     1
 90
        1
176
     1
 40
1.0
176
     1
 90
        8
176
     1
 62
     7
176
     1
 40
1.0
176
     1
 90
        1
176
     1
 90
        6
176
     1
 90
        2
176
     1
 62
     7
176
     1
 90
        5
176
     1
 90
        0
176
     1
 90
        0
176
     1
290
     0
176
     1
 90
        1
176
     1
 40
0.0
176
     1
 90
        0
176
     1
290
     0
176
     1
290
     1
176
     1
290
     1
176
     1
290
     0
176
     1
290
     0
176
     1
290
     0
176
     1
290
     0
176
     1
290
     0
176
     1
290
     0
176
     1
 90
       50
176
     1
 40
0.0
176
     1
 40
1.0
176
     1
 90
        0
176
     1
 62
    18
420
        0
176
     1
 90
       50
176
     1
 90
        3
176
     1
 62
     5
420
      255
176
     1
290
     0
176
     1
 90
       50
176
     1
 90
       50
176
     1
 90
       50
176
     1
290
     0
176
     1
 90
       50
176
     1
 62
   256
176
     0
 40
1.0
176
     0
 90
        2
176
     1
  1
strokes_ogs.tif
176
     1
290
     0
176
     1
 40
1.0
176
     1
 40
1.0
176
     1
  0
VISUALSTYLE
  5
36
102
{ACAD_REACTORS
330
2A
102
}
330
2A
100
AcDbVisualStyle
  2
Brighten
 70
    12
177
     3
291
     1
 70
    58
 90
        2
176
     1
 90
        2
176
     1
 90
        0
176
     1
 90
        0
176
     1
 40
0.6
176
     1
 40
30.0
176
     1
 62
     7
420
 16777215
176
     1
 90
        1
176
     1
 90
        4
176
     1
 62
     7
176
     1
 62
   257
176
     1
 90
        1
176
     1
 90
        1
176
     1
 40
1.0
176
     1
 90
        8
176
     1
 62
     7
176
     1
 40
1.0
176
     1
 90
        1
176
     1
 90
        6
176
     1
 90
        2
176
     1
 62
     7
176
     1
 90
        5
176
     1
 90
        0
176
     1
 90
        0
176
     1
290
     0
176
     1
 90
        1
176
     1
 40
50.0
176
     1
 90
        0
176
     1
290
     0
176
     1
290
     1
176
     1
290
     1
176
     1
290
     0
176
     1
290
     0
176
     1
290
     0
176
     1
290
     0
176
     1
290
     0
176
     1
290
     0
176
     1
 90
       50
176
     1
 40
0.0
176
     1
 40
1.0
176
     1
 90
        0
176
     1
 62
    18
420
        0
176
     1
 90
       50
176
     1
 90
        3
176
     1
 62
     5
420
      255
176
     1
290
     0
176
     1
 90
       50
176
     1
 90
       50
176
     1
 90
       50
176
     1
290
     0
176
     1
 90
       50
176
     1
 62
   256
176
     0
 40
1.0
176
     0
 90
        2
176
     1
  1
strokes_ogs.tif
176
     1
290
     0
176
     1
 40
1.0
176
     1
 40
1.0
176
     1
  0
VISUALSTYLE
  5
3A
102
{ACAD_REACTORS
330
2A
102
}
330
2A
100
AcDbVisualStyle
  2
ColorChange
 70
    16
177
     3
291
     1
 70
    58
 90
        2
176
     1
 90
        2
176
     1
 90
        3
176
     1
 90
        0
176
     1
 40
0.6
176
     1
 40
30.0
176
     1
 62
     8
420
  8421504
176
     1
 90
        1
176
     1
 90
        4
176
     1
 62
     7
176
     1
 62
   257
176
     1
 90
        1
176
     1
 90
        1
176
     1
 40
1.0
176
     1
 90
        8
176
     1
 62
     8
420
  8421504
176
     1
 40
1.0
176
     1
 90
        1
176
     1
 90
        6
176
     1
 90
        2
176
     1
 62
     7
176
     1
 90
        5
176
     1
 90
        0
176
     1
 90
        0
176
     1
290
     0
176
     1
 90
        1
176
     1
 40
0.0
176
     1
 90
        0
176
     1
290
     0
176
     1
290
     1
176
     1
290
     1
176
     1
290
     0
176
     1
290
     0
176
     1
290
     0
176
     1
290
     0
176
     1
290
     0
176
     1
290
     0
176
     1
 90
       50
176
     1
 40
0.0
176
     1
 40
1.0
176
     1
 90
        0
176
     1
 62
    18
420
        0
176
     1
 90
       50
176
     1
 90
        3
176
     1
 62
     5
420
      255
176
     1
290
     0
176
     1
 90
       50
176
     1
 90
       50
176
     1
 90
       50
176
     1
290
     0
176
     1
 90
       50
176
     1
 62
   256
176
     0
 40
1.0
176
     0
 90
        2
176
     1
  1
strokes_ogs.tif
176
     1
290
     0
176
     1
 40
1.0
176
     1
 40
1.0
176
     1
  0
VISUALSTYLE
  5
34
102
{ACAD_REACTORS
330
2A
102
}
330
2A
100
AcDbVisualStyle
  2
Conceptual
 70
     9
177
     3
291
     0
 70
    58
 90
        3
176
     1
 90
        2
176
     1
 90
        0
176
     1
 90
        0
176
     1
 40
0.6
176
     1
 40
30.0
176
     1
 62
     7
420
 16777215
176
     1
 90
        2
176
     1
 90
        2
176
     1
 62
     7
176
     1
 62
   257
176
     1
 90
        1
176
     1
 90
        1
176
     1
 40
179.0
176
     1
 90
        8
176
     1
 62
     7
176
     1
 40
1.0
176
     1
 90
        1
176
     1
 90
        6
176
     1
 90
        2
176
     1
 62
     7
176
     1
 90
        3
176
     1
 90
        0
176
     1
 90
        0
176
     1
290
     0
176
     1
 90
        1
176
     1
 40
0.0
176
     1
 90
        0
176
     1
290
     0
176
     1
290
     1
176
     1
290
     1
176
     1
290
     0
176
     1
290
     0
176
     1
290
     0
176
     1
290
     0
176
     1
290
     0
176
     1
290
     0
176
     1
 90
       50
176
     1
 40
0.0
176
     1
 40
1.0
176
     1
 90
        0
176
     1
 62
    18
420
        0
176
     1
 90
       50
176
     1
 90
        3
176
     1
 62
     5
420
      255
176
     1
290
     0
176
     1
 90
       50
176
     1
 90
       50
176
     1
 90
       50
176
     1
290
     0
176
     1
 90
       50
176
     1
 62
   256
176
     0
 40
1.0
176
     0
 90
        2
176
     1
  1
strokes_ogs.tif
176
     1
290
     0
176
     1
 40
1.0
176
     1
 40
1.0
176
     1
  0
VISUALSTYLE
  5
35
102
{ACAD_REACTORS
330
2A
102
}
330
2A
100
AcDbVisualStyle
  2
Dim
 70
    11
177
     3
291
     1
 70
    58
 90
        2
176
     1
 90
        2
176
     1
 90
        0
176
     1
 90
        0
176
     1
 40
0.6
176
     1
 40
30.0
176
     1
 62
     7
420
 16777215
176
     1
 90
        1
176
     1
 90
        4
176
     1
 62
     7
176
     1
 62
   257
176
     1
 90
        1
176
     1
 90
        1
176
     1
 40
1.0
176
     1
 90
        8
176
     1
 62
     7
176
     1
 40
1.0
176
     1
 90
        1
176
     1
 90
        6
176
     1
 90
        2
176
     1
 62
     7
176
     1
 90
        5
176
     1
 90
        0
176
     1
 90
        0
176
     1
290
     0
176
     1
 90
        1
176
     1
 40
-50.0
176
     1
 90
        0
176
     1
290
     0
176
     1
290
     1
176
     1
290
     1
176
     1
290
     0
176
     1
290
     0
176
     1
290
     0
176
     1
290
     0
176
     1
290
     0
176
     1
290
     0
176
     1
 90
       50
176
     1
 40
0.0
176
     1
 40
1.0
176
     1
 90
        0
176
     1
 62
    18
420
        0
176
     1
 90
       50
176
     1
 90
        3
176
     1
 62
     5
420
      255
176
     1
290
     0
176
     1
 90
       50
176
     1
 90
       50
176
     1
 90
       50
176
     1
290
     0
176
     1
 90
       50
176
     1
 62
   256
176
     0
 40
1.0
176
     0
 90
        2
176
     1
  1
strokes_ogs.tif
176
     1
290
     0
176
     1
 40
1.0
176
     1
 40
1.0
176
     1
  0
VISUALSTYLE
  5
3D
102
{ACAD_REACTORS
330
2A
102
}
330
2A
100
AcDbVisualStyle
  2
EdgeColorOff
 70
    22
177
     3
291
     1
 70
    58
 90
        2
176
     0
 90
        2
176
     0
 90
        0
176
     0
 90
        0
176
     0
 40
0.6
176
     0
 40
30.0
176
     0
 62
     7
420
 16777215
176
     0
 90
        1
176
     0
 90
        4
176
     0
 62
     7
176
     0
 62
   257
176
     0
 90
        1
176
     0
 90
        1
176
     0
 40
1.0
176
     0
 90
        8
176
     2
 62
     7
176
     0
 40
1.0
176
     0
 90
        1
176
     0
 90
        6
176
     0
 90
        2
176
     0
 62
     7
176
     0
 90
        5
176
     0
 90
        0
176
     0
 90
        0
176
     0
290
     0
176
     0
 90
        1
176
     0
 40
0.0
176
     0
 90
        0
176
     0
290
     0
176
     0
290
     1
176
     0
290
     1
176
     0
290
     0
176
     0
290
     0
176
     0
290
     0
176
     0
290
     0
176
     0
290
     0
176
     0
290
     0
176
     0
 90
       50
176
     0
 40
0.0
176
     0
 40
1.0
176
     0
 90
        0
176
     0
 62
    18
420
        0
176
     0
 90
       50
176
     0
 90
        3
176
     0
 62
     5
420
      255
176
     0
290
     0
176
     0
 90
       50
176
     0
 90
       50
176
     0
 90
       50
176
     0
290
     0
176
     0
 90
       50
176
     0
 62
   256
176
     0
 40
1.0
176
     0
 90
        2
176
     0
  1
strokes_ogs.tif
176
     0
290
     0
176
     0
 40
1.0
176
     0
 40
1.0
176
     0
  0
VISUALSTYLE
  5
39
102
{ACAD_REACTORS
330
2A
102
}
330
2A
100
AcDbVisualStyle
  2
Facepattern
 70
    15
177
     3
291
     1
 70
    58
 90
        2
176
     1
 90
        2
176
     1
 90
        0
176
     1
 90
        0
176
     1
 40
0.6
176
     1
 40
30.0
176
     1
 62
     7
420
 16777215
176
     1
 90
        1
176
     1
 90
        4
176
     1
 62
     7
176
     1
 62
   257
176
     1
 90
        1
176
     1
 90
        1
176
     1
 40
1.0
176
     1
 90
        8
176
     1
 62
     7
176
     1
 40
1.0
176
     1
 90
        1
176
     1
 90
        6
176
     1
 90
        2
176
     1
 62
     7
176
     1
 90
        5
176
     1
 90
        0
176
     1
 90
        0
176
     1
290
     0
176
     1
 90
        1
176
     1
 40
0.0
176
     1
 90
        0
176
     1
290
     0
176
     1
290
     1
176
     1
290
     1
176
     1
290
     0
176
     1
290
     0
176
     1
290
     0
176
     1
290
     0
176
     1
290
     0
176
     1
290
     0
176
     1
 90
       50
176
     1
 40
0.0
176
     1
 40
1.0
176
     1
 90
        0
176
     1
 62
    18
420
        0
176
     1
 90
       50
176
     1
 90
        3
176
     1
 62
     5
420
      255
176
     1
290
     0
176
     1
 90
       50
176
     1
 90
       50
176
     1
 90
       50
176
     1
290
     0
176
     1
 90
       50
176
     1
 62
   256
176
     0
 40
1.0
176
     0
 90
        2
176
     1
  1
strokes_ogs.tif
176
     1
290
     0
176
     1
 40
1.0
176
     1
 40
1.0
176
     1
  0
VISUALSTYLE
  5
2B
102
{ACAD_REACTORS
330
2A
102
}
330
2A
100
AcDbVisualStyle
  2
Flat
 70
     0
177
     3
291
     1
 70
    58
 90
        2
176
     1
 90
        1
176
     1
 90
        1
176
     1
 90
        2
176
     1
 40
0.6
176
     1
 40
30.0
176
     1
 62
     7
420
 16777215
176
     1
 90
        0
176
     1
 90
        0
176
     1
 62
     7
176
     1
 62
   257
176
     1
 90
        1
176
     1
 90
        1
176
     1
 40
1.0
176
     1
 90
        8
176
     1
 62
     7
176
     1
 40
1.0
176
     1
 90
        1
176
     1
 90
        6
176
     1
 90
        2
176
     1
 62
     7
176
     1
 90
        5
176
     1
 90
        0
176
     1
 90
        0
176
     1
290
     0
176
     1
 90
       13
176
     1
 40
0.0
176
     1
 90
        0
176
     1
290
     0
176
     1
290
     1
176
     1
290
     1
176
     1
290
     0
176
     1
290
     0
176
     1
290
     0
176
     1
290
     0
176
     1
290
     0
176
     1
290
     0
176
     1
 90
       50
176
     1
 40
0.0
176
     1
 40
1.0
176
     1
 90
        0
176
     1
 62
    18
420
        0
176
     1
 90
       50
176
     1
 90
        3
176
     1
 62
     5
420
      255
176
     1
290
     0
176
     1
 90
       50
176
     1
 90
       50
176
     1
 90
       50
176
     1
290
     0
176
     1
 90
       50
176
     1
 62
   256
176
     0
 40
1.0
176
     0
 90
        2
176
     1
  1
strokes_ogs.tif
176
     1
290
     0
176
     1
 40
1.0
176
     1
 40
1.0
176
     1
  0
VISUALSTYLE
  5
2C
102
{ACAD_REACTORS
330
2A
102
}
330
2A
100
AcDbVisualStyle
  2
FlatWithEdges
 70
     1
177
     3
291
     1
 70
    58
 90
        2
176
     1
 90
        1
176
     1
 90
        1
176
     1
 90
        2
176
     1
 40
0.6
176
     1
 40
30.0
176
     1
 62
     7
420
 16777215
176
     1
 90
        1
176
     1
 90
        0
176
     1
 62
     7
176
     1
 62
   257
176
     1
 90
        1
176
     1
 90
        1
176
     1
 40
1.0
176
     1
 90
        0
176
     1
 62
   257
176
     1
 40
1.0
176
     1
 90
        1
176
     1
 90
        6
176
     1
 90
        2
176
     1
 62
     7
176
     1
 90
        5
176
     1
 90
        0
176
     1
 90
        0
176
     1
290
     0
176
     1
 90
       13
176
     1
 40
0.0
176
     1
 90
        0
176
     1
290
     0
176
     1
290
     1
176
     1
290
     1
176
     1
290
     0
176
     1
290
     0
176
     1
290
     0
176
     1
290
     0
176
     1
290
     0
176
     1
290
     0
176
     1
 90
       50
176
     1
 40
0.0
176
     1
 40
1.0
176
     1
 90
        0
176
     1
 62
    18
420
        0
176
     1
 90
       50
176
     1
 90
        3
176
     1
 62
     5
420
      255
176
     1
290
     0
176
     1
 90
       50
176
     1
 90
       50
176
     1
 90
       50
176
     1
290
     0
176
     1
 90
       50
176
     1
 62
   256
176
     0
 40
1.0
176
     0
 90
        2
176
     1
  1
strokes_ogs.tif
176
     1
290
     0
176
     1
 40
1.0
176
     1
 40
1.0
176
     1
  0
VISUALSTYLE
  5
2D
102
{ACAD_REACTORS
330
2A
102
}
330
2A
100
AcDbVisualStyle
  2
Gouraud
 70
     2
177
     3
291
     1
 70
    58
 90
        2
176
     1
 90
        2
176
     1
 90
        1
176
     1
 90
        2
176
     1
 40
0.6
176
     1
 40
30.0
176
     1
 62
     7
420
 16777215
176
     1
 90
        0
176
     1
 90
        0
176
     1
 62
     7
176
     1
 62
   257
176
     1
 90
        1
176
     1
 90
        1
176
     1
 40
1.0
176
     1
 90
        0
176
     1
 62
     7
176
     1
 40
1.0
176
     1
 90
        1
176
     1
 90
        6
176
     1
 90
        2
176
     1
 62
     7
176
     1
 90
        5
176
     1
 90
        0
176
     1
 90
        0
176
     1
290
     0
176
     1
 90
       13
176
     1
 40
0.0
176
     1
 90
        0
176
     1
290
     0
176
     1
290
     1
176
     1
290
     1
176
     1
290
     0
176
     1
290
     0
176
     1
290
     0
176
     1
290
     0
176
     1
290
     0
176
     1
290
     0
176
     1
 90
       50
176
     1
 40
0.0
176
     1
 40
1.0
176
     1
 90
        0
176
     1
 62
    18
420
        0
176
     1
 90
       50
176
     1
 90
        3
176
     1
 62
     5
420
      255
176
     1
290
     0
176
     1
 90
       50
176
     1
 90
       50
176
     1
 90
       50
176
     1
290
     0
176
     1
 90
       50
176
     1
 62
   256
176
     0
 40
1.0
176
     0
 90
        2
176
     1
  1
strokes_ogs.tif
176
     1
290
     0
176
     1
 40
1.0
176
     1
 40
1.0
176
     1
  0
VISUALSTYLE
  5
2E
102
{ACAD_REACTORS
330
2A
102
}
330
2A
100
AcDbVisualStyle
  2
GouraudWithEdges
 70
     3
177
     3
291
     1
 70
    58
 90
        2
176
     1
 90
        2
176
     1
 90
        1
176
     1
 90
        2
176
     1
 40
0.6
176
     1
 40
30.0
176
     1
 62
     7
420
 16777215
176
     1
 90
        1
176
     1
 90
        0
176
     1
 62
     7
176
     1
 62
   257
176
     1
 90
        1
176
     1
 90
        1
176
     1
 40
1.0
176
     1
 90
        0
176
     1
 62
   257
176
     1
 40
1.0
176
     1
 90
        1
176
     1
 90
        6
176
     1
 90
        2
176
     1
 62
     7
176
     1
 90
        5
176
     1
 90
        0
176
     1
 90
        0
176
     1
290
     0
176
     1
 90
       13
176
     1
 40
0.0
176
     1
 90
        0
176
     1
290
     0
176
     1
290
     1
176
     1
290
     1
176
     1
290
     0
176
     1
290
     0
176
     1
290
     0
176
     1
290
     0
176
     1
290
     0
176
     1
290
     0
176
     1
 90
       50
176
     1
 40
0.0
176
     1
 40
1.0
176
     1
 90
        0
176
     1
 62
    18
420
        0
176
     1
 90
       50
176
     1
 90
        3
176
     1
 62
     5
420
      255
176
     1
290
     0
176
     1
 90
       50
176
     1
 90
       50
176
     1
 90
       50
176
     1
290
     0
176
     1
 90
       50
176
     1
 62
   256
176
     0
 40
1.0
176
     0
 90
        2
176
     1
  1
strokes_ogs.tif
176
     1
290
     0
176
     1
 40
1.0
176
     1
 40
1.0
176
     1
  0
VISUALSTYLE
  5
31
102
{ACAD_REACTORS
330
2A
102
}
330
2A
100
AcDbVisualStyle
  2
Hidden
 70
     6
177
     3
291
     0
 70
    58
 90
        1
176
     1
 90
        2
176
     1
 90
        2
176
     1
 90
        0
176
     1
 40
0.6
176
     1
 40
30.0
176
     1
 62
     7
420
 16777215
176
     1
 90
        2
176
     1
 90
        2
176
     1
 62
     7
176
     1
 62
   257
176
     1
 90
        2
176
     1
 90
        1
176
     1
 40
40.0
176
     1
 90
        0
176
     1
 62
   257
176
     1
 40
1.0
176
     1
 90
        1
176
     1
 90
        6
176
     1
 90
        2
176
     1
 62
     7
176
     1
 90
        3
176
     1
 90
        0
176
     1
 90
        0
176
     1
290
     0
176
     1
 90
        1
176
     1
 40
0.0
176
     1
 90
        0
176
     1
290
     0
176
     1
290
     1
176
     1
290
     1
176
     1
290
     0
176
     1
290
     0
176
     1
290
     0
176
     1
290
     0
176
     1
290
     0
176
     1
290
     0
176
     1
 90
       50
176
     1
 40
0.0
176
     1
 40
1.0
176
     1
 90
        0
176
     1
 62
    18
420
        0
176
     1
 90
       50
176
     1
 90
        3
176
     1
 62
     5
420
      255
176
     1
290
     0
176
     1
 90
       50
176
     1
 90
       50
176
     1
 90
       50
176
     1
290
     0
176
     1
 90
       50
176
     1
 62
   256
176
     0
 40
1.0
176
     0
 90
        2
176
     1
  1
strokes_ogs.tif
176
     1
290
     0
176
     1
 40
1.0
176
     1
 40
1.0
176
     1
  0
VISUALSTYLE
  5
3B
102
{ACAD_REACTORS
330
2A
102
}
330
2A
100
AcDbVisualStyle
  2
JitterOff
 70
    20
177
     3
291
     1
 70
    58
 90
        2
176
     0
 90
        2
176
     0
 90
        0
176
     0
 90
        0
176
     0
 40
0.6
176
     0
 40
30.0
176
     0
 62
     7
420
 16777215
176
     0
 90
        1
176
     0
 90
        4
176
     0
 62
     7
176
     0
 62
   257
176
     0
 90
        1
176
     0
 90
        1
176
     0
 40
1.0
176
     0
 90
       10
176
     2
 62
     7
176
     0
 40
1.0
176
     0
 90
        1
176
     0
 90
        6
176
     0
 90
        2
176
     0
 62
     7
176
     0
 90
        5
176
     0
 90
        0
176
     0
 90
        0
176
     0
290
     0
176
     0
 90
        1
176
     0
 40
0.0
176
     0
 90
        0
176
     0
290
     0
176
     0
290
     1
176
     0
290
     1
176
     0
290
     0
176
     0
290
     0
176
     0
290
     0
176
     0
290
     0
176
     0
290
     0
176
     0
290
     0
176
     0
 90
       50
176
     0
 40
0.0
176
     0
 40
1.0
176
     0
 90
        0
176
     0
 62
    18
420
        0
176
     0
 90
       50
176
     0
 90
        3
176
     0
 62
     5
420
      255
176
     0
290
     0
176
     0
 90
       50
176
     0
 90
       50
176
     0
 90
       50
176
     0
290
     0
176
     0
 90
       50
176
     0
 62
   256
176
     0
 40
1.0
176
     0
 90
        2
176
     0
  1
strokes_ogs.tif
176
     0
290
     0
176
     0
 40
1.0
176
     0
 40
1.0
176
     0
  0
VISUALSTYLE
  5
38
102
{ACAD_REACTORS
330
2A
102
}
330
2A
100
AcDbVisualStyle
  2
Linepattern
 70
    14
177
     3
291
     1
 70
    58
 90
        2
176
     1
 90
        2
176
     1
 90
        0
176
     1
 90
        0
176
     1
 40
0.6
176
     1
 40
30.0
176
     1
 62
     7
420
 16777215
176
     1
 90
        1
176
     1
 90
        4
176
     1
 62
     7
176
     1
 62
   257
176
     1
 90
        7
176
     1
 90
        7
176
     1
 40
1.0
176
     1
 90
        8
176
     1
 62
     7
176
     1
 40
1.0
176
     1
 90
        1
176
     1
 90
        6
176
     1
 90
        2
176
     1
 62
     7
176
     1
 90
        5
176
     1
 90
        0
176
     1
 90
        0
176
     1
290
     0
176
     1
 90
        1
176
     1
 40
0.0
176
     1
 90
        0
176
     1
290
     0
176
     1
290
     1
176
     1
290
     1
176
     1
290
     0
176
     1
290
     0
176
     1
290
     0
176
     1
290
     0
176
     1
290
     0
176
     1
290
     0
176
     1
 90
       50
176
     1
 40
0.0
176
     1
 40
1.0
176
     1
 90
        0
176
     1
 62
    18
420
        0
176
     1
 90
       50
176
     1
 90
        3
176
     1
 62
     5
420
      255
176
     1
290
     0
176
     1
 90
       50
176
     1
 90
       50
176
     1
 90
       50
176
     1
290
     0
176
     1
 90
       50
176
     1
 62
   256
176
     0
 40
1.0
176
     0
 90
        2
176
     1
  1
strokes_ogs.tif
176
     1
290
     0
176
     1
 40
1.0
176
     1
 40
1.0
176
     1
  0
VISUALSTYLE
  5
3C
102
{ACAD_REACTORS
330
2A
102
}
330
2A
100
AcDbVisualStyle
  2
OverhangOff
 70
    21
177
     3
291
     1
 70
    58
 90
        2
176
     0
 90
        2
176
     0
 90
        0
176
     0
 90
        0
176
     0
 40
0.6
176
     0
 40
30.0
176
     0
 62
     7
420
 16777215
176
     0
 90
        1
176
     0
 90
        4
176
     0
 62
     7
176
     0
 62
   257
176
     0
 90
        1
176
     0
 90
        1
176
     0
 40
1.0
176
     0
 90
        9
176
     2
 62
     7
176
     0
 40
1.0
176
     0
 90
        1
176
     0
 90
        6
176
     0
 90
        2
176
     0
 62
     7
176
     0
 90
        5
176
     0
 90
        0
176
     0
 90
        0
176
     0
290
     0
176
     0
 90
        1
176
     0
 40
0.0
176
     0
 90
        0
176
     0
290
     0
176
     0
290
     1
176
     0
290
     1
176
     0
290
     0
176
     0
290
     0
176
     0
290
     0
176
     0
290
     0
176
     0
290
     0
176
     0
290
     0
176
     0
 90
       50
176
     0
 40
0.0
176
     0
 40
1.0
176
     0
 90
        0
176
     0
 62
    18
420
        0
176
     0
 90
       50
176
     0
 90
        3
176
     0
 62
     5
420
      255
176
     0
290
     0
176
     0
 90
       50
176
     0
 90
       50
176
     0
 90
       50
176
     0
290
     0
176
     0
 90
       50
176
     0
 62
   256
176
     0
 40
1.0
176
     0
 90
        2
176
     0
  1
strokes_ogs.tif
176
     0
290
     0
176
     0
 40
1.0
176
     0
 40
1.0
176
     0
  0
VISUALSTYLE
  5
33
102
{ACAD_REACTORS
330
2A
102
}
330
2A
100
AcDbVisualStyle
  2
Realistic
 70
     8
177
     3
291
     0
 70
    58
 90
        2
176
     1
 90
        3
176
     1
 90
        0
176
     1
 90
        2
176
     1
 40
0.6
176
     1
 40
30.0
176
     1
 62
     7
420
 16777215
176
     1
 90
        0
176
     1
 90
        0
176
     1
 62
     7
176
     1
 62
   257
176
     1
 90
        1
176
     1
 90
        1
176
     1
 40
1.0
176
     1
 90
        8
176
     1
 62
   257
176
     1
 40
1.0
176
     1
 90
        1
176
     1
 90
        6
176
     1
 90
        2
176
     1
 62
     7
176
     1
 90
        3
176
     1
 90
        0
176
     1
 90
        0
176
     1
290
     0
176
     1
 90
       13
176
     1
 40
0.0
176
     1
 90
        0
176
     1
290
     0
176
     1
290
     1
176
     1
290
     1
176
     1
290
     0
176
     1
290
     0
176
     1
290
     0
176
     1
290
     0
176
     1
290
     0
176
     1
290
     0
176
     1
 90
       50
176
     1
 40
0.0
176
     1
 40
1.0
176
     1
 90
        0
176
     1
 62
    18
420
        0
176
     1
 90
       50
176
     1
 90
        3
176
     1
 62
     5
420
      255
176
     1
290
     0
176
     1
 90
       50
176
     1
 90
       50
176
     1
 90
       50
176
     1
290
     0
176
     1
 90
       50
176
     1
 62
   256
176
     0
 40
1.0
176
     0
 90
        2
176
     1
  1
strokes_ogs.tif
176
     1
290
     0
176
     1
 40
1.0
176
     1
 40
1.0
176
     1
  0
VISUALSTYLE
  5
42
102
{ACAD_REACTORS
330
2A
102
}
330
2A
100
AcDbVisualStyle
  2
Shaded
 70
    27
177
     3
291
     0
 70
    58
 90
        2
176
     1
 90
        2
176
     1
 90
        1
176
     1
 90
        2
176
     1
 40
0.6
176
     1
 40
30.0
176
     1
 62
     7
420
 16777215
176
     1
 90
        0
176
     1
 90
        4
176
     1
 62
     7
176
     1
 62
   257
176
     1
 90
        1
176
     1
 90
        1
176
     1
 40
1.0
176
     1
 90
        8
176
     1
 62
   257
176
     1
 40
1.0
176
     1
 90
        1
176
     1
 90
        6
176
     1
 90
        2
176
     1
 62
     8
420
  7895160
176
     1
 90
        3
176
     1
 90
        0
176
     1
 90
        0
176
     1
290
     0
176
     1
 90
        5
176
     1
 40
0.0
176
     1
 90
        0
176
     1
290
     0
176
     1
290
     1
176
     1
290
     1
176
     1
290
     0
176
     1
290
     0
176
     1
290
     0
176
     1
290
     0
176
     1
290
     0
176
     1
290
     0
176
     1
 90
       50
176
     1
 40
0.0
176
     1
 40
1.0
176
     1
 90
        0
176
     1
 62
    18
420
        0
176
     1
 90
       50
176
     1
 90
        3
176
     1
 62
     5
420
      255
176
     1
290
     0
176
     1
 90
       50
176
     1
 90
       50
176
     1
 90
       50
176
     1
290
     0
176
     1
 90
       50
176
     1
 62
   256
176
     0
 40
1.0
176
     0
 90
        2
176
     1
  1
strokes_ogs.tif
176
     1
290
     0
176
     1
 40
1.0
176
     1
 40
1.0
176
     1
  0
VISUALSTYLE
  5
41
102
{ACAD_REACTORS
330
2A
102
}
330
2A
100
AcDbVisualStyle
  2
Shaded with edges
 70
    26
177
     3
291
     0
 70
    58
 90
        2
176
     1
 90
        2
176
     1
 90
        1
176
     1
 90
        2
176
     1
 40
0.6
176
     1
 40
30.0
176
     1
 62
     7
420
 16777215
176
     1
 90
        1
176
     1
 90
       10
176
     1
 62
     7
176
     1
 62
   257
176
     1
 90
        2
176
     1
 90
        1
176
     1
 40
1.0
176
     1
 90
        8
176
     1
 62
   257
176
     1
 40
1.0
176
     1
 90
        1
176
     1
 90
        6
176
     1
 90
        2
176
     1
 62
     7
176
     1
 90
        3
176
     1
 90
        0
176
     1
 90
        0
176
     1
290
     0
176
     1
 90
        5
176
     1
 40
0.0
176
     1
 90
        0
176
     1
290
     0
176
     1
290
     1
176
     1
290
     1
176
     1
290
     0
176
     1
290
     0
176
     1
290
     0
176
     1
290
     0
176
     1
290
     0
176
     1
290
     0
176
     1
 90
       50
176
     1
 40
0.0
176
     1
 40
1.0
176
     1
 90
        0
176
     1
 62
    18
420
        0
176
     1
 90
       50
176
     1
 90
        3
176
     1
 62
     5
420
      255
176
     1
290
     0
176
     1
 90
       50
176
     1
 90
       50
176
     1
 90
       50
176
     1
290
     0
176
     1
 90
       50
176
     1
 62
   256
176
     0
 40
1.0
176
     0
 90
        2
176
     1
  1
strokes_ogs.tif
176
     1
290
     0
176
     1
 40
1.0
176
     1
 40
1.0
176
     1
  0
VISUALSTYLE
  5
3E
102
{ACAD_REACTORS
330
2A
102
}
330
2A
100
AcDbVisualStyle
  2
Shades of Gray
 70
    23
177
     3
291
     0
 70
    58
 90
        2
176
     1
 90
        2
176
     1
 90
        3
176
     1
 90
        0
176
     1
 40
0.6
176
     1
 40
30.0
176
     1
 62
     7
420
 16777215
176
     1
 90
        2
176
     1
 90
        2
176
     1
 62
     7
176
     1
 62
     7
176
     1
 90
        1
176
     1
 90
        1
176
     1
 40
40.0
176
     1
 90
        8
176
     1
 62
     7
176
     1
 40
1.0
176
     1
 90
        1
176
     1
 90
        6
176
     1
 90
        2
176
     1
 62
     7
176
     1
 90
        3
176
     1
 90
        0
176
     1
 90
        0
176
     1
290
     0
176
     1
 90
        1
176
     1
 40
0.0
176
     1
 90
        0
176
     1
290
     0
176
     1
290
     1
176
     1
290
     1
176
     1
290
     0
176
     1
290
     0
176
     1
290
     0
176
     1
290
     0
176
     1
290
     0
176
     1
290
     0
176
     1
 90
       50
176
     1
 40
0.0
176
     1
 40
1.0
176
     1
 90
        0
176
     1
 62
    18
420
        0
176
     1
 90
       50
176
     1
 90
        3
176
     1
 62
     5
420
      255
176
     1
290
     0
176
     1
 90
       50
176
     1
 90
       50
176
     1
 90
       50
176
     1
290
     0
176
     1
 90
       50
176
     1
 62
   256
176
     0
 40
1.0
176
     0
 90
        2
176
     1
  1
strokes_ogs.tif
176
     1
290
     0
176
     1
 40
1.0
176
     1
 40
1.0
176
     1
  0
VISUALSTYLE
  5
3F
102
{ACAD_REACTORS
330
2A
102
}
330
2A
100
AcDbVisualStyle
  2
Sketchy
 70
    24
177
     3
291
     0
 70
    58
 90
        1
176
     1
 90
        2
176
     1
 90
        2
176
     1
 90
        0
176
     1
 40
0.6
176
     1
 40
30.0
176
     1
 62
     7
420
 16777215
176
     1
 90
        2
176
     1
 90
        2
176
     1
 62
     7
176
     1
 62
     7
176
     1
 90
        1
176
     1
 90
        1
176
     1
 40
40.0
176
     1
 90
       11
176
     1
 62
     7
176
     1
 40
1.0
176
     1
 90
        1
176
     1
 90
        6
176
     1
 90
        2
176
     1
 62
     7
176
     1
 90
        6
176
     1
 90
        0
176
     1
 90
        0
176
     1
290
     0
176
     1
 90
        1
176
     1
 40
0.0
176
     1
 90
        0
176
     1
290
     0
176
     1
290
     1
176
     1
290
     1
176
     1
290
     0
176
     1
290
     0
176
     1
290
     0
176
     1
290
     0
176
     1
290
     0
176
     1
290
     0
176
     1
 90
       50
176
     1
 40
0.0
176
     1
 40
1.0
176
     1
 90
        0
176
     1
 62
    18
420
        0
176
     1
 90
       50
176
     1
 90
        3
176
     1
 62
     5
420
      255
176
     1
290
     0
176
     1
 90
       50
176
     1
 90
       50
176
     1
 90
       50
176
     1
290
     0
176
     1
 90
       50
176
     1
 62
   256
176
     0
 40
1.0
176
     0
 90
        2
176
     1
  1
strokes_ogs.tif
176
     1
290
     0
176
     1
 40
1.0
176
     1
 40
1.0
176
     1
  0
VISUALSTYLE
  5
37
102
{ACAD_REACTORS
330
2A
102
}
330
2A
100
AcDbVisualStyle
  2
Thicken
 70
    13
177
     3
291
     1
 70
    58
 90
        2
176
     1
 90
        2
176
     1
 90
        0
176
     1
 90
        0
176
     1
 40
0.6
176
     1
 40
30.0
176
     1
 62
     7
420
 16777215
176
     1
 90
        1
176
     1
 90
        4
176
     1
 62
     7
176
     1
 62
   257
176
     1
 90
        1
176
     1
 90
        1
176
     1
 40
1.0
176
     1
 90
       12
176
     1
 62
     7
176
     1
 40
1.0
176
     1
 90
        1
176
     1
 90
        6
176
     1
 90
        2
176
     1
 62
     7
176
     1
 90
        5
176
     1
 90
        0
176
     1
 90
        0
176
     1
290
     0
176
     1
 90
        1
176
     1
 40
0.0
176
     1
 90
        0
176
     1
290
     0
176
     1
290
     1
176
     1
290
     1
176
     1
290
     0
176
     1
290
     0
176
     1
290
     0
176
     1
290
     0
176
     1
290
     0
176
     1
290
     0
176
     1
 90
       50
176
     1
 40
0.0
176
     1
 40
1.0
176
     1
 90
        0
176
     1
 62
    18
420
        0
176
     1
 90
       50
176
     1
 90
        3
176
     1
 62
     5
420
      255
176
     1
290
     0
176
     1
 90
       50
176
     1
 90
       50
176
     1
 90
       50
176
     1
290
     0
176
     1
 90
       50
176
     1
 62
   256
176
     0
 40
1.0
176
     0
 90
        2
176
     1
  1
strokes_ogs.tif
176
     1
290
     0
176
     1
 40
1.0
176
     1
 40
1.0
176
     1
  0
VISUALSTYLE
  5
30
102
{ACAD_REACTORS
330
2A
102
}
330
2A
100
AcDbVisualStyle
  2
Wireframe
 70
     5
177
     3
291
     0
 70
    58
 90
        0
176
     1
 90
        2
176
     1
 90
        0
176
     1
 90
        0
176
     1
 40
0.6
176
     1
 40
30.0
176
     1
 62
     7
420
 16777215
176
     1
 90
        1
176
     1
 90
        4
176
     1
 62
     7
176
     1
 62
   257
176
     1
 90
        1
176
     1
 90
        1
176
     1
 40
1.0
176
     1
 90
        0
176
     1
 62
   257
176
     1
 40
1.0
176
     1
 90
        1
176
     1
 90
        6
176
     1
 90
        2
176
     1
 62
     7
176
     1
 90
        3
176
     1
 90
        0
176
     1
 90
        0
176
     1
290
     0
176
     1
 90
        1
176
     1
 40
0.0
176
     1
 90
        0
176
     1
290
     0
176
     1
290
     1
176
     1
290
     1
176
     1
290
     0
176
     1
290
     0
176
     1
290
     0
176
     1
290
     0
176
     1
290
     0
176
     1
290
     0
176
     1
 90
       50
176
     1
 40
0.0
176
     1
 40
1.0
176
     1
 90
        0
176
     1
 62
    18
420
        0
176
     1
 90
       50
176
     1
 90
        3
176
     1
 62
     5
420
      255
176
     1
290
     0
176
     1
 90
       50
176
     1
 90
       50
176
     1
 90
       50
176
     1
290
     0
176
     1
 90
       50
176
     1
 62
   256
176
     0
 40
1.0
176
     0
 90
        2
176
     1
  1
strokes_ogs.tif
176
     1
290
     0
176
     1
 40
1.0
176
     1
 40
1.0
176
     1
  0
VISUALSTYLE
  5
40
102
{ACAD_REACTORS
330
2A
102
}
330
2A
100
AcDbVisualStyle
  2
X-Ray
 70
    25
177
     3
291
     0
 70
    58
 90
        2
176
     1
 90
        2
176
     1
 90
        1
176
     1
 90
        1
176
     1
 40
0.5
176
     1
 40
30.0
176
     1
 62
     7
420
 16777215
176
     1
 90
        1
176
     1
 90
        0
176
     1
 62
     7
176
     1
 62
   257
176
     1
 90
        1
176
     1
 90
        1
176
     1
 40
1.0
176
     1
 90
        8
176
     1
 62
     7
176
     1
 40
1.0
176
     1
 90
        1
176
     1
 90
        6
176
     1
 90
        2
176
     1
 62
     7
176
     1
 90
        3
176
     1
 90
        0
176
     1
 90
        0
176
     1
290
     0
176
     1
 90
       13
176
     1
 40
0.0
176
     1
 90
        0
176
     1
290
     0
176
     1
290
     1
176
     1
290
     1
176
     1
290
     0
176
     1
290
     0
176
     1
290
     0
176
     1
290
     0
176
     1
290
     0
176
     1
290
     0
176
     1
 90
       50
176
     1
 40
0.0
176
     1
 40
1.0
176
     1
 90
        0
176
     1
 62
    18
420
        0
176
     1
 90
       50
176
     1
 90
        3
176
     1
 62
     5
420
      255
176
     1
290
     0
176
     1
 90
       50
176
     1
 90
       50
176
     1
 90
       50
176
     1
290
     0
176
     1
 90
       50
176
     1
 62
   256
176
     0
 40
1.0
176
     0
 90
        2
176
     1
  1
strokes_ogs.tif
176
     1
290
     0
176
     1
 40
1.0
176
     1
 40
1.0
176
     1
  0
DICTIONARYVAR
  5
197
102
{ACAD_REACTORS
330
196
102
}
330
196
100
DictionaryVariables
280
     0
  1
1:1
  0
DICTIONARYVAR
  5
19C
102
{ACAD_REACTORS
330
196
102
}
330
196
100
DictionaryVariables
280
     0
  1
Standard
  0
DICTIONARYVAR
  5
19B
102
{ACAD_REACTORS
330
196
102
}
330
196
100
DictionaryVariables
280
     0
  1
Standard
  0
DICTIONARY
  5
198
330
6A
100
AcDbDictionary
280
     1
281
     1
  3
ACAD_ROUNDTRIP_2008_TABLESTYLE_CELLSTYLEMAP
360
199
  0
CELLSTYLEMAP
  5
199
102
{ACAD_REACTORS
330
198
102
}
330
198
100
AcDbCellStyleMap
 90
        3
300
CELLSTYLE
  1
TABLEFORMAT_BEGIN
 90
        5
170
     1
 91
        0
 92
    32768
 62
   257
 93
        1
300
CONTENTFORMAT
  1
CONTENTFORMAT_BEGIN
 90
        0
 91
        0
 92
        4
 93
        0
300

 40
0.0
140
1.0
 94
        5
 62
     0
340
11
144
6.0
309
CONTENTFORMAT_END
171
     1
301
MARGIN
  1
CELLMARGIN_BEGIN
 40
1.5
 40
1.5
 40
1.5
 40
1.5
 40
1.5
 40
1.5
309
CELLMARGIN_END
 94
        6
 95
        1
302
GRIDFORMAT
  1
GRIDFORMAT_BEGIN
 90
        0
 91
        1
 62
     0
 92
       -2
340
14
 93
        0
 40
0.045
309
GRIDFORMAT_END
 95
        2
302
GRIDFORMAT
  1
GRIDFORMAT_BEGIN
 90
        0
 91
        1
 62
     0
 92
       -2
340
14
 93
        0
 40
0.045
309
GRIDFORMAT_END
 95
        4
302
GRIDFORMAT
  1
GRIDFORMAT_BEGIN
 90
        0
 91
        1
 62
     0
 92
       -2
340
14
 93
        0
 40
0.045
309
GRIDFORMAT_END
 95
        8
302
GRIDFORMAT
  1
GRIDFORMAT_BEGIN
 90
        0
 91
        1
 62
     0
 92
       -2
340
14
 93
        0
 40
0.045
309
GRIDFORMAT_END
 95
       16
302
GRIDFORMAT
  1
GRIDFORMAT_BEGIN
 90
        0
 91
        1
 62
     0
 92
       -2
340
14
 93
        0
 40
0.045
309
GRIDFORMAT_END
 95
       32
302
GRIDFORMAT
  1
GRIDFORMAT_BEGIN
 90
        0
 91
        1
 62
     0
 92
       -2
340
14
 93
        0
 40
0.045
309
GRIDFORMAT_END
309
TABLEFORMAT_END
  1
CELLSTYLE_BEGIN
 90
        1
 91
        1
300
_TITLE
309
CELLSTYLE_END
300
CELLSTYLE
  1
TABLEFORMAT_BEGIN
 90
        5
170
     1
 91
        0
 92
        0
 62
   257
 93
        1
300
CONTENTFORMAT
  1
CONTENTFORMAT_BEGIN
 90
        0
 91
        0
 92
        4
 93
        0
300

 40
0.0
140
1.0
 94
        5
 62
     0
340
11
144
4.5
309
CONTENTFORMAT_END
171
     1
301
MARGIN
  1
CELLMARGIN_BEGIN
 40
1.5
 40
1.5
 40
1.5
 40
1.5
 40
1.5
 40
1.5
309
CELLMARGIN_END
 94
        6
 95
        1
302
GRIDFORMAT
  1
GRIDFORMAT_BEGIN
 90
        0
 91
        1
 62
     0
 92
       -2
340
14
 93
        0
 40
0.045
309
GRIDFORMAT_END
 95
        2
302
GRIDFORMAT
  1
GRIDFORMAT_BEGIN
 90
        0
 91
        1
 62
     0
 92
       -2
340
14
 93
        0
 40
0.045
309
GRIDFORMAT_END
 95
        4
302
GRIDFORMAT
  1
GRIDFORMAT_BEGIN
 90
        0
 91
        1
 62
     0
 92
       -2
340
14
 93
        0
 40
0.045
309
GRIDFORMAT_END
 95
        8
302
GRIDFORMAT
  1
GRIDFORMAT_BEGIN
 90
        0
 91
        1
 62
     0
 92
       -2
340
14
 93
        0
 40
0.045
309
GRIDFORMAT_END
 95
       16
302
GRIDFORMAT
  1
GRIDFORMAT_BEGIN
 90
        0
 91
        1
 62
     0
 92
       -2
340
14
 93
        0
 40
0.045
309
GRIDFORMAT_END
 95
       32
302
GRIDFORMAT
  1
GRIDFORMAT_BEGIN
 90
        0
 91
        1
 62
     0
 92
       -2
340
14
 93
        0
 40
0.045
309
GRIDFORMAT_END
309
TABLEFORMAT_END
  1
CELLSTYLE_BEGIN
 90
        2
 91
        1
300
_HEADER
309
CELLSTYLE_END
300
CELLSTYLE
  1
TABLEFORMAT_BEGIN
 90
        5
170
     1
 91
        0
 92
        0
 62
   257
 93
        1
300
CONTENTFORMAT
  1
CONTENTFORMAT_BEGIN
 90
        0
 91
        0
 92
        4
 93
        0
300

 40
0.0
140
1.0
 94
        2
 62
     0
340
11
144
4.5
309
CONTENTFORMAT_END
171
     1
301
MARGIN
  1
CELLMARGIN_BEGIN
 40
1.5
 40
1.5
 40
1.5
 40
1.5
 40
1.5
 40
1.5
309
CELLMARGIN_END
 94
        6
 95
        1
302
GRIDFORMAT
  1
GRIDFORMAT_BEGIN
 90
        0
 91
        1
 62
     0
 92
       -2
340
14
 93
        0
 40
0.045
309
GRIDFORMAT_END
 95
        2
302
GRIDFORMAT
  1
GRIDFORMAT_BEGIN
 90
        0
 91
        1
 62
     0
 92
       -2
340
14
 93
        0
 40
0.045
309
GRIDFORMAT_END
 95
        4
302
GRIDFORMAT
  1
GRIDFORMAT_BEGIN
 90
        0
 91
        1
 62
     0
 92
       -2
340
14
 93
        0
 40
0.045
309
GRIDFORMAT_END
 95
        8
302
GRIDFORMAT
  1
GRIDFORMAT_BEGIN
 90
        0
 91
        1
 62
     0
 92
       -2
340
14
 93
        0
 40
0.045
309
GRIDFORMAT_END
 95
       16
302
GRIDFORMAT
  1
GRIDFORMAT_BEGIN
 90
        0
 91
        1
 62
     0
 92
       -2
340
14
 93
        0
 40
0.045
309
GRIDFORMAT_END
 95
       32
302
GRIDFORMAT
  1
GRIDFORMAT_BEGIN
 90
        0
 91
        1
 62
     0
 92
       -2
340
14
 93
        0
 40
0.045
309
GRIDFORMAT_END
309
TABLEFORMAT_END
  1
CELLSTYLE_BEGIN
 90
        3
 91
        2
300
_DATA
309
CELLSTYLE_END
  0
ENDSEC
  0
EOF