0
SECTION
  2
HEADER
  9
$ACADVER
  1
AC1027
  9
$ACADMAINTVER
 70
     8
  9
$DWGCODEPAGE
  3
ANSI_1252
  9
$REQUIREDVERSIONS
160
                 0
  9
$COMMENTS
  1
File was created by Cadenas
  9
$CUSTOMPROPERTYTAG
  1
NN
  9
$CUSTOMPROPERTY
  1
Set Screw Narrow Slot Take Up Metric Bore - Stainless Housing, Corrosion Resistant Insert
  9
$CUSTOMPROPERTYTAG
  1
NT
  9
$CUSTOMPROPERTY
  1
SC Take-Up Bearings -Wide Slot -(Normal Duty) -Polymer Housed -Corrosion Resistant Insert -E-Z KLEEN
  9
$CUSTOMPROPERTYTAG
  1
NB
  9
$CUSTOMPROPERTY
  1
136978
  9
$CUSTOMPROPERTYTAG
  1
NBSYN
  9
$CUSTOMPROPERTY
  1
$PN.
  9
$CUSTOMPROPERTYTAG
  1
LINA
  9
$CUSTOMPROPERTY
  1
136978
  9
$CUSTOMPROPERTYTAG
  1
SERIES
  9
$CUSTOMPROPERTY
  1
208
  9
$CUSTOMPROPERTYTAG
  1
SS
  9
$CUSTOMPROPERTY
  1
40
  9
$CUSTOMPROPERTYTAG
  1
PN
  9
$CUSTOMPROPERTY
  1
136978
  9
$CUSTOMPROPERTYTAG
  1
DESCRIPTION
  9
$CUSTOMPROPERTY
  1
NSTU-SCEZ-40M-SHCR
  9
$CUSTOMPROPERTYTAG
  1
W
  9
$CUSTOMPROPERTY
  1
1.89
  9
$CUSTOMPROPERTYTAG
  1
FS
  9
$CUSTOMPROPERTY
  1
NS400
  9
$CUSTOMPROPERTYTAG
  1
A
  9
$CUSTOMPROPERTY
  1
49.3
  9
$CUSTOMPROPERTYTAG
  1
B
  9
$CUSTOMPROPERTY
  1
136.7
  9
$CUSTOMPROPERTYTAG
  1
C
  9
$CUSTOMPROPERTY
  1
8.33
  9
$CUSTOMPROPERTYTAG
  1
D
  9
$CUSTOMPROPERTY
  1
76.2
  9
$CUSTOMPROPERTYTAG
  1
E
  9
$CUSTOMPROPERTY
  1
82.6
  9
$CUSTOMPROPERTYTAG
  1
F
  9
$CUSTOMPROPERTY
  1
25.4
  9
$CUSTOMPROPERTYTAG
  1
G
  9
$CUSTOMPROPERTY
  1
16.8
  9
$CUSTOMPROPERTYTAG
  1
H
  9
$CUSTOMPROPERTY
  1
29.5
  9
$CUSTOMPROPERTYTAG
  1
J
  9
$CUSTOMPROPERTY
  1
38.1
  9
$CUSTOMPROPERTYTAG
  1
L
  9
$CUSTOMPROPERTY
  1
52.1
  9
$CUSTOMPROPERTYTAG
  1
M
  9
$CUSTOMPROPERTY
  1
101.98 / 101.22
  9
$CUSTOMPROPERTYTAG
  1
N
  9
$CUSTOMPROPERTY
  1
120.7
  9
$CUSTOMPROPERTYTAG
  1
P
  9
$CUSTOMPROPERTY
  1
9.7
  9
$CUSTOMPROPERTYTAG
  1
R
  9
$CUSTOMPROPERTY
  1
19.1
  9
$CUSTOMPROPERTYTAG
  1
S
  9
$CUSTOMPROPERTY
  1
30.2
  9
$CUSTOMPROPERTYTAG
  1
COMPANY
  9
$CUSTOMPROPERTY
  1
baldor
  9
$INSBASE
 10
0.0
 20
0.0
 30
0.0
  9
$EXTMIN
 10
1.000000000000000E+20
 20
1.000000000000000E+20
 30
1.000000000000000E+20
  9
$EXTMAX
 10
-1.000000000000000E+20
 20
-1.000000000000000E+20
 30
-1.000000000000000E+20
  9
$LIMMIN
 10
0.0
 20
0.0
  9
$LIMMAX
 10
420.0
 20
297.0
  9
$ORTHOMODE
 70
     0
  9
$REGENMODE
 70
     1
  9
$FILLMODE
 70
     1
  9
$QTEXTMODE
 70
     0
  9
$MIRRTEXT
 70
     1
  9
$LTSCALE
 40
1.0
  9
$ATTMODE
 70
     1
  9
$TEXTSIZE
 40
2.5
  9
$TRACEWID
 40
1.0
  9
$TEXTSTYLE
  7
Standard
  9
$CLAYER
  8
0
  9
$CELTYPE
  6
ByLayer
  9
$CECOLOR
 62
   256
  9
$CELTSCALE
 40
1.0
  9
$DISPSILH
 70
     0
  9
$DIMSCALE
 40
1.0
  9
$DIMASZ
 40
2.5
  9
$DIMEXO
 40
0.625
  9
$DIMDLI
 40
3.75
  9
$DIMRND
 40
0.0
  9
$DIMDLE
 40
0.0
  9
$DIMEXE
 40
1.25
  9
$DIMTP
 40
0.0
  9
$DIMTM
 40
0.0
  9
$DIMTXT
 40
2.5
  9
$DIMCEN
 40
2.5
  9
$DIMTSZ
 40
0.0
  9
$DIMTOL
 70
     0
  9
$DIMLIM
 70
     0
  9
$DIMTIH
 70
     0
  9
$DIMTOH
 70
     0
  9
$DIMSE1
 70
     0
  9
$DIMSE2
 70
     0
  9
$DIMTAD
 70
     1
  9
$DIMZIN
 70
     8
  9
$DIMBLK
  1

  9
$DIMASO
 70
     1
  9
$DIMSHO
 70
     1
  9
$DIMPOST
  1

  9
$DIMAPOST
  1

  9
$DIMALT
 70
     0
  9
$DIMALTD
 70
     3
  9
$DIMALTF
 40
0.03937007874016
  9
$DIMLFAC
 40
1.0
  9
$DIMTOFL
 70
     1
  9
$DIMTVP
 40
0.0
  9
$DIMTIX
 70
     0
  9
$DIMSOXD
 70
     0
  9
$DIMSAH
 70
     0
  9
$DIMBLK1
  1

  9
$DIMBLK2
  1

  9
$DIMSTYLE
  2
ISO-25
  9
$DIMCLRD
 70
     0
  9
$DIMCLRE
 70
     0
  9
$DIMCLRT
 70
     0
  9
$DIMTFAC
 40
1.0
  9
$DIMGAP
 40
0.625
  9
$DIMJUST
 70
     0
  9
$DIMSD1
 70
     0
  9
$DIMSD2
 70
     0
  9
$DIMTOLJ
 70
     0
  9
$DIMTZIN
 70
     8
  9
$DIMALTZ
 70
     0
  9
$DIMALTTZ
 70
     0
  9
$DIMUPT
 70
     0
  9
$DIMDEC
 70
     2
  9
$DIMTDEC
 70
     2
  9
$DIMALTU
 70
     2
  9
$DIMALTTD
 70
     3
  9
$DIMTXSTY
  7
Standard
  9
$DIMAUNIT
 70
     0
  9
$DIMADEC
 70
     0
  9
$DIMALTRND
 40
0.0
  9
$DIMAZIN
 70
     0
  9
$DIMDSEP
 70
    44
  9
$DIMATFIT
 70
     3
  9
$DIMFRAC
 70
     0
  9
$DIMLDRBLK
  1

  9
$DIMLUNIT
 70
     2
  9
$DIMLWD
 70
    -2
  9
$DIMLWE
 70
    -2
  9
$DIMTMOVE
 70
     0
  9
$DIMFXL
 40
1.0
  9
$DIMFXLON
 70
     0
  9
$DIMJOGANG
 40
0.7853981633974483
  9
$DIMTFILL
 70
     0
  9
$DIMTFILLCLR
 70
     0
  9
$DIMARCSYM
 70
     0
  9
$DIMLTYPE
  6

  9
$DIMLTEX1
  6

  9
$DIMLTEX2
  6

  9
$DIMTXTDIRECTION
 70
     0
  9
$LUNITS
 70
     2
  9
$LUPREC
 70
     4
  9
$SKETCHINC
 40
1.0
  9
$FILLETRAD
 40
10.0
  9
$AUNITS
 70
     0
  9
$AUPREC
 70
     0
  9
$MENU
  1
.
  9
$ELEVATION
 40
0.0
  9
$PELEVATION
 40
0.0
  9
$THICKNESS
 40
0.0
  9
$LIMCHECK
 70
     0
  9
$CHAMFERA
 40
0.0
  9
$CHAMFERB
 40
0.0
  9
$CHAMFERC
 40
0.0
  9
$CHAMFERD
 40
0.0
  9
$SKPOLY
 70
     0
  9
$TDCREATE
 40
2458168.890400081
  9
$TDUCREATE
 40
2458168.848733414
  9
$TDUPDATE
 40
2458168.890400266
  9
$TDUUPDATE
 40
2458168.8487336
  9
$TDINDWG
 40
0.0000000116
  9
$TDUSRTIMER
 40
0.0000000116
  9
$USRTIMER
 70
     1
  9
$ANGBASE
 50
0.0
  9
$ANGDIR
 70
     0
  9
$PDMODE
 70
     0
  9
$PDSIZE
 40
0.0
  9
$PLINEWID
 40
0.0
  9
$SPLFRAME
 70
     0
  9
$SPLINETYPE
 70
     6
  9
$SPLINESEGS
 70
     8
  9
$HANDSEED
  5
1C1
  9
$SURFTAB1
 70
     6
  9
$SURFTAB2
 70
     6
  9
$SURFTYPE
 70
     6
  9
$SURFU
 70
     6
  9
$SURFV
 70
     6
  9
$UCSBASE
  2

  9
$UCSNAME
  2

  9
$UCSORG
 10
0.0
 20
0.0
 30
0.0
  9
$UCSXDIR
 10
1.0
 20
0.0
 30
0.0
  9
$UCSYDIR
 10
0.0
 20
1.0
 30
0.0
  9
$UCSORTHOREF
  2

  9
$UCSORTHOVIEW
 70
     0
  9
$UCSORGTOP
 10
0.0
 20
0.0
 30
0.0
  9
$UCSORGBOTTOM
 10
0.0
 20
0.0
 30
0.0
  9
$UCSORGLEFT
 10
0.0
 20
0.0
 30
0.0
  9
$UCSORGRIGHT
 10
0.0
 20
0.0
 30
0.0
  9
$UCSORGFRONT
 10
0.0
 20
0.0
 30
0.0
  9
$UCSORGBACK
 10
0.0
 20
0.0
 30
0.0
  9
$PUCSBASE
  2

  9
$PUCSNAME
  2

  9
$PUCSORG
 10
0.0
 20
0.0
 30
0.0
  9
$PUCSXDIR
 10
1.0
 20
0.0
 30
0.0
  9
$PUCSYDIR
 10
0.0
 20
1.0
 30
0.0
  9
$PUCSORTHOREF
  2

  9
$PUCSORTHOVIEW
 70
     0
  9
$PUCSORGTOP
 10
0.0
 20
0.0
 30
0.0
  9
$PUCSORGBOTTOM
 10
0.0
 20
0.0
 30
0.0
  9
$PUCSORGLEFT
 10
0.0
 20
0.0
 30
0.0
  9
$PUCSORGRIGHT
 10
0.0
 20
0.0
 30
0.0
  9
$PUCSORGFRONT
 10
0.0
 20
0.0
 30
0.0
  9
$PUCSORGBACK
 10
0.0
 20
0.0
 30
0.0
  9
$USERI1
 70
     0
  9
$USERI2
 70
     0
  9
$USERI3
 70
     0
  9
$USERI4
 70
     0
  9
$USERI5
 70
     0
  9
$USERR1
 40
0.0
  9
$USERR2
 40
0.0
  9
$USERR3
 40
0.0
  9
$USERR4
 40
0.0
  9
$USERR5
 40
0.0
  9
$WORLDVIEW
 70
     1
  9
$SHADEDGE
 70
     3
  9
$SHADEDIF
 70
    70
  9
$TILEMODE
 70
     1
  9
$MAXACTVP
 70
    64
  9
$PINSBASE
 10
0.0
 20
0.0
 30
0.0
  9
$PLIMCHECK
 70
     0
  9
$PEXTMIN
 10
1.000000000000000E+20
 20
1.000000000000000E+20
 30
1.000000000000000E+20
  9
$PEXTMAX
 10
-1.000000000000000E+20
 20
-1.000000000000000E+20
 30
-1.000000000000000E+20
  9
$PLIMMIN
 10
0.0
 20
0.0
  9
$PLIMMAX
 10
420.0
 20
297.0
  9
$UNITMODE
 70
     0
  9
$VISRETAIN
 70
     1
  9
$PLINEGEN
 70
     0
  9
$PSLTSCALE
 70
     1
  9
$TREEDEPTH
 70
  3020
  9
$CMLSTYLE
  2
Standard
  9
$CMLJUST
 70
     0
  9
$CMLSCALE
 40
20.0
  9
$PROXYGRAPHICS
 70
     1
  9
$MEASUREMENT
 70
     1
  9
$CELWEIGHT
370
    -1
  9
$ENDCAPS
280
     0
  9
$JOINSTYLE
280
     0
  9
$LWDISPLAY
290
     0
  9
$INSUNITS
 70
     4
  9
$HYPERLINKBASE
  1

  9
$STYLESHEET
  1

  9
$XEDIT
290
     1
  9
$CEPSNTYPE
380
     0
  9
$PSTYLEMODE
290
     1
  9
$FINGERPRINTGUID
  2
{DE73CF5D-EF34-4C18-91E6-C82A327D553D}
  9
$VERSIONGUID
  2
{FAEB1C32-E019-11D5-929B-00C0DF256EC4}
  9
$EXTNAMES
290
     1
  9
$PSVPSCALE
 40
0.0
  9
$OLESTARTUP
290
     0
  9
$SORTENTS
280
   127
  9
$INDEXCTL
280
     0
  9
$HIDETEXT
280
     1
  9
$XCLIPFRAME
280
     2
  9
$HALOGAP
280
     0
  9
$OBSCOLOR
 70
   257
  9
$OBSLTYPE
280
     0
  9
$INTERSECTIONDISPLAY
280
     0
  9
$INTERSECTIONCOLOR
 70
   257
  9
$DIMASSOC
280
     2
  9
$PROJECTNAME
  1

  9
$CAMERADISPLAY
290
     0
  9
$LENSLENGTH
 40
50.0
  9
$CAMERAHEIGHT
 40
0.0
  9
$STEPSPERSEC
 40
2.0
  9
$STEPSIZE
 40
6.0
  9
$3DDWFPREC
 40
2.0
  9
$PSOLWIDTH
 40
5.0
  9
$PSOLHEIGHT
 40
80.0
  9
$LOFTANG1
 40
1.570796326794897
  9
$LOFTANG2
 40
1.570796326794897
  9
$LOFTMAG1
 40
0.0
  9
$LOFTMAG2
 40
0.0
  9
$LOFTPARAM
 70
     7
  9
$LOFTNORMALS
280
     1
  9
$LATITUDE
 40
37.795
  9
$LONGITUDE
 40
-122.394
  9
$NORTHDIRECTION
 40
0.0
  9
$TIMEZONE
 70
 -8000
  9
$LIGHTGLYPHDISPLAY
280
     1
  9
$TILEMODELIGHTSYNCH
280
     1
  9
$CMATERIAL
347
44
  9
$SOLIDHIST
280
     0
  9
$SHOWHIST
280
     1
  9
$DWFFRAME
280
     2
  9
$DGNFRAME
280
     2
  9
$REALWORLDSCALE
290
     1
  9
$INTERFERECOLOR
 62
   256
  9
$CSHADOW
280
     0
  9
$SHADOWPLANELOCATION
 40
0.0
  0
ENDSEC
  0
SECTION
  2
CLASSES
  0
CLASS
  1
ACDBDICTIONARYWDFLT
  2
AcDbDictionaryWithDefault
  3
ObjectDBX Classes
 90
        0
 91
        4
280
     0
281
     0
  0
CLASS
  1
VISUALSTYLE
  2
AcDbVisualStyle
  3
ObjectDBX Classes
 90
     4095
 91
        4
280
     0
281
     0
  0
CLASS
  1
MATERIAL
  2
AcDbMaterial
  3
ObjectDBX Classes
 90
     1153
 91
        4
280
     0
281
     0
  0
CLASS
  1
SCALE
  2
AcDbScale
  3
ObjectDBX Classes
 90
     1153
 91
        4
280
     0
281
     0
  0
CLASS
  1
TABLESTYLE
  2
AcDbTableStyle
  3
ObjectDBX Classes
 90
     4095
 91
        4
280
     0
281
     0
  0
CLASS
  1
MLEADERSTYLE
  2
AcDbMLeaderStyle
  3
ACDB_MLEADERSTYLE_CLASS
 90
     4095
 91
        4
280
     0
281
     0
  0
CLASS
  1
SUN
  2
AcDbSun
  3
SCENEOE
 90
     1153
 91
        4
280
     0
281
     0
  0
CLASS
  1
DICTIONARYVAR
  2
AcDbDictionaryVar
  3
ObjectDBX Classes
 90
        0
 91
        4
280
     0
281
     0
  0
CLASS
  1
CELLSTYLEMAP
  2
AcDbCellStyleMap
  3
ObjectDBX Classes
 90
     1152
 91
        4
280
     0
281
     0
  0
ENDSEC
  0
SECTION
  2
TABLES
  0
TABLE
  2
VPORT
  5
8
330
0
100
AcDbSymbolTable
 70
     1
  0
VPORT
  5
29
330
8
100
AcDbSymbolTableRecord
100
AcDbViewportTableRecord
  2
*Active
 70
     0
 10
0.0
 20
0.0
 11
1.0
 21
1.0
 12
-5.550000190734693
 22
0.0
 13
0.0
 23
0.0
 14
10.0
 24
10.0
 15
10.0
 25
10.0
 16
0.0
 26
0.0
 36
1.0
 17
0.0
 27
0.0
 37
0.0
 40
123.114
 41
0.8084507035932528
 42
50.0
 43
0.0
 44
0.0
 50
0.0
 51
0.0
 71
     0
 72
   100
 73
     1
 74
     3
 75
     0
 76
     0
 77
     0
 78
     0
281
     0
 65
     1
110
0.0
120
0.0
130
0.0
111
1.0
121
0.0
131
0.0
112
0.0
122
1.0
132
0.0
 79
     0
146
0.0
348
2F
 60
     3
 61
     5
292
     1
282
     1
141
0.0
142
0.0
 63
   250
361
6D
  0
ENDTAB
  0
TABLE
  2
LTYPE
  5
5
330
0
100
AcDbSymbolTable
 70
     3
  0
LTYPE
  5
14
330
5
100
AcDbSymbolTableRecord
100
AcDbLinetypeTableRecord
  2
ByBlock
 70
     0
  3

 72
    65
 73
     0
 40
0.0
  0
LTYPE
  5
15
330
5
100
AcDbSymbolTableRecord
100
AcDbLinetypeTableRecord
  2
ByLayer
 70
     0
  3

 72
    65
 73
     0
 40
0.0
  0
LTYPE
  5
16
330
5
100
AcDbSymbolTableRecord
100
AcDbLinetypeTableRecord
  2
Continuous
 70
     0
  3
Solid line
 72
    65
 73
     0
 40
0.0
  0
LTYPE
  5
A0
330
5
100
AcDbSymbolTableRecord
100
AcDbLinetypeTableRecord
  2
Dashed
 70
     0
  3

 72
    65
 73
     2
 40
2.0
 49
1.0
 74
     0
 49
-1.0
 74
     0
  0
LTYPE
  5
137
330
5
100
AcDbSymbolTableRecord
100
AcDbLinetypeTableRecord
  2
Center
 70
     0
  3

 72
    65
 73
     4
 40
1.5
 49
0.45
 74
     0
 49
-0.5
 74
     0
 49
0.05
 74
     0
 49
-0.5
 74
     0
  0
ENDTAB
  0
TABLE
  2
LAYER
  5
2
330
0
100
AcDbSymbolTable
 70
     7
  0
LAYER
  5
10
330
2
100
AcDbSymbolTableRecord
100
AcDbLayerTableRecord
  2
0
 70
     0
 62
     7
  6
Continuous
370
    -3
390
F
347
46
348
0
  0
LAYER
  5
72
330
2
100
AcDbSymbolTableRecord
100
AcDbLayerTableRecord
  2
AM_6
 70
     0
 62
    -2
  6
Continuous
370
    35
390
F
347
46
348
0
  0
LAYER
  5
A1
330
2
100
AcDbSymbolTableRecord
100
AcDbLayerTableRecord
  2
AM_9
 70
     0
 62
     6
  6
Dashed
370
    25
390
F
347
46
348
0
  0
LAYER
  5
134
330
2
100
AcDbSymbolTableRecord
100
AcDbLayerTableRecord
  2
AM_5
 70
     0
 62
     3
  6
Continuous
370
    25
390
F
347
46
348
0
  0
LAYER
  5
138
330
2
100
AcDbSymbolTableRecord
100
AcDbLayerTableRecord
  2
AM_7
 70
     0
 62
     7
  6
Center
370
    25
390
F
347
46
348
0
  0
LAYER
  5
13B
330
2
100
AcDbSymbolTableRecord
100
AcDbLayerTableRecord
  2
AM_4
 70
     0
 62
     7
  6
Continuous
370
    50
390
F
347
46
348
0
  0
LAYER
  5
1B4
330
2
100
AcDbSymbolTableRecord
100
AcDbLayerTableRecord
  2
ConnectionPoints
 70
     0
 62
     7
  6
Continuous
370
    50
390
F
347
46
348
0
  0
ENDTAB
  0
TABLE
  2
STYLE
  5
3
330
0
100
AcDbSymbolTable
 70
     1
  0
STYLE
  5
11
330
3
100
AcDbSymbolTableRecord
100
AcDbTextStyleTableRecord
  2
Standard
 70
     0
 40
0.0
 41
1.0
 50
0.0
 71
     0
 42
2.5
  3
txt
  4

  0
ENDTAB
  0
TABLE
  2
VIEW
  5
6
330
0
100
AcDbSymbolTable
 70
     0
  0
ENDTAB
  0
TABLE
  2
UCS
  5
7
330
0
100
AcDbSymbolTable
 70
     0
  0
ENDTAB
  0
TABLE
  2
APPID
  5
9
330
0
100
AcDbSymbolTable
 70
     1
  0
APPID
  5
12
330
9
100
AcDbSymbolTableRecord
100
AcDbRegAppTableRecord
  2
ACAD
 70
     0
  0
ENDTAB
  0
TABLE
  2
DIMSTYLE
  5
A
330
0
100
AcDbSymbolTable
 70
     1
100
AcDbDimStyleTable
  0
DIMSTYLE
105
27
330
A
100
AcDbSymbolTableRecord
100
AcDbDimStyleTableRecord
  2
ISO-25
 70
     0
 41
2.5
 42
0.625
 43
3.75
 44
1.25
 73
     0
 74
     0
 77
     1
 78
     8
140
2.5
141
2.5
143
0.03937007874016
147
0.625
171
     3
172
     1
178
     0
271
     2
272
     2
274
     3
278
    44
283
     0
284
     8
340
11
  0
ENDTAB
  0
TABLE
  2
BLOCK_RECORD
  5
1
330
0
100
AcDbSymbolTable
 70
     5
  0
BLOCK_RECORD
  5
1F
330
1
100
AcDbSymbolTableRecord
100
AcDbBlockTableRecord
  2
*Model_Space
340
22
 70
     0
280
     1
281
     0
  0
BLOCK_RECORD
  5
1B
330
1
100
AcDbSymbolTableRecord
100
AcDbBlockTableRecord
  2
*Paper_Space
340
1E
 70
     0
280
     1
281
     0
  0
BLOCK_RECORD
  5
23
330
1
100
AcDbSymbolTableRecord
100
AcDbBlockTableRecord
  2
*Paper_Space0
340
26
 70
     0
280
     1
281
     0
  0
BLOCK_RECORD
  5
6E
330
1
100
AcDbSymbolTableRecord
100
AcDbBlockTableRecord
  2
1_136978_2
340
0
102
{BLKREFS
331
6F
102
}
 70
     0
280
     1
281
     0
  0
BLOCK_RECORD
  5
8E
330
1
100
AcDbSymbolTableRecord
100
AcDbBlockTableRecord
  2
2_405020c_M_0_in_136978_2
340
0
102
{BLKREFS
331
8F
102
}
 70
     0
280
     1
281
     0
  0
BLOCK_RECORD
  5
E7
330
1
100
AcDbSymbolTableRecord
100
AcDbBlockTableRecord
  2
3_050654_0_in_136978_2
340
0
102
{BLKREFS
331
E8
102
}
 70
     0
280
     1
281
     0
  0
BLOCK_RECORD
  5
158
330
1
100
AcDbSymbolTableRecord
100
AcDbBlockTableRecord
  2
4_136978H_0_in_136978_2
340
0
102
{BLKREFS
331
159
102
}
 70
     0
280
     1
281
     0
  0
ENDTAB
  0
ENDSEC
  0
SECTION
  2
BLOCKS
  0
BLOCK
  5
20
330
1F
100
AcDbEntity
  8
0
100
AcDbBlockBegin
  2
*Model_Space
 70
     0
 10
0.0
 20
0.0
 30
0.0
  3
*Model_Space
  1

  0
ENDBLK
  5
21
330
1F
100
AcDbEntity
  8
0
100
AcDbBlockEnd
  0
BLOCK
  5
1C
330
1B
100
AcDbEntity
 67
     1
  8
0
100
AcDbBlockBegin
  2
*Paper_Space
 70
     0
 10
0.0
 20
0.0
 30
0.0
  3
*Paper_Space
  1

  0
ENDBLK
  5
1D
330
1B
100
AcDbEntity
 67
     1
  8
0
100
AcDbBlockEnd
  0
BLOCK
  5
24
330
23
100
AcDbEntity
  8
0
100
AcDbBlockBegin
  2
*Paper_Space0
 70
     0
 10
0.0
 20
0.0
 30
0.0
  3
*Paper_Space0
  1

  0
ENDBLK
  5
25
330
23
100
AcDbEntity
  8
0
100
AcDbBlockEnd
  0
BLOCK
  5
70
330
6E
100
AcDbEntity
  8
0
100
AcDbBlockBegin
  2
1_136978_2
 70
     2
 10
0.0
 20
0.0
 30
0.0
  3
1_136978_2
  1

  0
ATTDEF
  5
73
330
6E
100
AcDbEntity
  8
AM_6
100
AcDbText
 10
48.23999977111816
 20
60.35
 30
0.0
 40
0.5
  1
Set Screw Narrow Slot Take Up Metric Bore - Stainless Housing, Corrosion Resistant Insert
100
AcDbAttributeDefinition
  3

  2
NN
 70
     8
280
     0
  0
ATTDEF
  5
74
330
6E
100
AcDbEntity
  8
AM_6
100
AcDbText
 10
48.23999977111816
 20
59.85
 30
0.0
 40
0.5
  1
SC Take-Up Bearings -Wide Slot -(Normal Duty) -Polymer Housed -Corrosion Resistant Insert -E-Z KLEEN
100
AcDbAttributeDefinition
  3

  2
NT
 70
     8
280
     0
  0
ATTDEF
  5
75
330
6E
100
AcDbEntity
  8
AM_6
100
AcDbText
 10
48.23999977111816
 20
59.35
 30
0.0
 40
0.5
  1
136978
100
AcDbAttributeDefinition
  3

  2
NB
 70
     8
280
     0
  0
ATTDEF
  5
76
330
6E
100
AcDbEntity
  8
AM_6
100
AcDbText
 10
48.23999977111816
 20
58.85
 30
0.0
 40
0.5
  1
$PN.
100
AcDbAttributeDefinition
  3

  2
NBSYN
 70
     8
280
     0
  0
ATTDEF
  5
77
330
6E
100
AcDbEntity
  8
AM_6
100
AcDbText
 10
48.23999977111816
 20
58.35
 30
0.0
 40
0.5
  1
136978
100
AcDbAttributeDefinition
  3

  2
LINA
 70
     8
280
     0
  0
ATTDEF
  5
78
330
6E
100
AcDbEntity
  8
AM_6
100
AcDbText
 10
48.23999977111816
 20
57.85
 30
0.0
 40
0.5
  1
208
100
AcDbAttributeDefinition
  3

  2
SERIES
 70
     8
280
     0
  0
ATTDEF
  5
79
330
6E
100
AcDbEntity
  8
AM_6
100
AcDbText
 10
48.23999977111816
 20
57.35
 30
0.0
 40
0.5
  1
40
100
AcDbAttributeDefinition
  3

  2
SS
 70
     8
280
     0
  0
ATTDEF
  5
7A
330
6E
100
AcDbEntity
  8
AM_6
100
AcDbText
 10
48.23999977111816
 20
56.85
 30
0.0
 40
0.5
  1
136978
100
AcDbAttributeDefinition
  3

  2
PN
 70
     8
280
     0
  0
ATTDEF
  5
7B
330
6E
100
AcDbEntity
  8
AM_6
100
AcDbText
 10
48.23999977111816
 20
56.35
 30
0.0
 40
0.5
  1
NSTU-SCEZ-40M-SHCR
100
AcDbAttributeDefinition
  3

  2
DESCRIPTION
 70
     8
280
     0
  0
ATTDEF
  5
7C
330
6E
100
AcDbEntity
  8
AM_6
100
AcDbText
 10
48.23999977111816
 20
55.85
 30
0.0
 40
0.5
  1
1.89
100
AcDbAttributeDefinition
  3

  2
W
 70
     8
280
     0
  0
ATTDEF
  5
7D
330
6E
100
AcDbEntity
  8
AM_6
100
AcDbText
 10
48.23999977111816
 20
55.35
 30
0.0
 40
0.5
  1
NS400
100
AcDbAttributeDefinition
  3

  2
FS
 70
     8
280
     0
  0
ATTDEF
  5
7E
330
6E
100
AcDbEntity
  8
AM_6
100
AcDbText
 10
48.23999977111816
 20
54.85
 30
0.0
 40
0.5
  1
49.3
100
AcDbAttributeDefinition
  3

  2
A
 70
     8
280
     0
  0
ATTDEF
  5
7F
330
6E
100
AcDbEntity
  8
AM_6
100
AcDbText
 10
48.23999977111816
 20
54.35
 30
0.0
 40
0.5
  1
136.7
100
AcDbAttributeDefinition
  3

  2
B
 70
     8
280
     0
  0
ATTDEF
  5
80
330
6E
100
AcDbEntity
  8
AM_6
100
AcDbText
 10
48.23999977111816
 20
53.85
 30
0.0
 40
0.5
  1
8.33
100
AcDbAttributeDefinition
  3

  2
C
 70
     8
280
     0
  0
ATTDEF
  5
81
330
6E
100
AcDbEntity
  8
AM_6
100
AcDbText
 10
48.23999977111816
 20
53.35
 30
0.0
 40
0.5
  1
76.2
100
AcDbAttributeDefinition
  3

  2
D
 70
     8
280
     0
  0
ATTDEF
  5
82
330
6E
100
AcDbEntity
  8
AM_6
100
AcDbText
 10
48.23999977111816
 20
52.85
 30
0.0
 40
0.5
  1
82.6
100
AcDbAttributeDefinition
  3

  2
E
 70
     8
280
     0
  0
ATTDEF
  5
83
330
6E
100
AcDbEntity
  8
AM_6
100
AcDbText
 10
48.23999977111816
 20
52.35
 30
0.0
 40
0.5
  1
25.4
100
AcDbAttributeDefinition
  3

  2
F
 70
     8
280
     0
  0
ATTDEF
  5
84
330
6E
100
AcDbEntity
  8
AM_6
100
AcDbText
 10
48.23999977111816
 20
51.85
 30
0.0
 40
0.5
  1
16.8
100
AcDbAttributeDefinition
  3

  2
G
 70
     8
280
     0
  0
ATTDEF
  5
85
330
6E
100
AcDbEntity
  8
AM_6
100
AcDbText
 10
48.23999977111816
 20
51.35
 30
0.0
 40
0.5
  1
29.5
100
AcDbAttributeDefinition
  3

  2
H
 70
     8
280
     0
  0
ATTDEF
  5
86
330
6E
100
AcDbEntity
  8
AM_6
100
AcDbText
 10
48.23999977111816
 20
50.85
 30
0.0
 40
0.5
  1
38.1
100
AcDbAttributeDefinition
  3

  2
J
 70
     8
280
     0
  0
ATTDEF
  5
87
330
6E
100
AcDbEntity
  8
AM_6
100
AcDbText
 10
48.23999977111816
 20
50.35
 30
0.0
 40
0.5
  1
52.1
100
AcDbAttributeDefinition
  3

  2
L
 70
     8
280
     0
  0
ATTDEF
  5
88
330
6E
100
AcDbEntity
  8
AM_6
100
AcDbText
 10
48.23999977111816
 20
49.85
 30
0.0
 40
0.5
  1
101.98 / 101.22
100
AcDbAttributeDefinition
  3

  2
M
 70
     8
280
     0
  0
ATTDEF
  5
89
330
6E
100
AcDbEntity
  8
AM_6
100
AcDbText
 10
48.23999977111816
 20
49.35
 30
0.0
 40
0.5
  1
120.7
100
AcDbAttributeDefinition
  3

  2
N
 70
     8
280
     0
  0
ATTDEF
  5
8A
330
6E
100
AcDbEntity
  8
AM_6
100
AcDbText
 10
48.23999977111816
 20
48.85
 30
0.0
 40
0.5
  1
9.7
100
AcDbAttributeDefinition
  3

  2
P
 70
     8
280
     0
  0
ATTDEF
  5
8B
330
6E
100
AcDbEntity
  8
AM_6
100
AcDbText
 10
48.23999977111816
 20
48.35
 30
0.0
 40
0.5
  1
19.1
100
AcDbAttributeDefinition
  3

  2
R
 70
     8
280
     0
  0
ATTDEF
  5
8C
330
6E
100
AcDbEntity
  8
AM_6
100
AcDbText
 10
48.23999977111816
 20
47.85
 30
0.0
 40
0.5
  1
30.2
100
AcDbAttributeDefinition
  3

  2
S
 70
     8
280
     0
  0
ATTDEF
  5
8D
330
6E
100
AcDbEntity
  8
AM_6
100
AcDbText
 10
48.23999977111816
 20
47.35
 30
0.0
 40
0.5
  1
baldor
100
AcDbAttributeDefinition
  3

  2
COMPANY
 70
     8
280
     0
  0
INSERT
  5
8F
330
6E
100
AcDbEntity
  8
0
100
AcDbBlockReference
  2
2_405020c_M_0_in_136978_2
 10
0.0
 20
0.0
 30
0.0
  0
INSERT
  5
E8
330
6E
100
AcDbEntity
  8
0
100
AcDbBlockReference
  2
3_050654_0_in_136978_2
 10
0.0
 20
0.0
 30
0.0
  0
INSERT
  5
159
330
6E
100
AcDbEntity
  8
0
100
AcDbBlockReference
  2
4_136978H_0_in_136978_2
 10
0.0
 20
0.0
 30
0.0
  0
ENDBLK
  5
71
330
6E
100
AcDbEntity
  8
0
100
AcDbBlockEnd
  0
BLOCK
  5
90
330
8E
100
AcDbEntity
  8
0
100
AcDbBlockBegin
  2
2_405020c_M_0_in_136978_2
 70
     2
 10
0.0
 20
0.0
 30
0.0
  3
2_405020c_M_0_in_136978_2
  1

  0
ATTDEF
  5
92
330
8E
100
AcDbEntity
  8
AM_6
100
AcDbText
 10
9.041451884327378
 20
-22.20655433713987
 30
0.0
 40
0.5
  1
405020C -Metric
100
AcDbAttributeDefinition
  3

  2
NN
 70
     8
280
     0
  0
ATTDEF
  5
93
330
8E
100
AcDbEntity
  8
AM_6
100
AcDbText
 10
9.041451884327378
 20
-22.70655433713987
 30
0.0
 40
0.5
  1
Grease fitting
100
AcDbAttributeDefinition
  3

  2
NT
 70
     8
280
     0
  0
ATTDEF
  5
94
330
8E
100
AcDbEntity
  8
AM_6
100
AcDbText
 10
9.041451884327378
 20
-23.20655433713987
 30
0.0
 40
0.5
  1
405020c-M
100
AcDbAttributeDefinition
  3

  2
NB
 70
     8
280
     0
  0
ATTDEF
  5
95
330
8E
100
AcDbEntity
  8
AM_6
100
AcDbText
 10
9.041451884327378
 20
-23.70655433713987
 30
0.0
 40
0.5
  1
$MN.-M
100
AcDbAttributeDefinition
  3

  2
NBSYN
 70
     8
280
     0
  0
ATTDEF
  5
96
330
8E
100
AcDbEntity
  8
AM_6
100
AcDbText
 10
9.041451884327378
 20
-24.20655433713987
 30
0.0
 40
0.5
  1
405020c
100
AcDbAttributeDefinition
  3

  2
LINA
 70
     8
280
     0
  0
ATTDEF
  5
97
330
8E
100
AcDbEntity
  8
AM_6
100
AcDbText
 10
9.041451884327378
 20
-24.70655433713987
 30
0.0
 40
0.5
  1
405020c
100
AcDbAttributeDefinition
  3

  2
MN
 70
     8
280
     0
  0
ATTDEF
  5
98
330
8E
100
AcDbEntity
  8
AM_6
100
AcDbText
 10
9.041451884327378
 20
-25.20655433713987
 30
0.0
 40
0.5
  1
5.842
100
AcDbAttributeDefinition
  3

  2
NDR
 70
     8
280
     0
  0
ATTDEF
  5
99
330
8E
100
AcDbEntity
  8
AM_6
100
AcDbText
 10
9.041451884327378
 20
-25.70655433713987
 30
0.0
 40
0.5
  1
5.359
100
AcDbAttributeDefinition
  3

  2
KDR
 70
     8
280
     0
  0
ATTDEF
  5
9A
330
8E
100
AcDbEntity
  8
AM_6
100
AcDbText
 10
9.041451884327378
 20
-26.20655433713987
 30
0.0
 40
0.5
  1
4.000
100
AcDbAttributeDefinition
  3

  2
BZE
 70
     8
280
     0
  0
ATTDEF
  5
9B
330
8E
100
AcDbEntity
  8
AM_6
100
AcDbText
 10
9.041451884327378
 20
-26.70655433713987
 30
0.0
 40
0.5
  1
7
100
AcDbAttributeDefinition
  3

  2
WAF
 70
     8
280
     0
  0
ATTDEF
  5
9C
330
8E
100
AcDbEntity
  8
AM_6
100
AcDbText
 10
9.041451884327378
 20
-27.20655433713987
 30
0.0
 40
0.5
  1
7.0000
100
AcDbAttributeDefinition
  3

  2
WAF1
 70
     8
280
     0
  0
ATTDEF
  5
9D
330
8E
100
AcDbEntity
  8
AM_6
100
AcDbText
 10
9.041451884327378
 20
-27.70655433713987
 30
0.0
 40
0.5
  1
13.843
100
AcDbAttributeDefinition
  3

  2
BL
 70
     8
280
     0
  0
ATTDEF
  5
9E
330
8E
100
AcDbEntity
  8
AM_6
100
AcDbText
 10
9.041451884327378
 20
-28.20655433713987
 30
0.0
 40
0.5
  1
5.080
100
AcDbAttributeDefinition
  3

  2
TL
 70
     8
280
     0
  0
ATTDEF
  5
9F
330
8E
100
AcDbEntity
  8
AM_6
100
AcDbText
 10
9.041451884327378
 20
-28.70655433713987
 30
0.0
 40
0.5
  1
baldor
100
AcDbAttributeDefinition
  3

  2
COMPANY
 70
     8
280
     0
  0
ELLIPSE
  5
A2
330
8E
100
AcDbEntity
  8
AM_9
100
AcDbEllipse
 10
-0.0000000000000033
 20
-31.43149999999999
 30
0.0
 11
-2.107870178878142
 21
2.581396467581275E-16
 31
0.0
210
0.0
220
0.0
230
1.0
 40
0.8660254037844392
 41
0.0
 42
6.283185307179586
  0
LWPOLYLINE
  5
A3
330
8E
100
AcDbEntity
  8
AM_9
100
AcDbPolyline
 90
       14
 70
     0
 43
0.0
 10
-1.713758302658761
 20
-32.93560573199269
 10
-1.586133276804439
 20
-33.02853004075465
 10
-1.333531248590906
 20
-33.18080148532454
 10
-1.062316999519588
 20
-33.30585790115946
 10
-0.7761990719304823
 20
-33.40189391269606
 10
-0.479108806776258
 20
-33.46751180017666
 10
-0.175128882715676
 20
-33.50173641854624
 10
0.1315692696891786
 20
-33.50401720747529
 10
0.4367775048623881
 20
-33.47422443841445
 10
0.7362703937134469
 20
-33.4126519776437
 10
1.025887621367968
 20
-33.32001571792063
 10
1.301553967020403
 20
-33.19746058718168
 10
1.55932711006926
 20
-33.04657381883793
 10
1.715686935112469
 20
-32.93410675265276
  0
ELLIPSE
  5
A4
330
8E
100
AcDbEntity
  8
AM_9
100
AcDbEllipse
 10
-0.000000000000004
 20
-31.27918278212232
 30
0.0
 11
2.568122605604363
 21
0.0
 31
0.0
210
0.0
220
0.0
230
1.0
 40
0.8660254037844394
 41
0.0
 42
3.967571964592131
  0
LINE
  5
A5
330
8E
100
AcDbEntity
  8
AM_9
100
AcDbLine
 10
1.740769266417588
 20
-32.91433783864878
 30
0.0
 11
2.254510748456892
 21
-32.50414491264078
 31
0.0
  0
LINE
  5
A6
330
8E
100
AcDbEntity
  8
AM_9
100
AcDbLine
 10
-2.2545107484569
 20
-32.50414491264078
 30
0.0
 11
-1.740769266417595
 21
-32.91433783864878
 31
0.0
  0
ELLIPSE
  5
A7
330
8E
100
AcDbEntity
  8
AM_9
100
AcDbEllipse
 10
0.0000000000000036
 20
-30.3864175828614
 30
0.0
 11
3.326035293353593
 21
0.0
 31
0.0
210
0.0
220
0.0
230
1.0
 40
0.866025403784439
 41
5.457205996177251
 42
10.1934624199065
  0
ELLIPSE
  5
A8
330
8E
100
AcDbEntity
  8
AM_9
100
AcDbEllipse
 10
0.000000000016082
 20
-31.27918278208833
 30
0.0
 11
2.568122605627873
 21
0.0
 31
0.0
210
0.0
220
0.0
230
1.0
 40
0.8660254037899027
 41
3.967571964594741
 42
3.981549227587927
  0
ELLIPSE
  5
A9
330
8E
100
AcDbEntity
  8
AM_9
100
AcDbEllipse
 10
-0.0000000000000182
 20
-31.27918278212234
 30
0.0
 11
2.56812260560438
 21
0.0
 31
0.0
210
0.0
220
0.0
230
1.0
 40
0.8660254037844338
 41
3.981549227585525
 42
6.283185307179586
  0
LWPOLYLINE
  5
AA
330
8E
100
AcDbEntity
  8
AM_9
100
AcDbPolyline
 90
        3
 70
     0
 43
0.0
 10
2.105075230515829
 20
-27.76536627506932
 10
1.883542720729709
 20
-27.62060387365598
 10
1.818418662740087
 20
-27.58251672115545
  0
LWPOLYLINE
  5
AB
330
8E
100
AcDbEntity
  8
AM_9
100
AcDbPolyline
 90
       11
 70
     0
 43
0.0
 10
3.405530439901157
 20
-30.19105201861674
 10
3.397904618790974
 20
-29.98436611615786
 10
3.356990864377158
 20
-29.67119843277003
 10
3.281279932144951
 20
-29.36407665557176
 10
3.171675395550647
 20
-29.06601858414795
 10
3.029307600259279
 20
-28.77986328732185
 10
2.855545509449581
 20
-28.50836070933724
 10
2.652017797533596
 20
-28.25417729136144
 10
2.420639769138708
 20
-28.01988516578191
 10
2.163635139438036
 20
-27.80793325311233
 10
2.136764352539935
 20
-27.78816126729959
  0
LWPOLYLINE
  5
AC
330
8E
100
AcDbEntity
  8
AM_9
100
AcDbPolyline
 90
       18
 70
     0
 43
0.0
 10
-2.462863049549405
 20
-28.05916598447578
 10
-2.585925899802138
 20
-28.18220658359216
 10
-2.802174252183246
 20
-28.43623911872899
 10
-2.987843312178251
 20
-28.7090033113442
 10
-3.140970464870755
 20
-28.9972812766894
 10
-3.260066200509474
 20
-29.29770684512812
 10
-3.344111870947153
 20
-29.60685241120504
 10
-3.392530754209554
 20
-29.92130346541587
 10
-3.405142197217213
 20
-30.2377130652407
 10
-3.382110429736827
 20
-30.55283390557784
 10
-3.32392308322899
 20
-30.8634301689031
 10
-3.231357872876149
 20
-31.16643970489186
 10
-3.105427918744041
 20
-31.45897238560791
 10
-2.947379453287031
 20
-31.73823465266234
 10
-2.758706370886226
 20
-32.001517553008
 10
-2.541175499827546
 20
-32.2461986909226
 10
-2.296852374212365
 20
-32.4697620842316
 10
-2.241693466442936
 20
-32.51432705007799
  0
LWPOLYLINE
  5
AD
330
8E
100
AcDbEntity
  8
AM_9
100
AcDbPolyline
 90
        4
 70
     0
 43
0.0
 10
-1.941902919990551
 20
-27.65639023637069
 10
-2.071706860978979
 20
-27.74195788258088
 10
-2.341505181553883
 20
-27.94988833236265
 10
-2.432790616413476
 20
-28.03104606744256
  0
LINE
  5
AE
330
8E
100
AcDbEntity
  8
AM_9
100
AcDbLine
 10
-1.887522686268823
 20
-27.62299386888755
 30
0.0
 11
-1.941902919990551
 21
-27.65639023637069
 31
0.0
  0
LWPOLYLINE
  5
AF
330
8E
100
AcDbEntity
  8
AM_9
100
AcDbPolyline
 90
       10
 70
     0
 43
0.0
 10
2.24671610422734
 20
-32.51034932460644
 10
2.465487351611752
 20
-32.32044985416118
 10
2.696330980251155
 20
-32.07706014593291
 10
2.897761818115895
 20
-31.81339367492225
 10
3.067586710787159
 20
-31.53255951136549
 10
3.204074882289118
 20
-31.23785990471506
 10
3.305971329258395
 20
-30.93270167744735
 10
3.372480443300444
 20
-30.62051415550571
 10
3.403227305573294
 20
-30.30468391153242
 10
3.405530439901157
 20
-30.19105201861674
  0
LINE
  5
B0
330
8E
100
AcDbEntity
  8
AM_9
100
AcDbLine
 10
2.228718894752429
 20
-32.52452971050067
 30
0.0
 11
2.24671610422734
 21
-32.51034932460644
 31
0.0
  0
ELLIPSE
  5
B1
330
8E
100
AcDbEntity
  8
AM_9
100
AcDbEllipse
 10
-0.0000000001737241
 20
-30.38641758253486
 30
0.0
 11
3.326035293610826
 21
0.0
 31
0.0
210
0.0
220
0.0
230
1.0
 40
0.8660254038204247
 41
3.929934736668008
 42
5.457205996159519
  0
LWPOLYLINE
  5
B2
330
8E
100
AcDbEntity
  8
AM_9
100
AcDbPolyline
 90
        3
 70
     0
 43
0.0
 10
2.020725942163688
 20
-24.70637028918155
 10
2.523635995714039
 20
-25.51395996748303
 10
3.031088913245533
 20
-26.29445554337723
  0
LWPOLYLINE
  5
B3
330
8E
100
AcDbEntity
  8
AM_9
100
AcDbPolyline
 90
        4
 70
     0
 43
0.0
 10
-0.0000000000000031
 20
-24.77891108675446
 10
0.7733444473987284
 20
-24.76760104669194
 10
1.54668889479746
 20
-24.7351658551808
 10
2.020725942163688
 20
-24.70637028918155
  0
ELLIPSE
  5
B4
330
8E
100
AcDbEntity
  8
AM_9
100
AcDbEllipse
 10
-0.0000000000000053
 20
-27.80999999999999
 30
0.0
 11
3.500000000000001
 21
0.0
 31
0.0
210
0.0
220
0.0
230
1.0
 40
0.8660254037844357
 41
1.570796326794897
 42
3.665191429188095
  0
LWPOLYLINE
  5
B5
330
8E
100
AcDbEntity
  8
AM_9
100
AcDbPolyline
 90
        3
 70
     0
 43
0.0
 10
-3.031088913245539
 20
-26.29445554337723
 10
-2.525907427704616
 20
-25.51753626878557
 10
-2.020725942163693
 20
-24.70637028918155
  0
LWPOLYLINE
  5
B6
330
8E
100
AcDbEntity
  8
AM_9
100
AcDbPolyline
 90
        3
 70
     0
 43
0.0
 10
-2.020725942163693
 20
-24.70637028918155
 10
-1.01490583506299
 20
-24.7595948871575
 10
-0.0000000000000031
 20
-24.77891108675446
  0
LINE
  5
B7
330
8E
100
AcDbEntity
  8
AM_9
100
AcDbLine
 10
2.020725942163688
 20
-24.70637028918155
 30
0.0
 11
2.020725942163688
 21
-24.09145188432738
 31
0.0
  0
LINE
  5
B8
330
8E
100
AcDbEntity
  8
AM_9
100
AcDbLine
 10
-2.020725942163693
 20
-24.70637028918155
 30
0.0
 11
-2.020725942163693
 21
-24.09145188432738
 31
0.0
  0
LINE
  5
B9
330
8E
100
AcDbEntity
  8
AM_9
100
AcDbLine
 10
-1.348838834312289
 20
-27.28140282350721
 30
0.0
 11
-1.952781547999866
 21
-27.66323959605903
 31
0.0
  0
LINE
  5
BA
330
8E
100
AcDbEntity
  8
AM_9
100
AcDbLine
 10
1.95278154799986
 20
-27.66323959605903
 30
0.0
 11
1.348838834312283
 21
-27.28140282350722
 31
0.0
  0
ELLIPSE
  5
BB
330
8E
100
AcDbEntity
  8
AM_9
100
AcDbEllipse
 10
-0.0000000000000007
 20
-28.88147406692945
 30
0.0
 11
2.287575903218218
 21
0.0
 31
0.0
210
0.0
220
0.0
230
1.0
 40
0.8660254037844412
 41
4.617513010000302
 42
6.283185307179586
  0
ELLIPSE
  5
BC
330
8E
100
AcDbEntity
  8
AM_9
100
AcDbEllipse
 10
-0.0000000000000036
 20
-28.88147406692946
 30
0.0
 11
2.287575903218221
 21
0.0
 31
0.0
210
0.0
220
0.0
230
1.0
 40
0.8660254037844397
 41
2.573197040239706
 42
4.617513010000303
  0
ELLIPSE
  5
BD
330
8E
100
AcDbEntity
  8
AM_9
100
AcDbEllipse
 10
0.0000000000003189
 20
-28.88147406692998
 30
0.0
 11
2.287575903218714
 21
0.0
 31
0.0
210
0.0
220
0.0
230
1.0
 40
0.8660254037845018
 41
2.173396668403783
 42
2.350006366821992
  0
ELLIPSE
  5
BE
330
8E
100
AcDbEntity
  8
AM_9
100
AcDbEllipse
 10
-0.000000000000003
 20
-28.31661154546583
 30
0.0
 11
-2.486776909068323
 21
3.045423381884070E-16
 31
0.0
210
0.0
220
0.0
230
1.0
 40
0.8660254037844384
 41
0.0
 42
6.283185307179586
  0
ELLIPSE
  5
BF
330
8E
100
AcDbEntity
  8
AM_9
100
AcDbEllipse
 10
-0.0000000000008182
 20
-28.8814740669295
 30
0.0
 11
2.287575903219468
 21
0.0
 31
0.0
210
0.0
220
0.0
230
1.0
 40
0.8660254037841774
 41
0.7951640578110757
 42
0.9374217490752427
  0
ELLIPSE
  5
C0
330
8E
100
AcDbEntity
  8
AM_9
100
AcDbEllipse
 10
-0.000000000000016
 20
-28.8814740669295
 30
0.0
 11
2.287575903218236
 21
0.0
 31
0.0
210
0.0
220
0.0
230
1.0
 40
0.8660254037844421
 41
0.0
 42
0.5678337602685932
  0
LWPOLYLINE
  5
C1
330
8E
100
AcDbEntity
  8
AM_9
100
AcDbPolyline
 90
       35
 70
     0
 43
0.0
 10
2.193883690254868
 20
-28.67016493605911
 10
2.191019814035501
 20
-28.75953996428624
 10
2.158858530329146
 20
-28.98168782252174
 10
2.091224254144362
 20
-29.19972376215789
 10
1.989900248705111
 20
-29.40848432701575
 10
1.857431157240934
 20
-29.60430911009924
 10
1.696419264638043
 20
-29.78455792544358
 10
1.509439535139048
 20
-29.94697783741788
 10
1.299219928664269
 20
-30.08939840984018
 10
1.068802355220658
 20
-30.20971268873862
 10
0.8216138338096864
 20
-30.30597901243553
 10
0.5614607444467008
 20
-30.3765469916668
 10
0.2924712848062347
 20
-30.42016862230263
 10
0.0190058617928744
 20
-30.43608215507134
 10
-0.254451316524876
 20
-30.42406624100932
 10
-0.5233944741007496
 20
-30.38446791729029
 10
-0.7834259383575032
 20
-30.31820492991969
 10
-1.030398894707835
 20
-30.22672888314124
 10
-1.26051308955391
 20
-30.11196451809538
 10
-1.470419021051051
 20
-29.97621255229115
 10
-1.657295030747893
 20
-29.82201296218811
 10
-1.818877968619372
 20
-29.65196963892261
 10
-1.953421312295849
 20
-29.46854806668473
 10
-2.059551347517554
 20
-29.27388186875906
 10
-2.136005294245251
 20
-29.06967205479098
 10
-2.181298044992553
 20
-28.85733814673217
 10
-2.19352711628411
 20
-28.63862031431913
 10
-2.170731064133332
 20
-28.41657418272465
 10
-2.112253670252548
 20
-28.19689663906457
 10
-2.019505122276137
 20
-27.98530076699161
 10
-1.894924269585332
 20
-27.78581046945694
 10
-1.74112759818901
 20
-27.60126460986156
 10
-1.560683354471823
 20
-27.43397247133193
 10
-1.356260724408735
 20
-27.28611587381272
 10
-1.298855931324455
 20
-27.25071443707261
  0
LWPOLYLINE
  5
C2
330
8E
100
AcDbEntity
  8
AM_9
100
AcDbPolyline
 90
       10
 70
     0
 43
0.0
 10
1.354012438096832
 20
-27.28468379933047
 10
1.417660499119737
 20
-27.32673994610141
 10
1.610798498085118
 20
-27.4763688673409
 10
1.779181951102304
 20
-27.64251738099438
 10
1.92093852378053
 20
-27.82266379453691
 10
2.034617571146516
 20
-28.01457210280079
 10
2.118958533335405
 20
-28.21642894667321
 10
2.172564865334025
 20
-28.42677810146073
 10
2.193481615679771
 20
-28.63666825408574
 10
2.193883690254868
 20
-28.67016493605911
  0
ELLIPSE
  5
C3
330
8E
100
AcDbEntity
  8
AM_9
100
AcDbEllipse
 10
-0.0000000000000041
 20
-28.88147406692949
 30
0.0
 11
2.287575903218253
 21
0.0
 31
0.0
210
0.0
220
0.0
230
1.0
 40
0.8660254037844388
 41
0.9374217490753809
 42
2.173396668403772
  0
LWPOLYLINE
  5
C4
330
8E
100
AcDbEntity
  8
AM_9
100
AcDbPolyline
 90
        3
 70
     0
 43
0.0
 10
-2.020725942163693
 20
-24.09145188432738
 10
-2.523635995714045
 20
-24.79259236667695
 10
-3.031088913245539
 20
-25.53445554337723
  0
LWPOLYLINE
  5
C5
330
8E
100
AcDbEntity
  8
AM_9
100
AcDbPolyline
 90
        3
 70
     0
 43
0.0
 10
-0.000000000000003
 20
-24.01891108675446
 10
-1.010362971081848
 20
-24.03805813303474
 10
-2.020725942163693
 20
-24.09145188432738
  0
LWPOLYLINE
  5
C6
330
8E
100
AcDbEntity
  8
AM_9
100
AcDbPolyline
 90
        3
 70
     0
 43
0.0
 10
3.031088913245533
 20
-25.53445554337723
 10
2.52590742770461
 20
-24.79583036134612
 10
2.020725942163688
 20
-24.09145188432738
  0
LWPOLYLINE
  5
C7
330
8E
100
AcDbEntity
  8
AM_9
100
AcDbPolyline
 90
        4
 70
     0
 43
0.0
 10
2.020725942163688
 20
-24.09145188432738
 10
1.54668889479746
 20
-24.06265631832813
 10
0.7756181668408954
 20
-24.03028694133536
 10
-0.000000000000003
 20
-24.01891108675446
  0
LWPOLYLINE
  5
C8
330
8E
100
AcDbEntity
  8
AM_9
100
AcDbPolyline
 90
        3
 70
     0
 43
0.0
 10
-4.041451884327382
 20
-27.73745920242708
 10
-3.538541830777032
 20
-27.03631872007751
 10
-3.031088913245539
 20
-26.29445554337723
  0
LWPOLYLINE
  5
C9
330
8E
100
AcDbEntity
  8
AM_9
100
AcDbPolyline
 90
        3
 70
     0
 43
0.0
 10
3.031088913245533
 20
-26.29445554337723
 10
3.536270398786455
 20
-27.03308072540834
 10
4.041451884327378
 20
-27.73745920242708
  0
ELLIPSE
  5
CA
330
8E
100
AcDbEntity
  8
AM_9
100
AcDbEllipse
 10
0.0000000000000022
 20
-27.81000000000001
 30
0.0
 11
3.499999999999988
 21
0.0
 31
0.0
210
0.0
220
0.0
230
1.0
 40
0.8660254037844368
 41
4.71238898038469
 42
7.853981633974483
  0
ELLIPSE
  5
CB
330
8E
100
AcDbEntity
  8
AM_9
100
AcDbEllipse
 10
-0.0000000000000082
 20
-27.81000000000002
 30
0.0
 11
3.499999999999988
 21
0.0
 31
0.0
210
0.0
220
0.0
230
1.0
 40
0.8660254037844368
 41
3.665191429188088
 42
4.71238898038469
  0
LWPOLYLINE
  5
CC
330
8E
100
AcDbEntity
  8
AM_9
100
AcDbPolyline
 90
        3
 70
     0
 43
0.0
 10
-3.031088913245539
 20
-25.53445554337723
 10
-3.536270398786461
 20
-26.31137481796889
 10
-4.041451884327382
 20
-27.12254079757291
  0
LWPOLYLINE
  5
CD
330
8E
100
AcDbEntity
  8
AM_9
100
AcDbPolyline
 90
        3
 70
     0
 43
0.0
 10
4.041451884327378
 20
-27.12254079757291
 10
3.538541830777026
 20
-26.31495111927143
 10
3.031088913245533
 20
-25.53445554337723
  0
ELLIPSE
  5
CE
330
8E
100
AcDbEntity
  8
AM_9
100
AcDbEllipse
 10
-0.0000000000000036
 20
-27.04999999999999
 30
0.0
 11
3.500000000000004
 21
0.0
 31
0.0
210
0.0
220
0.0
230
1.0
 40
0.8660254037844368
 41
1.570796326794897
 42
2.617993877991495
  0
ELLIPSE
  5
CF
330
8E
100
AcDbEntity
  8
AM_9
100
AcDbEllipse
 10
0.0000000000000018
 20
-27.05
 30
0.0
 11
3.500000000000005
 21
5.215406417846688E-8
 31
0.0
210
0.0
220
0.0
230
1.0
 40
0.8660254037844387
 41
2.617993861860516
 42
4.712388967479904
  0
LWPOLYLINE
  5
D0
330
8E
100
AcDbEntity
  8
AM_9
100
AcDbPolyline
 90
        3
 70
     0
 43
0.0
 10
-0.0000000000000028
 20
-30.84108891324554
 10
-1.010362971081848
 20
-30.82194186696525
 10
-2.020725942163693
 20
-30.76854811567262
  0
LWPOLYLINE
  5
D1
330
8E
100
AcDbEntity
  8
AM_9
100
AcDbPolyline
 90
        4
 70
     0
 43
0.0
 10
2.020725942163688
 20
-30.76854811567262
 10
1.54668889479746
 20
-30.79734368167187
 10
0.7756181668408956
 20
-30.82971305866464
 10
-0.0000000000000028
 20
-30.84108891324554
  0
LINE
  5
D2
330
8E
100
AcDbEntity
  8
AM_9
100
AcDbLine
 10
-2.020725942163693
 20
-30.76854811567262
 30
0.0
 11
-2.020725942163693
 21
-30.15362971081845
 31
0.0
  0
LWPOLYLINE
  5
D3
330
8E
100
AcDbEntity
  8
AM_9
100
AcDbPolyline
 90
        3
 70
     0
 43
0.0
 10
-4.041451884327382
 20
-27.12254079757291
 10
-3.538541830777032
 20
-27.82368127992248
 10
-3.031088913245539
 20
-28.56554445662277
  0
LINE
  5
D4
330
8E
100
AcDbEntity
  8
AM_9
100
AcDbLine
 10
-4.041451884327382
 20
-27.73745920242708
 30
0.0
 11
-4.041451884327382
 21
-27.12254079757291
 31
0.0
  0
LWPOLYLINE
  5
D5
330
8E
100
AcDbEntity
  8
AM_9
100
AcDbPolyline
 90
        3
 70
     0
 43
0.0
 10
-3.031088913245539
 20
-29.32554445662277
 10
-3.536270398786461
 20
-28.5486251820311
 10
-4.041451884327382
 20
-27.73745920242708
  0
LWPOLYLINE
  5
D6
330
8E
100
AcDbEntity
  8
AM_9
100
AcDbPolyline
 90
        3
 70
     0
 43
0.0
 10
-2.020725942163693
 20
-30.76854811567262
 10
-2.523635995714045
 20
-30.06740763332304
 10
-3.031088913245539
 20
-29.32554445662277
  0
ELLIPSE
  5
D7
330
8E
100
AcDbEntity
  8
AM_9
100
AcDbEllipse
 10
-0.0000000000000022
 20
-27.05
 30
0.0
 11
3.500000000000001
 21
5.215406417846682E-8
 31
0.0
210
0.0
220
0.0
230
1.0
 40
0.8660254037844357
 41
4.712388967479905
 42
7.853981621069698
  0
LWPOLYLINE
  5
D8
330
8E
100
AcDbEntity
  8
AM_9
100
AcDbPolyline
 90
        4
 70
     0
 43
0.0
 10
-0.0000000000000028
 20
-30.08108891324553
 10
0.7733444473987287
 20
-30.09239895330806
 10
1.54668889479746
 20
-30.1248341448192
 10
2.020725942163688
 20
-30.15362971081845
  0
LWPOLYLINE
  5
D9
330
8E
100
AcDbEntity
  8
AM_9
100
AcDbPolyline
 90
        3
 70
     0
 43
0.0
 10
-3.031088913245539
 20
-28.56554445662277
 10
-2.525907427704616
 20
-29.34246373121443
 10
-2.020725942163693
 20
-30.15362971081845
  0
LWPOLYLINE
  5
DA
330
8E
100
AcDbEntity
  8
AM_9
100
AcDbPolyline
 90
        3
 70
     0
 43
0.0
 10
-2.020725942163693
 20
-30.15362971081845
 10
-1.01490583506299
 20
-30.10040511284249
 10
-0.0000000000000028
 20
-30.08108891324553
  0
LINE
  5
DB
330
8E
100
AcDbEntity
  8
AM_9
100
AcDbLine
 10
4.041451884327378
 20
-27.73745920242708
 30
0.0
 11
4.041451884327378
 21
-27.12254079757291
 31
0.0
  0
LWPOLYLINE
  5
DC
330
8E
100
AcDbEntity
  8
AM_9
100
AcDbPolyline
 90
        3
 70
     0
 43
0.0
 10
3.031088913245533
 20
-28.56554445662277
 10
3.536270398786455
 20
-27.82691927459166
 10
4.041451884327378
 20
-27.12254079757291
  0
LWPOLYLINE
  5
DD
330
8E
100
AcDbEntity
  8
AM_9
100
AcDbPolyline
 90
        3
 70
     0
 43
0.0
 10
2.020725942163688
 20
-30.15362971081845
 10
2.523635995714039
 20
-29.34604003251696
 10
3.031088913245533
 20
-28.56554445662277
  0
LINE
  5
DE
330
8E
100
AcDbEntity
  8
AM_9
100
AcDbLine
 10
2.020725942163688
 20
-30.76854811567262
 30
0.0
 11
2.020725942163688
 21
-30.15362971081845
 31
0.0
  0
LWPOLYLINE
  5
DF
330
8E
100
AcDbEntity
  8
AM_9
100
AcDbPolyline
 90
        3
 70
     0
 43
0.0
 10
3.031088913245533
 20
-29.32554445662277
 10
2.52590742770461
 20
-30.06416963865387
 10
2.020725942163688
 20
-30.76854811567262
  0
LWPOLYLINE
  5
E0
330
8E
100
AcDbEntity
  8
AM_9
100
AcDbPolyline
 90
        3
 70
     0
 43
0.0
 10
4.041451884327378
 20
-27.73745920242708
 10
3.538541830777026
 20
-28.54504888072856
 10
3.031088913245533
 20
-29.32554445662277
  0
LINE
  5
E1
330
8E
100
AcDbEntity
  8
AM_9
100
AcDbLine
 10
-2.799677745749698
 20
-24.50327207173992
 30
0.0
 11
-2.950419829092163
 21
-26.9114890930169
 31
0.0
  0
LINE
  5
E2
330
8E
100
AcDbEntity
  8
AM_9
100
AcDbLine
 10
2.950419829092156
 20
-26.9114890930169
 30
0.0
 11
2.799677745749693
 21
-24.50327207173992
 31
0.0
  0
ELLIPSE
  5
E3
330
8E
100
AcDbEntity
  8
AM_9
100
AcDbEllipse
 10
-0.0000000000000026
 20
-24.51
 30
0.0
 11
-2.55437585025611
 21
3.128208208835444E-16
 31
0.0
210
0.0
220
0.0
230
1.0
 40
0.8660254037844387
 41
0.0
 42
6.283185307179586
  0
ELLIPSE
  5
E4
330
8E
100
AcDbEntity
  8
AM_9
100
AcDbEllipse
 10
-0.000000000000004
 20
-29.97974288774641
 30
0.0
 11
3.311838226937808
 21
0.0
 31
0.0
210
0.0
220
0.0
230
1.0
 40
0.8660254037844435
 41
0.0
 42
6.283185307179586
  0
ELLIPSE
  5
E5
330
8E
100
AcDbEntity
  8
AM_9
100
AcDbEllipse
 10
-0.0000000000010534
 20
-27.05000000000319
 30
0.0
 11
2.9547516866415
 21
0.0
 31
0.0
210
0.0
220
0.0
230
1.0
 40
0.8660254037844741
 41
0.0
 42
6.283185307179586
  0
ELLIPSE
  5
E6
330
8E
100
AcDbEntity
  8
AM_9
100
AcDbEllipse
 10
-0.0000000000007288
 20
-24.63470621545624
 30
0.0
 11
2.803788281158338
 21
0.0
 31
0.0
210
0.0
220
0.0
230
1.0
 40
0.8660254037844898
 41
0.0
 42
6.283185307179586
  0
ENDBLK
  5
91
330
8E
100
AcDbEntity
  8
0
100
AcDbBlockEnd
  0
BLOCK
  5
E9
330
E7
100
AcDbEntity
  8
0
100
AcDbBlockBegin
  2
3_050654_0_in_136978_2
 70
     2
 10
0.0
 20
0.0
 30
0.0
  3
3_050654_0_in_136978_2
  1

  0
ATTDEF
  5
EB
330
E7
100
AcDbEntity
  8
AM_6
100
AcDbText
 10
24.1
 20
39.97534100810547
 30
0.0
 40
0.5
  1
Set Screw Insert Metric Bore - Corrosion Resistant
100
AcDbAttributeDefinition
  3

  2
NN
 70
     8
280
     0
  0
ATTDEF
  5
EC
330
E7
100
AcDbEntity
  8
AM_6
100
AcDbText
 10
24.1
 20
39.47534100810547
 30
0.0
 40
0.5
  1
SC Bearing Insert -Metric
100
AcDbAttributeDefinition
  3

  2
NT
 70
     8
280
     0
  0
ATTDEF
  5
ED
330
E7
100
AcDbEntity
  8
AM_6
100
AcDbText
 10
24.1
 20
38.97534100810547
 30
0.0
 40
0.5
  1
050654
100
AcDbAttributeDefinition
  3

  2
NB
 70
     8
280
     0
  0
ATTDEF
  5
EE
330
E7
100
AcDbEntity
  8
AM_6
100
AcDbText
 10
24.1
 20
38.47534100810547
 30
0.0
 40
0.5
  1
$PN.
100
AcDbAttributeDefinition
  3

  2
NBSYN
 70
     8
280
     0
  0
ATTDEF
  5
EF
330
E7
100
AcDbEntity
  8
AM_6
100
AcDbText
 10
24.1
 20
37.97534100810547
 30
0.0
 40
0.5
  1
050654
100
AcDbAttributeDefinition
  3

  2
LINA
 70
     8
280
     0
  0
ATTDEF
  5
F0
330
E7
100
AcDbEntity
  8
AM_6
100
AcDbText
 10
24.1
 20
37.47534100810547
 30
0.0
 40
0.5
  1
208
100
AcDbAttributeDefinition
  3

  2
SERIES
 70
     8
280
     0
  0
ATTDEF
  5
F1
330
E7
100
AcDbEntity
  8
AM_6
100
AcDbText
 10
24.1
 20
36.97534100810547
 30
0.0
 40
0.5
  1
40
100
AcDbAttributeDefinition
  3

  2
SS
 70
     8
280
     0
  0
ATTDEF
  5
F2
330
E7
100
AcDbEntity
  8
AM_6
100
AcDbText
 10
24.1
 20
36.47534100810547
 30
0.0
 40
0.5
  1
050654
100
AcDbAttributeDefinition
  3

  2
PN
 70
     8
280
     0
  0
ATTDEF
  5
F3
330
E7
100
AcDbEntity
  8
AM_6
100
AcDbText
 10
24.1
 20
35.97534100810547
 30
0.0
 40
0.5
  1
INS-SC-40M-CR
100
AcDbAttributeDefinition
  3

  2
DESCRIPTION
 70
     8
280
     0
  0
ATTDEF
  5
F4
330
E7
100
AcDbEntity
  8
AM_6
100
AcDbText
 10
24.1
 20
35.47534100810547
 30
0.0
 40
0.5
  1
49.3
100
AcDbAttributeDefinition
  3

  2
A
 70
     8
280
     0
  0
ATTDEF
  5
F5
330
E7
100
AcDbEntity
  8
AM_6
100
AcDbText
 10
24.1
 20
34.97534100810547
 30
0.0
 40
0.5
  1
22.1
100
AcDbAttributeDefinition
  3

  2
C
 70
     8
280
     0
  0
ATTDEF
  5
F6
330
E7
100
AcDbEntity
  8
AM_6
100
AcDbText
 10
24.1
 20
34.47534100810547
 30
0.0
 40
0.5
  1
80
100
AcDbAttributeDefinition
  3

  2
D
 70
     8
280
     0
  0
ATTDEF
  5
F7
330
E7
100
AcDbEntity
  8
AM_6
100
AcDbText
 10
24.1
 20
33.97534100810547
 30
0.0
 40
0.5
  1
5.6
100
AcDbAttributeDefinition
  3

  2
J
 70
     8
280
     0
  0
ATTDEF
  5
F8
330
E7
100
AcDbEntity
  8
AM_6
100
AcDbText
 10
24.1
 20
33.47534100810547
 30
0.0
 40
0.5
  1
52.1
100
AcDbAttributeDefinition
  3

  2
L
 70
     8
280
     0
  0
ATTDEF
  5
F9
330
E7
100
AcDbEntity
  8
AM_6
100
AcDbText
 10
24.1
 20
32.97534100810547
 30
0.0
 40
0.5
  1
M8 x 1.25
100
AcDbAttributeDefinition
  3

  2
N
 70
     8
280
     0
  0
ATTDEF
  5
FA
330
E7
100
AcDbEntity
  8
AM_6
100
AcDbText
 10
24.1
 20
32.47534100810547
 30
0.0
 40
0.5
  1
19.1
100
AcDbAttributeDefinition
  3

  2
W
 70
     8
280
     0
  0
ATTDEF
  5
FB
330
E7
100
AcDbEntity
  8
AM_6
100
AcDbText
 10
24.1
 20
31.97534100810547
 30
0.0
 40
0.5
  1
30.2
100
AcDbAttributeDefinition
  3

  2
Y
 70
     8
280
     0
  0
ATTDEF
  5
FC
330
E7
100
AcDbEntity
  8
AM_6
100
AcDbText
 10
24.1
 20
31.47534100810547
 30
0.0
 40
0.5
  1
baldor
100
AcDbAttributeDefinition
  3

  2
COMPANY
 70
     8
280
     0
  0
ARC
  5
FD
330
E7
100
AcDbEntity
  8
AM_9
100
AcDbCircle
 10
5.599999999999808
 20
0.0000000000000121
 30
0.0
 40
2.210000000000194
100
AcDbArc
 50
351.397950888284
 51
0.0
  0
ARC
  5
FE
330
E7
100
AcDbEntity
  8
AM_9
100
AcDbCircle
 10
5.599999999999991
 20
0.0000000000000071
 30
0.0
 40
2.210000000000016
100
AcDbArc
 50
308.1261101951393
 51
321.2627504457269
  0
ARC
  5
FF
330
E7
100
AcDbEntity
  8
AM_9
100
AcDbCircle
 10
5.60000000000001
 20
-0.0000000000008034
 30
0.0
 40
2.210000000000805
100
AcDbArc
 50
90.0
 51
91.53597115531643
  0
CIRCLE
  5
100
330
E7
100
AcDbEntity
  8
AM_9
100
AcDbCircle
 10
5.599999999999997
 20
-0.0000000000000026
 30
0.0
 40
0.2009090909090882
  0
LINE
  5
101
330
E7
100
AcDbEntity
  8
AM_9
100
AcDbLine
 10
-16.625
 20
26.01156641147566
 30
0.0
 11
-16.625
 21
26.05
 31
0.0
  0
LINE
  5
102
330
E7
100
AcDbEntity
  8
AM_9
100
AcDbLine
 10
-24.625
 20
26.05
 30
0.0
 11
-24.625
 21
26.01156641147566
 31
0.0
  0
LINE
  5
103
330
E7
100
AcDbEntity
  8
AM_9
100
AcDbLine
 10
-17.3015
 20
20.00191794226543
 30
0.0
 11
-17.3015
 21
25.33506641147566
 31
0.0
  0
LINE
  5
104
330
E7
100
AcDbEntity
  8
AM_9
100
AcDbLine
 10
-23.9485
 20
25.33506641147566
 30
0.0
 11
-23.9485
 21
20.00191794226543
 31
0.0
  0
LINE
  5
105
330
E7
100
AcDbEntity
  8
AM_9
100
AcDbLine
 10
-23.9485
 20
20.00191794226543
 30
0.0
 11
-24.14606616641389
 21
19.80435177585155
 31
0.0
  0
LINE
  5
106
330
E7
100
AcDbEntity
  8
AM_9
100
AcDbLine
 10
-17.07378127994355
 20
19.77419922220898
 30
0.0
 11
-17.3015
 21
20.00191794226543
 31
0.0
  0
LINE
  5
107
330
E7
100
AcDbEntity
  8
AM_9
100
AcDbLine
 10
-23.9485
 20
20.00191794226543
 30
0.0
 11
-17.3015
 21
20.00191794226543
 31
0.0
  0
LINE
  5
108
330
E7
100
AcDbEntity
  8
AM_9
100
AcDbLine
 10
-16.88346459610379
 20
26.01156641147566
 30
0.0
 11
-16.625
 21
26.01156641147566
 31
0.0
  0
LINE
  5
109
330
E7
100
AcDbEntity
  8
AM_9
100
AcDbLine
 10
-17.3015
 20
25.33506641147566
 30
0.0
 11
-16.625
 21
26.01156641147566
 31
0.0
  0
LINE
  5
10A
330
E7
100
AcDbEntity
  8
AM_9
100
AcDbLine
 10
-24.625
 20
26.01156641147566
 30
0.0
 11
-23.9485
 21
25.33506641147566
 31
0.0
  0
LINE
  5
10B
330
E7
100
AcDbEntity
  8
AM_9
100
AcDbLine
 10
-24.625
 20
26.01156641147566
 30
0.0
 11
-24.36653540389621
 21
26.01156641147566
 31
0.0
  0
LINE
  5
10C
330
E7
100
AcDbEntity
  8
AM_9
100
AcDbLine
 10
-23.9485
 20
25.33506641147566
 30
0.0
 11
-17.3015
 21
25.33506641147566
 31
0.0
  0
LWPOLYLINE
  5
10D
330
E7
100
AcDbEntity
  8
AM_9
100
AcDbPolyline
 90
       39
 70
     0
 43
0.0
 10
-18.24199185483787
 20
6.074714651850782
 10
-17.93011216311085
 20
6.466395021902575
 10
-17.67757562646261
 20
6.891870845484553
 10
-17.45634079543004
 20
7.438321704535849
 10
-17.33007479450588
 20
8.003792904322173
 10
-17.30310340062291
 20
8.596527028475979
 10
-17.38210943362099
 20
9.176481248872332
 10
-17.56929199737612
 20
9.73293064057688
 10
-17.85947455072673
 20
10.24517592333795
 10
-18.24181963508083
 20
10.69160909653488
 10
-18.71085819796082
 20
11.06719492078257
 10
-19.2207854408873
 20
11.34148746956024
 10
-19.78330198479932
 20
11.52986949043848
 10
-20.31424228302885
 20
11.61609729435893
 10
-20.85544594924521
 20
11.62254896742733
 10
-21.34690688098048
 20
11.55639940718168
 10
-21.81858853185506
 20
11.42495479935599
 10
-22.26518460181715
 20
11.22871561286486
 10
-22.67040813728924
 20
10.97624141435646
 10
-23.05626213509376
 20
10.64435233757775
 10
-23.37842713949216
 20
10.26227476455278
 10
-23.65301311586342
 20
9.793484983852315
 10
-23.84037315444304
 20
9.285649452896038
 10
-23.93937953964781
 20
8.716212026179829
 10
-23.93475580528044
 20
8.131056459107073
 10
-23.82205581668133
 20
7.534327697350149
 10
-23.60381629033825
 20
6.955653797916483
 10
-23.2848516276329
 20
6.416828818766561
 10
-22.8717758872401
 20
5.934121795317965
 10
-22.39497098933339
 20
5.544758069404762
 10
-21.85159617814163
 20
5.245277452045196
 10
-21.31698029654874
 20
5.069177074164715
 10
-20.75807977143543
 20
4.991645285399545
 10
-20.2508588842466
 20
5.012314648626536
 10
-19.75451396958464
 20
5.115861105942308
 10
-19.2920527843901
 20
5.293839374804504
 10
-18.86365856026821
 20
5.538347589293591
 10
-18.53601068476674
 20
5.789194758150842
 10
-18.24199185483787
 20
6.07471465185078
  0
LINE
  5
10E
330
E7
100
AcDbEntity
  8
AM_9
100
AcDbLine
 10
-29.158
 20
-20.0
 30
0.0
 11
18.05799999999999
 21
-20.0
 31
0.0
  0
LINE
  5
10F
330
E7
100
AcDbEntity
  8
AM_9
100
AcDbLine
 10
18.05799999999999
 20
20.0
 30
0.0
 11
-17.31269058480809
 21
20.0
 31
0.0
  0
LINE
  5
110
330
E7
100
AcDbEntity
  8
AM_9
100
AcDbLine
 10
-23.94490691081874
 20
20.0
 30
0.0
 11
-29.158
 21
20.0
 31
0.0
  0
LWPOLYLINE
  5
111
330
E7
100
AcDbEntity
  8
AM_9
100
AcDbPolyline
 90
       21
 70
     0
 43
0.0
 10
-23.95041794224327
 20
19.99999999999557
 10
-23.94966171588233
 20
19.99984920128281
 10
-23.88212875609732
 20
19.98650998518624
 10
-23.71043104356211
 20
19.95373796740023
 10
-23.42787449302316
 20
19.90341720322541
 10
-23.06230844250901
 20
19.84509588917951
 10
-22.59449119836141
 20
19.78186331409676
 10
-22.09891913435262
 20
19.7291479786481
 10
-21.52842578750736
 20
19.68700386423249
 10
-21.00563713156637
 20
19.66606212888003
 10
-20.45178094708877
 20
19.66247283482307
 10
-19.96451397232579
 20
19.67515805683908
 10
-19.48222831283947
 20
19.70224770287276
 10
-19.03806995916804
 20
19.73986149735802
 10
-18.62399785415415
 20
19.78571483401994
 10
-18.23779444880251
 20
19.83770711342574
 10
-17.90581591745677
 20
19.88938512204802
 10
-17.62606253106031
 20
19.93785443365877
 10
-17.42669183328445
 20
19.97509773846669
 10
-17.31702540060243
 20
19.99652966933532
 10
-17.29958205773915
 20
19.99999999999908
  0
LINE
  5
112
330
E7
100
AcDbEntity
  8
AM_9
100
AcDbLine
 10
18.05799999999999
 20
-20.0
 30
0.0
 11
19.1
 21
-21.042
 31
0.0
  0
LINE
  5
113
330
E7
100
AcDbEntity
  8
AM_9
100
AcDbLine
 10
19.1
 20
21.042
 30
0.0
 11
18.05799999999999
 21
20.0
 31
0.0
  0
LINE
  5
114
330
E7
100
AcDbEntity
  8
AM_9
100
AcDbLine
 10
-29.158
 20
20.0
 30
0.0
 11
-30.2
 21
21.042
 31
0.0
  0
LINE
  5
115
330
E7
100
AcDbEntity
  8
AM_9
100
AcDbLine
 10
-30.2
 20
-21.042
 30
0.0
 11
-29.158
 21
-20.0
 31
0.0
  0
ELLIPSE
  5
116
330
E7
100
AcDbEntity
  8
AM_9
100
AcDbEllipse
 10
-20.62500000000008
 20
8.453175792240335
 30
0.0
 11
3.323499999999921
 21
4.952400922775152E-8
 31
0.0
210
0.0
220
0.0
230
1.0
 40
0.9063077870366493
 41
2.758126731145437
 42
6.283187037607677
  0
LINE
  5
117
330
E7
100
AcDbEntity
  8
AM_9
100
AcDbLine
 10
-17.3015
 20
8.453175792240327
 30
0.0
 11
-17.3015
 21
10.70706172790302
 31
0.0
  0
LINE
  5
118
330
E7
100
AcDbEntity
  8
AM_9
100
AcDbLine
 10
-23.9485
 20
10.70706172790302
 30
0.0
 11
-23.9485
 21
8.453175792240327
 31
0.0
  0
ELLIPSE
  5
119
330
E7
100
AcDbEntity
  8
AM_9
100
AcDbEllipse
 10
-20.62500000000008
 20
8.453175792240305
 30
0.0
 11
3.323500000000081
 21
0.0
 31
0.0
210
0.0
220
0.0
230
1.0
 40
0.90630778703665
 41
0.0
 42
0.3834659064136172
  0
LINE
  5
11A
330
E7
100
AcDbEntity
  8
AM_9
100
AcDbLine
 10
-16.625
 20
10.99296298197061
 30
0.0
 11
-16.625
 21
11.0087195678019
 31
0.0
  0
LINE
  5
11B
330
E7
100
AcDbEntity
  8
AM_9
100
AcDbLine
 10
-24.625
 20
11.00871956780189
 30
0.0
 11
-24.625
 21
10.99296298197061
 31
0.0
  0
ELLIPSE
  5
11C
330
E7
100
AcDbEntity
  8
AM_9
100
AcDbEllipse
 10
-20.62500000000002
 20
10.9929629819706
 30
0.0
 11
3.999999999999975
 21
0.0
 31
0.0
210
0.0
220
0.0
230
1.0
 40
0.9063077870366513
 41
3.141592653589793
 42
3.503046022576796
  0
ELLIPSE
  5
11D
330
E7
100
AcDbEntity
  8
AM_9
100
AcDbEllipse
 10
-20.62500000000004
 20
10.99296298197061
 30
0.0
 11
4.000000000000036
 21
0.0
 31
0.0
210
0.0
220
0.0
230
1.0
 40
0.9063077870366513
 41
5.921731938192587
 42
6.283185307179586
  0
LINE
  5
11E
330
E7
100
AcDbEntity
  8
AM_9
100
AcDbLine
 10
11.05
 20
-26.05
 30
0.0
 11
12.7
 21
-26.05
 31
0.0
  0
LINE
  5
11F
330
E7
100
AcDbEntity
  8
AM_9
100
AcDbLine
 10
12.7
 20
26.05
 30
0.0
 11
11.05
 21
26.05
 31
0.0
  0
LINE
  5
120
330
E7
100
AcDbEntity
  8
AM_9
100
AcDbLine
 10
18.058
 20
7.341999999999996
 30
0.0
 11
18.058
 21
-7.342000000000002
 31
0.0
  0
LINE
  5
121
330
E7
100
AcDbEntity
  8
AM_9
100
AcDbLine
 10
-12.7
 20
-26.05
 30
0.0
 11
-11.05
 21
-26.05
 31
0.0
  0
LINE
  5
122
330
E7
100
AcDbEntity
  8
AM_9
100
AcDbLine
 10
-11.05
 20
26.05
 30
0.0
 11
-12.7
 21
26.05
 31
0.0
  0
LINE
  5
123
330
E7
100
AcDbEntity
  8
AM_9
100
AcDbLine
 10
-6.513333333333333
 20
-37.78999999999996
 30
0.0
 11
-3.566666666666662
 21
-37.78999999999996
 31
0.0
  0
LINE
  5
124
330
E7
100
AcDbEntity
  8
AM_9
100
AcDbLine
 10
-3.566666666666662
 20
37.78999999999996
 30
0.0
 11
-6.513333333333333
 21
37.78999999999996
 31
0.0
  0
LINE
  5
125
330
E7
100
AcDbEntity
  8
AM_9
100
AcDbLine
 10
-11.04999999999999
 20
37.19396883195165
 30
0.0
 11
-11.04999999999999
 21
-37.19396883195165
 31
0.0
  0
ARC
  5
126
330
E7
100
AcDbEntity
  8
AM_9
100
AcDbCircle
 10
-10.16600000000002
 20
-37.19396883195166
 30
0.0
 40
0.8839999999999701
100
AcDbArc
 50
180.0
 51
248.5875329531162
  0
ARC
  5
127
330
E7
100
AcDbEntity
  8
AM_9
100
AcDbCircle
 10
-10.16600000000002
 20
37.19396883195166
 30
0.0
 40
0.8839999999999728
100
AcDbArc
 50
111.4124670468838
 51
180.0
  0
LINE
  5
128
330
E7
100
AcDbEntity
  8
AM_9
100
AcDbLine
 10
11.05
 20
37.19396883195164
 30
0.0
 11
11.05
 21
-37.19396883195164
 31
0.0
  0
ARC
  5
129
330
E7
100
AcDbEntity
  8
AM_9
100
AcDbCircle
 10
10.166
 20
-37.19396883195164
 30
0.0
 40
0.8839999999999997
100
AcDbArc
 50
291.4124636322397
 51
0.0000008537736463
  0
ARC
  5
12A
330
E7
100
AcDbEntity
  8
AM_9
100
AcDbCircle
 10
10.166
 20
37.19396883195164
 30
0.0
 40
0.8839999999999986
100
AcDbArc
 50
0.0000008537736463
 51
68.5875363677603
  0
ARC
  5
12B
330
E7
100
AcDbEntity
  8
AM_9
100
AcDbCircle
 10
-0.0000000000003091
 20
-11.27000000000121
 30
0.0
 40
28.72999999999876
100
AcDbArc
 50
248.5875329531156
 51
256.8966393604125
  0
ARC
  5
12C
330
E7
100
AcDbEntity
  8
AM_9
100
AcDbCircle
 10
-0.0000000000003508
 20
11.27000000000134
 30
0.0
 40
28.72999999999863
100
AcDbArc
 50
103.1033606395875
 51
111.4124670468844
  0
LINE
  5
12D
330
E7
100
AcDbEntity
  8
AM_9
100
AcDbLine
 10
-10.48873015873017
 20
38.01695196947391
 30
0.0
 11
-10.48873015873017
 21
-38.01695196947391
 31
0.0
  0
LINE
  5
12E
330
E7
100
AcDbEntity
  8
AM_9
100
AcDbLine
 10
-6.513333333333333
 20
39.25194755353689
 30
0.0
 11
-6.513333333333333
 21
-39.25194755353689
 31
0.0
  0
LWPOLYLINE
  5
12F
330
E7
100
AcDbEntity
  8
AM_9
100
AcDbPolyline
 90
       38
 70
     0
 43
0.0
 10
7.156520705952921
 20
-1.568866881524505
 10
7.394753929469433
 20
-1.289187952458891
 10
7.584285780984821
 20
-0.9729902051826971
 10
7.718624316110462
 20
-0.6280850185794492
 10
7.794067538237577
 20
-0.2648917470441505
 10
7.80746860490521
 20
0.1008618196966544
 10
7.760797842618064
 20
0.4637377311984864
 10
7.655664304336256
 20
0.8108066205134478
 10
7.496051435572419
 20
1.135380532536896
 10
7.283689206296121
 20
1.431222703880811
 10
7.026859957723051
 20
1.687652411205155
 10
6.725632585560876
 20
1.901619558313718
 10
6.394011560994546
 20
2.06243682109465
 10
6.033169660039301
 20
2.166916177942705
 10
5.660075179661326
 20
2.209183327111777
 10
5.28104958035189
 20
2.186634586566456
 10
4.910787221590529
 20
2.099782309211387
 10
4.561310639533621
 20
1.950430194031088
 10
4.241474457909648
 20
1.743131765383251
 10
3.964972415313082
 20
1.486514658143374
 10
3.73518384242409
 20
1.185985117294411
 10
3.562499561825743
 20
0.8553660345416011
 10
3.447277512648278
 20
0.4998858794267313
 10
3.394329641173186
 20
0.1345747136590197
 10
3.402484346322896
 20
-0.2345739794694175
 10
3.471756490519797
 20
-0.5947319116884999
 10
3.599028471708167
 20
-0.9381966440813339
 10
3.781730168878463
 20
-1.255806335002828
 10
4.013433869013888
 20
-1.538475840566822
 10
4.290996042713959
 20
-1.780359759156858
 10
4.603684880360188
 20
-1.972677414677102
 10
4.948479013831538
 20
-2.111562069072209
 10
5.31074629706746
 20
-2.190988885261594
 10
5.686465508562864
 20
-2.208093691705653
 10
6.059494538237665
 20
-2.161704135475015
 10
6.422616303552457
 20
-2.050954052222256
 10
6.762178737004009
 20
-1.879744818653793
 10
7.15652070595238
 20
-1.568866881523579
  0
ARC
  5
130
330
E7
100
AcDbEntity
  8
AM_9
100
AcDbCircle
 10
-0.0000000000000101
 20
-11.27000000000004
 30
0.0
 40
28.72999999999996
100
AcDbArc
 50
262.8686552534197
 51
291.4124669418181
  0
ARC
  5
131
330
E7
100
AcDbEntity
  8
AM_9
100
AcDbCircle
 10
-0.0000000000000169
 20
11.26999999999997
 30
0.0
 40
28.73000000000004
100
AcDbArc
 50
68.58753305818192
 51
97.1313447465803
  0
LINE
  5
132
330
E7
100
AcDbEntity
  8
AM_9
100
AcDbLine
 10
-3.566666666666662
 20
39.77774962863413
 30
0.0
 11
-3.566666666666662
 21
-39.77774962863413
 31
0.0
  0
LINE
  5
133
330
E7
100
AcDbEntity
  8
AM_9
100
AcDbLine
 10
10.48873010968301
 20
38.01695198870759
 30
0.0
 11
10.48873010968301
 21
-38.01695198870759
 31
0.0
  0
LINE
  5
135
330
E7
100
AcDbEntity
  8
AM_5
100
AcDbLine
 10
-16.625
 20
20.0
 30
0.0
 11
-16.625
 21
26.01156641147566
 31
0.0
  0
LINE
  5
136
330
E7
100
AcDbEntity
  8
AM_5
100
AcDbLine
 10
-24.625
 20
20.0
 30
0.0
 11
-24.625
 21
26.01156641147566
 31
0.0
  0
LINE
  5
139
330
E7
100
AcDbEntity
  8
AM_7
100
AcDbLine
 10
5.599999999999997
 20
-0.2109545454545451
 30
0.0
 11
5.599999999999997
 21
0.21095454545454
 31
0.0
  0
LINE
  5
13A
330
E7
100
AcDbEntity
  8
AM_7
100
AcDbLine
 10
-20.625
 20
26.87087383493618
 30
0.0
 11
-20.625
 21
18.96611051880492
 31
0.0
  0
ELLIPSE
  5
13C
330
E7
100
AcDbEntity
  8
AM_4
100
AcDbEllipse
 10
-20.625
 20
8.453175792240328
 30
0.0
 11
3.323499999999996
 21
0.0
 31
0.0
210
0.0
220
0.0
230
1.0
 40
0.9063077870366515
 41
1.570796326794897
 42
2.758126747176001
  0
ELLIPSE
  5
13D
330
E7
100
AcDbEntity
  8
AM_4
100
AcDbEllipse
 10
-20.625
 20
8.453175792240335
 30
0.0
 11
3.323499999999992
 21
4.952400922775257E-8
 31
0.0
210
0.0
220
0.0
230
1.0
 40
0.9063077870366502
 41
0.3834658903830626
 42
1.570796313289859
  0
ELLIPSE
  5
13E
330
E7
100
AcDbEntity
  8
AM_4
100
AcDbEllipse
 10
-20.62500000000005
 20
10.99296298197057
 30
0.0
 11
4.00000000000005
 21
0.0
 31
0.0
210
0.0
220
0.0
230
1.0
 40
0.9063077870366513
 41
0.0
 42
0.3614533689870129
  0
LWPOLYLINE
  5
13F
330
E7
100
AcDbEntity
  8
AM_4
100
AcDbPolyline
 90
        4
 70
     0
 43
0.0
 10
-16.62500002141581
 20
11.00958085224533
 10
-16.66260020880978
 20
10.5108783731205
 10
-16.81156279205172
 20
9.903143303179176
 10
-16.88346459610375
 20
9.710957757518647
  0
LWPOLYLINE
  5
140
330
E7
100
AcDbEntity
  8
AM_4
100
AcDbPolyline
 90
        4
 70
     0
 43
0.0
 10
-24.6249999785842
 20
11.00883058166562
 10
-24.58739979119022
 20
11.50267545320054
 10
-24.43843720794827
 20
12.09160669717546
 10
-24.36653540389624
 20
12.27496820642258
  0
ELLIPSE
  5
141
330
E7
100
AcDbEntity
  8
AM_4
100
AcDbEllipse
 10
-20.62499999999996
 20
10.99296298197056
 30
0.0
 11
4.000000000000043
 21
0.0
 31
0.0
210
0.0
220
0.0
230
1.0
 40
0.9063077870366515
 41
2.78013928460278
 42
3.141592653589793
  0
LINE
  5
142
330
E7
100
AcDbEntity
  8
AM_4
100
AcDbLine
 10
19.1
 20
25.00799999999999
 30
0.0
 11
18.058
 21
26.04999999999999
 31
0.0
  0
LINE
  5
143
330
E7
100
AcDbEntity
  8
AM_4
100
AcDbLine
 10
18.058
 20
-26.04999999999999
 30
0.0
 11
19.1
 21
-25.00799999999999
 31
0.0
  0
LINE
  5
144
330
E7
100
AcDbEntity
  8
AM_4
100
AcDbLine
 10
19.1
 20
25.00799999999999
 30
0.0
 11
19.1
 21
-25.00799999999999
 31
0.0
  0
LINE
  5
145
330
E7
100
AcDbEntity
  8
AM_4
100
AcDbLine
 10
12.7
 20
-26.05
 30
0.0
 11
18.058
 21
-26.05
 31
0.0
  0
LINE
  5
146
330
E7
100
AcDbEntity
  8
AM_4
100
AcDbLine
 10
18.058
 20
26.05
 30
0.0
 11
12.7
 21
26.05
 31
0.0
  0
LINE
  5
147
330
E7
100
AcDbEntity
  8
AM_4
100
AcDbLine
 10
18.058
 20
-7.342000000000002
 30
0.0
 11
18.058
 21
-26.05
 31
0.0
  0
LINE
  5
148
330
E7
100
AcDbEntity
  8
AM_4
100
AcDbLine
 10
18.058
 20
26.05
 30
0.0
 11
18.058
 21
7.341999999999996
 31
0.0
  0
LINE
  5
149
330
E7
100
AcDbEntity
  8
AM_4
100
AcDbLine
 10
-30.2
 20
-25.00799999999999
 30
0.0
 11
-29.158
 21
-26.04999999999999
 31
0.0
  0
LINE
  5
14A
330
E7
100
AcDbEntity
  8
AM_4
100
AcDbLine
 10
-29.158
 20
26.04999999999999
 30
0.0
 11
-30.2
 21
25.00799999999999
 31
0.0
  0
LINE
  5
14B
330
E7
100
AcDbEntity
  8
AM_4
100
AcDbLine
 10
-30.2
 20
25.00799999999999
 30
0.0
 11
-30.2
 21
-25.00799999999999
 31
0.0
  0
LWPOLYLINE
  5
14C
330
E7
100
AcDbEntity
  8
AM_4
100
AcDbPolyline
 90
       16
 70
     0
 43
0.0
 10
-16.88346459610379
 20
26.01156641147566
 10
-16.99598351106565
 20
25.99774326327459
 10
-17.31564448807081
 20
25.96071827654397
 10
-17.71042466414168
 20
25.91958086838888
 10
-18.200943275889
 20
25.8756634031613
 10
-18.7491508832496
 20
25.83593462043032
 10
-19.38235900332845
 20
25.80269973700812
 10
-20.0475955886364
 20
25.78213877656212
 10
-20.75672238588276
 20
25.77691037264718
 10
-21.46221347625923
 20
25.7883556892643
 10
-22.15241902141179
 20
25.81603641831423
 10
-22.79842221386023
 20
25.85623330289481
 10
-23.37036407620519
 20
25.90356886639211
 10
-23.86018188555181
 20
25.95259513820692
 10
-24.14084705721384
 20
25.98425175832689
 10
-24.36653540389621
 20
26.01156641147566
  0
LINE
  5
14D
330
E7
100
AcDbEntity
  8
AM_4
100
AcDbLine
 10
-24.36653540389621
 20
26.01156641147566
 30
0.0
 11
-24.62499999998823
 21
26.04999999999819
 31
0.0
  0
LWPOLYLINE
  5
14E
330
E7
100
AcDbEntity
  8
AM_4
100
AcDbPolyline
 90
       16
 70
     0
 43
0.0
 10
-16.88346459610377
 20
9.710957757518651
 10
-17.03248126741763
 20
9.42905359649621
 10
-17.26594006665995
 20
9.082331749608546
 10
-17.54051520639756
 20
8.76132925630194
 10
-17.96190595426301
 20
8.381429029426654
 10
-18.43708384052165
 20
8.061386651464334
 10
-19.03790998109235
 20
7.775250437007121
 10
-19.67894283235577
 20
7.583139162803887
 10
-20.37622367711475
 20
7.488748752206073
 10
-21.08026137578206
 20
7.504750791606155
 10
-21.78547368441925
 20
7.635916440896729
 10
-22.45748468561694
 20
7.878140129085516
 10
-23.0706941171941
 20
8.223419206747685
 10
-23.61122232743441
 20
8.66240823452896
 10
-24.03911658765082
 20
9.157255087030295
 10
-24.36653540389623
 20
9.710957757518651
  0
LWPOLYLINE
  5
14F
330
E7
100
AcDbEntity
  8
AM_4
100
AcDbPolyline
 90
        4
 70
     0
 43
0.0
 10
-24.36653540389623
 20
9.710957757518651
 10
-24.54770934422935
 20
10.29502541168319
 10
-24.62349126700077
 20
10.90954758753999
 10
-24.6249999785842
 20
11.00883058166562
  0
LWPOLYLINE
  5
150
330
E7
100
AcDbEntity
  8
AM_4
100
AcDbPolyline
 90
       15
 70
     0
 43
0.0
 10
-24.36653540389622
 20
12.27496820642258
 10
-24.01011114795333
 20
12.83326884336897
 10
-23.62090798376115
 20
13.24278407566517
 10
-23.16289388593239
 20
13.59168405737544
 10
-22.61021844499369
 20
13.89150852952024
 10
-22.00882471615077
 20
14.11216838173372
 10
-21.3352531972176
 20
14.25575746596837
 10
-20.64281499602028
 20
14.30577320624957
 10
-19.92918839371938
 20
14.25774466177106
 10
-19.23516805002621
 20
14.11042543139221
 10
-18.58043640973101
 20
13.86414785858952
 10
-17.98579937296778
 20
13.52380429418973
 10
-17.48617749849426
 20
13.10747672994354
 10
-17.08075783577569
 20
12.61599580365863
 10
-16.88346459610378
 20
12.27496820642258
  0
LWPOLYLINE
  5
151
330
E7
100
AcDbEntity
  8
AM_4
100
AcDbPolyline
 90
        4
 70
     0
 43
0.0
 10
-16.88346459610378
 20
12.27496820642258
 10
-16.70229065577066
 20
11.71344939190718
 10
-16.62650873299923
 20
11.10866807158354
 10
-16.62500002141581
 20
11.00958085224533
  0
LINE
  5
152
330
E7
100
AcDbEntity
  8
AM_4
100
AcDbLine
 10
-29.158
 20
-26.05
 30
0.0
 11
-12.7
 21
-26.05
 31
0.0
  0
LINE
  5
153
330
E7
100
AcDbEntity
  8
AM_4
100
AcDbLine
 10
-12.7
 20
26.05
 30
0.0
 11
-16.63254266746648
 21
26.05
 31
0.0
  0
LINE
  5
154
330
E7
100
AcDbEntity
  8
AM_4
100
AcDbLine
 10
-24.61745733253353
 20
26.05
 30
0.0
 11
-29.158
 21
26.05
 31
0.0
  0
LINE
  5
155
330
E7
100
AcDbEntity
  8
AM_4
100
AcDbLine
 10
-29.158
 20
26.05
 30
0.0
 11
-29.158
 21
-26.05
 31
0.0
  0
LINE
  5
156
330
E7
100
AcDbEntity
  8
AM_4
100
AcDbLine
 10
-16.62500000001177
 20
26.04999999999819
 30
0.0
 11
-16.88346459610377
 21
26.01156641147566
 31
0.0
  0
ELLIPSE
  5
157
330
E7
100
AcDbEntity
  8
AM_4
100
AcDbEllipse
 10
-20.625
 20
10.70706172790302
 30
0.0
 11
3.323500000000006
 21
0.0
 31
0.0
210
0.0
220
0.0
230
1.0
 40
0.9063077870366506
 41
0.0
 42
6.283185307179586
  0
ENDBLK
  5
EA
330
E7
100
AcDbEntity
  8
0
100
AcDbBlockEnd
  0
BLOCK
  5
15A
330
158
100
AcDbEntity
  8
0
100
AcDbBlockBegin
  2
4_136978H_0_in_136978_2
 70
     2
 10
0.0
 20
0.0
 30
0.0
  3
4_136978H_0_in_136978_2
  1

  0
ATTDEF
  5
15C
330
158
100
AcDbEntity
  8
AM_6
100
AcDbText
 10
48.23999977111816
 20
60.35
 30
0.0
 40
0.5
  1
NSTU-SCEZ-SHCR - Metric - housing
100
AcDbAttributeDefinition
  3

  2
NN
 70
     8
280
     0
  0
ATTDEF
  5
15D
330
158
100
AcDbEntity
  8
AM_6
100
AcDbText
 10
48.23999977111816
 20
59.85
 30
0.0
 40
0.5
  1
SC Take-Up Bearings -Wide Slot -(Normal Duty) -Polymer Housed -Corrosion Resistant Insert -E-Z KLEEN
100
AcDbAttributeDefinition
  3

  2
NT
 70
     8
280
     0
  0
ATTDEF
  5
15E
330
158
100
AcDbEntity
  8
AM_6
100
AcDbText
 10
48.23999977111816
 20
59.35
 30
0.0
 40
0.5
  1
136978H
100
AcDbAttributeDefinition
  3

  2
NB
 70
     8
280
     0
  0
ATTDEF
  5
15F
330
158
100
AcDbEntity
  8
AM_6
100
AcDbText
 10
48.23999977111816
 20
58.85
 30
0.0
 40
0.5
  1
$PN.H
100
AcDbAttributeDefinition
  3

  2
NBSYN
 70
     8
280
     0
  0
ATTDEF
  5
160
330
158
100
AcDbEntity
  8
AM_6
100
AcDbText
 10
48.23999977111816
 20
58.35
 30
0.0
 40
0.5
  1
136978
100
AcDbAttributeDefinition
  3

  2
LINA
 70
     8
280
     0
  0
ATTDEF
  5
161
330
158
100
AcDbEntity
  8
AM_6
100
AcDbText
 10
48.23999977111816
 20
57.85
 30
0.0
 40
0.5
  1
208
100
AcDbAttributeDefinition
  3

  2
SERIES
 70
     8
280
     0
  0
ATTDEF
  5
162
330
158
100
AcDbEntity
  8
AM_6
100
AcDbText
 10
48.23999977111816
 20
57.35
 30
0.0
 40
0.5
  1
40
100
AcDbAttributeDefinition
  3

  2
SS
 70
     8
280
     0
  0
ATTDEF
  5
163
330
158
100
AcDbEntity
  8
AM_6
100
AcDbText
 10
48.23999977111816
 20
56.85
 30
0.0
 40
0.5
  1
136978
100
AcDbAttributeDefinition
  3

  2
PN
 70
     8
280
     0
  0
ATTDEF
  5
164
330
158
100
AcDbEntity
  8
AM_6
100
AcDbText
 10
48.23999977111816
 20
56.35
 30
0.0
 40
0.5
  1
NSTU-SCEZ-40M-SHCR
100
AcDbAttributeDefinition
  3

  2
DESCRIPTION
 70
     8
280
     0
  0
ATTDEF
  5
165
330
158
100
AcDbEntity
  8
AM_6
100
AcDbText
 10
48.23999977111816
 20
55.85
 30
0.0
 40
0.5
  1
1.89
100
AcDbAttributeDefinition
  3

  2
W
 70
     8
280
     0
  0
ATTDEF
  5
166
330
158
100
AcDbEntity
  8
AM_6
100
AcDbText
 10
48.23999977111816
 20
55.35
 30
0.0
 40
0.5
  1
NS400
100
AcDbAttributeDefinition
  3

  2
FS
 70
     8
280
     0
  0
ATTDEF
  5
167
330
158
100
AcDbEntity
  8
AM_6
100
AcDbText
 10
48.23999977111816
 20
54.85
 30
0.0
 40
0.5
  1
49.3
100
AcDbAttributeDefinition
  3

  2
A
 70
     8
280
     0
  0
ATTDEF
  5
168
330
158
100
AcDbEntity
  8
AM_6
100
AcDbText
 10
48.23999977111816
 20
54.35
 30
0.0
 40
0.5
  1
136.7
100
AcDbAttributeDefinition
  3

  2
B
 70
     8
280
     0
  0
ATTDEF
  5
169
330
158
100
AcDbEntity
  8
AM_6
100
AcDbText
 10
48.23999977111816
 20
53.85
 30
0.0
 40
0.5
  1
8.33
100
AcDbAttributeDefinition
  3

  2
C
 70
     8
280
     0
  0
ATTDEF
  5
16A
330
158
100
AcDbEntity
  8
AM_6
100
AcDbText
 10
48.23999977111816
 20
53.35
 30
0.0
 40
0.5
  1
76.2
100
AcDbAttributeDefinition
  3

  2
D
 70
     8
280
     0
  0
ATTDEF
  5
16B
330
158
100
AcDbEntity
  8
AM_6
100
AcDbText
 10
48.23999977111816
 20
52.85
 30
0.0
 40
0.5
  1
82.6
100
AcDbAttributeDefinition
  3

  2
E
 70
     8
280
     0
  0
ATTDEF
  5
16C
330
158
100
AcDbEntity
  8
AM_6
100
AcDbText
 10
48.23999977111816
 20
52.35
 30
0.0
 40
0.5
  1
25.4
100
AcDbAttributeDefinition
  3

  2
F
 70
     8
280
     0
  0
ATTDEF
  5
16D
330
158
100
AcDbEntity
  8
AM_6
100
AcDbText
 10
48.23999977111816
 20
51.85
 30
0.0
 40
0.5
  1
16.8
100
AcDbAttributeDefinition
  3

  2
G
 70
     8
280
     0
  0
ATTDEF
  5
16E
330
158
100
AcDbEntity
  8
AM_6
100
AcDbText
 10
48.23999977111816
 20
51.35
 30
0.0
 40
0.5
  1
29.5
100
AcDbAttributeDefinition
  3

  2
H
 70
     8
280
     0
  0
ATTDEF
  5
16F
330
158
100
AcDbEntity
  8
AM_6
100
AcDbText
 10
48.23999977111816
 20
50.85
 30
0.0
 40
0.5
  1
38.1
100
AcDbAttributeDefinition
  3

  2
J
 70
     8
280
     0
  0
ATTDEF
  5
170
330
158
100
AcDbEntity
  8
AM_6
100
AcDbText
 10
48.23999977111816
 20
50.35
 30
0.0
 40
0.5
  1
52.1
100
AcDbAttributeDefinition
  3

  2
L
 70
     8
280
     0
  0
ATTDEF
  5
171
330
158
100
AcDbEntity
  8
AM_6
100
AcDbText
 10
48.23999977111816
 20
49.85
 30
0.0
 40
0.5
  1
101.98 / 101.22
100
AcDbAttributeDefinition
  3

  2
M
 70
     8
280
     0
  0
ATTDEF
  5
172
330
158
100
AcDbEntity
  8
AM_6
100
AcDbText
 10
48.23999977111816
 20
49.35
 30
0.0
 40
0.5
  1
120.7
100
AcDbAttributeDefinition
  3

  2
N
 70
     8
280
     0
  0
ATTDEF
  5
173
330
158
100
AcDbEntity
  8
AM_6
100
AcDbText
 10
48.23999977111816
 20
48.85
 30
0.0
 40
0.5
  1
9.7
100
AcDbAttributeDefinition
  3

  2
P
 70
     8
280
     0
  0
ATTDEF
  5
174
330
158
100
AcDbEntity
  8
AM_6
100
AcDbText
 10
48.23999977111816
 20
48.35
 30
0.0
 40
0.5
  1
19.1
100
AcDbAttributeDefinition
  3

  2
R
 70
     8
280
     0
  0
ATTDEF
  5
175
330
158
100
AcDbEntity
  8
AM_6
100
AcDbText
 10
48.23999977111816
 20
47.85
 30
0.0
 40
0.5
  1
30.2
100
AcDbAttributeDefinition
  3

  2
S
 70
     8
280
     0
  0
ATTDEF
  5
176
330
158
100
AcDbEntity
  8
AM_6
100
AcDbText
 10
48.23999977111816
 20
47.35
 30
0.0
 40
0.5
  1
4005
100
AcDbAttributeDefinition
  3

  2
CAPS
 70
     8
280
     0
  0
ATTDEF
  5
177
330
158
100
AcDbEntity
  8
AM_6
100
AcDbText
 10
48.23999977111816
 20
46.85
 30
0.0
 40
0.5
  1
7332
100
AcDbAttributeDefinition
  3

  2
CAPD
 70
     8
280
     0
  0
ATTDEF
  5
178
330
158
100
AcDbEntity
  8
AM_6
100
AcDbText
 10
48.23999977111816
 20
46.35
 30
0.0
 40
0.5
  1
baldor
100
AcDbAttributeDefinition
  3

  2
COMPANY
 70
     8
280
     0
  0
LINE
  5
179
330
158
100
AcDbEntity
  8
AM_9
100
AcDbLine
 10
-8.535
 20
16.865
 30
0.0
 11
-8.535
 21
-16.865
 31
0.0
  0
LINE
  5
17A
330
158
100
AcDbEntity
  8
AM_9
100
AcDbLine
 10
8.535
 20
16.865
 30
0.0
 11
8.535
 21
-16.865
 31
0.0
  0
LINE
  5
17B
330
158
100
AcDbEntity
  8
AM_9
100
AcDbLine
 10
-2.499000000000001
 20
37.71236171042299
 30
0.0
 11
-2.498999999999998
 21
42.0
 31
0.0
  0
LINE
  5
17C
330
158
100
AcDbEntity
  8
AM_9
100
AcDbLine
 10
-2.498999999999997
 20
39.82740546128731
 30
0.0
 11
12.7
 21
39.82740546128731
 31
0.0
  0
LINE
  5
17D
330
158
100
AcDbEntity
  8
AM_9
100
AcDbLine
 10
12.7
 20
42.0
 30
0.0
 11
-2.498999999999998
 21
42.0
 31
0.0
  0
LINE
  5
17E
330
158
100
AcDbEntity
  8
AM_9
100
AcDbLine
 10
-2.498999999999998
 20
-42.0
 30
0.0
 11
-2.499000000000001
 21
-37.71236171042299
 31
0.0
  0
LINE
  5
17F
330
158
100
AcDbEntity
  8
AM_9
100
AcDbLine
 10
-2.498999999999997
 20
-39.8274054612873
 30
0.0
 11
12.7
 21
-39.8274054612873
 31
0.0
  0
LINE
  5
180
330
158
100
AcDbEntity
  8
AM_9
100
AcDbLine
 10
-2.498999999999998
 20
-42.0
 30
0.0
 11
12.7
 21
-42.0
 31
0.0
  0
LINE
  5
181
330
158
100
AcDbEntity
  8
AM_9
100
AcDbLine
 10
12.7
 20
-12.7
 30
0.0
 11
12.7
 21
12.7
 31
0.0
  0
LINE
  5
182
330
158
100
AcDbEntity
  8
AM_9
100
AcDbLine
 10
-2.499000000000001
 20
37.71236171042299
 30
0.0
 11
12.7
 21
37.71236171042299
 31
0.0
  0
LINE
  5
183
330
158
100
AcDbEntity
  8
AM_9
100
AcDbLine
 10
12.7
 20
-37.71236171042299
 30
0.0
 11
-2.499000000000001
 21
-37.71236171042299
 31
0.0
  0
LINE
  5
184
330
158
100
AcDbEntity
  8
AM_9
100
AcDbLine
 10
-12.7
 20
-40.0
 30
0.0
 11
-2.499000000000001
 21
-40.0
 31
0.0
  0
LINE
  5
185
330
158
100
AcDbEntity
  8
AM_9
100
AcDbLine
 10
-2.499000000000001
 20
40.0
 30
0.0
 11
-12.7
 21
40.0
 31
0.0
  0
LINE
  5
186
330
158
100
AcDbEntity
  8
AM_9
100
AcDbLine
 10
-12.7
 20
12.70000000000001
 30
0.0
 11
-12.7
 21
-12.7
 31
0.0
  0
LINE
  5
187
330
158
100
AcDbEntity
  8
AM_9
100
AcDbLine
 10
-13.02564095399999
 20
-12.37435904600001
 30
0.0
 11
-13.02564095399999
 21
12.37435904600001
 31
0.0
  0
LINE
  5
188
330
158
100
AcDbEntity
  8
AM_9
100
AcDbLine
 10
13.025640954
 20
-12.374359046
 30
0.0
 11
13.025640954
 21
12.374359046
 31
0.0
  0
LINE
  5
189
330
158
100
AcDbEntity
  8
AM_9
100
AcDbLine
 10
-19.05
 20
-4.850000000000001
 30
0.0
 11
-11.74468912514965
 21
-4.850000000000001
 31
0.0
  0
LINE
  5
18A
330
158
100
AcDbEntity
  8
AM_9
100
AcDbLine
 10
-11.74388851744934
 20
4.850000000000001
 30
0.0
 11
-19.05
 21
4.850000000000001
 31
0.0
  0
LINE
  5
18B
330
158
100
AcDbEntity
  8
AM_9
100
AcDbLine
 10
11.74388851744934
 20
-4.850000000000001
 30
0.0
 11
19.05
 21
-4.850000000000001
 31
0.0
  0
LINE
  5
18C
330
158
100
AcDbEntity
  8
AM_9
100
AcDbLine
 10
19.05
 20
4.850000000000001
 30
0.0
 11
11.74468912514965
 21
4.850000000000001
 31
0.0
  0
LINE
  5
18D
330
158
100
AcDbEntity
  8
AM_7
100
AcDbLine
 10
0.0000000000000051
 20
-13.335
 30
0.0
 11
0.0000000000000051
 21
13.335
 31
0.0
  0
LINE
  5
18E
330
158
100
AcDbEntity
  8
AM_7
100
AcDbLine
 10
43.23999977111816
 20
0.0
 30
0.0
 11
-54.3400001525879
 21
0.0
 31
0.0
  0
LINE
  5
18F
330
158
100
AcDbEntity
  8
AM_4
100
AcDbLine
 10
12.7
 20
56.185
 30
0.0
 11
12.7
 21
12.7
 31
0.0
  0
LINE
  5
190
330
158
100
AcDbEntity
  8
AM_4
100
AcDbLine
 10
12.7
 20
56.185
 30
0.0
 11
8.535000000000002
 21
60.35
 31
0.0
  0
LINE
  5
191
330
158
100
AcDbEntity
  8
AM_4
100
AcDbLine
 10
12.7
 20
-12.7
 30
0.0
 11
12.7
 21
-56.18500000000001
 31
0.0
  0
LINE
  5
192
330
158
100
AcDbEntity
  8
AM_4
100
AcDbLine
 10
8.535000000000002
 20
-60.35
 30
0.0
 11
12.7
 21
-56.18500000000001
 31
0.0
  0
LINE
  5
193
330
158
100
AcDbEntity
  8
AM_4
100
AcDbLine
 10
-12.7
 20
56.185
 30
0.0
 11
-12.7
 21
12.70000000000001
 31
0.0
  0
LINE
  5
194
330
158
100
AcDbEntity
  8
AM_4
100
AcDbLine
 10
-8.534999999999998
 20
60.35
 30
0.0
 11
-12.7
 21
56.185
 31
0.0
  0
LINE
  5
195
330
158
100
AcDbEntity
  8
AM_4
100
AcDbLine
 10
4.165000000000003
 20
-50.99000000000001
 30
0.0
 11
4.165000000000003
 21
-60.35
 31
0.0
  0
LINE
  5
196
330
158
100
AcDbEntity
  8
AM_4
100
AcDbLine
 10
-4.164999999999997
 20
-50.99000000000001
 30
0.0
 11
4.165000000000003
 21
-50.99000000000001
 31
0.0
  0
LINE
  5
197
330
158
100
AcDbEntity
  8
AM_4
100
AcDbLine
 10
-8.534999999999998
 20
-60.35
 30
0.0
 11
-4.164999999999998
 21
-60.35
 31
0.0
  0
LINE
  5
198
330
158
100
AcDbEntity
  8
AM_4
100
AcDbLine
 10
4.165000000000003
 20
-60.35
 30
0.0
 11
8.535000000000002
 21
-60.35
 31
0.0
  0
LINE
  5
199
330
158
100
AcDbEntity
  8
AM_4
100
AcDbLine
 10
8.535000000000004
 20
-16.865
 30
0.0
 11
8.535000000000002
 21
-60.35
 31
0.0
  0
LINE
  5
19A
330
158
100
AcDbEntity
  8
AM_4
100
AcDbLine
 10
-4.164999999999998
 20
-60.35
 30
0.0
 11
-4.164999999999997
 21
-50.99000000000001
 31
0.0
  0
LINE
  5
19B
330
158
100
AcDbEntity
  8
AM_4
100
AcDbLine
 10
-8.534999999999998
 20
60.35
 30
0.0
 11
-4.164999999999997
 21
60.35
 31
0.0
  0
LINE
  5
19C
330
158
100
AcDbEntity
  8
AM_4
100
AcDbLine
 10
-4.164999999999997
 20
50.99
 30
0.0
 11
-4.164999999999997
 21
60.35
 31
0.0
  0
LINE
  5
19D
330
158
100
AcDbEntity
  8
AM_4
100
AcDbLine
 10
4.165000000000003
 20
50.99
 30
0.0
 11
-4.164999999999997
 21
50.99
 31
0.0
  0
LINE
  5
19E
330
158
100
AcDbEntity
  8
AM_4
100
AcDbLine
 10
-8.534999999999998
 20
60.35
 30
0.0
 11
-8.534999999999998
 21
16.865
 31
0.0
  0
LINE
  5
19F
330
158
100
AcDbEntity
  8
AM_4
100
AcDbLine
 10
8.535000000000002
 20
60.35
 30
0.0
 11
8.535000000000004
 21
16.865
 31
0.0
  0
LINE
  5
1A0
330
158
100
AcDbEntity
  8
AM_4
100
AcDbLine
 10
4.165000000000004
 20
60.35
 30
0.0
 11
8.535000000000002
 21
60.35
 31
0.0
  0
LINE
  5
1A1
330
158
100
AcDbEntity
  8
AM_4
100
AcDbLine
 10
4.165000000000004
 20
60.35
 30
0.0
 11
4.165000000000003
 21
50.99
 31
0.0
  0
LINE
  5
1A2
330
158
100
AcDbEntity
  8
AM_4
100
AcDbLine
 10
-12.7
 20
-12.7
 30
0.0
 11
-12.7
 21
-56.185
 31
0.0
  0
LINE
  5
1A3
330
158
100
AcDbEntity
  8
AM_4
100
AcDbLine
 10
-12.7
 20
-56.185
 30
0.0
 11
-8.534999999999998
 21
-60.35
 31
0.0
  0
LINE
  5
1A4
330
158
100
AcDbEntity
  8
AM_4
100
AcDbLine
 10
-8.534999999999998
 20
-16.865
 30
0.0
 11
-8.534999999999998
 21
-60.35
 31
0.0
  0
LINE
  5
1A5
330
158
100
AcDbEntity
  8
AM_4
100
AcDbLine
 10
-8.534999999999998
 20
-38.40833242930497
 30
0.0
 11
-12.7
 21
-36.63222624957428
 31
0.0
  0
LINE
  5
1A6
330
158
100
AcDbEntity
  8
AM_4
100
AcDbLine
 10
-12.7
 20
36.63222624957429
 30
0.0
 11
-8.534999999999998
 21
38.40833242930497
 31
0.0
  0
LINE
  5
1A7
330
158
100
AcDbEntity
  8
AM_4
100
AcDbLine
 10
-8.534999999999998
 20
38.40833242930497
 30
0.0
 11
8.535000000000002
 21
38.40833242930498
 31
0.0
  0
LINE
  5
1A8
330
158
100
AcDbEntity
  8
AM_4
100
AcDbLine
 10
12.7
 20
-36.6322262495743
 30
0.0
 11
8.535000000000002
 21
-38.40833242930498
 31
0.0
  0
LINE
  5
1A9
330
158
100
AcDbEntity
  8
AM_4
100
AcDbLine
 10
8.535000000000002
 20
38.40833242930498
 30
0.0
 11
12.7
 21
36.6322262495743
 31
0.0
  0
LINE
  5
1AA
330
158
100
AcDbEntity
  8
AM_4
100
AcDbLine
 10
8.535000000000002
 20
-38.40833242930498
 30
0.0
 11
-8.534999999999998
 21
-38.40833242930497
 31
0.0
  0
LINE
  5
1AB
330
158
100
AcDbEntity
  8
AM_4
100
AcDbLine
 10
-19.05
 20
6.35
 30
0.0
 11
-19.05
 21
-6.35
 31
0.0
  0
LINE
  5
1AC
330
158
100
AcDbEntity
  8
AM_4
100
AcDbLine
 10
19.05
 20
-6.35
 30
0.0
 11
19.05
 21
6.35
 31
0.0
  0
CIRCLE
  5
1AD
330
158
100
AcDbEntity
  8
AM_4
100
AcDbCircle
 10
0.0000000000000051
 20
0.0
 30
0.0
 40
12.7
  0
LINE
  5
1AE
330
158
100
AcDbEntity
  8
AM_4
100
AcDbLine
 10
-6.349999999999994
 20
19.05
 30
0.0
 11
-19.05
 21
6.35
 31
0.0
  0
LINE
  5
1AF
330
158
100
AcDbEntity
  8
AM_4
100
AcDbLine
 10
-19.05
 20
-6.35
 30
0.0
 11
-6.349999999999994
 21
-19.05
 31
0.0
  0
LINE
  5
1B0
330
158
100
AcDbEntity
  8
AM_4
100
AcDbLine
 10
-6.349999999999994
 20
-19.05
 30
0.0
 11
6.350000000000005
 21
-19.05
 31
0.0
  0
LINE
  5
1B1
330
158
100
AcDbEntity
  8
AM_4
100
AcDbLine
 10
6.350000000000005
 20
-19.05
 30
0.0
 11
19.05
 21
-6.35
 31
0.0
  0
LINE
  5
1B2
330
158
100
AcDbEntity
  8
AM_4
100
AcDbLine
 10
19.05
 20
6.35
 30
0.0
 11
6.350000000000001
 21
19.05
 31
0.0
  0
LINE
  5
1B3
330
158
100
AcDbEntity
  8
AM_4
100
AcDbLine
 10
6.350000000000001
 20
19.05
 30
0.0
 11
-6.349999999999994
 21
19.05
 31
0.0
  0
ENDBLK
  5
15B
330
158
100
AcDbEntity
  8
0
100
AcDbBlockEnd
  0
ENDSEC
  0
SECTION
  2
ENTITIES
  0
INSERT
  5
6F
330
1F
100
AcDbEntity
  8
0
100
AcDbBlockReference
  2
1_136978_2
 10
0.0
 20
0.0
 30
0.0
  0
POINT
  5
1B5
330
1F
100
AcDbEntity
  8
ConnectionPoints
100
AcDbPoint
 10
-30.2
 20
0.0
 30
0.0000000000000018
  0
POINT
  5
1B6
330
1F
100
AcDbEntity
  8
ConnectionPoints
100
AcDbPoint
 10
-0.0000000000000029
 20
-27.05
 30
-46.85197434473814
  0
POINT
  5
1B7
330
1F
100
AcDbEntity
  8
ConnectionPoints
100
AcDbPoint
 10
-30.2
 20
0.0
 30
0.0000000000000018
  0
ENDSEC
  0
SECTION
  2
OBJECTS
  0
DICTIONARY
  5
C
330
0
100
AcDbDictionary
281
     1
  3
ACAD_DETAILVIEWSTYLE
350
1BF
  3
ACAD_GROUP
350
D
  3
ACAD_LAYOUT
350
1A
  3
ACAD_MATERIAL
350
43
  3
ACAD_MLEADERSTYLE
350
6B
  3
ACAD_MLINESTYLE
350
17
  3
ACAD_PLOTSETTINGS
350
19
  3
ACAD_PLOTSTYLENAME
350
E
  3
ACAD_SCALELIST
350
47
  3
ACAD_SECTIONVIEWSTYLE
350
1C0
  3
ACAD_TABLESTYLE
350
69
  3
ACAD_VISUALSTYLE
350
2A
  3
ACDB_RECOMPOSE_DATA
350
1BC
  3
AcDbVariableDictionary
350
1B8
  0
SUN
  5
6D
330
29
100
AcDbSun
 90
        1
290
     0
 63
     7
421
 16777215
 40
1.0
291
     1
 91
  2455826
 92
 54000000
292
     0
 70
     2
 71
   256
280
     1
  0
DICTIONARY
  5
1BF
102
{ACAD_REACTORS
330
C
102
}
330
C
100
AcDbDictionary
281
     1
  0
DICTIONARY
  5
D
102
{ACAD_REACTORS
330
C
102
}
330
C
100
AcDbDictionary
281
     1
  0
DICTIONARY
  5
1A
102
{ACAD_REACTORS
330
C
102
}
330
C
100
AcDbDictionary
281
     1
  3
Layout1
350
1E
  3
Layout2
350
26
  3
Model
350
22
  0
DICTIONARY
  5
43
102
{ACAD_REACTORS
330
C
102
}
330
C
100
AcDbDictionary
281
     1
  3
ByBlock
350
45
  3
ByLayer
350
44
  3
Global
350
46
  0
DICTIONARY
  5
6B
102
{ACAD_REACTORS
330
C
102
}
330
C
100
AcDbDictionary
281
     1
  3
Standard
350
6C
  0
DICTIONARY
  5
17
102
{ACAD_REACTORS
330
C
102
}
330
C
100
AcDbDictionary
281
     1
  3
Standard
350
18
  0
DICTIONARY
  5
19
102
{ACAD_REACTORS
330
C
102
}
330
C
100
AcDbDictionary
281
     1
  0
ACDBDICTIONARYWDFLT
  5
E
102
{ACAD_REACTORS
330
C
102
}
330
C
100
AcDbDictionary
281
     1
  3
Normal
350
F
100
AcDbDictionaryWithDefault
340
F
  0
DICTIONARY
  5
47
102
{ACAD_REACTORS
330
C
102
}
330
C
100
AcDbDictionary
281
     1
  3
A0
350
48
  3
A1
350
49
  3
A2
350
4A
  3
A3
350
4B
  3
A4
350
4C
  3
A5
350
4D
  3
A6
350
4E
  3
A7
350
4F
  3
A8
350
50
  3
A9
350
51
  3
B0
350
52
  3
B1
350
53
  3
B2
350
54
  3
B3
350
55
  3
B4
350
56
  3
B5
350
57
  3
B6
350
58
  3
B7
350
59
  3
B8
350
5A
  3
B9
350
5B
  3
C0
350
5C
  3
C1
350
5D
  3
C2
350
5E
  3
C3
350
5F
  3
C4
350
60
  3
C5
350
61
  3
C6
350
62
  3
C7
350
63
  3
C8
350
64
  3
C9
350
65
  3
D0
350
66
  3
D1
350
67
  3
D2
350
68
  0
DICTIONARY
  5
1C0
102
{ACAD_REACTORS
330
C
102
}
330
C
100
AcDbDictionary
281
     1
  0
DICTIONARY
  5
69
102
{ACAD_REACTORS
330
C
102
}
330
C
100
AcDbDictionary
281
     1
  3
Standard
350
6A
  0
DICTIONARY
  5
2A
102
{ACAD_REACTORS
330
C
102
}
330
C
100
AcDbDictionary
281
     1
  3
2dWireframe
350
2F
  3
Basic
350
32
  3
Brighten
350
36
  3
ColorChange
350
3A
  3
Conceptual
350
34
  3
Dim
350
35
  3
EdgeColorOff
350
3D
  3
Facepattern
350
39
  3
Flat
350
2B
  3
FlatWithEdges
350
2C
  3
Gouraud
350
2D
  3
GouraudWithEdges
350
2E
  3
Hidden
350
31
  3
JitterOff
350
3B
  3
Linepattern
350
38
  3
OverhangOff
350
3C
  3
Realistic
350
33
  3
Shaded
350
42
  3
Shaded with edges
350
41
  3
Shades of Gray
350
3E
  3
Sketchy
350
3F
  3
Thicken
350
37
  3
Wireframe
350
30
  3
X-Ray
350
40
  0
XRECORD
  5
1BC
102
{ACAD_REACTORS
330
C
102
}
330
C
100
AcDbXrecord
280
     1
 90
        1
330
6A
  0
DICTIONARY
  5
1B8
102
{ACAD_REACTORS
330
C
102
}
330
C
100
AcDbDictionary
281
     1
  3
CANNOSCALE
350
1B9
  3
CMLEADERSTYLE
350
1BE
  3
CTABLESTYLE
350
1BD
  0
LAYOUT
  5
1E
102
{ACAD_REACTORS
330
1A
102
}
330
1A
100
AcDbPlotSettings
  1

  2
none_device
  4

  6

 40
0.0
 41
0.0
 42
0.0
 43
0.0
 44
0.0
 45
0.0
 46
0.0
 47
0.0
 48
0.0
 49
0.0
140
0.0
141
0.0
142
1.0
143
1.0
 70
   688
 72
     1
 73
     0
 74
     5
  7

 75
    16
 76
     0
 77
     2
 78
   300
147
1.0
148
0.0
149
0.0
100
AcDbLayout
  1
Layout1
 70
     1
 71
     1
 10
0.0
 20
0.0
 11
420.0
 21
297.0
 12
0.0
 22
0.0
 32
0.0
 14
1.000000000000000E+20
 24
1.000000000000000E+20
 34
1.000000000000000E+20
 15
-1.000000000000000E+20
 25
-1.000000000000000E+20
 35
-1.000000000000000E+20
146
0.0
 13
0.0
 23
0.0
 33
0.0
 16
1.0
 26
0.0
 36
0.0
 17
0.0
 27
1.0
 37
0.0
 76
     0
330
1B
  0
LAYOUT
  5
26
102
{ACAD_REACTORS
330
1A
102
}
330
1A
100
AcDbPlotSettings
  1

  2
none_device
  4

  6

 40
0.0
 41
0.0
 42
0.0
 43
0.0
 44
0.0
 45
0.0
 46
0.0
 47
0.0
 48
0.0
 49
0.0
140
0.0
141
0.0
142
1.0
143
1.0
 70
   688
 72
     1
 73
     0
 74
     5
  7

 75
    16
 76
     0
 77
     2
 78
   300
147
1.0
148
0.0
149
0.0
100
AcDbLayout
  1
Layout2
 70
     1
 71
     2
 10
0.0
 20
0.0
 11
0.0
 21
0.0
 12
0.0
 22
0.0
 32
0.0
 14
0.0
 24
0.0
 34
0.0
 15
0.0
 25
0.0
 35
0.0
146
0.0
 13
0.0
 23
0.0
 33
0.0
 16
1.0
 26
0.0
 36
0.0
 17
0.0
 27
1.0
 37
0.0
 76
     0
330
23
  0
LAYOUT
  5
22
102
{ACAD_REACTORS
330
1A
102
}
330
1A
100
AcDbPlotSettings
  1

  2
none_device
  4
Letter_(8.50_x_11.00_Inches)
  6

 40
6.35
 41
6.35
 42
6.35000508
 43
6.35000508
 44
215.9
 45
279.4
 46
0.0
 47
0.0
 48
0.0
 49
0.0
140
0.0
141
0.0
142
1.0
143
1.0
 70
  1712
 72
     1
 73
     0
 74
     0
  7

 75
     0
 76
     0
 77
     2
 78
   300
147
1.0
148
0.0
149
0.0
100
AcDbLayout
  1
Model
 70
     1
 71
     0
 10
0.0
 20
0.0
 11
420.0
 21
297.0
 12
0.0
 22
0.0
 32
0.0
 14
1.000000000000000E+20
 24
1.000000000000000E+20
 34
1.000000000000000E+20
 15
-1.000000000000000E+20
 25
-1.000000000000000E+20
 35
-1.000000000000000E+20
146
0.0
 13
0.0
 23
0.0
 33
0.0
 16
1.0
 26
0.0
 36
0.0
 17
0.0
 27
1.0
 37
0.0
 76
     0
330
1F
331
29
  0
MATERIAL
  5
45
102
{ACAD_REACTORS
330
43
102
}
330
43
100
AcDbMaterial
  1
ByBlock
 72
     1
 94
      127
  0
MATERIAL
  5
44
102
{ACAD_REACTORS
330
43
102
}
330
43
100
AcDbMaterial
  1
ByLayer
 72
     1
 94
      127
  0
MATERIAL
  5
46
102
{ACAD_REACTORS
330
43
102
}
330
43
100
AcDbMaterial
  1
Global
 72
     1
 94
      127
  0
MLEADERSTYLE
  5
6C
102
{ACAD_REACTORS
330
6B
102
}
330
6B
100
AcDbMLeaderStyle
179
     2
170
     2
171
     1
172
     0
 90
        2
 40
0.0
 41
0.0
173
     1
 91
-1056964608
340
14
 92
       -2
290
     1
 42
2.0
291
     1
 43
8.0
  3
Standard
341
0
 44
4.0
300

342
11
174
     1
178
     6
175
     1
176
     0
 93
-1056964608
 45
4.0
292
     0
297
     0
 46
4.0
343
0
 94
-1056964608
 47
1.0
 49
1.0
140
1.0
293
     1
141
0.0
294
     1
177
     0
142
1.0
295
     0
296
     0
143
3.75
271
     0
272
     9
273
     9
298
     0
  0
MLINESTYLE
  5
18
102
{ACAD_REACTORS
330
17
102
}
330
17
100
AcDbMlineStyle
  2
Standard
 70
     0
  3

 62
   256
 51
90.0
 52
90.0
 71
     2
 49
0.5
 62
   256
  6
BYLAYER
 49
-0.5
 62
   256
  6
BYLAYER
  0
ACDBPLACEHOLDER
  5
F
102
{ACAD_REACTORS
330
E
102
}
330
E
  0
SCALE
  5
48
102
{ACAD_REACTORS
330
47
102
}
330
47
100
AcDbScale
 70
     0
300
1:1
140
1.0
141
1.0
290
     1
  0
SCALE
  5
49
102
{ACAD_REACTORS
330
47
102
}
330
47
100
AcDbScale
 70
     0
300
1:2
140
1.0
141
2.0
290
     0
  0
SCALE
  5
4A
102
{ACAD_REACTORS
330
47
102
}
330
47
100
AcDbScale
 70
     0
300
1:4
140
1.0
141
4.0
290
     0
  0
SCALE
  5
4B
102
{ACAD_REACTORS
330
47
102
}
330
47
100
AcDbScale
 70
     0
300
1:5
140
1.0
141
5.0
290
     0
  0
SCALE
  5
4C
102
{ACAD_REACTORS
330
47
102
}
330
47
100
AcDbScale
 70
     0
300
1:8
140
1.0
141
8.0
290
     0
  0
SCALE
  5
4D
102
{ACAD_REACTORS
330
47
102
}
330
47
100
AcDbScale
 70
     0
300
1:10
140
1.0
141
10.0
290
     0
  0
SCALE
  5
4E
102
{ACAD_REACTORS
330
47
102
}
330
47
100
AcDbScale
 70
     0
300
1:16
140
1.0
141
16.0
290
     0
  0
SCALE
  5
4F
102
{ACAD_REACTORS
330
47
102
}
330
47
100
AcDbScale
 70
     0
300
1:20
140
1.0
141
20.0
290
     0
  0
SCALE
  5
50
102
{ACAD_REACTORS
330
47
102
}
330
47
100
AcDbScale
 70
     0
300
1:30
140
1.0
141
30.0
290
     0
  0
SCALE
  5
51
102
{ACAD_REACTORS
330
47
102
}
330
47
100
AcDbScale
 70
     0
300
1:40
140
1.0
141
40.0
290
     0
  0
SCALE
  5
52
102
{ACAD_REACTORS
330
47
102
}
330
47
100
AcDbScale
 70
     0
300
1:50
140
1.0
141
50.0
290
     0
  0
SCALE
  5
53
102
{ACAD_REACTORS
330
47
102
}
330
47
100
AcDbScale
 70
     0
300
1:100
140
1.0
141
100.0
290
     0
  0
SCALE
  5
54
102
{ACAD_REACTORS
330
47
102
}
330
47
100
AcDbScale
 70
     0
300
2:1
140
2.0
141
1.0
290
     0
  0
SCALE
  5
55
102
{ACAD_REACTORS
330
47
102
}
330
47
100
AcDbScale
 70
     0
300
4:1
140
4.0
141
1.0
290
     0
  0
SCALE
  5
56
102
{ACAD_REACTORS
330
47
102
}
330
47
100
AcDbScale
 70
     0
300
8:1
140
8.0
141
1.0
290
     0
  0
SCALE
  5
57
102
{ACAD_REACTORS
330
47
102
}
330
47
100
AcDbScale
 70
     0
300
10:1
140
10.0
141
1.0
290
     0
  0
SCALE
  5
58
102
{ACAD_REACTORS
330
47
102
}
330
47
100
AcDbScale
 70
     0
300
100:1
140
100.0
141
1.0
290
     0
  0
SCALE
  5
59
102
{ACAD_REACTORS
330
47
102
}
330
47
100
AcDbScale
 70
     0
300
1/128" = 1'-0"
140
0.0078125
141
12.0
290
     0
  0
SCALE
  5
5A
102
{ACAD_REACTORS
330
47
102
}
330
47
100
AcDbScale
 70
     0
300
1/64" = 1'-0"
140
0.015625
141
12.0
290
     0
  0
SCALE
  5
5B
102
{ACAD_REACTORS
330
47
102
}
330
47
100
AcDbScale
 70
     0
300
1/32" = 1'-0"
140
0.03125
141
12.0
290
     0
  0
SCALE
  5
5C
102
{ACAD_REACTORS
330
47
102
}
330
47
100
AcDbScale
 70
     0
300
1/16" = 1'-0"
140
0.0625
141
12.0
290
     0
  0
SCALE
  5
5D
102
{ACAD_REACTORS
330
47
102
}
330
47
100
AcDbScale
 70
     0
300
3/32" = 1'-0"
140
0.09375
141
12.0
290
     0
  0
SCALE
  5
5E
102
{ACAD_REACTORS
330
47
102
}
330
47
100
AcDbScale
 70
     0
300
1/8" = 1'-0"
140
0.125
141
12.0
290
     0
  0
SCALE
  5
5F
102
{ACAD_REACTORS
330
47
102
}
330
47
100
AcDbScale
 70
     0
300
3/16" = 1'-0"
140
0.1875
141
12.0
290
     0
  0
SCALE
  5
60
102
{ACAD_REACTORS
330
47
102
}
330
47
100
AcDbScale
 70
     0
300
1/4" = 1'-0"
140
0.25
141
12.0
290
     0
  0
SCALE
  5
61
102
{ACAD_REACTORS
330
47
102
}
330
47
100
AcDbScale
 70
     0
300
3/8" = 1'-0"
140
0.375
141
12.0
290
     0
  0
SCALE
  5
62
102
{ACAD_REACTORS
330
47
102
}
330
47
100
AcDbScale
 70
     0
300
1/2" = 1'-0"
140
0.5
141
12.0
290
     0
  0
SCALE
  5
63
102
{ACAD_REACTORS
330
47
102
}
330
47
100
AcDbScale
 70
     0
300
3/4" = 1'-0"
140
0.75
141
12.0
290
     0
  0
SCALE
  5
64
102
{ACAD_REACTORS
330
47
102
}
330
47
100
AcDbScale
 70
     0
300
1" = 1'-0"
140
1.0
141
12.0
290
     0
  0
SCALE
  5
65
102
{ACAD_REACTORS
330
47
102
}
330
47
100
AcDbScale
 70
     0
300
1-1/2" = 1'-0"
140
1.5
141
12.0
290
     0
  0
SCALE
  5
66
102
{ACAD_REACTORS
330
47
102
}
330
47
100
AcDbScale
 70
     0
300
3" = 1'-0"
140
3.0
141
12.0
290
     0
  0
SCALE
  5
67
102
{ACAD_REACTORS
330
47
102
}
330
47
100
AcDbScale
 70
     0
300
6" = 1'-0"
140
6.0
141
12.0
290
     0
  0
SCALE
  5
68
102
{ACAD_REACTORS
330
47
102
}
330
47
100
AcDbScale
 70
     0
300
1'-0" = 1'-0"
140
12.0
141
12.0
290
     0
  0
TABLESTYLE
  5
6A
102
{ACAD_REACTORS
330
69
102
}
102
{ACAD_XDICTIONARY
360
1BA
102
}
330
69
100
AcDbTableStyle
  3
Standard
 70
     0
 71
     0
 40
0.06
 41
0.06
280
     0
281
     0
  7
Standard
140
4.5
170
     2
 62
     0
 63
   257
283
     0
 90
        4
 91
        0
  1

274
    -2
284
     1
 64
     0
275
    -2
285
     1
 65
     0
276
    -2
286
     1
 66
     0
277
    -2
287
     1
 67
     0
278
    -2
288
     1
 68
     0
279
    -2
289
     1
 69
     0
  7
Standard
140
6.0
170
     5
 62
     0
 63
   257
283
     0
 90
        4
 91
        0
  1

274
    -2
284
     1
 64
     0
275
    -2
285
     1
 65
     0
276
    -2
286
     1
 66
     0
277
    -2
287
     1
 67
     0
278
    -2
288
     1
 68
     0
279
    -2
289
     1
 69
     0
  7
Standard
140
4.5
170
     5
 62
     0
 63
   257
283
     0
 90
        4
 91
        0
  1

274
    -2
284
     1
 64
     0
275
    -2
285
     1
 65
     0
276
    -2
286
     1
 66
     0
277
    -2
287
     1
 67
     0
278
    -2
288
     1
 68
     0
279
    -2
289
     1
 69
     0
  0
VISUALSTYLE
  5
2F
102
{ACAD_REACTORS
330
2A
102
}
330
2A
100
AcDbVisualStyle
  2
2dWireframe
 70
     4
177
     3
291
     0
 70
    58
 90
        0
176
     1
 90
        2
176
     1
 90
        0
176
     1
 90
        0
176
     1
 40
0.6
176
     1
 40
30.0
176
     1
 62
     7
420
 16777215
176
     1
 90
        1
176
     1
 90
        4
176
     1
 62
     7
176
     1
 62
   257
176
     1
 90
        1
176
     1
 90
        1
176
     1
 40
1.0
176
     1
 90
        0
176
     1
 62
   257
176
     1
 40
1.0
176
     1
 90
        1
176
     1
 90
        6
176
     1
 90
        2
176
     1
 62
     7
176
     1
 90
        5
176
     1
 90
        0
176
     1
 90
        0
176
     1
290
     0
176
     1
 90
        1
176
     1
 40
0.0
176
     1
 90
        0
176
     1
290
     1
176
     1
290
     1
176
     1
290
     0
176
     1
290
     0
176
     1
290
     0
176
     1
290
     0
176
     1
290
     0
176
     1
290
     0
176
     1
290
     0
176
     1
 90
       50
176
     1
 40
0.0
176
     1
 40
1.0
176
     1
 90
        0
176
     1
 62
    18
420
        0
176
     1
 90
       50
176
     1
 90
        3
176
     1
 62
     5
420
      255
176
     1
290
     0
176
     1
 90
       50
176
     1
 90
       50
176
     1
 90
       50
176
     1
290
     0
176
     1
 90
       50
176
     1
 62
   256
176
     0
 40
1.0
176
     0
 90
        2
176
     1
  1
strokes_ogs.tif
176
     1
290
     0
176
     1
 40
1.0
176
     1
 40
1.0
176
     1
  0
VISUALSTYLE
  5
32
102
{ACAD_REACTORS
330
2A
102
}
330
2A
100
AcDbVisualStyle
  2
Basic
 70
     7
177
     3
291
     1
 70
    58
 90
        1
176
     1
 90
        0
176
     1
 90
        1
176
     1
 90
        0
176
     1
 40
0.6
176
     1
 40
30.0
176
     1
 62
     7
420
 16777215
176
     1
 90
        0
176
     1
 90
        4
176
     1
 62
     7
176
     1
 62
   257
176
     1
 90
        1
176
     1
 90
        1
176
     1
 40
1.0
176
     1
 90
        8
176
     1
 62
     7
176
     1
 40
1.0
176
     1
 90
        1
176
     1
 90
        6
176
     1
 90
        2
176
     1
 62
     7
176
     1
 90
        5
176
     1
 90
        0
176
     1
 90
        0
176
     1
290
     0
176
     1
 90
        1
176
     1
 40
0.0
176
     1
 90
        0
176
     1
290
     0
176
     1
290
     1
176
     1
290
     1
176
     1
290
     0
176
     1
290
     0
176
     1
290
     0
176
     1
290
     0
176
     1
290
     0
176
     1
290
     0
176
     1
 90
       50
176
     1
 40
0.0
176
     1
 40
1.0
176
     1
 90
        0
176
     1
 62
    18
420
        0
176
     1
 90
       50
176
     1
 90
        3
176
     1
 62
     5
420
      255
176
     1
290
     0
176
     1
 90
       50
176
     1
 90
       50
176
     1
 90
       50
176
     1
290
     0
176
     1
 90
       50
176
     1
 62
   256
176
     0
 40
1.0
176
     0
 90
        2
176
     1
  1
strokes_ogs.tif
176
     1
290
     0
176
     1
 40
1.0
176
     1
 40
1.0
176
     1
  0
VISUALSTYLE
  5
36
102
{ACAD_REACTORS
330
2A
102
}
330
2A
100
AcDbVisualStyle
  2
Brighten
 70
    12
177
     3
291
     1
 70
    58
 90
        2
176
     1
 90
        2
176
     1
 90
        0
176
     1
 90
        0
176
     1
 40
0.6
176
     1
 40
30.0
176
     1
 62
     7
420
 16777215
176
     1
 90
        1
176
     1
 90
        4
176
     1
 62
     7
176
     1
 62
   257
176
     1
 90
        1
176
     1
 90
        1
176
     1
 40
1.0
176
     1
 90
        8
176
     1
 62
     7
176
     1
 40
1.0
176
     1
 90
        1
176
     1
 90
        6
176
     1
 90
        2
176
     1
 62
     7
176
     1
 90
        5
176
     1
 90
        0
176
     1
 90
        0
176
     1
290
     0
176
     1
 90
        1
176
     1
 40
50.0
176
     1
 90
        0
176
     1
290
     0
176
     1
290
     1
176
     1
290
     1
176
     1
290
     0
176
     1
290
     0
176
     1
290
     0
176
     1
290
     0
176
     1
290
     0
176
     1
290
     0
176
     1
 90
       50
176
     1
 40
0.0
176
     1
 40
1.0
176
     1
 90
        0
176
     1
 62
    18
420
        0
176
     1
 90
       50
176
     1
 90
        3
176
     1
 62
     5
420
      255
176
     1
290
     0
176
     1
 90
       50
176
     1
 90
       50
176
     1
 90
       50
176
     1
290
     0
176
     1
 90
       50
176
     1
 62
   256
176
     0
 40
1.0
176
     0
 90
        2
176
     1
  1
strokes_ogs.tif
176
     1
290
     0
176
     1
 40
1.0
176
     1
 40
1.0
176
     1
  0
VISUALSTYLE
  5
3A
102
{ACAD_REACTORS
330
2A
102
}
330
2A
100
AcDbVisualStyle
  2
ColorChange
 70
    16
177
     3
291
     1
 70
    58
 90
        2
176
     1
 90
        2
176
     1
 90
        3
176
     1
 90
        0
176
     1
 40
0.6
176
     1
 40
30.0
176
     1
 62
     8
420
  8421504
176
     1
 90
        1
176
     1
 90
        4
176
     1
 62
     7
176
     1
 62
   257
176
     1
 90
        1
176
     1
 90
        1
176
     1
 40
1.0
176
     1
 90
        8
176
     1
 62
     8
420
  8421504
176
     1
 40
1.0
176
     1
 90
        1
176
     1
 90
        6
176
     1
 90
        2
176
     1
 62
     7
176
     1
 90
        5
176
     1
 90
        0
176
     1
 90
        0
176
     1
290
     0
176
     1
 90
        1
176
     1
 40
0.0
176
     1
 90
        0
176
     1
290
     0
176
     1
290
     1
176
     1
290
     1
176
     1
290
     0
176
     1
290
     0
176
     1
290
     0
176
     1
290
     0
176
     1
290
     0
176
     1
290
     0
176
     1
 90
       50
176
     1
 40
0.0
176
     1
 40
1.0
176
     1
 90
        0
176
     1
 62
    18
420
        0
176
     1
 90
       50
176
     1
 90
        3
176
     1
 62
     5
420
      255
176
     1
290
     0
176
     1
 90
       50
176
     1
 90
       50
176
     1
 90
       50
176
     1
290
     0
176
     1
 90
       50
176
     1
 62
   256
176
     0
 40
1.0
176
     0
 90
        2
176
     1
  1
strokes_ogs.tif
176
     1
290
     0
176
     1
 40
1.0
176
     1
 40
1.0
176
     1
  0
VISUALSTYLE
  5
34
102
{ACAD_REACTORS
330
2A
102
}
330
2A
100
AcDbVisualStyle
  2
Conceptual
 70
     9
177
     3
291
     0
 70
    58
 90
        3
176
     1
 90
        2
176
     1
 90
        0
176
     1
 90
        0
176
     1
 40
0.6
176
     1
 40
30.0
176
     1
 62
     7
420
 16777215
176
     1
 90
        2
176
     1
 90
        2
176
     1
 62
     7
176
     1
 62
   257
176
     1
 90
        1
176
     1
 90
        1
176
     1
 40
179.0
176
     1
 90
        8
176
     1
 62
     7
176
     1
 40
1.0
176
     1
 90
        1
176
     1
 90
        6
176
     1
 90
        2
176
     1
 62
     7
176
     1
 90
        3
176
     1
 90
        0
176
     1
 90
        0
176
     1
290
     0
176
     1
 90
        1
176
     1
 40
0.0
176
     1
 90
        0
176
     1
290
     0
176
     1
290
     1
176
     1
290
     1
176
     1
290
     0
176
     1
290
     0
176
     1
290
     0
176
     1
290
     0
176
     1
290
     0
176
     1
290
     0
176
     1
 90
       50
176
     1
 40
0.0
176
     1
 40
1.0
176
     1
 90
        0
176
     1
 62
    18
420
        0
176
     1
 90
       50
176
     1
 90
        3
176
     1
 62
     5
420
      255
176
     1
290
     0
176
     1
 90
       50
176
     1
 90
       50
176
     1
 90
       50
176
     1
290
     0
176
     1
 90
       50
176
     1
 62
   256
176
     0
 40
1.0
176
     0
 90
        2
176
     1
  1
strokes_ogs.tif
176
     1
290
     0
176
     1
 40
1.0
176
     1
 40
1.0
176
     1
  0
VISUALSTYLE
  5
35
102
{ACAD_REACTORS
330
2A
102
}
330
2A
100
AcDbVisualStyle
  2
Dim
 70
    11
177
     3
291
     1
 70
    58
 90
        2
176
     1
 90
        2
176
     1
 90
        0
176
     1
 90
        0
176
     1
 40
0.6
176
     1
 40
30.0
176
     1
 62
     7
420
 16777215
176
     1
 90
        1
176
     1
 90
        4
176
     1
 62
     7
176
     1
 62
   257
176
     1
 90
        1
176
     1
 90
        1
176
     1
 40
1.0
176
     1
 90
        8
176
     1
 62
     7
176
     1
 40
1.0
176
     1
 90
        1
176
     1
 90
        6
176
     1
 90
        2
176
     1
 62
     7
176
     1
 90
        5
176
     1
 90
        0
176
     1
 90
        0
176
     1
290
     0
176
     1
 90
        1
176
     1
 40
-50.0
176
     1
 90
        0
176
     1
290
     0
176
     1
290
     1
176
     1
290
     1
176
     1
290
     0
176
     1
290
     0
176
     1
290
     0
176
     1
290
     0
176
     1
290
     0
176
     1
290
     0
176
     1
 90
       50
176
     1
 40
0.0
176
     1
 40
1.0
176
     1
 90
        0
176
     1
 62
    18
420
        0
176
     1
 90
       50
176
     1
 90
        3
176
     1
 62
     5
420
      255
176
     1
290
     0
176
     1
 90
       50
176
     1
 90
       50
176
     1
 90
       50
176
     1
290
     0
176
     1
 90
       50
176
     1
 62
   256
176
     0
 40
1.0
176
     0
 90
        2
176
     1
  1
strokes_ogs.tif
176
     1
290
     0
176
     1
 40
1.0
176
     1
 40
1.0
176
     1
  0
VISUALSTYLE
  5
3D
102
{ACAD_REACTORS
330
2A
102
}
330
2A
100
AcDbVisualStyle
  2
EdgeColorOff
 70
    22
177
     3
291
     1
 70
    58
 90
        2
176
     0
 90
        2
176
     0
 90
        0
176
     0
 90
        0
176
     0
 40
0.6
176
     0
 40
30.0
176
     0
 62
     7
420
 16777215
176
     0
 90
        1
176
     0
 90
        4
176
     0
 62
     7
176
     0
 62
   257
176
     0
 90
        1
176
     0
 90
        1
176
     0
 40
1.0
176
     0
 90
        8
176
     2
 62
     7
176
     0
 40
1.0
176
     0
 90
        1
176
     0
 90
        6
176
     0
 90
        2
176
     0
 62
     7
176
     0
 90
        5
176
     0
 90
        0
176
     0
 90
        0
176
     0
290
     0
176
     0
 90
        1
176
     0
 40
0.0
176
     0
 90
        0
176
     0
290
     0
176
     0
290
     1
176
     0
290
     1
176
     0
290
     0
176
     0
290
     0
176
     0
290
     0
176
     0
290
     0
176
     0
290
     0
176
     0
290
     0
176
     0
 90
       50
176
     0
 40
0.0
176
     0
 40
1.0
176
     0
 90
        0
176
     0
 62
    18
420
        0
176
     0
 90
       50
176
     0
 90
        3
176
     0
 62
     5
420
      255
176
     0
290
     0
176
     0
 90
       50
176
     0
 90
       50
176
     0
 90
       50
176
     0
290
     0
176
     0
 90
       50
176
     0
 62
   256
176
     0
 40
1.0
176
     0
 90
        2
176
     0
  1
strokes_ogs.tif
176
     0
290
     0
176
     0
 40
1.0
176
     0
 40
1.0
176
     0
  0
VISUALSTYLE
  5
39
102
{ACAD_REACTORS
330
2A
102
}
330
2A
100
AcDbVisualStyle
  2
Facepattern
 70
    15
177
     3
291
     1
 70
    58
 90
        2
176
     1
 90
        2
176
     1
 90
        0
176
     1
 90
        0
176
     1
 40
0.6
176
     1
 40
30.0
176
     1
 62
     7
420
 16777215
176
     1
 90
        1
176
     1
 90
        4
176
     1
 62
     7
176
     1
 62
   257
176
     1
 90
        1
176
     1
 90
        1
176
     1
 40
1.0
176
     1
 90
        8
176
     1
 62
     7
176
     1
 40
1.0
176
     1
 90
        1
176
     1
 90
        6
176
     1
 90
        2
176
     1
 62
     7
176
     1
 90
        5
176
     1
 90
        0
176
     1
 90
        0
176
     1
290
     0
176
     1
 90
        1
176
     1
 40
0.0
176
     1
 90
        0
176
     1
290
     0
176
     1
290
     1
176
     1
290
     1
176
     1
290
     0
176
     1
290
     0
176
     1
290
     0
176
     1
290
     0
176
     1
290
     0
176
     1
290
     0
176
     1
 90
       50
176
     1
 40
0.0
176
     1
 40
1.0
176
     1
 90
        0
176
     1
 62
    18
420
        0
176
     1
 90
       50
176
     1
 90
        3
176
     1
 62
     5
420
      255
176
     1
290
     0
176
     1
 90
       50
176
     1
 90
       50
176
     1
 90
       50
176
     1
290
     0
176
     1
 90
       50
176
     1
 62
   256
176
     0
 40
1.0
176
     0
 90
        2
176
     1
  1
strokes_ogs.tif
176
     1
290
     0
176
     1
 40
1.0
176
     1
 40
1.0
176
     1
  0
VISUALSTYLE
  5
2B
102
{ACAD_REACTORS
330
2A
102
}
330
2A
100
AcDbVisualStyle
  2
Flat
 70
     0
177
     3
291
     1
 70
    58
 90
        2
176
     1
 90
        1
176
     1
 90
        1
176
     1
 90
        2
176
     1
 40
0.6
176
     1
 40
30.0
176
     1
 62
     7
420
 16777215
176
     1
 90
        0
176
     1
 90
        0
176
     1
 62
     7
176
     1
 62
   257
176
     1
 90
        1
176
     1
 90
        1
176
     1
 40
1.0
176
     1
 90
        8
176
     1
 62
     7
176
     1
 40
1.0
176
     1
 90
        1
176
     1
 90
        6
176
     1
 90
        2
176
     1
 62
     7
176
     1
 90
        5
176
     1
 90
        0
176
     1
 90
        0
176
     1
290
     0
176
     1
 90
       13
176
     1
 40
0.0
176
     1
 90
        0
176
     1
290
     0
176
     1
290
     1
176
     1
290
     1
176
     1
290
     0
176
     1
290
     0
176
     1
290
     0
176
     1
290
     0
176
     1
290
     0
176
     1
290
     0
176
     1
 90
       50
176
     1
 40
0.0
176
     1
 40
1.0
176
     1
 90
        0
176
     1
 62
    18
420
        0
176
     1
 90
       50
176
     1
 90
        3
176
     1
 62
     5
420
      255
176
     1
290
     0
176
     1
 90
       50
176
     1
 90
       50
176
     1
 90
       50
176
     1
290
     0
176
     1
 90
       50
176
     1
 62
   256
176
     0
 40
1.0
176
     0
 90
        2
176
     1
  1
strokes_ogs.tif
176
     1
290
     0
176
     1
 40
1.0
176
     1
 40
1.0
176
     1
  0
VISUALSTYLE
  5
2C
102
{ACAD_REACTORS
330
2A
102
}
330
2A
100
AcDbVisualStyle
  2
FlatWithEdges
 70
     1
177
     3
291
     1
 70
    58
 90
        2
176
     1
 90
        1
176
     1
 90
        1
176
     1
 90
        2
176
     1
 40
0.6
176
     1
 40
30.0
176
     1
 62
     7
420
 16777215
176
     1
 90
        1
176
     1
 90
        0
176
     1
 62
     7
176
     1
 62
   257
176
     1
 90
        1
176
     1
 90
        1
176
     1
 40
1.0
176
     1
 90
        0
176
     1
 62
   257
176
     1
 40
1.0
176
     1
 90
        1
176
     1
 90
        6
176
     1
 90
        2
176
     1
 62
     7
176
     1
 90
        5
176
     1
 90
        0
176
     1
 90
        0
176
     1
290
     0
176
     1
 90
       13
176
     1
 40
0.0
176
     1
 90
        0
176
     1
290
     0
176
     1
290
     1
176
     1
290
     1
176
     1
290
     0
176
     1
290
     0
176
     1
290
     0
176
     1
290
     0
176
     1
290
     0
176
     1
290
     0
176
     1
 90
       50
176
     1
 40
0.0
176
     1
 40
1.0
176
     1
 90
        0
176
     1
 62
    18
420
        0
176
     1
 90
       50
176
     1
 90
        3
176
     1
 62
     5
420
      255
176
     1
290
     0
176
     1
 90
       50
176
     1
 90
       50
176
     1
 90
       50
176
     1
290
     0
176
     1
 90
       50
176
     1
 62
   256
176
     0
 40
1.0
176
     0
 90
        2
176
     1
  1
strokes_ogs.tif
176
     1
290
     0
176
     1
 40
1.0
176
     1
 40
1.0
176
     1
  0
VISUALSTYLE
  5
2D
102
{ACAD_REACTORS
330
2A
102
}
330
2A
100
AcDbVisualStyle
  2
Gouraud
 70
     2
177
     3
291
     1
 70
    58
 90
        2
176
     1
 90
        2
176
     1
 90
        1
176
     1
 90
        2
176
     1
 40
0.6
176
     1
 40
30.0
176
     1
 62
     7
420
 16777215
176
     1
 90
        0
176
     1
 90
        0
176
     1
 62
     7
176
     1
 62
   257
176
     1
 90
        1
176
     1
 90
        1
176
     1
 40
1.0
176
     1
 90
        0
176
     1
 62
     7
176
     1
 40
1.0
176
     1
 90
        1
176
     1
 90
        6
176
     1
 90
        2
176
     1
 62
     7
176
     1
 90
        5
176
     1
 90
        0
176
     1
 90
        0
176
     1
290
     0
176
     1
 90
       13
176
     1
 40
0.0
176
     1
 90
        0
176
     1
290
     0
176
     1
290
     1
176
     1
290
     1
176
     1
290
     0
176
     1
290
     0
176
     1
290
     0
176
     1
290
     0
176
     1
290
     0
176
     1
290
     0
176
     1
 90
       50
176
     1
 40
0.0
176
     1
 40
1.0
176
     1
 90
        0
176
     1
 62
    18
420
        0
176
     1
 90
       50
176
     1
 90
        3
176
     1
 62
     5
420
      255
176
     1
290
     0
176
     1
 90
       50
176
     1
 90
       50
176
     1
 90
       50
176
     1
290
     0
176
     1
 90
       50
176
     1
 62
   256
176
     0
 40
1.0
176
     0
 90
        2
176
     1
  1
strokes_ogs.tif
176
     1
290
     0
176
     1
 40
1.0
176
     1
 40
1.0
176
     1
  0
VISUALSTYLE
  5
2E
102
{ACAD_REACTORS
330
2A
102
}
330
2A
100
AcDbVisualStyle
  2
GouraudWithEdges
 70
     3
177
     3
291
     1
 70
    58
 90
        2
176
     1
 90
        2
176
     1
 90
        1
176
     1
 90
        2
176
     1
 40
0.6
176
     1
 40
30.0
176
     1
 62
     7
420
 16777215
176
     1
 90
        1
176
     1
 90
        0
176
     1
 62
     7
176
     1
 62
   257
176
     1
 90
        1
176
     1
 90
        1
176
     1
 40
1.0
176
     1
 90
        0
176
     1
 62
   257
176
     1
 40
1.0
176
     1
 90
        1
176
     1
 90
        6
176
     1
 90
        2
176
     1
 62
     7
176
     1
 90
        5
176
     1
 90
        0
176
     1
 90
        0
176
     1
290
     0
176
     1
 90
       13
176
     1
 40
0.0
176
     1
 90
        0
176
     1
290
     0
176
     1
290
     1
176
     1
290
     1
176
     1
290
     0
176
     1
290
     0
176
     1
290
     0
176
     1
290
     0
176
     1
290
     0
176
     1
290
     0
176
     1
 90
       50
176
     1
 40
0.0
176
     1
 40
1.0
176
     1
 90
        0
176
     1
 62
    18
420
        0
176
     1
 90
       50
176
     1
 90
        3
176
     1
 62
     5
420
      255
176
     1
290
     0
176
     1
 90
       50
176
     1
 90
       50
176
     1
 90
       50
176
     1
290
     0
176
     1
 90
       50
176
     1
 62
   256
176
     0
 40
1.0
176
     0
 90
        2
176
     1
  1
strokes_ogs.tif
176
     1
290
     0
176
     1
 40
1.0
176
     1
 40
1.0
176
     1
  0
VISUALSTYLE
  5
31
102
{ACAD_REACTORS
330
2A
102
}
330
2A
100
AcDbVisualStyle
  2
Hidden
 70
     6
177
     3
291
     0
 70
    58
 90
        1
176
     1
 90
        2
176
     1
 90
        2
176
     1
 90
        0
176
     1
 40
0.6
176
     1
 40
30.0
176
     1
 62
     7
420
 16777215
176
     1
 90
        2
176
     1
 90
        2
176
     1
 62
     7
176
     1
 62
   257
176
     1
 90
        2
176
     1
 90
        1
176
     1
 40
40.0
176
     1
 90
        0
176
     1
 62
   257
176
     1
 40
1.0
176
     1
 90
        1
176
     1
 90
        6
176
     1
 90
        2
176
     1
 62
     7
176
     1
 90
        3
176
     1
 90
        0
176
     1
 90
        0
176
     1
290
     0
176
     1
 90
        1
176
     1
 40
0.0
176
     1
 90
        0
176
     1
290
     0
176
     1
290
     1
176
     1
290
     1
176
     1
290
     0
176
     1
290
     0
176
     1
290
     0
176
     1
290
     0
176
     1
290
     0
176
     1
290
     0
176
     1
 90
       50
176
     1
 40
0.0
176
     1
 40
1.0
176
     1
 90
        0
176
     1
 62
    18
420
        0
176
     1
 90
       50
176
     1
 90
        3
176
     1
 62
     5
420
      255
176
     1
290
     0
176
     1
 90
       50
176
     1
 90
       50
176
     1
 90
       50
176
     1
290
     0
176
     1
 90
       50
176
     1
 62
   256
176
     0
 40
1.0
176
     0
 90
        2
176
     1
  1
strokes_ogs.tif
176
     1
290
     0
176
     1
 40
1.0
176
     1
 40
1.0
176
     1
  0
VISUALSTYLE
  5
3B
102
{ACAD_REACTORS
330
2A
102
}
330
2A
100
AcDbVisualStyle
  2
JitterOff
 70
    20
177
     3
291
     1
 70
    58
 90
        2
176
     0
 90
        2
176
     0
 90
        0
176
     0
 90
        0
176
     0
 40
0.6
176
     0
 40
30.0
176
     0
 62
     7
420
 16777215
176
     0
 90
        1
176
     0
 90
        4
176
     0
 62
     7
176
     0
 62
   257
176
     0
 90
        1
176
     0
 90
        1
176
     0
 40
1.0
176
     0
 90
       10
176
     2
 62
     7
176
     0
 40
1.0
176
     0
 90
        1
176
     0
 90
        6
176
     0
 90
        2
176
     0
 62
     7
176
     0
 90
        5
176
     0
 90
        0
176
     0
 90
        0
176
     0
290
     0
176
     0
 90
        1
176
     0
 40
0.0
176
     0
 90
        0
176
     0
290
     0
176
     0
290
     1
176
     0
290
     1
176
     0
290
     0
176
     0
290
     0
176
     0
290
     0
176
     0
290
     0
176
     0
290
     0
176
     0
290
     0
176
     0
 90
       50
176
     0
 40
0.0
176
     0
 40
1.0
176
     0
 90
        0
176
     0
 62
    18
420
        0
176
     0
 90
       50
176
     0
 90
        3
176
     0
 62
     5
420
      255
176
     0
290
     0
176
     0
 90
       50
176
     0
 90
       50
176
     0
 90
       50
176
     0
290
     0
176
     0
 90
       50
176
     0
 62
   256
176
     0
 40
1.0
176
     0
 90
        2
176
     0
  1
strokes_ogs.tif
176
     0
290
     0
176
     0
 40
1.0
176
     0
 40
1.0
176
     0
  0
VISUALSTYLE
  5
38
102
{ACAD_REACTORS
330
2A
102
}
330
2A
100
AcDbVisualStyle
  2
Linepattern
 70
    14
177
     3
291
     1
 70
    58
 90
        2
176
     1
 90
        2
176
     1
 90
        0
176
     1
 90
        0
176
     1
 40
0.6
176
     1
 40
30.0
176
     1
 62
     7
420
 16777215
176
     1
 90
        1
176
     1
 90
        4
176
     1
 62
     7
176
     1
 62
   257
176
     1
 90
        7
176
     1
 90
        7
176
     1
 40
1.0
176
     1
 90
        8
176
     1
 62
     7
176
     1
 40
1.0
176
     1
 90
        1
176
     1
 90
        6
176
     1
 90
        2
176
     1
 62
     7
176
     1
 90
        5
176
     1
 90
        0
176
     1
 90
        0
176
     1
290
     0
176
     1
 90
        1
176
     1
 40
0.0
176
     1
 90
        0
176
     1
290
     0
176
     1
290
     1
176
     1
290
     1
176
     1
290
     0
176
     1
290
     0
176
     1
290
     0
176
     1
290
     0
176
     1
290
     0
176
     1
290
     0
176
     1
 90
       50
176
     1
 40
0.0
176
     1
 40
1.0
176
     1
 90
        0
176
     1
 62
    18
420
        0
176
     1
 90
       50
176
     1
 90
        3
176
     1
 62
     5
420
      255
176
     1
290
     0
176
     1
 90
       50
176
     1
 90
       50
176
     1
 90
       50
176
     1
290
     0
176
     1
 90
       50
176
     1
 62
   256
176
     0
 40
1.0
176
     0
 90
        2
176
     1
  1
strokes_ogs.tif
176
     1
290
     0
176
     1
 40
1.0
176
     1
 40
1.0
176
     1
  0
VISUALSTYLE
  5
3C
102
{ACAD_REACTORS
330
2A
102
}
330
2A
100
AcDbVisualStyle
  2
OverhangOff
 70
    21
177
     3
291
     1
 70
    58
 90
        2
176
     0
 90
        2
176
     0
 90
        0
176
     0
 90
        0
176
     0
 40
0.6
176
     0
 40
30.0
176
     0
 62
     7
420
 16777215
176
     0
 90
        1
176
     0
 90
        4
176
     0
 62
     7
176
     0
 62
   257
176
     0
 90
        1
176
     0
 90
        1
176
     0
 40
1.0
176
     0
 90
        9
176
     2
 62
     7
176
     0
 40
1.0
176
     0
 90
        1
176
     0
 90
        6
176
     0
 90
        2
176
     0
 62
     7
176
     0
 90
        5
176
     0
 90
        0
176
     0
 90
        0
176
     0
290
     0
176
     0
 90
        1
176
     0
 40
0.0
176
     0
 90
        0
176
     0
290
     0
176
     0
290
     1
176
     0
290
     1
176
     0
290
     0
176
     0
290
     0
176
     0
290
     0
176
     0
290
     0
176
     0
290
     0
176
     0
290
     0
176
     0
 90
       50
176
     0
 40
0.0
176
     0
 40
1.0
176
     0
 90
        0
176
     0
 62
    18
420
        0
176
     0
 90
       50
176
     0
 90
        3
176
     0
 62
     5
420
      255
176
     0
290
     0
176
     0
 90
       50
176
     0
 90
       50
176
     0
 90
       50
176
     0
290
     0
176
     0
 90
       50
176
     0
 62
   256
176
     0
 40
1.0
176
     0
 90
        2
176
     0
  1
strokes_ogs.tif
176
     0
290
     0
176
     0
 40
1.0
176
     0
 40
1.0
176
     0
  0
VISUALSTYLE
  5
33
102
{ACAD_REACTORS
330
2A
102
}
330
2A
100
AcDbVisualStyle
  2
Realistic
 70
     8
177
     3
291
     0
 70
    58
 90
        2
176
     1
 90
        3
176
     1
 90
        0
176
     1
 90
        2
176
     1
 40
0.6
176
     1
 40
30.0
176
     1
 62
     7
420
 16777215
176
     1
 90
        0
176
     1
 90
        0
176
     1
 62
     7
176
     1
 62
   257
176
     1
 90
        1
176
     1
 90
        1
176
     1
 40
1.0
176
     1
 90
        8
176
     1
 62
   257
176
     1
 40
1.0
176
     1
 90
        1
176
     1
 90
        6
176
     1
 90
        2
176
     1
 62
     7
176
     1
 90
        3
176
     1
 90
        0
176
     1
 90
        0
176
     1
290
     0
176
     1
 90
       13
176
     1
 40
0.0
176
     1
 90
        0
176
     1
290
     0
176
     1
290
     1
176
     1
290
     1
176
     1
290
     0
176
     1
290
     0
176
     1
290
     0
176
     1
290
     0
176
     1
290
     0
176
     1
290
     0
176
     1
 90
       50
176
     1
 40
0.0
176
     1
 40
1.0
176
     1
 90
        0
176
     1
 62
    18
420
        0
176
     1
 90
       50
176
     1
 90
        3
176
     1
 62
     5
420
      255
176
     1
290
     0
176
     1
 90
       50
176
     1
 90
       50
176
     1
 90
       50
176
     1
290
     0
176
     1
 90
       50
176
     1
 62
   256
176
     0
 40
1.0
176
     0
 90
        2
176
     1
  1
strokes_ogs.tif
176
     1
290
     0
176
     1
 40
1.0
176
     1
 40
1.0
176
     1
  0
VISUALSTYLE
  5
42
102
{ACAD_REACTORS
330
2A
102
}
330
2A
100
AcDbVisualStyle
  2
Shaded
 70
    27
177
     3
291
     0
 70
    58
 90
        2
176
     1
 90
        2
176
     1
 90
        1
176
     1
 90
        2
176
     1
 40
0.6
176
     1
 40
30.0
176
     1
 62
     7
420
 16777215
176
     1
 90
        0
176
     1
 90
        4
176
     1
 62
     7
176
     1
 62
   257
176
     1
 90
        1
176
     1
 90
        1
176
     1
 40
1.0
176
     1
 90
        8
176
     1
 62
   257
176
     1
 40
1.0
176
     1
 90
        1
176
     1
 90
        6
176
     1
 90
        2
176
     1
 62
     8
420
  7895160
176
     1
 90
        3
176
     1
 90
        0
176
     1
 90
        0
176
     1
290
     0
176
     1
 90
        5
176
     1
 40
0.0
176
     1
 90
        0
176
     1
290
     0
176
     1
290
     1
176
     1
290
     1
176
     1
290
     0
176
     1
290
     0
176
     1
290
     0
176
     1
290
     0
176
     1
290
     0
176
     1
290
     0
176
     1
 90
       50
176
     1
 40
0.0
176
     1
 40
1.0
176
     1
 90
        0
176
     1
 62
    18
420
        0
176
     1
 90
       50
176
     1
 90
        3
176
     1
 62
     5
420
      255
176
     1
290
     0
176
     1
 90
       50
176
     1
 90
       50
176
     1
 90
       50
176
     1
290
     0
176
     1
 90
       50
176
     1
 62
   256
176
     0
 40
1.0
176
     0
 90
        2
176
     1
  1
strokes_ogs.tif
176
     1
290
     0
176
     1
 40
1.0
176
     1
 40
1.0
176
     1
  0
VISUALSTYLE
  5
41
102
{ACAD_REACTORS
330
2A
102
}
330
2A
100
AcDbVisualStyle
  2
Shaded with edges
 70
    26
177
     3
291
     0
 70
    58
 90
        2
176
     1
 90
        2
176
     1
 90
        1
176
     1
 90
        2
176
     1
 40
0.6
176
     1
 40
30.0
176
     1
 62
     7
420
 16777215
176
     1
 90
        1
176
     1
 90
       10
176
     1
 62
     7
176
     1
 62
   257
176
     1
 90
        2
176
     1
 90
        1
176
     1
 40
1.0
176
     1
 90
        8
176
     1
 62
   257
176
     1
 40
1.0
176
     1
 90
        1
176
     1
 90
        6
176
     1
 90
        2
176
     1
 62
     7
176
     1
 90
        3
176
     1
 90
        0
176
     1
 90
        0
176
     1
290
     0
176
     1
 90
        5
176
     1
 40
0.0
176
     1
 90
        0
176
     1
290
     0
176
     1
290
     1
176
     1
290
     1
176
     1
290
     0
176
     1
290
     0
176
     1
290
     0
176
     1
290
     0
176
     1
290
     0
176
     1
290
     0
176
     1
 90
       50
176
     1
 40
0.0
176
     1
 40
1.0
176
     1
 90
        0
176
     1
 62
    18
420
        0
176
     1
 90
       50
176
     1
 90
        3
176
     1
 62
     5
420
      255
176
     1
290
     0
176
     1
 90
       50
176
     1
 90
       50
176
     1
 90
       50
176
     1
290
     0
176
     1
 90
       50
176
     1
 62
   256
176
     0
 40
1.0
176
     0
 90
        2
176
     1
  1
strokes_ogs.tif
176
     1
290
     0
176
     1
 40
1.0
176
     1
 40
1.0
176
     1
  0
VISUALSTYLE
  5
3E
102
{ACAD_REACTORS
330
2A
102
}
330
2A
100
AcDbVisualStyle
  2
Shades of Gray
 70
    23
177
     3
291
     0
 70
    58
 90
        2
176
     1
 90
        2
176
     1
 90
        3
176
     1
 90
        0
176
     1
 40
0.6
176
     1
 40
30.0
176
     1
 62
     7
420
 16777215
176
     1
 90
        2
176
     1
 90
        2
176
     1
 62
     7
176
     1
 62
     7
176
     1
 90
        1
176
     1
 90
        1
176
     1
 40
40.0
176
     1
 90
        8
176
     1
 62
     7
176
     1
 40
1.0
176
     1
 90
        1
176
     1
 90
        6
176
     1
 90
        2
176
     1
 62
     7
176
     1
 90
        3
176
     1
 90
        0
176
     1
 90
        0
176
     1
290
     0
176
     1
 90
        1
176
     1
 40
0.0
176
     1
 90
        0
176
     1
290
     0
176
     1
290
     1
176
     1
290
     1
176
     1
290
     0
176
     1
290
     0
176
     1
290
     0
176
     1
290
     0
176
     1
290
     0
176
     1
290
     0
176
     1
 90
       50
176
     1
 40
0.0
176
     1
 40
1.0
176
     1
 90
        0
176
     1
 62
    18
420
        0
176
     1
 90
       50
176
     1
 90
        3
176
     1
 62
     5
420
      255
176
     1
290
     0
176
     1
 90
       50
176
     1
 90
       50
176
     1
 90
       50
176
     1
290
     0
176
     1
 90
       50
176
     1
 62
   256
176
     0
 40
1.0
176
     0
 90
        2
176
     1
  1
strokes_ogs.tif
176
     1
290
     0
176
     1
 40
1.0
176
     1
 40
1.0
176
     1
  0
VISUALSTYLE
  5
3F
102
{ACAD_REACTORS
330
2A
102
}
330
2A
100
AcDbVisualStyle
  2
Sketchy
 70
    24
177
     3
291
     0
 70
    58
 90
        1
176
     1
 90
        2
176
     1
 90
        2
176
     1
 90
        0
176
     1
 40
0.6
176
     1
 40
30.0
176
     1
 62
     7
420
 16777215
176
     1
 90
        2
176
     1
 90
        2
176
     1
 62
     7
176
     1
 62
     7
176
     1
 90
        1
176
     1
 90
        1
176
     1
 40
40.0
176
     1
 90
       11
176
     1
 62
     7
176
     1
 40
1.0
176
     1
 90
        1
176
     1
 90
        6
176
     1
 90
        2
176
     1
 62
     7
176
     1
 90
        6
176
     1
 90
        0
176
     1
 90
        0
176
     1
290
     0
176
     1
 90
        1
176
     1
 40
0.0
176
     1
 90
        0
176
     1
290
     0
176
     1
290
     1
176
     1
290
     1
176
     1
290
     0
176
     1
290
     0
176
     1
290
     0
176
     1
290
     0
176
     1
290
     0
176
     1
290
     0
176
     1
 90
       50
176
     1
 40
0.0
176
     1
 40
1.0
176
     1
 90
        0
176
     1
 62
    18
420
        0
176
     1
 90
       50
176
     1
 90
        3
176
     1
 62
     5
420
      255
176
     1
290
     0
176
     1
 90
       50
176
     1
 90
       50
176
     1
 90
       50
176
     1
290
     0
176
     1
 90
       50
176
     1
 62
   256
176
     0
 40
1.0
176
     0
 90
        2
176
     1
  1
strokes_ogs.tif
176
     1
290
     0
176
     1
 40
1.0
176
     1
 40
1.0
176
     1
  0
VISUALSTYLE
  5
37
102
{ACAD_REACTORS
330
2A
102
}
330
2A
100
AcDbVisualStyle
  2
Thicken
 70
    13
177
     3
291
     1
 70
    58
 90
        2
176
     1
 90
        2
176
     1
 90
        0
176
     1
 90
        0
176
     1
 40
0.6
176
     1
 40
30.0
176
     1
 62
     7
420
 16777215
176
     1
 90
        1
176
     1
 90
        4
176
     1
 62
     7
176
     1
 62
   257
176
     1
 90
        1
176
     1
 90
        1
176
     1
 40
1.0
176
     1
 90
       12
176
     1
 62
     7
176
     1
 40
1.0
176
     1
 90
        1
176
     1
 90
        6
176
     1
 90
        2
176
     1
 62
     7
176
     1
 90
        5
176
     1
 90
        0
176
     1
 90
        0
176
     1
290
     0
176
     1
 90
        1
176
     1
 40
0.0
176
     1
 90
        0
176
     1
290
     0
176
     1
290
     1
176
     1
290
     1
176
     1
290
     0
176
     1
290
     0
176
     1
290
     0
176
     1
290
     0
176
     1
290
     0
176
     1
290
     0
176
     1
 90
       50
176
     1
 40
0.0
176
     1
 40
1.0
176
     1
 90
        0
176
     1
 62
    18
420
        0
176
     1
 90
       50
176
     1
 90
        3
176
     1
 62
     5
420
      255
176
     1
290
     0
176
     1
 90
       50
176
     1
 90
       50
176
     1
 90
       50
176
     1
290
     0
176
     1
 90
       50
176
     1
 62
   256
176
     0
 40
1.0
176
     0
 90
        2
176
     1
  1
strokes_ogs.tif
176
     1
290
     0
176
     1
 40
1.0
176
     1
 40
1.0
176
     1
  0
VISUALSTYLE
  5
30
102
{ACAD_REACTORS
330
2A
102
}
330
2A
100
AcDbVisualStyle
  2
Wireframe
 70
     5
177
     3
291
     0
 70
    58
 90
        0
176
     1
 90
        2
176
     1
 90
        0
176
     1
 90
        0
176
     1
 40
0.6
176
     1
 40
30.0
176
     1
 62
     7
420
 16777215
176
     1
 90
        1
176
     1
 90
        4
176
     1
 62
     7
176
     1
 62
   257
176
     1
 90
        1
176
     1
 90
        1
176
     1
 40
1.0
176
     1
 90
        0
176
     1
 62
   257
176
     1
 40
1.0
176
     1
 90
        1
176
     1
 90
        6
176
     1
 90
        2
176
     1
 62
     7
176
     1
 90
        3
176
     1
 90
        0
176
     1
 90
        0
176
     1
290
     0
176
     1
 90
        1
176
     1
 40
0.0
176
     1
 90
        0
176
     1
290
     0
176
     1
290
     1
176
     1
290
     1
176
     1
290
     0
176
     1
290
     0
176
     1
290
     0
176
     1
290
     0
176
     1
290
     0
176
     1
290
     0
176
     1
 90
       50
176
     1
 40
0.0
176
     1
 40
1.0
176
     1
 90
        0
176
     1
 62
    18
420
        0
176
     1
 90
       50
176
     1
 90
        3
176
     1
 62
     5
420
      255
176
     1
290
     0
176
     1
 90
       50
176
     1
 90
       50
176
     1
 90
       50
176
     1
290
     0
176
     1
 90
       50
176
     1
 62
   256
176
     0
 40
1.0
176
     0
 90
        2
176
     1
  1
strokes_ogs.tif
176
     1
290
     0
176
     1
 40
1.0
176
     1
 40
1.0
176
     1
  0
VISUALSTYLE
  5
40
102
{ACAD_REACTORS
330
2A
102
}
330
2A
100
AcDbVisualStyle
  2
X-Ray
 70
    25
177
     3
291
     0
 70
    58
 90
        2
176
     1
 90
        2
176
     1
 90
        1
176
     1
 90
        1
176
     1
 40
0.5
176
     1
 40
30.0
176
     1
 62
     7
420
 16777215
176
     1
 90
        1
176
     1
 90
        0
176
     1
 62
     7
176
     1
 62
   257
176
     1
 90
        1
176
     1
 90
        1
176
     1
 40
1.0
176
     1
 90
        8
176
     1
 62
     7
176
     1
 40
1.0
176
     1
 90
        1
176
     1
 90
        6
176
     1
 90
        2
176
     1
 62
     7
176
     1
 90
        3
176
     1
 90
        0
176
     1
 90
        0
176
     1
290
     0
176
     1
 90
       13
176
     1
 40
0.0
176
     1
 90
        0
176
     1
290
     0
176
     1
290
     1
176
     1
290
     1
176
     1
290
     0
176
     1
290
     0
176
     1
290
     0
176
     1
290
     0
176
     1
290
     0
176
     1
290
     0
176
     1
 90
       50
176
     1
 40
0.0
176
     1
 40
1.0
176
     1
 90
        0
176
     1
 62
    18
420
        0
176
     1
 90
       50
176
     1
 90
        3
176
     1
 62
     5
420
      255
176
     1
290
     0
176
     1
 90
       50
176
     1
 90
       50
176
     1
 90
       50
176
     1
290
     0
176
     1
 90
       50
176
     1
 62
   256
176
     0
 40
1.0
176
     0
 90
        2
176
     1
  1
strokes_ogs.tif
176
     1
290
     0
176
     1
 40
1.0
176
     1
 40
1.0
176
     1
  0
DICTIONARYVAR
  5
1B9
102
{ACAD_REACTORS
330
1B8
102
}
330
1B8
100
DictionaryVariables
280
     0
  1
1:1
  0
DICTIONARYVAR
  5
1BE
102
{ACAD_REACTORS
330
1B8
102
}
330
1B8
100
DictionaryVariables
280
     0
  1
Standard
  0
DICTIONARYVAR
  5
1BD
102
{ACAD_REACTORS
330
1B8
102
}
330
1B8
100
DictionaryVariables
280
     0
  1
Standard
  0
DICTIONARY
  5
1BA
330
6A
100
AcDbDictionary
280
     1
281
     1
  3
ACAD_ROUNDTRIP_2008_TABLESTYLE_CELLSTYLEMAP
360
1BB
  0
CELLSTYLEMAP
  5
1BB
102
{ACAD_REACTORS
330
1BA
102
}
330
1BA
100
AcDbCellStyleMap
 90
        3
300
CELLSTYLE
  1
TABLEFORMAT_BEGIN
 90
        5
170
     1
 91
        0
 92
    32768
 62
   257
 93
        1
300
CONTENTFORMAT
  1
CONTENTFORMAT_BEGIN
 90
        0
 91
        0
 92
        4
 93
        0
300

 40
0.0
140
1.0
 94
        5
 62
     0
340
11
144
6.0
309
CONTENTFORMAT_END
171
     1
301
MARGIN
  1
CELLMARGIN_BEGIN
 40
1.5
 40
1.5
 40
1.5
 40
1.5
 40
1.5
 40
1.5
309
CELLMARGIN_END
 94
        6
 95
        1
302
GRIDFORMAT
  1
GRIDFORMAT_BEGIN
 90
        0
 91
        1
 62
     0
 92
       -2
340
14
 93
        0
 40
0.045
309
GRIDFORMAT_END
 95
        2
302
GRIDFORMAT
  1
GRIDFORMAT_BEGIN
 90
        0
 91
        1
 62
     0
 92
       -2
340
14
 93
        0
 40
0.045
309
GRIDFORMAT_END
 95
        4
302
GRIDFORMAT
  1
GRIDFORMAT_BEGIN
 90
        0
 91
        1
 62
     0
 92
       -2
340
14
 93
        0
 40
0.045
309
GRIDFORMAT_END
 95
        8
302
GRIDFORMAT
  1
GRIDFORMAT_BEGIN
 90
        0
 91
        1
 62
     0
 92
       -2
340
14
 93
        0
 40
0.045
309
GRIDFORMAT_END
 95
       16
302
GRIDFORMAT
  1
GRIDFORMAT_BEGIN
 90
        0
 91
        1
 62
     0
 92
       -2
340
14
 93
        0
 40
0.045
309
GRIDFORMAT_END
 95
       32
302
GRIDFORMAT
  1
GRIDFORMAT_BEGIN
 90
        0
 91
        1
 62
     0
 92
       -2
340
14
 93
        0
 40
0.045
309
GRIDFORMAT_END
309
TABLEFORMAT_END
  1
CELLSTYLE_BEGIN
 90
        1
 91
        1
300
_TITLE
309
CELLSTYLE_END
300
CELLSTYLE
  1
TABLEFORMAT_BEGIN
 90
        5
170
     1
 91
        0
 92
        0
 62
   257
 93
        1
300
CONTENTFORMAT
  1
CONTENTFORMAT_BEGIN
 90
        0
 91
        0
 92
        4
 93
        0
300

 40
0.0
140
1.0
 94
        5
 62
     0
340
11
144
4.5
309
CONTENTFORMAT_END
171
     1
301
MARGIN
  1
CELLMARGIN_BEGIN
 40
1.5
 40
1.5
 40
1.5
 40
1.5
 40
1.5
 40
1.5
309
CELLMARGIN_END
 94
        6
 95
        1
302
GRIDFORMAT
  1
GRIDFORMAT_BEGIN
 90
        0
 91
        1
 62
     0
 92
       -2
340
14
 93
        0
 40
0.045
309
GRIDFORMAT_END
 95
        2
302
GRIDFORMAT
  1
GRIDFORMAT_BEGIN
 90
        0
 91
        1
 62
     0
 92
       -2
340
14
 93
        0
 40
0.045
309
GRIDFORMAT_END
 95
        4
302
GRIDFORMAT
  1
GRIDFORMAT_BEGIN
 90
        0
 91
        1
 62
     0
 92
       -2
340
14
 93
        0
 40
0.045
309
GRIDFORMAT_END
 95
        8
302
GRIDFORMAT
  1
GRIDFORMAT_BEGIN
 90
        0
 91
        1
 62
     0
 92
       -2
340
14
 93
        0
 40
0.045
309
GRIDFORMAT_END
 95
       16
302
GRIDFORMAT
  1
GRIDFORMAT_BEGIN
 90
        0
 91
        1
 62
     0
 92
       -2
340
14
 93
        0
 40
0.045
309
GRIDFORMAT_END
 95
       32
302
GRIDFORMAT
  1
GRIDFORMAT_BEGIN
 90
        0
 91
        1
 62
     0
 92
       -2
340
14
 93
        0
 40
0.045
309
GRIDFORMAT_END
309
TABLEFORMAT_END
  1
CELLSTYLE_BEGIN
 90
        2
 91
        1
300
_HEADER
309
CELLSTYLE_END
300
CELLSTYLE
  1
TABLEFORMAT_BEGIN
 90
        5
170
     1
 91
        0
 92
        0
 62
   257
 93
        1
300
CONTENTFORMAT
  1
CONTENTFORMAT_BEGIN
 90
        0
 91
        0
 92
        4
 93
        0
300

 40
0.0
140
1.0
 94
        2
 62
     0
340
11
144
4.5
309
CONTENTFORMAT_END
171
     1
301
MARGIN
  1
CELLMARGIN_BEGIN
 40
1.5
 40
1.5
 40
1.5
 40
1.5
 40
1.5
 40
1.5
309
CELLMARGIN_END
 94
        6
 95
        1
302
GRIDFORMAT
  1
GRIDFORMAT_BEGIN
 90
        0
 91
        1
 62
     0
 92
       -2
340
14
 93
        0
 40
0.045
309
GRIDFORMAT_END
 95
        2
302
GRIDFORMAT
  1
GRIDFORMAT_BEGIN
 90
        0
 91
        1
 62
     0
 92
       -2
340
14
 93
        0
 40
0.045
309
GRIDFORMAT_END
 95
        4
302
GRIDFORMAT
  1
GRIDFORMAT_BEGIN
 90
        0
 91
        1
 62
     0
 92
       -2
340
14
 93
        0
 40
0.045
309
GRIDFORMAT_END
 95
        8
302
GRIDFORMAT
  1
GRIDFORMAT_BEGIN
 90
        0
 91
        1
 62
     0
 92
       -2
340
14
 93
        0
 40
0.045
309
GRIDFORMAT_END
 95
       16
302
GRIDFORMAT
  1
GRIDFORMAT_BEGIN
 90
        0
 91
        1
 62
     0
 92
       -2
340
14
 93
        0
 40
0.045
309
GRIDFORMAT_END
 95
       32
302
GRIDFORMAT
  1
GRIDFORMAT_BEGIN
 90
        0
 91
        1
 62
     0
 92
       -2
340
14
 93
        0
 40
0.045
309
GRIDFORMAT_END
309
TABLEFORMAT_END
  1
CELLSTYLE_BEGIN
 90
        3
 91
        2
300
_DATA
309
CELLSTYLE_END
  0
ENDSEC
  0
EOF